  0
SECTION
  2
HEADER
  9
$ACADVER
  1
AC1012
  9
$DWGCODEPAGE
  3
ANSI_1252
  9
$INSBASE
 10
0.0
 20
0.0
 30
0.0
  9
$EXTMIN
 10
-593.83246958
 20
-28.68199128
  9
$EXTMAX
 10
-261.06925276
 20
213.2159929
  9
$LIMMIN
 10
-593.83246958
 20
-28.68199128
  9
$LIMMAX
 10
-261.06925276
 20
213.2159929
  9
$ORTHOMODE
 70
     0
  9
$REGENMODE
 70
     1
  9
$FILLMODE
 70
     1
  9
$QTEXTMODE
 70
     0
  9
$MIRRTEXT
 70
     1
  9
$DRAGMODE
 70
     2
  9
$LTSCALE
 40
1.0
  9
$OSMODE
 70
     0
  9
$ATTMODE
 70
     1
  9
$TEXTSIZE
 40
3.5
  9
$TRACEWID
 40
1.0
  9
$TEXTSTYLE
  7
STANDARD
  9
$CLAYER
  8
0
  9
$CELTYPE
  6
BYLAYER
  9
$CECOLOR
 62
   256
  9
$DIMSCALE
 40
1.0
  9
$DIMASZ
 40
2.0
  9
$DIMEXO
 40
5.0
  9
$DIMDLI
 40
10.0
  9
$DIMRND
 40
0.0
  9
$DIMDLE
 40
2.0
  9
$DIMEXE
 40
2.0
  9
$DIMTP
 40
0.0
  9
$DIMTM
 40
0.0
  9
$DIMTXT
 40
2.5
  9
$DIMCEN
 40
1.5
  9
$DIMTSZ
 40
0.0
  9
$DIMTOL
 70
     0
  9
$DIMLIM
 70
     0
  9
$DIMTIH
 70
     1
  9
$DIMTOH
 70
     0
  9
$DIMSE1
 70
     0
  9
$DIMSE2
 70
     0
  9
$DIMTAD
 70
     1
  9
$DIMZIN
 70
     8
  9
$DIMBLK
  1

  9
$DIMASO
 70
     1
  9
$DIMSHO
 70
     1
  9
$DIMPOST
  1

  9
$DIMAPOST
  1

  9
$DIMALT
 70
     0
  9
$DIMALTD
 70
     2
  9
$DIMALTF
 40
25.4
  9
$DIMLFAC
 40
1.0
  9
$DIMTOFL
 70
     0
  9
$DIMTVP
 40
0.0
  9
$DIMTIX
 70
     0
  9
$DIMSOXD
 70
     0
  9
$DIMSAH
 70
     0
  9
$DIMBLK1
  1

  9
$DIMBLK2
  1

  9
$DIMSTYLE
  2
*UNNAMED
  9
$DIMCLRD
 70
     9
  9
$DIMCLRE
 70
     9
  9
$DIMCLRT
 70
     7
  9
$DIMTFAC
 40
1.0
  9
$DIMGAP
 40
0.09
  9
$DIMUNIT
 70
     2
  9
$LUNITS
 70
     2
  9
$LUPREC
 70
     6
  9
$AXISMODE
 70
     0
  9
$AXISUNIT
 10
0.0
 20
0.0
  9
$SKETCHINC
 40
0.1
  9
$FILLETRAD
 40
0.0
  9
$AUNITS
 70
     0
  9
$AUPREC
 70
     0
  9
$MENU
  1
ACAD
  9
$ELEVATION
 40
0.0
  9
$PELEVATION
 40
0.0
  9
$THICKNESS
 40
0.0
  9
$LIMCHECK
 70
     0
  9
$BLIPMODE
 70
     1
  9
$CHAMFERA
 40
0.0
  9
$CHAMFERB
 40
0.0
  9
$SKPOLY
 70
     1
  9
$TDCREATE
 40
2456119.0000000000
  9
$TDUPDATE
 40
2456119.0000000000
  9
$TDINDWG
 40
0.0
  9
$TDUSRTIMER
 40
0.0
  9
$USRTIMER
 70
     1
  9
$ANGBASE
 50
0.0
  9
$ANGDIR
 70
     0
  9
$PDMODE
 70
     0
  9
$PDSIZE
 40
0.0
  9
$PLINEWID
 40
0.0
  9
$COORDS
 70
     2
  9
$SPLFRAME
 70
     0
  9
$SPLINETYPE
 70
     6
  9
$SPLINESEGS
 70
     8
  9
$ATTDIA
 70
     1
  9
$ATTREQ
 70
     1
  9
$HANDLING
 70
     1
  9
$HANDSEED
  5
      AC
  9
$SURFTAB1
 70
     6
  9
$SURFTAB2
 70
     6
  9
$SURFTYPE
 70
     6
  9
$SURFU
 70
     6
  9
$SURFV
 70
     6
  9
$UCSNAME
  2

  9
$UCSORG
 10
0.0
 20
0.0
 30
0.0
  9
$UCSXDIR
 10
1.0
 20
0.0
 30
0.0
  9
$UCSYDIR
 10
0.0
 20
1.0
 30
0.0
  9
$PUCSNAME
  2

  9
$PUCSORG
 10
0.0
 20
0.0
 30
0.0
  9
$PUCSXDIR
 10
1.0
 20
0.0
 30
0.0
  9
$PUCSYDIR
 10
0.0
 20
1.0
 30
0.0
  9
$USERI1
 70
     0
  9
$USERI2
 70
     0
  9
$USERI3
 70
     0
  9
$USERI4
 70
     0
  9
$USERI5
 70
     0
  9
$USERR1
 40
0.0
  9
$USERR2
 40
0.0
  9
$USERR3
 40
0.0
  9
$USERR4
 40
0.0
  9
$USERR5
 40
0.0
  9
$WORLDVIEW
 70
     1
  9
$SHADEDGE
 70
     3
  9
$SHADEDIF
 70
    70
  9
$TILEMODE
 70
     1
  9
$MAXACTVP
 70
    16
  9
$PINSBASE
 10
0.0
 20
0.0
 30
0.0
  9
$PLIMCHECK
 70
     0
  9
$PEXTMIN
 10
1.0000000000000E+20
 20
1.0000000000000E+20
 30
1.0000000000000E+20
  9
$PEXTMAX
 10
-1.0000000000000E+20
 20
-1.0000000000000E+20
 30
-1.0000000000000E+20
  9
$PLIMMIN
 10
0.0
 20
0.0
  9
$UNITMODE
 70
     0
  9
$VISRETAIN
 70
     0
  9
$MEASUREMENT
 70
     1
  0
ENDSEC
  0
SECTION
  2
TABLES
  0
TABLE
  2
VPORT
  5
15
100
AcDbSymbolTable
 70
     1
  0
ENDTAB
  0
TABLE
  2
STYLE
  5
16
100
AcDbSymbolTable
 70
     4
  0
STYLE
  5
17
100
AcDbSymbolTableRecord
100
AcDbTextStyleTableRecord
  2
STANDARD
 70
     0
 40
0.0
 41
1.0
 50
0.0
 71
     0
 42
3.5
  3
MONOTXT
  4

  0
STYLE
  5
18
100
AcDbSymbolTableRecord
100
AcDbTextStyleTableRecord
  2
CADWORK1
 70
     0
 40
0.0
 41
1.0
 50
0.0
 71
     0
 42
3.5
  3
MONOTXT
  4

  0
STYLE
  5
19
100
AcDbSymbolTableRecord
100
AcDbTextStyleTableRecord
  2
MONOTXT
 70
     0
 40
0.0
 41
1.0
 50
0.0
 71
     0
 42
3.5
  3
MONOTXT
  4

  0
STYLE
  5
1A
100
AcDbSymbolTableRecord
100
AcDbTextStyleTableRecord
  2
TAHOMA
 70
     0
 40
0.0
 41
1.0
 50
0.0
 71
     0
 42
3.5
  3

  4

1001
ACAD
1000
Tahoma
1071
        0
  0
STYLE
  5
1B
100
AcDbSymbolTableRecord
100
AcDbTextStyleTableRecord
  2
ARIAL
 70
     0
 40
0.0
 41
1.0
 50
0.0
 71
     0
 42
3.5
  3

  4

1001
ACAD
1000
Arial
1071
        0
  0
ENDTAB
  0
TABLE
  2
LTYPE
  5
1C
100
AcDbSymbolTable
 70
    12
  0
LTYPE
  5
1D
100
AcDbSymbolTableRecord
100
AcDbLinetypeTableRecord
  2
BYBLOCK
 70
    64
  3

 72
    65
 73
     0
 40
0.0
  0
LTYPE
  5
1E
100
AcDbSymbolTableRecord
100
AcDbLinetypeTableRecord
  2
BYLAYER
 70
    64
  3

 72
    65
 73
     0
 40
0.0
  0
LTYPE
  5
1F
100
AcDbSymbolTableRecord
100
AcDbLinetypeTableRecord
  2
CONTINUOUS
 70
    64
  3
Solid line
 72
    65
 73
     0
 40
0.0
  0
LTYPE
  5
20
100
AcDbSymbolTableRecord
100
AcDbLinetypeTableRecord
  2
DOT
 70
    64
  3
. . . . . . . . . . . . . . . . . . . . . . . .
 72
    65
 73
     2
 40
2.5
 49
0.0
 74
     0
 49
-2.5
 74
     0
  0
LTYPE
  5
21
100
AcDbSymbolTableRecord
100
AcDbLinetypeTableRecord
  2
DASHED
 70
    64
  3
__ __ __ __ __ __ __ __ __ __ __ __ __ __ __ __
 72
    65
 73
     2
 40
7.5
 49
5.0
 74
     0
 49
-2.5
 74
     0
  0
LTYPE
  5
22
100
AcDbSymbolTableRecord
100
AcDbLinetypeTableRecord
  2
BORDER
 70
    64
  3
 __ __ . __ __ . __ __ . __ __ . __ __ . __ __ .
 72
    65
 73
     6
 40
17.0
 49
5.0
 74
     0
 49
-2.0
 74
     0
 49
5.0
 74
     0
 49
-2.0
 74
     0
 49
1.0
 74
     0
 49
-2.0
 74
     0
  0
LTYPE
  5
23
100
AcDbSymbolTableRecord
100
AcDbLinetypeTableRecord
  2
DAL
 70
    64
  3
Solid line (for MAPS)
 72
    65
 73
     0
 40
0.0
  0
LTYPE
  5
24
100
AcDbSymbolTableRecord
100
AcDbLinetypeTableRecord
  2
MUR
 70
    64
  3
Solid line (for MAPS)
 72
    65
 73
     0
 40
0.0
  0
LTYPE
  5
25
100
AcDbSymbolTableRecord
100
AcDbLinetypeTableRecord
  2
SOM
 70
    64
  3
Solid line (for MAPS)
 72
    65
 73
     0
 40
0.0
  0
LTYPE
  5
26
100
AcDbSymbolTableRecord
100
AcDbLinetypeTableRecord
  2
COL
 70
    64
  3
Solid line (for MAPS)
 72
    65
 73
     0
 40
0.0
  0
LTYPE
  5
27
100
AcDbSymbolTableRecord
100
AcDbLinetypeTableRecord
  2
LGN
 70
    64
  3
Solid line (for MAPS)
 72
    65
 73
     0
 40
0.0
  0
LTYPE
  5
28
100
AcDbSymbolTableRecord
100
AcDbLinetypeTableRecord
  2
PNT
 70
    64
  3
Solid line (for MAPS)
 72
    65
 73
     0
 40
0.0
  0
ENDTAB
  0
TABLE
  2
LAYER
  5
29
100
AcDbSymbolTable
 70
     1
  0
LAYER
  5
2A
100
AcDbSymbolTableRecord
100
AcDbLayerTableRecord
  2
0
 70
     0
 62
     1
  6
CONTINUOUS
  0
LAYER
  5
2B
100
AcDbSymbolTableRecord
100
AcDbLayerTableRecord
  2
ANKER
 70
     0
 62
     7
  6
CONTINUOUS
  0
ENDTAB
  0
TABLE
  2
VIEW
  5
2C
100
AcDbSymbolTable
 70
     0
  0
ENDTAB
  0
TABLE
  2
UCS
  5
2D
100
AcDbSymbolTable
 70
     0
  0
ENDTAB
  0
TABLE
  2
APPID
  5
2E
100
AcDbSymbolTable
 70
     1
  0
APPID
  5
2F
100
AcDbSymbolTableRecord
100
AcDbRegAppTableRecord
  2
ACAD
 70
     0
  0
ENDTAB
  0
TABLE
  2
DIMSTYLE
  5
30
100
AcDbSymbolTable
 70
     0
  0
ENDTAB
  0
TABLE
  2
BLOCK_RECORD
  5
31
100
AcDbSymbolTable
 70
     0
  0
BLOCK_RECORD
  5
32
100
AcDbSymbolTableRecord
100
AcDbBlockTableRecord
  2
*MODEL_SPACE
  0
BLOCK_RECORD
  5
33
100
AcDbSymbolTableRecord
100
AcDbBlockTableRecord
  2
*PAPER_SPACE
  0
BLOCK_RECORD
  5
34
100
AcDbSymbolTableRecord
100
AcDbBlockTableRecord
  2
CDWK_EXTR_0
  0
BLOCK_RECORD
  5
35
100
AcDbSymbolTableRecord
100
AcDbBlockTableRecord
  2
CDWK_EXTR_1D
  0
BLOCK_RECORD
  5
36
100
AcDbSymbolTableRecord
100
AcDbBlockTableRecord
  2
CDWK_EXTR_1G
  0
BLOCK_RECORD
  5
37
100
AcDbSymbolTableRecord
100
AcDbBlockTableRecord
  2
CDWK_EXTR_2
  0
BLOCK_RECORD
  5
38
100
AcDbSymbolTableRecord
100
AcDbBlockTableRecord
  2
CDWK_EXTR_3
  0
BLOCK_RECORD
  5
39
100
AcDbSymbolTableRecord
100
AcDbBlockTableRecord
  2
CDWK_EXTR_4
  0
BLOCK_RECORD
  5
3A
100
AcDbSymbolTableRecord
100
AcDbBlockTableRecord
  2
CDWK_PTTYP0
  0
ENDTAB
  0
ENDSEC
  0
SECTION
  2
BLOCKS
  0
BLOCK
  5
3B
100
AcDbEntity
  8
0
100
AcDbBlockBegin
  2
*MODEL_SPACE
 70
     0
 10
0.0
 20
0.0
 30
0.0
  3
*MODEL_SPACE
  1

  0
ENDBLK
  5
3C
100
AcDbEntity
100
AcDbBlockEnd
  0
BLOCK
  5
3D
100
AcDbEntity
  8
0
100
AcDbBlockBegin
  2
*PAPER_SPACE
 70
     0
 10
0.0
 20
0.0
 30
0.0
  3
*PAPER_SPACE
  1

  0
ENDBLK
  5
3E
100
AcDbEntity
100
AcDbBlockEnd
  0
BLOCK
  5
3F
100
AcDbEntity
  8
0
100
AcDbBlockBegin
  2
CDWK_EXTR_0
 70
     0
 10
0.0
 20
0.0
 30
0.0
  3
CDWK_EXTR_0
  1

  4
Cadwork line-extremity
  0
LINE
  5
40
100
AcDbEntity
  8
0
 62
     0
100
AcDbLine
 10
0.0
 20
0.0
 30
0.0
 11
2.0
 21
0.5
 31
0.0
  0
LINE
  5
41
100
AcDbEntity
  8
0
 62
     0
100
AcDbLine
 10
0.0
 20
0.0
 30
0.0
 11
2.0
 21
-0.5
 31
0.0
  0
LINE
  5
42
100
AcDbEntity
  8
0
 62
     0
100
AcDbLine
 10
2.0
 20
0.5
 30
0.0
 11
2.0
 21
-0.5
 31
0.0
  0
ENDBLK
  5
43
100
AcDbEntity
100
AcDbBlockEnd
  0
BLOCK
  5
44
100
AcDbEntity
  8
0
100
AcDbBlockBegin
  2
CDWK_EXTR_1D
 70
     0
 10
0.0
 20
0.0
 30
0.0
  3
CDWK_EXTR_1D
  1

  4
Cadwork line-extremity
  0
LINE
  5
45
100
AcDbEntity
  8
0
 62
     0
100
AcDbLine
 10
0.0
 20
0.0
 30
0.0
 11
0.0
 21
1.0
 31
0.0
  0
LINE
  5
46
100
AcDbEntity
  8
0
 62
     0
100
AcDbLine
 10
0.0
 20
1.0
 30
0.0
 11
0.5
 21
1.5
 31
0.0
  0
LINE
  5
47
100
AcDbEntity
  8
0
 62
     0
100
AcDbLine
 10
0.5
 20
1.5
 30
0.0
 11
1.5
 21
1.5
 31
0.0
  0
ENDBLK
  5
48
100
AcDbEntity
100
AcDbBlockEnd
  0
BLOCK
  5
49
100
AcDbEntity
  8
0
100
AcDbBlockBegin
  2
CDWK_EXTR_1G
 70
     0
 10
0.0
 20
0.0
 30
0.0
  3
CDWK_EXTR_1G
  1

  4
Cadwork line-extremity
  0
LINE
  5
4A
100
AcDbEntity
  8
0
 62
     0
100
AcDbLine
 10
0.0
 20
0.0
 30
0.0
 11
0.0
 21
-1.0
 31
0.0
  0
LINE
  5
4B
100
AcDbEntity
  8
0
 62
     0
100
AcDbLine
 10
0.0
 20
-1.0
 30
0.0
 11
0.5
 21
-1.5
 31
0.0
  0
LINE
  5
4C
100
AcDbEntity
  8
0
 62
     0
100
AcDbLine
 10
0.5
 20
-1.5
 30
0.0
 11
1.5
 21
-1.5
 31
0.0
  0
ENDBLK
  5
4D
100
AcDbEntity
100
AcDbBlockEnd
  0
BLOCK
  5
4E
100
AcDbEntity
  8
0
100
AcDbBlockBegin
  2
CDWK_EXTR_2
 70
     0
 10
0.0
 20
0.0
 30
0.0
  3
CDWK_EXTR_2
  1

  4
Cadwork line-extremity
  0
SOLID
  5
4F
100
AcDbEntity
  8
0
 62
     0
100
AcDbTrace
 10
0.0
 20
0.0
 11
2.0
 21
0.5
 12
2.0
 22
-0.5
 13
2.0
 23
-0.5
  0
ENDBLK
  5
50
100
AcDbEntity
100
AcDbBlockEnd
  0
BLOCK
  5
51
100
AcDbEntity
  8
0
100
AcDbBlockBegin
  2
CDWK_EXTR_3
 70
     0
 10
0.0
 20
0.0
 30
0.0
  3
CDWK_EXTR_3
  1

  4
Cadwork line-extremity
  0
SOLID
  5
52
100
AcDbEntity
  8
0
 62
     0
100
AcDbTrace
 10
0.0
 20
0.0
 11
2.0
 21
0.5
 12
2.0
 22
-0.5
 13
2.0
 23
-0.5
  0
LINE
  5
53
100
AcDbEntity
  8
0
 62
     0
100
AcDbLine
 10
0.0
 20
1.0
 30
0.0
 11
0.0
 21
-1.0
 31
0.0
  0
ENDBLK
  5
54
100
AcDbEntity
100
AcDbBlockEnd
  0
BLOCK
  5
55
100
AcDbEntity
  8
0
100
AcDbBlockBegin
  2
CDWK_EXTR_4
 70
     0
 10
0.0
 20
0.0
 30
0.0
  3
CDWK_EXTR_4
  1

  4
Cadwork line-extremity
  0
POLYLINE
  5
56
100
AcDbEntity
  8
0
 62
     0
100
AcDb2dPolyline
 70
     1
 66
     1
 10
0.0
 20
0.0
 30
0.0
 40
0.5
 41
0.5
  0
VERTEX
  5
57
100
AcDbEntity
  8
0
100
AcDbVertex
100
AcDb2dVertex
 10
-0.25
 20
0.0
 30
0.0
 42
1.0
  0
VERTEX
  5
58
100
AcDbEntity
  8
0
100
AcDbVertex
100
AcDb2dVertex
 10
0.25
 20
0.0
 30
0.0
 42
1.0
  0
SEQEND
  5
59
100
AcDbEntity
  0
ENDBLK
  5
5A
100
AcDbEntity
100
AcDbBlockEnd
  0
BLOCK
  5
5B
100
AcDbEntity
  8
0
100
AcDbBlockBegin
  2
CDWK_PTTYP0
 70
     0
 10
0.0
 20
0.0
 30
0.0
  3
CDWK_PTTYP0
  1

  4
Cadwork point
  0
POINT
  5
5C
100
AcDbEntity
  8
0
 62
     0
100
AcDbPoint
 10
0.0
 20
0.0
 30
0.0
  0
ENDBLK
  5
5D
100
AcDbEntity
100
AcDbBlockEnd
  0
ENDSEC
  0
SECTION
  2
ENTITIES
  0
LINE
  5
5E
100
AcDbEntity
  8
ANKER
 62
    13
  6
CONTINUOUS
100
AcDbLine
 10
-391.71124712
 20
39.15030606
 30
0.0
 11
-391.71124712
 21
24.15030606
 31
0.0
  0
LINE
  5
5F
100
AcDbEntity
  8
ANKER
 62
    13
  6
CONTINUOUS
100
AcDbLine
 10
-465.71124712
 20
42.15030606
 30
0.0
 11
-465.71124712
 21
21.15030606
 31
0.0
  0
LINE
  5
60
100
AcDbEntity
  8
ANKER
 62
    13
  6
CONTINUOUS
100
AcDbLine
 10
-465.71124712
 20
21.15030606
 30
0.0
 11
-466.71124712
 21
21.15030606
 31
0.0
  0
LINE
  5
61
100
AcDbEntity
  8
ANKER
 62
    13
  6
CONTINUOUS
100
AcDbLine
 10
-465.71124712
 20
42.15030606
 30
0.0
 11
-466.71124712
 21
42.15030606
 31
0.0
  0
LINE
  5
62
100
AcDbEntity
  8
ANKER
 62
    13
  6
CONTINUOUS
100
AcDbLine
 10
-394.51113712
 20
39.15030606
 30
0.0
 11
-394.51113712
 21
24.15030606
 31
0.0
  0
LINE
  5
63
100
AcDbEntity
  8
ANKER
 62
    13
  6
CONTINUOUS
100
AcDbLine
 10
-458.71124712
 20
24.15030606
 30
0.0
 11
-458.71124712
 21
39.15030606
 31
0.0
  0
LINE
  5
64
100
AcDbEntity
  8
ANKER
 62
    13
  6
CONTINUOUS
100
AcDbLine
 10
-466.71124712
 20
42.15030606
 30
0.0
 11
-466.71124712
 21
21.15030606
 31
0.0
  0
LWPOLYLINE
  5
65
100
AcDbEntity
  8
ANKER
 62
     7
  6
CONTINUOUS
100
AcDbPolyline
 90
        7
 70
     0
 43
0.0
 10
-465.71124712
 20
13.83435514
 10
-465.71124712
 20
23.65030606
 10
-385.60638747
 20
23.65030606
 10
-380.71124744
 20
31.65030606
 10
-385.60638747
 20
39.65030606
 10
-465.71124712
 20
39.65030606
 10
-465.71124712
 20
49.46625698
  0
LWPOLYLINE
  5
66
100
AcDbEntity
  8
ANKER
 62
     1
  6
BORDER
100
AcDbPolyline
 90
        3
 70
     0
 43
0.0
 10
-390.71124712
 20
31.65030606
 10
-466.71124712
 20
31.65030606
 10
-471.71124712
 20
31.65030606
  0
LWPOLYLINE
  5
67
100
AcDbEntity
  8
ANKER
 62
     1
  6
BORDER
100
AcDbPolyline
 90
        3
 70
     0
 43
0.0
 10
-357.85114188
 20
1.65030606
 10
-464.40184604
 20
1.65030606
 10
-469.40184604
 20
1.65030606
  0
LINE
  5
68
100
AcDbEntity
  8
ANKER
 62
    13
  6
CONTINUOUS
100
AcDbLine
 10
-366.71124712
 20
11.15030606
 30
0.0
 11
-366.71124712
 21
-7.84969394
 31
0.0
  0
LINE
  5
69
100
AcDbEntity
  8
ANKER
 62
    13
  6
CONTINUOUS
100
AcDbLine
 10
-465.71124712
 20
14.15030606
 30
0.0
 11
-465.71124712
 21
-10.84969394
 31
0.0
  0
LINE
  5
6A
100
AcDbEntity
  8
ANKER
 62
    13
  6
CONTINUOUS
100
AcDbLine
 10
-465.71124712
 20
-10.84969394
 30
0.0
 11
-466.71124712
 21
-10.84969394
 31
0.0
  0
LINE
  5
6B
100
AcDbEntity
  8
ANKER
 62
    13
  6
CONTINUOUS
100
AcDbLine
 10
-465.71124712
 20
14.15030606
 30
0.0
 11
-466.71124712
 21
14.15030606
 31
0.0
  0
LINE
  5
6C
100
AcDbEntity
  8
ANKER
 62
    13
  6
CONTINUOUS
100
AcDbLine
 10
-371.71124712
 20
11.15030606
 30
0.0
 11
-371.71124712
 21
-7.84969394
 31
0.0
  0
LINE
  5
6D
100
AcDbEntity
  8
ANKER
 62
    13
  6
CONTINUOUS
100
AcDbLine
 10
-458.71124712
 20
-7.84969394
 30
0.0
 11
-458.71124712
 21
11.15030606
 31
0.0
  0
LINE
  5
6E
100
AcDbEntity
  8
ANKER
 62
    13
  6
CONTINUOUS
100
AcDbLine
 10
-466.71124712
 20
14.15030606
 30
0.0
 11
-466.71124712
 21
-10.84969394
 31
0.0
  0
LWPOLYLINE
  5
6F
100
AcDbEntity
  8
ANKER
 62
     7
  6
CONTINUOUS
100
AcDbPolyline
 90
        7
 70
     0
 43
0.0
 10
-465.71124712
 20
-18.20191069
 10
-465.71124712
 20
-8.34969394
 10
-361.68761391
 20
-8.34969394
 10
-355.71124688
 20
1.65030606
 10
-361.68761391
 20
11.65030606
 10
-465.71124712
 20
11.65030606
 10
-465.71124712
 20
21.50252281
  0
LINE
  5
70
100
AcDbEntity
  8
ANKER
 62
    13
  6
CONTINUOUS
100
AcDbLine
 10
-465.71124712
 20
14.15030606
 30
0.0
 11
-465.71124712
 21
-10.84969394
 31
0.0
  0
LINE
  5
71
100
AcDbEntity
  8
ANKER
 62
    13
  6
CONTINUOUS
100
AcDbLine
 10
-465.71124712
 20
11.15030606
 30
0.0
 11
-458.71124712
 21
11.15030606
 31
0.0
  0
LINE
  5
72
100
AcDbEntity
  8
ANKER
 62
    13
  6
CONTINUOUS
100
AcDbLine
 10
-458.71124712
 20
-7.84969394
 30
0.0
 11
-465.71124712
 21
-7.84969394
 31
0.0
  0
LWPOLYLINE
  5
73
100
AcDbEntity
  8
ANKER
 62
    13
  6
CONTINUOUS
100
AcDbPolyline
 90
        6
 70
     0
 43
0.0
 10
-371.71124712
 20
-7.84969394
 10
-366.71124712
 20
-7.84969394
 10
-365.71124712
 20
-6.84969394
 10
-365.71124712
 20
10.15030606
 10
-366.71124712
 20
11.15030606
 10
-371.71124712
 20
11.15030606
  0
LINE
  5
74
100
AcDbEntity
  8
ANKER
 62
    13
  6
CONTINUOUS
100
AcDbLine
 10
-458.71124712
 20
24.15030606
 30
0.0
 11
-465.71124712
 21
24.15030606
 31
0.0
  0
LWPOLYLINE
  5
75
100
AcDbEntity
  8
ANKER
 62
    13
  6
CONTINUOUS
100
AcDbPolyline
 90
        6
 70
     0
 43
0.0
 10
-394.51113712
 20
24.15030606
 10
-391.71124712
 20
24.15030606
 10
-390.71124712
 20
25.15030606
 10
-390.71124712
 20
38.15030606
 10
-391.71124712
 20
39.15030606
 10
-394.51113712
 20
39.15030606
  0
LINE
  5
76
100
AcDbEntity
  8
ANKER
 62
    13
  6
CONTINUOUS
100
AcDbLine
 10
-458.71124712
 20
39.15030606
 30
0.0
 11
-465.71124712
 21
39.15030606
 31
0.0
  0
LINE
  5
77
100
AcDbEntity
  8
ANKER
 62
     7
  6
DASHED
100
AcDbLine
 10
-465.71124712
 20
51.65030606
 30
0.0
 11
-465.71124712
 21
-13.34969394
 31
0.0
  0
LINE
  5
78
100
AcDbEntity
  8
ANKER
 62
     7
  6
DASHED
100
AcDbLine
 10
-390.71124712
 20
51.65030606
 30
0.0
 11
-390.71124712
 21
16.65030606
 31
0.0
  0
LINE
  5
79
100
AcDbEntity
  8
ANKER
 62
     7
  6
DASHED
100
AcDbLine
 10
-365.71124712
 20
51.65030606
 30
0.0
 11
-365.71124712
 21
-13.34969394
 31
0.0
  0
MTEXT
  5
7A
100
AcDbEntity
  8
ANKER
 62
     4
100
AcDbMText
 10
-580.68076444
 20
200.23816408
 30
2500.0
 11
1.0
 21
0.0
 31
0.0
 40
20.0
 41
181.12666393
 71
     1
 72
     1
  1
\fTahoma|b0|i0|c0|p18;\H20;\W0.80000001;\C7;Siebhülsen\PPROFIX PIT-SHM\P241
  0
LWPOLYLINE
  5
7B
102
{ACAD_REACTORS
330
7C
102
}
100
AcDbEntity
  8
ANKER
 62
    12
100
AcDbPolyline
 90
       46
 70
     1
 43
0.0
 10
-263.69727406
 20
210.80391408
 10
-263.82809539
 20
210.81455241
 10
-263.95224473
 20
210.84534074
 10
-264.06805006
 20
210.89458908
 10
-264.17383939
 20
210.96060741
 10
-264.26794073
 20
211.04170574
 10
-264.34868206
 20
211.13619408
 10
-264.41439139
 20
211.24238241
 10
-264.46339673
 20
211.35858074
 10
-264.49402606
 20
211.48309908
 10
-264.50460739
 20
211.61424741
 10
-264.50460739
 20
211.61424741
 10
-264.49402606
 20
211.74545958
 10
-264.46339673
 20
211.87006474
 10
-264.41439139
 20
211.98636591
 10
-264.34868206
 20
212.09266608
 10
-264.26794073
 20
212.18726824
 10
-264.17383939
 20
212.26847541
 10
-264.06805006
 20
212.33459058
 10
-263.95224473
 20
212.38391674
 10
-263.82809539
 20
212.41475691
 10
-263.69727406
 20
212.42541408
 10
-263.69727406
 20
212.42541408
 10
-263.56661939
 20
212.41475691
 10
-263.44257673
 20
212.38391674
 10
-263.32682806
 20
212.33459058
 10
-263.22105539
 20
212.26847541
 10
-263.12694073
 20
212.18726824
 10
-263.04616606
 20
212.09266608
 10
-262.98041339
 20
211.98636591
 10
-262.93136473
 20
211.87006474
 10
-262.90070206
 20
211.74545958
 10
-262.89010739
 20
211.61424741
 10
-262.89010739
 20
211.61424741
 10
-262.90070206
 20
211.48309908
 10
-262.93136473
 20
211.35858074
 10
-262.98041339
 20
211.24238241
 10
-263.04616606
 20
211.13619408
 10
-263.12694073
 20
211.04170574
 10
-263.22105539
 20
210.96060741
 10
-263.32682806
 20
210.89458908
 10
-263.44257673
 20
210.84534074
 10
-263.56661939
 20
210.81455241
 10
-263.69727406
 20
210.80391408
 10
-263.69727406
 20
210.80391408
 10
-263.69727406
 20
210.80391408
  0
HATCH
  5
7C
100
AcDbEntity
  8
ANKER
 62
    12
100
AcDbHatch
 10
0.0
 20
0.0
 30
0.0
210
0.0
220
0.0
230
1.0
  2
SOLID
 70
     1
 71
     1
 91
        1
 92
        7
 72
     0
 73
     1
 93
       40
 10
-263.69727406
 20
210.80391408
 10
-263.82809539
 20
210.81455241
 10
-263.95224473
 20
210.84534074
 10
-264.06805006
 20
210.89458908
 10
-264.17383939
 20
210.96060741
 10
-264.26794073
 20
211.04170574
 10
-264.34868206
 20
211.13619408
 10
-264.41439139
 20
211.24238241
 10
-264.46339673
 20
211.35858074
 10
-264.49402606
 20
211.48309908
 10
-264.50460739
 20
211.61424741
 10
-264.49402606
 20
211.74545958
 10
-264.46339673
 20
211.87006474
 10
-264.41439139
 20
211.98636591
 10
-264.34868206
 20
212.09266608
 10
-264.26794073
 20
212.18726824
 10
-264.17383939
 20
212.26847541
 10
-264.06805006
 20
212.33459058
 10
-263.95224473
 20
212.38391674
 10
-263.82809539
 20
212.41475691
 10
-263.69727406
 20
212.42541408
 10
-263.56661939
 20
212.41475691
 10
-263.44257673
 20
212.38391674
 10
-263.32682806
 20
212.33459058
 10
-263.22105539
 20
212.26847541
 10
-263.12694073
 20
212.18726824
 10
-263.04616606
 20
212.09266608
 10
-262.98041339
 20
211.98636591
 10
-262.93136473
 20
211.87006474
 10
-262.90070206
 20
211.74545958
 10
-262.89010739
 20
211.61424741
 10
-262.90070206
 20
211.48309908
 10
-262.93136473
 20
211.35858074
 10
-262.98041339
 20
211.24238241
 10
-263.04616606
 20
211.13619408
 10
-263.12694073
 20
211.04170574
 10
-263.22105539
 20
210.96060741
 10
-263.32682806
 20
210.89458908
 10
-263.44257673
 20
210.84534074
 10
-263.56661939
 20
210.81455241
 97
        1
330
7B
 75
     0
 76
     2
 47
0.775229
 98
        1
 10
0.0
 20
0.0
  0
LWPOLYLINE
  5
7D
102
{ACAD_REACTORS
330
7E
102
}
100
AcDbEntity
  8
ANKER
 62
    12
100
AcDbPolyline
 90
        8
 70
     1
 43
0.0
 10
-331.16227406
 20
210.23816408
 10
-265.19444073
 20
210.23816408
 10
-265.19444073
 20
210.23816408
 10
-265.19444073
 20
193.65691408
 10
-265.19444073
 20
193.65691408
 10
-331.16227406
 20
193.65691408
 10
-331.16227406
 20
193.65691408
 10
-331.16227406
 20
210.23816408
  0
HATCH
  5
7E
100
AcDbEntity
  8
ANKER
 62
    12
100
AcDbHatch
 10
0.0
 20
0.0
 30
0.0
210
0.0
220
0.0
230
1.0
  2
SOLID
 70
     1
 71
     1
 91
        1
 92
        7
 72
     0
 73
     1
 93
        4
 10
-331.16227406
 20
210.23816408
 10
-265.19444073
 20
210.23816408
 10
-265.19444073
 20
193.65691408
 10
-331.16227406
 20
193.65691408
 97
        1
330
7D
 75
     0
 76
     2
 47
0.775229
 98
        1
 10
0.0
 20
0.0
  0
LINE
  5
7F
100
AcDbEntity
  8
ANKER
100
AcDbLine
 10
-331.16227406
 20
193.65691408
 30
0.0
 11
-331.16227406
 21
193.65691408
 31
0.0
  0
LINE
  5
80
100
AcDbEntity
  8
ANKER
100
AcDbLine
 10
-331.16227406
 20
193.65691408
 30
0.0
 11
-331.16227406
 21
193.65691408
 31
0.0
  0
LINE
  5
81
100
AcDbEntity
  8
ANKER
100
AcDbLine
 10
-331.16227406
 20
193.65691408
 30
0.0
 11
-331.16227406
 21
193.65691408
 31
0.0
  0
LINE
  5
82
100
AcDbEntity
  8
ANKER
100
AcDbLine
 10
-331.16227406
 20
193.65691408
 30
0.0
 11
-331.16227406
 21
193.65691408
 31
0.0
  0
LINE
  5
83
100
AcDbEntity
  8
ANKER
100
AcDbLine
 10
-331.16227406
 20
193.65691408
 30
0.0
 11
-331.16227406
 21
193.65691408
 31
0.0
  0
LINE
  5
84
100
AcDbEntity
  8
ANKER
100
AcDbLine
 10
-331.16227406
 20
193.65691408
 30
0.0
 11
-331.16227406
 21
193.65691408
 31
0.0
  0
LINE
  5
85
100
AcDbEntity
  8
ANKER
100
AcDbLine
 10
-331.16227406
 20
193.65691408
 30
0.0
 11
-331.16227406
 21
193.65691408
 31
0.0
  0
LINE
  5
86
100
AcDbEntity
  8
ANKER
100
AcDbLine
 10
-331.16227406
 20
193.65691408
 30
0.0
 11
-331.16227406
 21
193.65691408
 31
0.0
  0
LINE
  5
87
100
AcDbEntity
  8
ANKER
100
AcDbLine
 10
-331.16227406
 20
193.65691408
 30
0.0
 11
-331.16227406
 21
193.65691408
 31
0.0
  0
LINE
  5
88
100
AcDbEntity
  8
ANKER
100
AcDbLine
 10
-331.16227406
 20
193.65691408
 30
0.0
 11
-331.16227406
 21
193.65691408
 31
0.0
  0
LINE
  5
89
100
AcDbEntity
  8
ANKER
100
AcDbLine
 10
-331.16227406
 20
193.65691408
 30
0.0
 11
-331.16227406
 21
193.65691408
 31
0.0
  0
LWPOLYLINE
  5
8A
102
{ACAD_REACTORS
330
8B
102
}
100
AcDbEntity
  8
ANKER
 62
   190
100
AcDbPolyline
 90
        8
 70
     1
 43
0.0
 10
-298.35577406
 20
209.08849741
 10
-266.34094073
 20
209.08849741
 10
-266.34094073
 20
209.08849741
 10
-266.34094073
 20
194.80474574
 10
-266.34094073
 20
194.80474574
 10
-298.35577406
 20
194.80474574
 10
-298.35577406
 20
194.80474574
 10
-298.35577406
 20
209.08849741
  0
HATCH
  5
8B
100
AcDbEntity
  8
ANKER
 62
   190
100
AcDbHatch
 10
0.0
 20
0.0
 30
0.0
210
0.0
220
0.0
230
1.0
  2
SOLID
 70
     1
 71
     1
 91
        1
 92
        7
 72
     0
 73
     1
 93
        4
 10
-298.35577406
 20
209.08849741
 10
-266.34094073
 20
209.08849741
 10
-266.34094073
 20
194.80474574
 10
-298.35577406
 20
194.80474574
 97
        1
330
8A
 75
     0
 76
     2
 47
0.775229
 98
        1
 10
0.0
 20
0.0
  0
LWPOLYLINE
  5
8C
102
{ACAD_REACTORS
330
8D
102
}
100
AcDbEntity
  8
ANKER
 62
    12
100
AcDbPolyline
 90
       22
 70
     1
 43
0.0
 10
-296.43794073
 20
197.09801408
 10
-296.43794073
 20
206.18453074
 10
-296.43794073
 20
206.18453074
 10
-288.25860739
 20
206.18453074
 10
-288.25860739
 20
206.18453074
 10
-288.25860739
 20
203.72018074
 10
-288.25860739
 20
203.72018074
 10
-292.03460739
 20
203.72018074
 10
-292.03460739
 20
203.72018074
 10
-292.03460739
 20
202.66556408
 10
-292.03460739
 20
202.66556408
 10
-288.61694073
 20
202.66556408
 10
-288.61694073
 20
202.66556408
 10
-288.61694073
 20
200.33776408
 10
-288.61694073
 20
200.33776408
 10
-292.03460739
 20
200.33776408
 10
-292.03460739
 20
200.33776408
 10
-292.03460739
 20
197.09801408
 10
-292.03460739
 20
197.09801408
 10
-296.43794073
 20
197.09801408
 10
-296.43794073
 20
197.09801408
 10
-296.43794073
 20
197.09801408
  0
HATCH
  5
8D
100
AcDbEntity
  8
ANKER
 62
    12
100
AcDbHatch
 10
0.0
 20
0.0
 30
0.0
210
0.0
220
0.0
230
1.0
  2
SOLID
 70
     1
 71
     1
 91
        1
 92
        7
 72
     0
 73
     1
 93
       10
 10
-296.43794073
 20
197.09801408
 10
-296.43794073
 20
206.18453074
 10
-288.25860739
 20
206.18453074
 10
-288.25860739
 20
203.72018074
 10
-292.03460739
 20
203.72018074
 10
-292.03460739
 20
202.66556408
 10
-288.61694073
 20
202.66556408
 10
-288.61694073
 20
200.33776408
 10
-292.03460739
 20
200.33776408
 10
-292.03460739
 20
197.09801408
 97
        1
330
8C
 75
     0
 76
     2
 47
0.775229
 98
        1
 10
0.0
 20
0.0
  0
LWPOLYLINE
  5
8E
102
{ACAD_REACTORS
330
8F
102
}
100
AcDbEntity
  8
ANKER
 62
   190
100
AcDbPolyline
 90
      178
 70
     1
 43
0.0
 10
-300.21327406
 20
201.62316408
 10
-300.21684606
 20
201.42499736
 10
-300.22755006
 20
201.22953034
 10
-300.24536806
 20
201.03678273
 10
-300.27028206
 20
200.84677421
 10
-300.30227406
 20
200.65952449
 10
-300.34132606
 20
200.47505328
 10
-300.38742006
 20
200.29338026
 10
-300.44053806
 20
200.11452514
 10
-300.50066206
 20
199.93850763
 10
-300.56777406
 20
199.76534741
 10
-300.56777406
 20
199.76534741
 10
-300.64150706
 20
199.59487354
 10
-300.72189806
 20
199.42812648
 10
-300.80893506
 20
199.26509801
 10
-300.90260606
 20
199.10577994
 10
-301.00289906
 20
198.95016408
 10
-301.10980206
 20
198.79824221
 10
-301.22330306
 20
198.65000614
 10
-301.34339006
 20
198.50544768
 10
-301.47005106
 20
198.36455861
 10
-301.60327406
 20
198.22733074
 10
-301.60327406
 20
198.22733074
 10
-301.74201273
 20
198.09754996
 10
-301.88492339
 20
197.97398248
 10
-302.03199806
 20
197.85663559
 10
-302.18322873
 20
197.74551661
 10
-302.33860739
 20
197.64063283
 10
-302.49812606
 20
197.54199154
 10
-302.66177673
 20
197.44960006
 10
-302.82955139
 20
197.36346568
 10
-303.00144206
 20
197.28359569
 10
-303.17744073
 20
197.20999741
 10
-303.17744073
 20
197.20999741
 10
-303.35648873
 20
197.14299928
 10
-303.53800473
 20
197.08294234
 10
-303.72194673
 20
197.02985281
 10
-303.90827273
 20
196.98375688
 10
-304.09694073
 20
196.94468074
 10
-304.28790873
 20
196.91265061
 10
-304.48113473
 20
196.88769268
 10
-304.67657673
 20
196.86983314
 10
-304.87419273
 20
196.85909821
 10
-305.07394073
 20
196.85551408
 10
-305.07394073
 20
196.85551408
 10
-305.27586106
 20
196.85909821
 10
-305.47530339
 20
196.86983314
 10
-305.67223973
 20
196.88769268
 10
-305.86664206
 20
196.91265061
 10
-306.05848239
 20
196.94468074
 10
-306.24773273
 20
196.98375688
 10
-306.43436506
 20
197.02985281
 10
-306.61835139
 20
197.08294234
 10
-306.79966373
 20
197.14299928
 10
-306.97827406
 20
197.20999741
 10
-306.97827406
 20
197.20999741
 10
-307.15420056
 20
197.28371304
 10
-307.32608606
 20
197.36393648
 10
-307.49393956
 20
197.45066251
 10
-307.65777006
 20
197.54388594
 10
-307.81758656
 20
197.64360158
 10
-307.97339806
 20
197.74980421
 10
-308.12521356
 20
197.86248864
 10
-308.27304206
 20
197.98164968
 10
-308.41689256
 20
198.10728211
 10
-308.55677406
 20
198.23938074
 10
-308.55677406
 20
198.23938074
 10
-308.68833289
 20
198.37315563
 10
-308.81348473
 20
198.51089981
 10
-308.93219256
 20
198.65259759
 10
-309.04441939
 20
198.79823328
 10
-309.15012823
 20
198.94779116
 10
-309.24928206
 20
199.10125554
 10
-309.34184389
 20
199.25861073
 10
-309.42777673
 20
199.41984101
 10
-309.50704356
 20
199.58493069
 10
-309.57960739
 20
199.75386408
 10
-309.57960739
 20
199.75386408
 10
-309.64542523
 20
199.92698673
 10
-309.70437006
 20
200.10319128
 10
-309.75642889
 20
200.28247263
 10
-309.80158873
 20
200.46482568
 10
-309.83983656
 20
200.65024533
 10
-309.87115939
 20
200.83872648
 10
-309.89554423
 20
201.03026403
 10
-309.91297806
 20
201.22485288
 10
-309.92344789
 20
201.42248793
 10
-309.92694073
 20
201.62316408
 10
-309.92694073
 20
201.62316408
 10
-309.92344789
 20
201.82383611
 10
-309.91297806
 20
202.02155834
 10
-309.89554423
 20
202.21633998
 10
-309.87115939
 20
202.40819021
 10
-309.83983656
 20
202.59711824
 10
-309.80158873
 20
202.78313328
 10
-309.75642889
 20
202.96624451
 10
-309.70437006
 20
203.14646114
 10
-309.64542523
 20
203.32379238
 10
-309.57960739
 20
203.49824741
 10
-309.57960739
 20
203.49824741
 10
-309.50704356
 20
203.66831386
 10
-309.42777673
 20
203.83448701
 10
-309.34184389
 20
203.99672756
 10
-309.24928206
 20
204.15499621
 10
-309.15012823
 20
204.30925366
 10
-309.04441939
 20
204.45946061
 10
-308.93219256
 20
204.60557776
 10
-308.81348473
 20
204.74756581
 10
-308.68833289
 20
204.88538546
 10
-308.55677406
 20
205.01899741
 10
-308.55677406
 20
205.01899741
 10
-308.41797023
 20
205.14938924
 10
-308.27514339
 20
205.27351208
 10
-308.12827056
 20
205.39134691
 10
-307.97732873
 20
205.50287474
 10
-307.82229489
 20
205.60807658
 10
-307.66314606
 20
205.70693341
 10
-307.49985923
 20
205.79942624
 10
-307.33241139
 20
205.88553608
 10
-307.16077956
 20
205.96524391
 10
-306.98494073
 20
206.03853074
 10
-306.98494073
 20
206.03853074
 10
-306.80602673
 20
206.10556233
 10
-306.62438873
 20
206.16545941
 10
-306.44003273
 20
206.21824049
 10
-306.25296473
 20
206.26392408
 10
-306.06319073
 20
206.30252866
 10
-305.87071673
 20
206.33407274
 10
-305.67554873
 20
206.35857483
 10
-305.47769273
 20
206.37605341
 10
-305.27715473
 20
206.38652699
 10
-305.07394073
 20
206.39001408
 10
-305.07394073
 20
206.39001408
 10
-304.87056906
 20
206.38652699
 10
-304.66986739
 20
206.37605341
 10
-304.47185573
 20
206.35857483
 10
-304.27655406
 20
206.33407274
 10
-304.08398239
 20
206.30252866
 10
-303.89416073
 20
206.26392408
 10
-303.70710906
 20
206.21824049
 10
-303.52284739
 20
206.16545941
 10
-303.34139573
 20
206.10556233
 10
-303.16277406
 20
206.03853074
 10
-303.16277406
 20
206.03853074
 10
-302.98677139
 20
205.96524391
 10
-302.81485273
 20
205.88553608
 10
-302.64700206
 20
205.79942624
 10
-302.48320339
 20
205.70693341
 10
-302.32344073
 20
205.60807658
 10
-302.16769806
 20
205.50287474
 10
-302.01595939
 20
205.39134691
 10
-301.86820873
 20
205.27351208
 10
-301.72443006
 20
205.14938924
 10
-301.58460739
 20
205.01899741
 10
-301.58460739
 20
205.01899741
 10
-301.45426256
 20
204.88422289
 10
-301.33014873
 20
204.74539528
 10
-301.21229689
 20
204.60253846
 10
-301.10073806
 20
204.45567634
 10
-300.99550323
 20
204.30483283
 10
-300.89662339
 20
204.15003181
 10
-300.80412956
 20
203.99129719
 10
-300.71805273
 20
203.82865288
 10
-300.63842389
 20
203.66212276
 10
-300.56527406
 20
203.49173074
 10
-300.56527406
 20
203.49173074
 10
-300.49823206
 20
203.31743883
 10
-300.43829806
 20
203.14036141
 10
-300.38546006
 20
202.96049599
 10
-300.33970606
 20
202.77784008
 10
-300.30102406
 20
202.59239116
 10
-300.26940206
 20
202.40414674
 10
-300.24482806
 20
202.21310433
 10
-300.22729006
 20
202.01926141
 10
-300.21677606
 20
201.82261549
 10
-300.21327406
 20
201.62316408
 10
-300.21327406
 20
201.62316408
 10
-300.21327406
 20
201.62316408
  0
HATCH
  5
8F
100
AcDbEntity
  8
ANKER
 62
   190
100
AcDbHatch
 10
0.0
 20
0.0
 30
0.0
210
0.0
220
0.0
230
1.0
  2
SOLID
 70
     1
 71
     1
 91
        1
 92
        7
 72
     0
 73
     1
 93
      160
 10
-300.21327406
 20
201.62316408
 10
-300.21684606
 20
201.42499736
 10
-300.22755006
 20
201.22953034
 10
-300.24536806
 20
201.03678273
 10
-300.27028206
 20
200.84677421
 10
-300.30227406
 20
200.65952449
 10
-300.34132606
 20
200.47505328
 10
-300.38742006
 20
200.29338026
 10
-300.44053806
 20
200.11452514
 10
-300.50066206
 20
199.93850763
 10
-300.56777406
 20
199.76534741
 10
-300.64150706
 20
199.59487354
 10
-300.72189806
 20
199.42812648
 10
-300.80893506
 20
199.26509801
 10
-300.90260606
 20
199.10577994
 10
-301.00289906
 20
198.95016408
 10
-301.10980206
 20
198.79824221
 10
-301.22330306
 20
198.65000614
 10
-301.34339006
 20
198.50544768
 10
-301.47005106
 20
198.36455861
 10
-301.60327406
 20
198.22733074
 10
-301.74201273
 20
198.09754996
 10
-301.88492339
 20
197.97398248
 10
-302.03199806
 20
197.85663559
 10
-302.18322873
 20
197.74551661
 10
-302.33860739
 20
197.64063283
 10
-302.49812606
 20
197.54199154
 10
-302.66177673
 20
197.44960006
 10
-302.82955139
 20
197.36346568
 10
-303.00144206
 20
197.28359569
 10
-303.17744073
 20
197.20999741
 10
-303.35648873
 20
197.14299928
 10
-303.53800473
 20
197.08294234
 10
-303.72194673
 20
197.02985281
 10
-303.90827273
 20
196.98375688
 10
-304.09694073
 20
196.94468074
 10
-304.28790873
 20
196.91265061
 10
-304.48113473
 20
196.88769268
 10
-304.67657673
 20
196.86983314
 10
-304.87419273
 20
196.85909821
 10
-305.07394073
 20
196.85551408
 10
-305.27586106
 20
196.85909821
 10
-305.47530339
 20
196.86983314
 10
-305.67223973
 20
196.88769268
 10
-305.86664206
 20
196.91265061
 10
-306.05848239
 20
196.94468074
 10
-306.24773273
 20
196.98375688
 10
-306.43436506
 20
197.02985281
 10
-306.61835139
 20
197.08294234
 10
-306.79966373
 20
197.14299928
 10
-306.97827406
 20
197.20999741
 10
-307.15420056
 20
197.28371304
 10
-307.32608606
 20
197.36393648
 10
-307.49393956
 20
197.45066251
 10
-307.65777006
 20
197.54388594
 10
-307.81758656
 20
197.64360158
 10
-307.97339806
 20
197.74980421
 10
-308.12521356
 20
197.86248864
 10
-308.27304206
 20
197.98164968
 10
-308.41689256
 20
198.10728211
 10
-308.55677406
 20
198.23938074
 10
-308.68833289
 20
198.37315563
 10
-308.81348473
 20
198.51089981
 10
-308.93219256
 20
198.65259759
 10
-309.04441939
 20
198.79823328
 10
-309.15012823
 20
198.94779116
 10
-309.24928206
 20
199.10125554
 10
-309.34184389
 20
199.25861073
 10
-309.42777673
 20
199.41984101
 10
-309.50704356
 20
199.58493069
 10
-309.57960739
 20
199.75386408
 10
-309.64542523
 20
199.92698673
 10
-309.70437006
 20
200.10319128
 10
-309.75642889
 20
200.28247263
 10
-309.80158873
 20
200.46482568
 10
-309.83983656
 20
200.65024533
 10
-309.87115939
 20
200.83872648
 10
-309.89554423
 20
201.03026403
 10
-309.91297806
 20
201.22485288
 10
-309.92344789
 20
201.42248793
 10
-309.92694073
 20
201.62316408
 10
-309.92344789
 20
201.82383611
 10
-309.91297806
 20
202.02155834
 10
-309.89554423
 20
202.21633998
 10
-309.87115939
 20
202.40819021
 10
-309.83983656
 20
202.59711824
 10
-309.80158873
 20
202.78313328
 10
-309.75642889
 20
202.96624451
 10
-309.70437006
 20
203.14646114
 10
-309.64542523
 20
203.32379238
 10
-309.57960739
 20
203.49824741
 10
-309.50704356
 20
203.66831386
 10
-309.42777673
 20
203.83448701
 10
-309.34184389
 20
203.99672756
 10
-309.24928206
 20
204.15499621
 10
-309.15012823
 20
204.30925366
 10
-309.04441939
 20
204.45946061
 10
-308.93219256
 20
204.60557776
 10
-308.81348473
 20
204.74756581
 10
-308.68833289
 20
204.88538546
 10
-308.55677406
 20
205.01899741
 10
-308.41797023
 20
205.14938924
 10
-308.27514339
 20
205.27351208
 10
-308.12827056
 20
205.39134691
 10
-307.97732873
 20
205.50287474
 10
-307.82229489
 20
205.60807658
 10
-307.66314606
 20
205.70693341
 10
-307.49985923
 20
205.79942624
 10
-307.33241139
 20
205.88553608
 10
-307.16077956
 20
205.96524391
 10
-306.98494073
 20
206.03853074
 10
-306.80602673
 20
206.10556233
 10
-306.62438873
 20
206.16545941
 10
-306.44003273
 20
206.21824049
 10
-306.25296473
 20
206.26392408
 10
-306.06319073
 20
206.30252866
 10
-305.87071673
 20
206.33407274
 10
-305.67554873
 20
206.35857483
 10
-305.47769273
 20
206.37605341
 10
-305.27715473
 20
206.38652699
 10
-305.07394073
 20
206.39001408
 10
-304.87056906
 20
206.38652699
 10
-304.66986739
 20
206.37605341
 10
-304.47185573
 20
206.35857483
 10
-304.27655406
 20
206.33407274
 10
-304.08398239
 20
206.30252866
 10
-303.89416073
 20
206.26392408
 10
-303.70710906
 20
206.21824049
 10
-303.52284739
 20
206.16545941
 10
-303.34139573
 20
206.10556233
 10
-303.16277406
 20
206.03853074
 10
-302.98677139
 20
205.96524391
 10
-302.81485273
 20
205.88553608
 10
-302.64700206
 20
205.79942624
 10
-302.48320339
 20
205.70693341
 10
-302.32344073
 20
205.60807658
 10
-302.16769806
 20
205.50287474
 10
-302.01595939
 20
205.39134691
 10
-301.86820873
 20
205.27351208
 10
-301.72443006
 20
205.14938924
 10
-301.58460739
 20
205.01899741
 10
-301.45426256
 20
204.88422289
 10
-301.33014873
 20
204.74539528
 10
-301.21229689
 20
204.60253846
 10
-301.10073806
 20
204.45567634
 10
-300.99550323
 20
204.30483283
 10
-300.89662339
 20
204.15003181
 10
-300.80412956
 20
203.99129719
 10
-300.71805273
 20
203.82865288
 10
-300.63842389
 20
203.66212276
 10
-300.56527406
 20
203.49173074
 10
-300.49823206
 20
203.31743883
 10
-300.43829806
 20
203.14036141
 10
-300.38546006
 20
202.96049599
 10
-300.33970606
 20
202.77784008
 10
-300.30102406
 20
202.59239116
 10
-300.26940206
 20
202.40414674
 10
-300.24482806
 20
202.21310433
 10
-300.22729006
 20
202.01926141
 10
-300.21677606
 20
201.82261549
 97
        1
330
8E
 75
     0
 76
     2
 47
0.775229
 98
        1
 10
0.0
 20
0.0
  0
LWPOLYLINE
  5
90
102
{ACAD_REACTORS
330
91
102
}
100
AcDbEntity
  8
ANKER
 62
    12
100
AcDbPolyline
 90
       90
 70
     1
 43
0.0
 10
-305.07394073
 20
199.90898074
 10
-304.93872356
 20
199.91371606
 10
-304.80896339
 20
199.92789928
 10
-304.68464723
 20
199.95149629
 10
-304.56576206
 20
199.98447301
 10
-304.45229489
 20
200.02679533
 10
-304.34423273
 20
200.07842914
 10
-304.24156256
 20
200.13934036
 10
-304.14427139
 20
200.20949488
 10
-304.05234623
 20
200.28885859
 10
-303.96577406
 20
200.37739741
 10
-303.96577406
 20
200.37739741
 10
-303.88608156
 20
200.47452243
 10
-303.81471406
 20
200.57764354
 10
-303.75168656
 20
200.68679986
 10
-303.69701406
 20
200.80203048
 10
-303.65071156
 20
200.92337449
 10
-303.61279406
 20
201.05087101
 10
-303.58327656
 20
201.18455913
 10
-303.56217406
 20
201.32447794
 10
-303.54950156
 20
201.47066656
 10
-303.54527406
 20
201.62316408
 10
-303.54527406
 20
201.62316408
 10
-303.54950156
 20
201.77640961
 10
-303.56217406
 20
201.92341834
 10
-303.58327656
 20
202.06422348
 10
-303.61279406
 20
202.19885821
 10
-303.65071156
 20
202.32735574
 10
-303.69701406
 20
202.44974928
 10
-303.75168656
 20
202.56607201
 10
-303.81471406
 20
202.67635714
 10
-303.88608156
 20
202.78063788
 10
-303.96577406
 20
202.87894741
 10
-303.96577406
 20
202.87894741
 10
-304.05234623
 20
202.96897279
 10
-304.14427139
 20
203.04958848
 10
-304.24156256
 20
203.12077876
 10
-304.34423273
 20
203.18252794
 10
-304.45229489
 20
203.23482033
 10
-304.56576206
 20
203.27764021
 10
-304.68464723
 20
203.31097189
 10
-304.80896339
 20
203.33479968
 10
-304.93872356
 20
203.34910786
 10
-305.07394073
 20
203.35388074
 10
-305.07394073
 20
203.35388074
 10
-305.20909373
 20
203.34910379
 10
-305.33894473
 20
203.33476714
 10
-305.46348173
 20
203.31086209
 10
-305.58269273
 20
203.27737994
 10
-305.69656573
 20
203.23431199
 10
-305.80508873
 20
203.18164954
 10
-305.90824973
 20
203.11938389
 10
-306.00603673
 20
203.04750634
 10
-306.09843773
 20
202.96600819
 10
-306.18544073
 20
202.87488074
 10
-306.18544073
 20
202.87488074
 10
-306.26578739
 20
202.77651678
 10
-306.33763406
 20
202.67219501
 10
-306.40099073
 20
202.56191564
 10
-306.45586739
 20
202.44567888
 10
-306.50227406
 20
202.32348491
 10
-306.54022073
 20
202.19533394
 10
-306.56971739
 20
202.06122618
 10
-306.59077406
 20
201.92116181
 10
-306.60340073
 20
201.77514104
 10
-306.60760739
 20
201.62316408
 10
-306.60760739
 20
201.62316408
 10
-306.60340073
 20
201.47066656
 10
-306.59077406
 20
201.32447794
 10
-306.56971739
 20
201.18455913
 10
-306.54022073
 20
201.05087101
 10
-306.50227406
 20
200.92337449
 10
-306.45586739
 20
200.80203048
 10
-306.40099073
 20
200.68679986
 10
-306.33763406
 20
200.57764354
 10
-306.26578739
 20
200.47452243
 10
-306.18544073
 20
200.37739741
 10
-306.18544073
 20
200.37739741
 10
-306.09843773
 20
200.28885859
 10
-306.00603673
 20
200.20949488
 10
-305.90824973
 20
200.13934036
 10
-305.80508873
 20
200.07842914
 10
-305.69656573
 20
200.02679533
 10
-305.58269273
 20
199.98447301
 10
-305.46348173
 20
199.95149629
 10
-305.33894473
 20
199.92789928
 10
-305.20909373
 20
199.91371606
 10
-305.07394073
 20
199.90898074
 10
-305.07394073
 20
199.90898074
 10
-305.07394073
 20
199.90898074
  0
HATCH
  5
91
100
AcDbEntity
  8
ANKER
 62
    12
100
AcDbHatch
 10
0.0
 20
0.0
 30
0.0
210
0.0
220
0.0
230
1.0
  2
SOLID
 70
     1
 71
     1
 91
        1
 92
        7
 72
     0
 73
     1
 93
       80
 10
-305.07394073
 20
199.90898074
 10
-304.93872356
 20
199.91371606
 10
-304.80896339
 20
199.92789928
 10
-304.68464723
 20
199.95149629
 10
-304.56576206
 20
199.98447301
 10
-304.45229489
 20
200.02679533
 10
-304.34423273
 20
200.07842914
 10
-304.24156256
 20
200.13934036
 10
-304.14427139
 20
200.20949488
 10
-304.05234623
 20
200.28885859
 10
-303.96577406
 20
200.37739741
 10
-303.88608156
 20
200.47452243
 10
-303.81471406
 20
200.57764354
 10
-303.75168656
 20
200.68679986
 10
-303.69701406
 20
200.80203048
 10
-303.65071156
 20
200.92337449
 10
-303.61279406
 20
201.05087101
 10
-303.58327656
 20
201.18455913
 10
-303.56217406
 20
201.32447794
 10
-303.54950156
 20
201.47066656
 10
-303.54527406
 20
201.62316408
 10
-303.54950156
 20
201.77640961
 10
-303.56217406
 20
201.92341834
 10
-303.58327656
 20
202.06422348
 10
-303.61279406
 20
202.19885821
 10
-303.65071156
 20
202.32735574
 10
-303.69701406
 20
202.44974928
 10
-303.75168656
 20
202.56607201
 10
-303.81471406
 20
202.67635714
 10
-303.88608156
 20
202.78063788
 10
-303.96577406
 20
202.87894741
 10
-304.05234623
 20
202.96897279
 10
-304.14427139
 20
203.04958848
 10
-304.24156256
 20
203.12077876
 10
-304.34423273
 20
203.18252794
 10
-304.45229489
 20
203.23482033
 10
-304.56576206
 20
203.27764021
 10
-304.68464723
 20
203.31097189
 10
-304.80896339
 20
203.33479968
 10
-304.93872356
 20
203.34910786
 10
-305.07394073
 20
203.35388074
 10
-305.20909373
 20
203.34910379
 10
-305.33894473
 20
203.33476714
 10
-305.46348173
 20
203.31086209
 10
-305.58269273
 20
203.27737994
 10
-305.69656573
 20
203.23431199
 10
-305.80508873
 20
203.18164954
 10
-305.90824973
 20
203.11938389
 10
-306.00603673
 20
203.04750634
 10
-306.09843773
 20
202.96600819
 10
-306.18544073
 20
202.87488074
 10
-306.26578739
 20
202.77651678
 10
-306.33763406
 20
202.67219501
 10
-306.40099073
 20
202.56191564
 10
-306.45586739
 20
202.44567888
 10
-306.50227406
 20
202.32348491
 10
-306.54022073
 20
202.19533394
 10
-306.56971739
 20
202.06122618
 10
-306.59077406
 20
201.92116181
 10
-306.60340073
 20
201.77514104
 10
-306.60760739
 20
201.62316408
 10
-306.60340073
 20
201.47066656
 10
-306.59077406
 20
201.32447794
 10
-306.56971739
 20
201.18455913
 10
-306.54022073
 20
201.05087101
 10
-306.50227406
 20
200.92337449
 10
-306.45586739
 20
200.80203048
 10
-306.40099073
 20
200.68679986
 10
-306.33763406
 20
200.57764354
 10
-306.26578739
 20
200.47452243
 10
-306.18544073
 20
200.37739741
 10
-306.09843773
 20
200.28885859
 10
-306.00603673
 20
200.20949488
 10
-305.90824973
 20
200.13934036
 10
-305.80508873
 20
200.07842914
 10
-305.69656573
 20
200.02679533
 10
-305.58269273
 20
199.98447301
 10
-305.46348173
 20
199.95149629
 10
-305.33894473
 20
199.92789928
 10
-305.20909373
 20
199.91371606
 97
        1
330
90
 75
     0
 76
     2
 47
0.775229
 98
        1
 10
0.0
 20
0.0
  0
LWPOLYLINE
  5
92
102
{ACAD_REACTORS
330
93
102
}
100
AcDbEntity
  8
ANKER
 62
   190
100
AcDbPolyline
 90
       60
 70
     1
 43
0.0
 10
-318.71297406
 20
197.09801408
 10
-318.71297406
 20
206.18453074
 10
-318.71297406
 20
206.18453074
 10
-314.60270739
 20
206.18453074
 10
-314.60270739
 20
206.18453074
 10
-314.25397163
 20
206.17663011
 10
-313.92202926
 20
206.15293768
 10
-313.60688769
 20
206.11346764
 10
-313.30855433
 20
206.05823421
 10
-313.02703656
 20
205.98725158
 10
-312.76234179
 20
205.90053394
 10
-312.51447743
 20
205.79809551
 10
-312.28345086
 20
205.67995048
 10
-312.06926949
 20
205.54611304
 10
-311.87194073
 20
205.39659741
 10
-311.87194073
 20
205.39659741
 10
-311.69273489
 20
205.23200836
 10
-311.53241406
 20
205.05344301
 10
-311.39097323
 20
204.86093406
 10
-311.26840739
 20
204.65451421
 10
-311.16471156
 20
204.43421616
 10
-311.07988073
 20
204.20007261
 10
-311.01390989
 20
203.95211626
 10
-310.96679406
 20
203.69037981
 10
-310.93852823
 20
203.41489596
 10
-310.92910739
 20
203.12569741
 10
-310.92910739
 20
203.12569741
 10
-310.93388906
 20
202.93521284
 10
-310.94822073
 20
202.75156688
 10
-310.97208239
 20
202.57477111
 10
-311.00545406
 20
202.40483714
 10
-311.04831573
 20
202.24177658
 10
-311.10064739
 20
202.08560101
 10
-311.16242906
 20
201.93632204
 10
-311.23364073
 20
201.79395128
 10
-311.31426239
 20
201.65850031
 10
-311.40427406
 20
201.52998074
 10
-311.40427406
 20
201.52998074
 10
-311.50271506
 20
201.40938849
 10
-311.60766206
 20
201.29935274
 10
-311.71915106
 20
201.19985999
 10
-311.83721806
 20
201.11089674
 10
-311.96189906
 20
201.03244949
 10
-312.09323006
 20
200.96450474
 10
-312.23124706
 20
200.90704899
 10
-312.37598606
 20
200.86006874
 10
-312.52748306
 20
200.82355049
 10
-312.68577406
 20
200.79748074
 10
-312.68577406
 20
200.79748074
 10
-310.25944073
 20
197.09801408
 10
-310.25944073
 20
197.09801408
 10
-313.91994073
 20
197.09801408
 10
-313.91994073
 20
197.09801408
 10
-315.50992406
 20
200.09533074
 10
-315.50992406
 20
200.09533074
 10
-315.50992406
 20
197.09801408
 10
-315.50992406
 20
197.09801408
 10
-318.71297406
 20
197.09801408
 10
-318.71297406
 20
197.09801408
 10
-318.71297406
 20
197.09801408
  0
HATCH
  5
93
100
AcDbEntity
  8
ANKER
 62
   190
100
AcDbHatch
 10
0.0
 20
0.0
 30
0.0
210
0.0
220
0.0
230
1.0
  2
SOLID
 70
     1
 71
     1
 91
        1
 92
        7
 72
     0
 73
     1
 93
       47
 10
-318.71297406
 20
197.09801408
 10
-318.71297406
 20
206.18453074
 10
-314.60270739
 20
206.18453074
 10
-314.25397163
 20
206.17663011
 10
-313.92202926
 20
206.15293768
 10
-313.60688769
 20
206.11346764
 10
-313.30855433
 20
206.05823421
 10
-313.02703656
 20
205.98725158
 10
-312.76234179
 20
205.90053394
 10
-312.51447743
 20
205.79809551
 10
-312.28345086
 20
205.67995048
 10
-312.06926949
 20
205.54611304
 10
-311.87194073
 20
205.39659741
 10
-311.69273489
 20
205.23200836
 10
-311.53241406
 20
205.05344301
 10
-311.39097323
 20
204.86093406
 10
-311.26840739
 20
204.65451421
 10
-311.16471156
 20
204.43421616
 10
-311.07988073
 20
204.20007261
 10
-311.01390989
 20
203.95211626
 10
-310.96679406
 20
203.69037981
 10
-310.93852823
 20
203.41489596
 10
-310.92910739
 20
203.12569741
 10
-310.93388906
 20
202.93521284
 10
-310.94822073
 20
202.75156688
 10
-310.97208239
 20
202.57477111
 10
-311.00545406
 20
202.40483714
 10
-311.04831573
 20
202.24177658
 10
-311.10064739
 20
202.08560101
 10
-311.16242906
 20
201.93632204
 10
-311.23364073
 20
201.79395128
 10
-311.31426239
 20
201.65850031
 10
-311.40427406
 20
201.52998074
 10
-311.50271506
 20
201.40938849
 10
-311.60766206
 20
201.29935274
 10
-311.71915106
 20
201.19985999
 10
-311.83721806
 20
201.11089674
 10
-311.96189906
 20
201.03244949
 10
-312.09323006
 20
200.96450474
 10
-312.23124706
 20
200.90704899
 10
-312.37598606
 20
200.86006874
 10
-312.52748306
 20
200.82355049
 10
-312.68577406
 20
200.79748074
 10
-310.25944073
 20
197.09801408
 10
-313.91994073
 20
197.09801408
 10
-315.50992406
 20
200.09533074
 10
-315.50992406
 20
197.09801408
 97
        1
330
92
 75
     0
 76
     2
 47
0.775229
 98
        1
 10
0.0
 20
0.0
  0
LWPOLYLINE
  5
94
102
{ACAD_REACTORS
330
95
102
}
100
AcDbEntity
  8
ANKER
 62
    12
100
AcDbPolyline
 90
       52
 70
     1
 43
0.0
 10
-315.50992406
 20
203.84589741
 10
-315.50992406
 20
202.07084741
 10
-315.50992406
 20
202.07084741
 10
-315.00080739
 20
202.07084741
 10
-315.00080739
 20
202.07084741
 10
-314.90976094
 20
202.07311881
 10
-314.82308179
 20
202.07992861
 10
-314.74075524
 20
202.09127021
 10
-314.66276659
 20
202.10713701
 10
-314.58910114
 20
202.12752241
 10
-314.51974419
 20
202.15241981
 10
-314.45468104
 20
202.18182261
 10
-314.39389699
 20
202.21572421
 10
-314.33737734
 20
202.25411801
 10
-314.28510739
 20
202.29699741
 10
-314.28510739
 20
202.29699741
 10
-314.23726323
 20
202.34408089
 10
-314.19443406
 20
202.39510328
 10
-314.15662489
 20
202.45006746
 10
-314.12384073
 20
202.50897634
 10
-314.09608656
 20
202.57183283
 10
-314.07336739
 20
202.63863981
 10
-314.05568823
 20
202.70940019
 10
-314.04305406
 20
202.78411688
 10
-314.03546989
 20
202.86279276
 10
-314.03294073
 20
202.94543074
 10
-314.03294073
 20
202.94543074
 10
-314.03546989
 20
203.03026954
 10
-314.04305406
 20
203.11109914
 10
-314.05568823
 20
203.18790934
 10
-314.07336739
 20
203.26068994
 10
-314.09608656
 20
203.32943074
 10
-314.12384073
 20
203.39412154
 10
-314.15662489
 20
203.45475214
 10
-314.19443406
 20
203.51131234
 10
-314.23726323
 20
203.56379194
 10
-314.28510739
 20
203.61218074
 10
-314.28510739
 20
203.61218074
 10
-314.33737734
 20
203.65631691
 10
-314.39389699
 20
203.69589208
 10
-314.45468104
 20
203.73088624
 10
-314.51974419
 20
203.76127941
 10
-314.58910114
 20
203.78705158
 10
-314.66276659
 20
203.80818274
 10
-314.74075524
 20
203.82465291
 10
-314.82308179
 20
203.83644208
 10
-314.90976094
 20
203.84353024
 10
-315.00080739
 20
203.84589741
 10
-315.00080739
 20
203.84589741
 10
-315.50992406
 20
203.84589741
 10
-315.50992406
 20
203.84589741
 10
-315.50992406
 20
203.84589741
  0
HATCH
  5
95
100
AcDbEntity
  8
ANKER
 62
    12
100
AcDbHatch
 10
0.0
 20
0.0
 30
0.0
210
0.0
220
0.0
230
1.0
  2
SOLID
 70
     1
 71
     1
 91
        1
 92
        7
 72
     0
 73
     1
 93
       43
 10
-315.50992406
 20
203.84589741
 10
-315.50992406
 20
202.07084741
 10
-315.00080739
 20
202.07084741
 10
-314.90976094
 20
202.07311881
 10
-314.82308179
 20
202.07992861
 10
-314.74075524
 20
202.09127021
 10
-314.66276659
 20
202.10713701
 10
-314.58910114
 20
202.12752241
 10
-314.51974419
 20
202.15241981
 10
-314.45468104
 20
202.18182261
 10
-314.39389699
 20
202.21572421
 10
-314.33737734
 20
202.25411801
 10
-314.28510739
 20
202.29699741
 10
-314.23726323
 20
202.34408089
 10
-314.19443406
 20
202.39510328
 10
-314.15662489
 20
202.45006746
 10
-314.12384073
 20
202.50897634
 10
-314.09608656
 20
202.57183283
 10
-314.07336739
 20
202.63863981
 10
-314.05568823
 20
202.70940019
 10
-314.04305406
 20
202.78411688
 10
-314.03546989
 20
202.86279276
 10
-314.03294073
 20
202.94543074
 10
-314.03546989
 20
203.03026954
 10
-314.04305406
 20
203.11109914
 10
-314.05568823
 20
203.18790934
 10
-314.07336739
 20
203.26068994
 10
-314.09608656
 20
203.32943074
 10
-314.12384073
 20
203.39412154
 10
-314.15662489
 20
203.45475214
 10
-314.19443406
 20
203.51131234
 10
-314.23726323
 20
203.56379194
 10
-314.28510739
 20
203.61218074
 10
-314.33737734
 20
203.65631691
 10
-314.39389699
 20
203.69589208
 10
-314.45468104
 20
203.73088624
 10
-314.51974419
 20
203.76127941
 10
-314.58910114
 20
203.78705158
 10
-314.66276659
 20
203.80818274
 10
-314.74075524
 20
203.82465291
 10
-314.82308179
 20
203.83644208
 10
-314.90976094
 20
203.84353024
 10
-315.00080739
 20
203.84589741
 97
        1
330
94
 75
     0
 76
     2
 47
0.775229
 98
        1
 10
0.0
 20
0.0
  0
LWPOLYLINE
  5
96
102
{ACAD_REACTORS
330
97
102
}
100
AcDbEntity
  8
ANKER
 62
   190
100
AcDbPolyline
 90
       56
 70
     1
 43
0.0
 10
-327.71257406
 20
197.09801408
 10
-327.71257406
 20
206.18453074
 10
-327.71257406
 20
206.18453074
 10
-323.80785739
 20
206.18453074
 10
-323.80785739
 20
206.18453074
 10
-323.40708124
 20
206.17658208
 10
-323.02843019
 20
206.15273941
 10
-322.67190034
 20
206.11300774
 10
-322.33748779
 20
206.05739208
 10
-322.02518864
 20
205.98589741
 10
-321.73499899
 20
205.89852874
 10
-321.46691494
 20
205.79529108
 10
-321.22093259
 20
205.67618941
 10
-320.99704804
 20
205.54122874
 10
-320.79525739
 20
205.39041408
 10
-320.79525739
 20
205.39041408
 10
-320.61420219
 20
205.22205274
 10
-320.45219779
 20
205.03516541
 10
-320.30924599
 20
204.82973208
 10
-320.18534859
 20
204.60573274
 10
-320.08050739
 20
204.36314741
 10
-319.99472419
 20
204.10195608
 10
-319.92800079
 20
203.82213874
 10
-319.88033899
 20
203.52367541
 10
-319.85174059
 20
203.20654608
 10
-319.84220739
 20
202.87073074
 10
-319.84220739
 20
202.87073074
 10
-319.85077729
 20
202.55773873
 10
-319.87648059
 20
202.26207661
 10
-319.91930769
 20
201.98375029
 10
-319.97924899
 20
201.72276568
 10
-320.05629489
 20
201.47912866
 10
-320.15043579
 20
201.25284514
 10
-320.26166209
 20
201.04392103
 10
-320.38996419
 20
200.85236221
 10
-320.53533249
 20
200.67817459
 10
-320.69775739
 20
200.52136408
 10
-320.69775739
 20
200.52136408
 10
-320.87951006
 20
200.38080663
 10
-321.08131273
 20
200.25499248
 10
-321.30317239
 20
200.14393393
 10
-321.54509606
 20
200.04764328
 10
-321.80709073
 20
199.96613283
 10
-322.08916339
 20
199.89941488
 10
-322.39132106
 20
199.84750173
 10
-322.71357073
 20
199.81040568
 10
-323.05591939
 20
199.78813903
 10
-323.41837406
 20
199.78071408
 10
-323.41837406
 20
199.78071408
 10
-324.44132406
 20
199.78071408
 10
-324.44132406
 20
199.78071408
 10
-324.44132406
 20
197.09801408
 10
-324.44132406
 20
197.09801408
 10
-327.71257406
 20
197.09801408
 10
-327.71257406
 20
197.09801408
 10
-327.71257406
 20
197.09801408
  0
HATCH
  5
97
100
AcDbEntity
  8
ANKER
 62
   190
100
AcDbHatch
 10
0.0
 20
0.0
 30
0.0
210
0.0
220
0.0
230
1.0
  2
SOLID
 70
     1
 71
     1
 91
        1
 92
        7
 72
     0
 73
     1
 93
       45
 10
-327.71257406
 20
197.09801408
 10
-327.71257406
 20
206.18453074
 10
-323.80785739
 20
206.18453074
 10
-323.40708124
 20
206.17658208
 10
-323.02843019
 20
206.15273941
 10
-322.67190034
 20
206.11300774
 10
-322.33748779
 20
206.05739208
 10
-322.02518864
 20
205.98589741
 10
-321.73499899
 20
205.89852874
 10
-321.46691494
 20
205.79529108
 10
-321.22093259
 20
205.67618941
 10
-320.99704804
 20
205.54122874
 10
-320.79525739
 20
205.39041408
 10
-320.61420219
 20
205.22205274
 10
-320.45219779
 20
205.03516541
 10
-320.30924599
 20
204.82973208
 10
-320.18534859
 20
204.60573274
 10
-320.08050739
 20
204.36314741
 10
-319.99472419
 20
204.10195608
 10
-319.92800079
 20
203.82213874
 10
-319.88033899
 20
203.52367541
 10
-319.85174059
 20
203.20654608
 10
-319.84220739
 20
202.87073074
 10
-319.85077729
 20
202.55773873
 10
-319.87648059
 20
202.26207661
 10
-319.91930769
 20
201.98375029
 10
-319.97924899
 20
201.72276568
 10
-320.05629489
 20
201.47912866
 10
-320.15043579
 20
201.25284514
 10
-320.26166209
 20
201.04392103
 10
-320.38996419
 20
200.85236221
 10
-320.53533249
 20
200.67817459
 10
-320.69775739
 20
200.52136408
 10
-320.87951006
 20
200.38080663
 10
-321.08131273
 20
200.25499248
 10
-321.30317239
 20
200.14393393
 10
-321.54509606
 20
200.04764328
 10
-321.80709073
 20
199.96613283
 10
-322.08916339
 20
199.89941488
 10
-322.39132106
 20
199.84750173
 10
-322.71357073
 20
199.81040568
 10
-323.05591939
 20
199.78813903
 10
-323.41837406
 20
199.78071408
 10
-324.44132406
 20
199.78071408
 10
-324.44132406
 20
197.09801408
 97
        1
330
96
 75
     0
 76
     2
 47
0.775229
 98
        1
 10
0.0
 20
0.0
  0
LWPOLYLINE
  5
98
102
{ACAD_REACTORS
330
99
102
}
100
AcDbEntity
  8
ANKER
 62
    12
100
AcDbPolyline
 90
       52
 70
     1
 43
0.0
 10
-324.42855739
 20
203.65898074
 10
-324.42855739
 20
202.14441408
 10
-324.42855739
 20
202.14441408
 10
-323.92090739
 20
202.14441408
 10
-323.92090739
 20
202.14441408
 10
-323.83006928
 20
202.14638238
 10
-323.74346446
 20
202.15228048
 10
-323.66112224
 20
202.16209818
 10
-323.58307193
 20
202.17582528
 10
-323.50934281
 20
202.19345158
 10
-323.43996419
 20
202.21496688
 10
-323.37496538
 20
202.24036098
 10
-323.31437566
 20
202.26962368
 10
-323.25822434
 20
202.30274478
 10
-323.20654073
 20
202.33971408
 10
-323.20654073
 20
202.33971408
 10
-323.15947198
 20
202.38053144
 10
-323.11733873
 20
202.42461901
 10
-323.08014548
 20
202.47198498
 10
-323.04789673
 20
202.52263754
 10
-323.02059698
 20
202.57658491
 10
-322.99825073
 20
202.63383528
 10
-322.98086248
 20
202.69439684
 10
-322.96843673
 20
202.75827781
 10
-322.96097798
 20
202.82548638
 10
-322.95849073
 20
202.89603074
 10
-322.95849073
 20
202.89603074
 10
-322.96102449
 20
202.96628843
 10
-322.96863286
 20
203.03340421
 10
-322.98132643
 20
203.09738219
 10
-322.99911579
 20
203.15822648
 10
-323.02201156
 20
203.21594116
 10
-323.05002433
 20
203.27053034
 10
-323.08316469
 20
203.32199813
 10
-323.12144326
 20
203.37034861
 10
-323.16487063
 20
203.41558589
 10
-323.21345739
 20
203.45771408
 10
-323.21345739
 20
203.45771408
 10
-323.26620329
 20
203.49574549
 10
-323.32292659
 20
203.52983941
 10
-323.38363569
 20
203.55998033
 10
-323.44833899
 20
203.58615274
 10
-323.51704489
 20
203.60834116
 10
-323.58976179
 20
203.62653008
 10
-323.66649809
 20
203.64070399
 10
-323.74726219
 20
203.65084741
 10
-323.83206249
 20
203.65694483
 10
-323.92090739
 20
203.65898074
 10
-323.92090739
 20
203.65898074
 10
-324.42855739
 20
203.65898074
 10
-324.42855739
 20
203.65898074
 10
-324.42855739
 20
203.65898074
  0
HATCH
  5
99
100
AcDbEntity
  8
ANKER
 62
    12
100
AcDbHatch
 10
0.0
 20
0.0
 30
0.0
210
0.0
220
0.0
230
1.0
  2
SOLID
 70
     1
 71
     1
 91
        1
 92
        7
 72
     0
 73
     1
 93
       43
 10
-324.42855739
 20
203.65898074
 10
-324.42855739
 20
202.14441408
 10
-323.92090739
 20
202.14441408
 10
-323.83006928
 20
202.14638238
 10
-323.74346446
 20
202.15228048
 10
-323.66112224
 20
202.16209818
 10
-323.58307193
 20
202.17582528
 10
-323.50934281
 20
202.19345158
 10
-323.43996419
 20
202.21496688
 10
-323.37496538
 20
202.24036098
 10
-323.31437566
 20
202.26962368
 10
-323.25822434
 20
202.30274478
 10
-323.20654073
 20
202.33971408
 10
-323.15947198
 20
202.38053144
 10
-323.11733873
 20
202.42461901
 10
-323.08014548
 20
202.47198498
 10
-323.04789673
 20
202.52263754
 10
-323.02059698
 20
202.57658491
 10
-322.99825073
 20
202.63383528
 10
-322.98086248
 20
202.69439684
 10
-322.96843673
 20
202.75827781
 10
-322.96097798
 20
202.82548638
 10
-322.95849073
 20
202.89603074
 10
-322.96102449
 20
202.96628843
 10
-322.96863286
 20
203.03340421
 10
-322.98132643
 20
203.09738219
 10
-322.99911579
 20
203.15822648
 10
-323.02201156
 20
203.21594116
 10
-323.05002433
 20
203.27053034
 10
-323.08316469
 20
203.32199813
 10
-323.12144326
 20
203.37034861
 10
-323.16487063
 20
203.41558589
 10
-323.21345739
 20
203.45771408
 10
-323.26620329
 20
203.49574549
 10
-323.32292659
 20
203.52983941
 10
-323.38363569
 20
203.55998033
 10
-323.44833899
 20
203.58615274
 10
-323.51704489
 20
203.60834116
 10
-323.58976179
 20
203.62653008
 10
-323.66649809
 20
203.64070399
 10
-323.74726219
 20
203.65084741
 10
-323.83206249
 20
203.65694483
 10
-323.92090739
 20
203.65898074
 97
        1
330
98
 75
     0
 76
     2
 47
0.775229
 98
        1
 10
0.0
 20
0.0
  0
LWPOLYLINE
  5
9A
102
{ACAD_REACTORS
330
9B
102
}
100
AcDbEntity
  8
ANKER
 62
    12
100
AcDbPolyline
 90
       10
 70
     1
 43
0.0
 10
-286.66610739
 20
197.09801408
 10
-286.66610739
 20
206.18453074
 10
-286.66610739
 20
206.18453074
 10
-282.19827406
 20
206.18453074
 10
-282.19827406
 20
206.18453074
 10
-282.19827406
 20
197.09801408
 10
-282.19827406
 20
197.09801408
 10
-286.66610739
 20
197.09801408
 10
-286.66610739
 20
197.09801408
 10
-286.66610739
 20
197.09801408
  0
HATCH
  5
9B
100
AcDbEntity
  8
ANKER
 62
    12
100
AcDbHatch
 10
0.0
 20
0.0
 30
0.0
210
0.0
220
0.0
230
1.0
  2
SOLID
 70
     1
 71
     1
 91
        1
 92
        7
 72
     0
 73
     1
 93
        4
 10
-286.66610739
 20
197.09801408
 10
-286.66610739
 20
206.18453074
 10
-282.19827406
 20
206.18453074
 10
-282.19827406
 20
197.09801408
 97
        1
330
9A
 75
     0
 76
     2
 47
0.775229
 98
        1
 10
0.0
 20
0.0
  0
LWPOLYLINE
  5
9C
102
{ACAD_REACTORS
330
9D
102
}
100
AcDbEntity
  8
ANKER
 62
    12
100
AcDbPolyline
 90
      114
 70
     1
 43
0.0
 10
-274.44894073
 20
199.15913074
 10
-274.48329473
 20
199.21394909
 10
-274.51585273
 20
199.26649954
 10
-274.54660873
 20
199.31680519
 10
-274.57555673
 20
199.36488914
 10
-274.60269073
 20
199.41077449
 10
-274.62800473
 20
199.45448434
 10
-274.65149273
 20
199.49604179
 10
-274.67314873
 20
199.53546994
 10
-274.69296673
 20
199.57279189
 10
-274.71094073
 20
199.60803074
 10
-274.71094073
 20
199.60803074
 10
-274.72824339
 20
199.64198191
 10
-274.74456206
 20
199.67519208
 10
-274.75991273
 20
199.70767124
 10
-274.77431139
 20
199.73942941
 10
-274.78777406
 20
199.77047658
 10
-274.80031673
 20
199.80082274
 10
-274.81195539
 20
199.83047791
 10
-274.82270606
 20
199.85945208
 10
-274.83258473
 20
199.88775524
 10
-274.84160739
 20
199.91539741
 10
-274.84160739
 20
199.91539741
 10
-274.84927173
 20
199.88919343
 10
-274.85770206
 20
199.86242954
 10
-274.86695439
 20
199.83510286
 10
-274.87708473
 20
199.80721048
 10
-274.88814906
 20
199.77874949
 10
-274.90020339
 20
199.74971701
 10
-274.91330373
 20
199.72011013
 10
-274.92750606
 20
199.68992594
 10
-274.94286639
 20
199.65916156
 10
-274.95944073
 20
199.62781408
 10
-274.95944073
 20
199.62781408
 10
-274.97677706
 20
199.59440809
 10
-274.99677139
 20
199.55797021
 10
-275.01940173
 20
199.51851553
 10
-275.04464606
 20
199.47605914
 10
-275.07248239
 20
199.43061616
 10
-275.10288873
 20
199.38220168
 10
-275.13584306
 20
199.33083079
 10
-275.17132339
 20
199.27651861
 10
-275.20930773
 20
199.21928023
 10
-275.24977406
 20
199.15913074
 10
-275.24977406
 20
199.15913074
 10
-276.63944073
 20
197.09801408
 10
-276.63944073
 20
197.09801408
 10
-281.66710739
 20
197.09801408
 10
-281.66710739
 20
197.09801408
 10
-277.32427406
 20
201.93803074
 10
-277.32427406
 20
201.93803074
 10
-281.15627406
 20
206.18453074
 10
-281.15627406
 20
206.18453074
 10
-276.13677406
 20
206.18453074
 10
-276.13677406
 20
206.18453074
 10
-275.23344073
 20
204.70144741
 10
-275.23344073
 20
204.70144741
 10
-275.23061473
 20
204.69593433
 10
-275.22725273
 20
204.68983674
 10
-275.22337873
 20
204.68315716
 10
-275.21901673
 20
204.67589808
 10
-275.21419073
 20
204.66806199
 10
-275.20892473
 20
204.65965141
 10
-275.20324273
 20
204.65066883
 10
-275.19716873
 20
204.64111674
 10
-275.19072673
 20
204.63099766
 10
-275.18394073
 20
204.62031408
 10
-275.18394073
 20
204.62031408
 10
-275.13520539
 20
204.53766116
 10
-275.08969806
 20
204.45841274
 10
-275.04741673
 20
204.38258433
 10
-275.00835939
 20
204.31019141
 10
-274.97252406
 20
204.24124949
 10
-274.93990873
 20
204.17577408
 10
-274.91051139
 20
204.11378066
 10
-274.88433006
 20
204.05528474
 10
-274.86136273
 20
204.00030183
 10
-274.84160739
 20
203.94884741
 10
-274.84160739
 20
203.94884741
 10
-274.82949373
 20
203.98149071
 10
-274.81683806
 20
204.01423981
 10
-274.80361839
 20
204.04710851
 10
-274.78981273
 20
204.08011061
 10
-274.77539906
 20
204.11325991
 10
-274.76035539
 20
204.14657021
 10
-274.74465973
 20
204.18005531
 10
-274.72829006
 20
204.21372901
 10
-274.71122439
 20
204.24760511
 10
-274.69344073
 20
204.28169741
 10
-274.69344073
 20
204.28169741
 10
-274.67615439
 20
204.31677976
 10
-274.65753006
 20
204.35342021
 10
-274.63761973
 20
204.39160886
 10
-274.61647539
 20
204.43133581
 10
-274.59414906
 20
204.47259116
 10
-274.57069273
 20
204.51536501
 10
-274.54615839
 20
204.55964746
 10
-274.52059806
 20
204.60542861
 10
-274.49406373
 20
204.65269856
 10
-274.46660739
 20
204.70144741
 10
-274.46660739
 20
204.70144741
 10
-273.53910739
 20
206.18453074
 10
-273.53910739
 20
206.18453074
 10
-268.54244073
 20
206.18453074
 10
-268.54244073
 20
206.18453074
 10
-272.36177406
 20
201.93803074
 10
-272.36177406
 20
201.93803074
 10
-268.01410739
 20
197.09801408
 10
-268.01410739
 20
197.09801408
 10
-273.04627406
 20
197.09801408
 10
-273.04627406
 20
197.09801408
 10
-274.44894073
 20
199.15913074
 10
-274.44894073
 20
199.15913074
 10
-274.44894073
 20
199.15913074
  0
HATCH
  5
9D
100
AcDbEntity
  8
ANKER
 62
    12
100
AcDbHatch
 10
0.0
 20
0.0
 30
0.0
210
0.0
220
0.0
230
1.0
  2
SOLID
 70
     1
 71
     1
 91
        1
 92
        7
 72
     0
 73
     1
 93
       92
 10
-274.44894073
 20
199.15913074
 10
-274.48329473
 20
199.21394909
 10
-274.51585273
 20
199.26649954
 10
-274.54660873
 20
199.31680519
 10
-274.57555673
 20
199.36488914
 10
-274.60269073
 20
199.41077449
 10
-274.62800473
 20
199.45448434
 10
-274.65149273
 20
199.49604179
 10
-274.67314873
 20
199.53546994
 10
-274.69296673
 20
199.57279189
 10
-274.71094073
 20
199.60803074
 10
-274.72824339
 20
199.64198191
 10
-274.74456206
 20
199.67519208
 10
-274.75991273
 20
199.70767124
 10
-274.77431139
 20
199.73942941
 10
-274.78777406
 20
199.77047658
 10
-274.80031673
 20
199.80082274
 10
-274.81195539
 20
199.83047791
 10
-274.82270606
 20
199.85945208
 10
-274.83258473
 20
199.88775524
 10
-274.84160739
 20
199.91539741
 10
-274.84927173
 20
199.88919343
 10
-274.85770206
 20
199.86242954
 10
-274.86695439
 20
199.83510286
 10
-274.87708473
 20
199.80721048
 10
-274.88814906
 20
199.77874949
 10
-274.90020339
 20
199.74971701
 10
-274.91330373
 20
199.72011013
 10
-274.92750606
 20
199.68992594
 10
-274.94286639
 20
199.65916156
 10
-274.95944073
 20
199.62781408
 10
-274.97677706
 20
199.59440809
 10
-274.99677139
 20
199.55797021
 10
-275.01940173
 20
199.51851553
 10
-275.04464606
 20
199.47605914
 10
-275.07248239
 20
199.43061616
 10
-275.10288873
 20
199.38220168
 10
-275.13584306
 20
199.33083079
 10
-275.17132339
 20
199.27651861
 10
-275.20930773
 20
199.21928023
 10
-275.24977406
 20
199.15913074
 10
-276.63944073
 20
197.09801408
 10
-281.66710739
 20
197.09801408
 10
-277.32427406
 20
201.93803074
 10
-281.15627406
 20
206.18453074
 10
-276.13677406
 20
206.18453074
 10
-275.23344073
 20
204.70144741
 10
-275.23061473
 20
204.69593433
 10
-275.22725273
 20
204.68983674
 10
-275.22337873
 20
204.68315716
 10
-275.21901673
 20
204.67589808
 10
-275.21419073
 20
204.66806199
 10
-275.20892473
 20
204.65965141
 10
-275.20324273
 20
204.65066883
 10
-275.19716873
 20
204.64111674
 10
-275.19072673
 20
204.63099766
 10
-275.18394073
 20
204.62031408
 10
-275.13520539
 20
204.53766116
 10
-275.08969806
 20
204.45841274
 10
-275.04741673
 20
204.38258433
 10
-275.00835939
 20
204.31019141
 10
-274.97252406
 20
204.24124949
 10
-274.93990873
 20
204.17577408
 10
-274.91051139
 20
204.11378066
 10
-274.88433006
 20
204.05528474
 10
-274.86136273
 20
204.00030183
 10
-274.84160739
 20
203.94884741
 10
-274.82949373
 20
203.98149071
 10
-274.81683806
 20
204.01423981
 10
-274.80361839
 20
204.04710851
 10
-274.78981273
 20
204.08011061
 10
-274.77539906
 20
204.11325991
 10
-274.76035539
 20
204.14657021
 10
-274.74465973
 20
204.18005531
 10
-274.72829006
 20
204.21372901
 10
-274.71122439
 20
204.24760511
 10
-274.69344073
 20
204.28169741
 10
-274.67615439
 20
204.31677976
 10
-274.65753006
 20
204.35342021
 10
-274.63761973
 20
204.39160886
 10
-274.61647539
 20
204.43133581
 10
-274.59414906
 20
204.47259116
 10
-274.57069273
 20
204.51536501
 10
-274.54615839
 20
204.55964746
 10
-274.52059806
 20
204.60542861
 10
-274.49406373
 20
204.65269856
 10
-274.46660739
 20
204.70144741
 10
-273.53910739
 20
206.18453074
 10
-268.54244073
 20
206.18453074
 10
-272.36177406
 20
201.93803074
 10
-268.01410739
 20
197.09801408
 10
-273.04627406
 20
197.09801408
 97
        1
330
9C
 75
     0
 76
     2
 47
0.775229
 98
        1
 10
0.0
 20
0.0
  0
LWPOLYLINE
  5
9E
102
{ACAD_REACTORS
330
9F
102
}
100
AcDbEntity
  8
ANKER
 62
     7
100
AcDbPolyline
 90
       46
 70
     1
 43
0.0
 10
-263.69894073
 20
212.31058074
 10
-263.58641023
 20
212.30146724
 10
-263.47949673
 20
212.27509274
 10
-263.37966723
 20
212.23290624
 10
-263.28838873
 20
212.17635674
 10
-263.20712823
 20
212.10689324
 10
-263.13735273
 20
212.02596474
 10
-263.08052923
 20
211.93502024
 10
-263.03812473
 20
211.83550874
 10
-263.01160623
 20
211.72887924
 10
-263.00244073
 20
211.61658074
 10
-263.00244073
 20
211.61658074
 10
-263.01160623
 20
211.50442708
 10
-263.03812473
 20
211.39793141
 10
-263.08052923
 20
211.29854174
 10
-263.13735273
 20
211.20770608
 10
-263.20712823
 20
211.12687241
 10
-263.28838873
 20
211.05748874
 10
-263.37966723
 20
211.00100308
 10
-263.47949673
 20
210.95886341
 10
-263.58641023
 20
210.93251774
 10
-263.69894073
 20
210.92341408
 10
-263.69894073
 20
210.92341408
 10
-263.81206156
 20
210.93251774
 10
-263.91936739
 20
210.95886341
 10
-264.01942323
 20
211.00100308
 10
-264.11079406
 20
211.05748874
 10
-264.19204489
 20
211.12687241
 10
-264.26174073
 20
211.20770608
 10
-264.31844656
 20
211.29854174
 10
-264.36072739
 20
211.39793141
 10
-264.38714823
 20
211.50442708
 10
-264.39627406
 20
211.61658074
 10
-264.39627406
 20
211.61658074
 10
-264.38714823
 20
211.72887924
 10
-264.36072739
 20
211.83550874
 10
-264.31844656
 20
211.93502024
 10
-264.26174073
 20
212.02596474
 10
-264.19204489
 20
212.10689324
 10
-264.11079406
 20
212.17635674
 10
-264.01942323
 20
212.23290624
 10
-263.91936739
 20
212.27509274
 10
-263.81206156
 20
212.30146724
 10
-263.69894073
 20
212.31058074
 10
-263.69894073
 20
212.31058074
 10
-263.69894073
 20
212.31058074
  0
HATCH
  5
9F
100
AcDbEntity
  8
ANKER
 62
     7
100
AcDbHatch
 10
0.0
 20
0.0
 30
0.0
210
0.0
220
0.0
230
1.0
  2
SOLID
 70
     1
 71
     1
 91
        1
 92
        7
 72
     0
 73
     1
 93
       40
 10
-263.69894073
 20
212.31058074
 10
-263.58641023
 20
212.30146724
 10
-263.47949673
 20
212.27509274
 10
-263.37966723
 20
212.23290624
 10
-263.28838873
 20
212.17635674
 10
-263.20712823
 20
212.10689324
 10
-263.13735273
 20
212.02596474
 10
-263.08052923
 20
211.93502024
 10
-263.03812473
 20
211.83550874
 10
-263.01160623
 20
211.72887924
 10
-263.00244073
 20
211.61658074
 10
-263.01160623
 20
211.50442708
 10
-263.03812473
 20
211.39793141
 10
-263.08052923
 20
211.29854174
 10
-263.13735273
 20
211.20770608
 10
-263.20712823
 20
211.12687241
 10
-263.28838873
 20
211.05748874
 10
-263.37966723
 20
211.00100308
 10
-263.47949673
 20
210.95886341
 10
-263.58641023
 20
210.93251774
 10
-263.69894073
 20
210.92341408
 10
-263.81206156
 20
210.93251774
 10
-263.91936739
 20
210.95886341
 10
-264.01942323
 20
211.00100308
 10
-264.11079406
 20
211.05748874
 10
-264.19204489
 20
211.12687241
 10
-264.26174073
 20
211.20770608
 10
-264.31844656
 20
211.29854174
 10
-264.36072739
 20
211.39793141
 10
-264.38714823
 20
211.50442708
 10
-264.39627406
 20
211.61658074
 10
-264.38714823
 20
211.72887924
 10
-264.36072739
 20
211.83550874
 10
-264.31844656
 20
211.93502024
 10
-264.26174073
 20
212.02596474
 10
-264.19204489
 20
212.10689324
 10
-264.11079406
 20
212.17635674
 10
-264.01942323
 20
212.23290624
 10
-263.91936739
 20
212.27509274
 10
-263.81206156
 20
212.30146724
 97
        1
330
9E
 75
     0
 76
     2
 47
0.775229
 98
        1
 10
0.0
 20
0.0
  0
LWPOLYLINE
  5
A0
102
{ACAD_REACTORS
330
A1
102
}
100
AcDbEntity
  8
ANKER
 62
    12
100
AcDbPolyline
 90
       29
 70
     1
 43
0.0
 10
-264.01860739
 20
212.09858074
 10
-264.01860739
 20
211.19191408
 10
-264.01860739
 20
211.19191408
 10
-263.88444073
 20
211.19191408
 10
-263.88444073
 20
211.19191408
 10
-263.88444073
 20
211.59891408
 10
-263.88444073
 20
211.59891408
 10
-263.70610739
 20
211.59891408
 10
-263.70610739
 20
211.59891408
 10
-263.44677406
 20
211.19791408
 10
-263.44677406
 20
211.19791408
 10
-263.31060739
 20
211.19791408
 10
-263.31060739
 20
211.19791408
 10
-263.56944073
 20
211.60624741
 10
-263.56944073
 20
211.60624741
 10
-263.48085373
 20
211.62466908
 10
-263.41118473
 20
211.66482074
 10
-263.36072173
 20
211.72113241
 10
-263.32975273
 20
211.78803408
 10
-263.31856573
 20
211.85995574
 10
-263.32744873
 20
211.93132741
 10
-263.35668973
 20
211.99657908
 10
-263.40657673
 20
212.05014074
 10
-263.47739773
 20
212.08644241
 10
-263.56944073
 20
212.09991408
 10
-263.56944073
 20
212.09991408
 10
-264.01860739
 20
212.09858074
 10
-264.01860739
 20
212.09858074
 10
-264.01860739
 20
212.09858074
  0
HATCH
  5
A1
100
AcDbEntity
  8
ANKER
 62
    12
100
AcDbHatch
 10
0.0
 20
0.0
 30
0.0
210
0.0
220
0.0
230
1.0
  2
SOLID
 70
     1
 71
     1
 91
        1
 92
        7
 72
     0
 73
     1
 93
       18
 10
-264.01860739
 20
212.09858074
 10
-264.01860739
 20
211.19191408
 10
-263.88444073
 20
211.19191408
 10
-263.88444073
 20
211.59891408
 10
-263.70610739
 20
211.59891408
 10
-263.44677406
 20
211.19791408
 10
-263.31060739
 20
211.19791408
 10
-263.56944073
 20
211.60624741
 10
-263.48085373
 20
211.62466908
 10
-263.41118473
 20
211.66482074
 10
-263.36072173
 20
211.72113241
 10
-263.32975273
 20
211.78803408
 10
-263.31856573
 20
211.85995574
 10
-263.32744873
 20
211.93132741
 10
-263.35668973
 20
211.99657908
 10
-263.40657673
 20
212.05014074
 10
-263.47739773
 20
212.08644241
 10
-263.56944073
 20
212.09991408
 97
        1
330
A0
 75
     0
 76
     2
 47
0.775229
 98
        1
 10
0.0
 20
0.0
  0
LWPOLYLINE
  5
A2
102
{ACAD_REACTORS
330
A3
102
}
100
AcDbEntity
  8
ANKER
 62
     7
100
AcDbPolyline
 90
       19
 70
     1
 43
0.0
 10
-263.88444073
 20
211.99541408
 10
-263.88444073
 20
211.70474741
 10
-263.88444073
 20
211.70474741
 10
-263.58310739
 20
211.70558074
 10
-263.58310739
 20
211.70558074
 10
-263.53012889
 20
211.71743108
 10
-263.48865939
 20
211.74180341
 10
-263.45879789
 20
211.77542974
 10
-263.44064339
 20
211.81504208
 10
-263.43429489
 20
211.85737241
 10
-263.43985139
 20
211.89915274
 10
-263.45741189
 20
211.93711508
 10
-263.48707539
 20
211.96799141
 10
-263.52894089
 20
211.98851374
 10
-263.58310739
 20
211.99541408
 10
-263.58310739
 20
211.99541408
 10
-263.88444073
 20
211.99541408
 10
-263.88444073
 20
211.99541408
 10
-263.88444073
 20
211.99541408
  0
HATCH
  5
A3
100
AcDbEntity
  8
ANKER
 62
     7
100
AcDbHatch
 10
0.0
 20
0.0
 30
0.0
210
0.0
220
0.0
230
1.0
  2
SOLID
 70
     1
 71
     1
 91
        1
 92
        7
 72
     0
 73
     1
 93
       13
 10
-263.88444073
 20
211.99541408
 10
-263.88444073
 20
211.70474741
 10
-263.58310739
 20
211.70558074
 10
-263.53012889
 20
211.71743108
 10
-263.48865939
 20
211.74180341
 10
-263.45879789
 20
211.77542974
 10
-263.44064339
 20
211.81504208
 10
-263.43429489
 20
211.85737241
 10
-263.43985139
 20
211.89915274
 10
-263.45741189
 20
211.93711508
 10
-263.48707539
 20
211.96799141
 10
-263.52894089
 20
211.98851374
 10
-263.58310739
 20
211.99541408
 97
        1
330
A2
 75
     0
 76
     2
 47
0.775229
 98
        1
 10
0.0
 20
0.0
  0
3DFACE
  5
A4
102
{ACAD_REACTORS
330
A5
102
}
100
AcDbEntity
  8
ANKER
 62
   137
  6
CONTINUOUS
100
AcDbFace
 70
     0
 10
-465.71124712
 20
39.15030606
 30
1000.0
 11
-391.71124712
 21
39.15030606
 31
1000.0
 12
-391.71124712
 22
24.15030606
 32
1000.0
 13
-465.71124712
 23
24.15030606
 33
1000.0
  0
HATCH
  5
A5
100
AcDbEntity
  8
ANKER
 62
   137
  6
CONTINUOUS
100
AcDbHatch
 10
0.0
 20
0.0
 30
0.0
210
0.0
220
0.0
230
1.0
  2
ANSI37
 70
     0
 71
     1
 91
        1
 92
        7
 72
     0
 73
     1
 93
        4
 10
-465.71124712
 20
39.15030606
 10
-391.71124712
 20
39.15030606
 10
-391.71124712
 20
24.15030606
 10
-465.71124712
 20
24.15030606
 97
        1
330
A4
 75
     0
 76
     2
 52
0.0
 41
0.31496063
 77
     0
 78
     2
 53
45.0
 43
0.0
 44
0.0
 45
0.70710678
 46
-0.70710678
 79
     0
 53
-45.0
 43
0.0
 44
0.0
 45
0.70710678
 46
0.70710678
 79
     0
 47
0.775229
 98
        1
 10
0.0
 20
0.0
  0
3DFACE
  5
A6
102
{ACAD_REACTORS
330
A7
102
}
100
AcDbEntity
  8
ANKER
 62
   137
  6
CONTINUOUS
100
AcDbFace
 70
     0
 10
-465.71124712
 20
11.15030606
 30
1000.0
 11
-366.71124712
 21
11.15030606
 31
1000.0
 12
-366.71124712
 22
-7.84969394
 32
1000.0
 13
-465.71124712
 23
-7.84969394
 33
1000.0
  0
HATCH
  5
A7
100
AcDbEntity
  8
ANKER
 62
   137
  6
CONTINUOUS
100
AcDbHatch
 10
0.0
 20
0.0
 30
0.0
210
0.0
220
0.0
230
1.0
  2
ANSI37
 70
     0
 71
     1
 91
        1
 92
        7
 72
     0
 73
     1
 93
        4
 10
-465.71124712
 20
11.15030606
 10
-366.71124712
 20
11.15030606
 10
-366.71124712
 20
-7.84969394
 10
-465.71124712
 20
-7.84969394
 97
        1
330
A6
 75
     0
 76
     2
 52
0.0
 41
0.31496063
 77
     0
 78
     2
 53
45.0
 43
0.0
 44
0.0
 45
0.70710678
 46
-0.70710678
 79
     0
 53
-45.0
 43
0.0
 44
0.0
 45
0.70710678
 46
0.70710678
 79
     0
 47
0.775229
 98
        1
 10
0.0
 20
0.0
  0
TEXT
  5
A8
100
AcDbEntity
  8
ANKER
 62
     7
100
AcDbText
 10
-385.71124712
 20
51.65030606
 30
0.0
 40
5.0
  1
75
  7
ARIAL
 50
89.9999975
 41
0.8
 51
0.0
100
AcDbText
  0
TEXT
  5
A9
100
AcDbEntity
  8
ANKER
 62
     7
100
AcDbText
 10
-360.71124712
 20
51.65030606
 30
0.0
 40
5.0
  1
100
  7
ARIAL
 50
89.9999975
 41
0.8
 51
0.0
100
AcDbText
  0
TEXT
  5
AA
100
AcDbEntity
  8
ANKER
 62
     7
100
AcDbText
 10
-546.47612954
 20
29.15030606
 30
0.0
 40
5.0
  1
PROFIX PIT-SHM 16.0x75
  7
ARIAL
 50
0.0
 41
0.8
 51
0.0
100
AcDbText
  0
TEXT
  5
AB
100
AcDbEntity
  8
ANKER
 62
     7
100
AcDbText
 10
-546.47612954
 20
-0.84969394
 30
0.0
 40
5.0
  1
PROFIX PIT-SHM 20x100
  7
ARIAL
 50
0.0
 41
0.8
 51
0.0
100
AcDbText
  0
ENDSEC
  0
SECTION
  2
OBJECTS
  0
DICTIONARY
  5
1
100
AcDbDictionary
  3
ACAD_GROUP
350
2
  3
ACAD_MLINESTYLE
350
3
  0
DICTIONARY
  5
2
102
{CDWK_REACTORS
330
1
102
}
100
AcDbDictionary
  0
DICTIONARY
  5
3
102
{CDWK_REACTORS
330
1
102
}
100
AcDbDictionary
  3
STANDARD
350
4
  0
MLINESTYLE
  5
4
102
{CDWK_REACTORS
330
3
102
}
100
AcDbMlineStyle
  2
STANDARD
 70
     0
  3

 62
     0
 51
90.0
 52
90.0
 71
     2
 49
0.5
 62
   256
  6
BYLAYER
 49
-0.5
 62
   256
  6
BYLAYER
  0
ENDSEC
  0
EOF
