  0
SECTION
  2
HEADER
  9
$ACADVER
  1
AC1012
  9
$DWGCODEPAGE
  3
ANSI_1252
  9
$INSBASE
 10
0.0
 20
0.0
 30
0.0
  9
$EXTMIN
 10
-144.22786416
 20
-134.48531067
  9
$EXTMAX
 10
294.71488524
 20
184.598533
  9
$LIMMIN
 10
-144.22786416
 20
-134.48531067
  9
$LIMMAX
 10
294.71488524
 20
184.598533
  9
$ORTHOMODE
 70
     0
  9
$REGENMODE
 70
     1
  9
$FILLMODE
 70
     1
  9
$QTEXTMODE
 70
     0
  9
$MIRRTEXT
 70
     1
  9
$DRAGMODE
 70
     2
  9
$LTSCALE
 40
1.0
  9
$OSMODE
 70
     0
  9
$ATTMODE
 70
     1
  9
$TEXTSIZE
 40
3.5
  9
$TRACEWID
 40
1.0
  9
$TEXTSTYLE
  7
STANDARD
  9
$CLAYER
  8
0
  9
$CELTYPE
  6
BYLAYER
  9
$CECOLOR
 62
   256
  9
$DIMSCALE
 40
1.0
  9
$DIMASZ
 40
2.0
  9
$DIMEXO
 40
5.0
  9
$DIMDLI
 40
10.0
  9
$DIMRND
 40
0.0
  9
$DIMDLE
 40
2.0
  9
$DIMEXE
 40
2.0
  9
$DIMTP
 40
0.0
  9
$DIMTM
 40
0.0
  9
$DIMTXT
 40
2.5
  9
$DIMCEN
 40
1.5
  9
$DIMTSZ
 40
0.0
  9
$DIMTOL
 70
     0
  9
$DIMLIM
 70
     0
  9
$DIMTIH
 70
     1
  9
$DIMTOH
 70
     0
  9
$DIMSE1
 70
     0
  9
$DIMSE2
 70
     0
  9
$DIMTAD
 70
     1
  9
$DIMZIN
 70
     8
  9
$DIMBLK
  1

  9
$DIMASO
 70
     1
  9
$DIMSHO
 70
     1
  9
$DIMPOST
  1

  9
$DIMAPOST
  1

  9
$DIMALT
 70
     0
  9
$DIMALTD
 70
     2
  9
$DIMALTF
 40
25.4
  9
$DIMLFAC
 40
1.0
  9
$DIMTOFL
 70
     0
  9
$DIMTVP
 40
0.0
  9
$DIMTIX
 70
     0
  9
$DIMSOXD
 70
     0
  9
$DIMSAH
 70
     0
  9
$DIMBLK1
  1

  9
$DIMBLK2
  1

  9
$DIMSTYLE
  2
*UNNAMED
  9
$DIMCLRD
 70
     9
  9
$DIMCLRE
 70
     9
  9
$DIMCLRT
 70
     7
  9
$DIMTFAC
 40
1.0
  9
$DIMGAP
 40
0.09
  9
$DIMUNIT
 70
     2
  9
$LUNITS
 70
     2
  9
$LUPREC
 70
     6
  9
$AXISMODE
 70
     0
  9
$AXISUNIT
 10
0.0
 20
0.0
  9
$SKETCHINC
 40
0.1
  9
$FILLETRAD
 40
0.0
  9
$AUNITS
 70
     0
  9
$AUPREC
 70
     0
  9
$MENU
  1
ACAD
  9
$ELEVATION
 40
0.0
  9
$PELEVATION
 40
0.0
  9
$THICKNESS
 40
0.0
  9
$LIMCHECK
 70
     0
  9
$BLIPMODE
 70
     1
  9
$CHAMFERA
 40
0.0
  9
$CHAMFERB
 40
0.0
  9
$SKPOLY
 70
     1
  9
$TDCREATE
 40
2456119.0000000000
  9
$TDUPDATE
 40
2456119.0000000000
  9
$TDINDWG
 40
0.0
  9
$TDUSRTIMER
 40
0.0
  9
$USRTIMER
 70
     1
  9
$ANGBASE
 50
0.0
  9
$ANGDIR
 70
     0
  9
$PDMODE
 70
     0
  9
$PDSIZE
 40
0.0
  9
$PLINEWID
 40
0.0
  9
$COORDS
 70
     2
  9
$SPLFRAME
 70
     0
  9
$SPLINETYPE
 70
     6
  9
$SPLINESEGS
 70
     8
  9
$ATTDIA
 70
     1
  9
$ATTREQ
 70
     1
  9
$HANDLING
 70
     1
  9
$HANDSEED
  5
     2A3
  9
$SURFTAB1
 70
     6
  9
$SURFTAB2
 70
     6
  9
$SURFTYPE
 70
     6
  9
$SURFU
 70
     6
  9
$SURFV
 70
     6
  9
$UCSNAME
  2

  9
$UCSORG
 10
0.0
 20
0.0
 30
0.0
  9
$UCSXDIR
 10
1.0
 20
0.0
 30
0.0
  9
$UCSYDIR
 10
0.0
 20
1.0
 30
0.0
  9
$PUCSNAME
  2

  9
$PUCSORG
 10
0.0
 20
0.0
 30
0.0
  9
$PUCSXDIR
 10
1.0
 20
0.0
 30
0.0
  9
$PUCSYDIR
 10
0.0
 20
1.0
 30
0.0
  9
$USERI1
 70
     0
  9
$USERI2
 70
     0
  9
$USERI3
 70
     0
  9
$USERI4
 70
     0
  9
$USERI5
 70
     0
  9
$USERR1
 40
0.0
  9
$USERR2
 40
0.0
  9
$USERR3
 40
0.0
  9
$USERR4
 40
0.0
  9
$USERR5
 40
0.0
  9
$WORLDVIEW
 70
     1
  9
$SHADEDGE
 70
     3
  9
$SHADEDIF
 70
    70
  9
$TILEMODE
 70
     1
  9
$MAXACTVP
 70
    16
  9
$PINSBASE
 10
0.0
 20
0.0
 30
0.0
  9
$PLIMCHECK
 70
     0
  9
$PEXTMIN
 10
1.0000000000000E+20
 20
1.0000000000000E+20
 30
1.0000000000000E+20
  9
$PEXTMAX
 10
-1.0000000000000E+20
 20
-1.0000000000000E+20
 30
-1.0000000000000E+20
  9
$PLIMMIN
 10
0.0
 20
0.0
  9
$UNITMODE
 70
     0
  9
$VISRETAIN
 70
     0
  9
$MEASUREMENT
 70
     1
  0
ENDSEC
  0
SECTION
  2
TABLES
  0
TABLE
  2
VPORT
  5
25
100
AcDbSymbolTable
 70
     1
  0
ENDTAB
  0
TABLE
  2
STYLE
  5
26
100
AcDbSymbolTable
 70
     4
  0
STYLE
  5
27
100
AcDbSymbolTableRecord
100
AcDbTextStyleTableRecord
  2
STANDARD
 70
     0
 40
0.0
 41
1.0
 50
0.0
 71
     0
 42
3.5
  3
MONOTXT
  4

  0
STYLE
  5
28
100
AcDbSymbolTableRecord
100
AcDbTextStyleTableRecord
  2
CADWORK1
 70
     0
 40
0.0
 41
1.0
 50
0.0
 71
     0
 42
3.5
  3
MONOTXT
  4

  0
STYLE
  5
29
100
AcDbSymbolTableRecord
100
AcDbTextStyleTableRecord
  2
MONOTXT
 70
     0
 40
0.0
 41
1.0
 50
0.0
 71
     0
 42
3.5
  3
MONOTXT
  4

  0
STYLE
  5
2A
100
AcDbSymbolTableRecord
100
AcDbTextStyleTableRecord
  2
TAHOMA
 70
     0
 40
0.0
 41
1.0
 50
0.0
 71
     0
 42
3.5
  3

  4

1001
ACAD
1000
Tahoma
1071
        0
  0
STYLE
  5
2B
100
AcDbSymbolTableRecord
100
AcDbTextStyleTableRecord
  2
ARIAL
 70
     0
 40
0.0
 41
1.0
 50
0.0
 71
     0
 42
3.5
  3

  4

1001
ACAD
1000
Arial
1071
        0
  0
ENDTAB
  0
TABLE
  2
LTYPE
  5
2C
100
AcDbSymbolTable
 70
    12
  0
LTYPE
  5
2D
100
AcDbSymbolTableRecord
100
AcDbLinetypeTableRecord
  2
BYBLOCK
 70
    64
  3

 72
    65
 73
     0
 40
0.0
  0
LTYPE
  5
2E
100
AcDbSymbolTableRecord
100
AcDbLinetypeTableRecord
  2
BYLAYER
 70
    64
  3

 72
    65
 73
     0
 40
0.0
  0
LTYPE
  5
2F
100
AcDbSymbolTableRecord
100
AcDbLinetypeTableRecord
  2
CONTINUOUS
 70
    64
  3
Solid line
 72
    65
 73
     0
 40
0.0
  0
LTYPE
  5
30
100
AcDbSymbolTableRecord
100
AcDbLinetypeTableRecord
  2
DOT
 70
    64
  3
. . . . . . . . . . . . . . . . . . . . . . . .
 72
    65
 73
     2
 40
2.5
 49
0.0
 74
     0
 49
-2.5
 74
     0
  0
LTYPE
  5
31
100
AcDbSymbolTableRecord
100
AcDbLinetypeTableRecord
  2
DASHED
 70
    64
  3
__ __ __ __ __ __ __ __ __ __ __ __ __ __ __ __
 72
    65
 73
     2
 40
7.5
 49
5.0
 74
     0
 49
-2.5
 74
     0
  0
LTYPE
  5
32
100
AcDbSymbolTableRecord
100
AcDbLinetypeTableRecord
  2
BORDER
 70
    64
  3
 __ __ . __ __ . __ __ . __ __ . __ __ . __ __ .
 72
    65
 73
     6
 40
17.0
 49
5.0
 74
     0
 49
-2.0
 74
     0
 49
5.0
 74
     0
 49
-2.0
 74
     0
 49
1.0
 74
     0
 49
-2.0
 74
     0
  0
LTYPE
  5
33
100
AcDbSymbolTableRecord
100
AcDbLinetypeTableRecord
  2
DAL
 70
    64
  3
Solid line (for MAPS)
 72
    65
 73
     0
 40
0.0
  0
LTYPE
  5
34
100
AcDbSymbolTableRecord
100
AcDbLinetypeTableRecord
  2
MUR
 70
    64
  3
Solid line (for MAPS)
 72
    65
 73
     0
 40
0.0
  0
LTYPE
  5
35
100
AcDbSymbolTableRecord
100
AcDbLinetypeTableRecord
  2
SOM
 70
    64
  3
Solid line (for MAPS)
 72
    65
 73
     0
 40
0.0
  0
LTYPE
  5
36
100
AcDbSymbolTableRecord
100
AcDbLinetypeTableRecord
  2
COL
 70
    64
  3
Solid line (for MAPS)
 72
    65
 73
     0
 40
0.0
  0
LTYPE
  5
37
100
AcDbSymbolTableRecord
100
AcDbLinetypeTableRecord
  2
LGN
 70
    64
  3
Solid line (for MAPS)
 72
    65
 73
     0
 40
0.0
  0
LTYPE
  5
38
100
AcDbSymbolTableRecord
100
AcDbLinetypeTableRecord
  2
PNT
 70
    64
  3
Solid line (for MAPS)
 72
    65
 73
     0
 40
0.0
  0
ENDTAB
  0
TABLE
  2
LAYER
  5
39
100
AcDbSymbolTable
 70
     1
  0
LAYER
  5
3A
100
AcDbSymbolTableRecord
100
AcDbLayerTableRecord
  2
0
 70
     0
 62
     1
  6
CONTINUOUS
  0
LAYER
  5
3B
100
AcDbSymbolTableRecord
100
AcDbLayerTableRecord
  2
MST_1_1
 70
     0
 62
     7
  6
CONTINUOUS
  0
ENDTAB
  0
TABLE
  2
VIEW
  5
3C
100
AcDbSymbolTable
 70
     0
  0
ENDTAB
  0
TABLE
  2
UCS
  5
3D
100
AcDbSymbolTable
 70
     0
  0
ENDTAB
  0
TABLE
  2
APPID
  5
3E
100
AcDbSymbolTable
 70
     1
  0
APPID
  5
3F
100
AcDbSymbolTableRecord
100
AcDbRegAppTableRecord
  2
ACAD
 70
     0
  0
ENDTAB
  0
TABLE
  2
DIMSTYLE
  5
40
100
AcDbSymbolTable
 70
     0
  0
ENDTAB
  0
TABLE
  2
BLOCK_RECORD
  5
41
100
AcDbSymbolTable
 70
     0
  0
BLOCK_RECORD
  5
42
100
AcDbSymbolTableRecord
100
AcDbBlockTableRecord
  2
*MODEL_SPACE
  0
BLOCK_RECORD
  5
43
100
AcDbSymbolTableRecord
100
AcDbBlockTableRecord
  2
*PAPER_SPACE
  0
BLOCK_RECORD
  5
44
100
AcDbSymbolTableRecord
100
AcDbBlockTableRecord
  2
CDWK_EXTR_0
  0
BLOCK_RECORD
  5
45
100
AcDbSymbolTableRecord
100
AcDbBlockTableRecord
  2
CDWK_EXTR_1D
  0
BLOCK_RECORD
  5
46
100
AcDbSymbolTableRecord
100
AcDbBlockTableRecord
  2
CDWK_EXTR_1G
  0
BLOCK_RECORD
  5
47
100
AcDbSymbolTableRecord
100
AcDbBlockTableRecord
  2
CDWK_EXTR_2
  0
BLOCK_RECORD
  5
48
100
AcDbSymbolTableRecord
100
AcDbBlockTableRecord
  2
CDWK_EXTR_3
  0
BLOCK_RECORD
  5
49
100
AcDbSymbolTableRecord
100
AcDbBlockTableRecord
  2
CDWK_EXTR_4
  0
BLOCK_RECORD
  5
4A
100
AcDbSymbolTableRecord
100
AcDbBlockTableRecord
  2
CDWK_PTTYP0
  0
ENDTAB
  0
ENDSEC
  0
SECTION
  2
BLOCKS
  0
BLOCK
  5
4B
100
AcDbEntity
  8
0
100
AcDbBlockBegin
  2
*MODEL_SPACE
 70
     0
 10
0.0
 20
0.0
 30
0.0
  3
*MODEL_SPACE
  1

  0
ENDBLK
  5
4C
100
AcDbEntity
100
AcDbBlockEnd
  0
BLOCK
  5
4D
100
AcDbEntity
  8
0
100
AcDbBlockBegin
  2
*PAPER_SPACE
 70
     0
 10
0.0
 20
0.0
 30
0.0
  3
*PAPER_SPACE
  1

  0
ENDBLK
  5
4E
100
AcDbEntity
100
AcDbBlockEnd
  0
BLOCK
  5
4F
100
AcDbEntity
  8
0
100
AcDbBlockBegin
  2
CDWK_EXTR_0
 70
     0
 10
0.0
 20
0.0
 30
0.0
  3
CDWK_EXTR_0
  1

  4
Cadwork line-extremity
  0
LINE
  5
50
100
AcDbEntity
  8
0
 62
     0
100
AcDbLine
 10
0.0
 20
0.0
 30
0.0
 11
2.0
 21
0.5
 31
0.0
  0
LINE
  5
51
100
AcDbEntity
  8
0
 62
     0
100
AcDbLine
 10
0.0
 20
0.0
 30
0.0
 11
2.0
 21
-0.5
 31
0.0
  0
LINE
  5
52
100
AcDbEntity
  8
0
 62
     0
100
AcDbLine
 10
2.0
 20
0.5
 30
0.0
 11
2.0
 21
-0.5
 31
0.0
  0
ENDBLK
  5
53
100
AcDbEntity
100
AcDbBlockEnd
  0
BLOCK
  5
54
100
AcDbEntity
  8
0
100
AcDbBlockBegin
  2
CDWK_EXTR_1D
 70
     0
 10
0.0
 20
0.0
 30
0.0
  3
CDWK_EXTR_1D
  1

  4
Cadwork line-extremity
  0
LINE
  5
55
100
AcDbEntity
  8
0
 62
     0
100
AcDbLine
 10
0.0
 20
0.0
 30
0.0
 11
0.0
 21
1.0
 31
0.0
  0
LINE
  5
56
100
AcDbEntity
  8
0
 62
     0
100
AcDbLine
 10
0.0
 20
1.0
 30
0.0
 11
0.5
 21
1.5
 31
0.0
  0
LINE
  5
57
100
AcDbEntity
  8
0
 62
     0
100
AcDbLine
 10
0.5
 20
1.5
 30
0.0
 11
1.5
 21
1.5
 31
0.0
  0
ENDBLK
  5
58
100
AcDbEntity
100
AcDbBlockEnd
  0
BLOCK
  5
59
100
AcDbEntity
  8
0
100
AcDbBlockBegin
  2
CDWK_EXTR_1G
 70
     0
 10
0.0
 20
0.0
 30
0.0
  3
CDWK_EXTR_1G
  1

  4
Cadwork line-extremity
  0
LINE
  5
5A
100
AcDbEntity
  8
0
 62
     0
100
AcDbLine
 10
0.0
 20
0.0
 30
0.0
 11
0.0
 21
-1.0
 31
0.0
  0
LINE
  5
5B
100
AcDbEntity
  8
0
 62
     0
100
AcDbLine
 10
0.0
 20
-1.0
 30
0.0
 11
0.5
 21
-1.5
 31
0.0
  0
LINE
  5
5C
100
AcDbEntity
  8
0
 62
     0
100
AcDbLine
 10
0.5
 20
-1.5
 30
0.0
 11
1.5
 21
-1.5
 31
0.0
  0
ENDBLK
  5
5D
100
AcDbEntity
100
AcDbBlockEnd
  0
BLOCK
  5
5E
100
AcDbEntity
  8
0
100
AcDbBlockBegin
  2
CDWK_EXTR_2
 70
     0
 10
0.0
 20
0.0
 30
0.0
  3
CDWK_EXTR_2
  1

  4
Cadwork line-extremity
  0
SOLID
  5
5F
100
AcDbEntity
  8
0
 62
     0
100
AcDbTrace
 10
0.0
 20
0.0
 11
2.0
 21
0.5
 12
2.0
 22
-0.5
 13
2.0
 23
-0.5
  0
ENDBLK
  5
60
100
AcDbEntity
100
AcDbBlockEnd
  0
BLOCK
  5
61
100
AcDbEntity
  8
0
100
AcDbBlockBegin
  2
CDWK_EXTR_3
 70
     0
 10
0.0
 20
0.0
 30
0.0
  3
CDWK_EXTR_3
  1

  4
Cadwork line-extremity
  0
SOLID
  5
62
100
AcDbEntity
  8
0
 62
     0
100
AcDbTrace
 10
0.0
 20
0.0
 11
2.0
 21
0.5
 12
2.0
 22
-0.5
 13
2.0
 23
-0.5
  0
LINE
  5
63
100
AcDbEntity
  8
0
 62
     0
100
AcDbLine
 10
0.0
 20
1.0
 30
0.0
 11
0.0
 21
-1.0
 31
0.0
  0
ENDBLK
  5
64
100
AcDbEntity
100
AcDbBlockEnd
  0
BLOCK
  5
65
100
AcDbEntity
  8
0
100
AcDbBlockBegin
  2
CDWK_EXTR_4
 70
     0
 10
0.0
 20
0.0
 30
0.0
  3
CDWK_EXTR_4
  1

  4
Cadwork line-extremity
  0
POLYLINE
  5
66
100
AcDbEntity
  8
0
 62
     0
100
AcDb2dPolyline
 70
     1
 66
     1
 10
0.0
 20
0.0
 30
0.0
 40
0.5
 41
0.5
  0
VERTEX
  5
67
100
AcDbEntity
  8
0
100
AcDbVertex
100
AcDb2dVertex
 10
-0.25
 20
0.0
 30
0.0
 42
1.0
  0
VERTEX
  5
68
100
AcDbEntity
  8
0
100
AcDbVertex
100
AcDb2dVertex
 10
0.25
 20
0.0
 30
0.0
 42
1.0
  0
SEQEND
  5
69
100
AcDbEntity
  0
ENDBLK
  5
6A
100
AcDbEntity
100
AcDbBlockEnd
  0
BLOCK
  5
6B
100
AcDbEntity
  8
0
100
AcDbBlockBegin
  2
CDWK_PTTYP0
 70
     0
 10
0.0
 20
0.0
 30
0.0
  3
CDWK_PTTYP0
  1

  4
Cadwork point
  0
POINT
  5
6C
100
AcDbEntity
  8
0
 62
     0
100
AcDbPoint
 10
0.0
 20
0.0
 30
0.0
  0
ENDBLK
  5
6D
100
AcDbEntity
100
AcDbBlockEnd
  0
ENDSEC
  0
SECTION
  2
ENTITIES
  0
LINE
  5
6E
100
AcDbEntity
  8
MST_1_1
 62
     7
  6
DASHED
100
AcDbLine
 10
-2.06250403
 20
28.54545025
 30
0.0
 11
-2.06250403
 21
-126.45454975
 31
0.0
  0
LINE
  5
6F
100
AcDbEntity
  8
MST_1_1
 62
     7
  6
DASHED
100
AcDbLine
 10
47.93749597
 20
28.54545025
 30
0.0
 11
47.93749597
 21
-66.45454975
 31
0.0
  0
LINE
  5
70
100
AcDbEntity
  8
MST_1_1
 62
     7
  6
DASHED
100
AcDbLine
 10
37.93749597
 20
28.54545025
 30
0.0
 11
37.93749597
 21
-6.45454975
 31
0.0
  0
LWPOLYLINE
  5
71
100
AcDbEntity
  8
MST_1_1
 62
     1
  6
BORDER
100
AcDbPolyline
 90
        3
 70
     0
 43
0.0
 10
37.93749597
 20
8.54545025
 10
-2.06250403
 20
8.54545025
 10
-7.06250403
 20
8.54545025
  0
LWPOLYLINE
  5
72
100
AcDbEntity
  8
MST_1_1
 62
     1
  6
BORDER
100
AcDbPolyline
 90
        3
 70
     0
 43
0.0
 10
47.93749597
 20
-51.45454975
 10
-2.06250403
 20
-51.45454975
 10
-7.06250403
 20
-51.45454975
  0
LINE
  5
73
100
AcDbEntity
  8
MST_1_1
 62
     7
  6
DASHED
100
AcDbLine
 10
57.93749597
 20
28.54545025
 30
0.0
 11
57.93749597
 21
-96.45454975
 31
0.0
  0
LWPOLYLINE
  5
74
100
AcDbEntity
  8
MST_1_1
 62
     1
  6
BORDER
100
AcDbPolyline
 90
        3
 70
     0
 43
0.0
 10
57.93749597
 20
-81.45454975
 10
-2.06250403
 20
-81.45454975
 10
-7.06250403
 20
-81.45454975
  0
LINE
  5
75
100
AcDbEntity
  8
MST_1_1
 62
   137
  6
CONTINUOUS
100
AcDbLine
 10
-2.06250403
 20
-51.45454975
 30
0.0
 11
-2.06250403
 21
-45.55454975
 31
0.0
  0
LINE
  5
76
100
AcDbEntity
  8
MST_1_1
 62
   137
  6
CONTINUOUS
100
AcDbLine
 10
-2.06250403
 20
-45.55454975
 30
0.0
 11
-1.93139296
 21
-45.55454975
 31
0.0
  0
LINE
  5
77
100
AcDbEntity
  8
MST_1_1
 62
   137
  6
CONTINUOUS
100
AcDbLine
 10
-1.93139296
 20
-45.55454975
 30
0.0
 11
1.53749597
 21
-49.60312118
 31
0.0
  0
LINE
  5
78
100
AcDbEntity
  8
MST_1_1
 62
   137
  6
CONTINUOUS
100
AcDbLine
 10
1.53749597
 20
-53.30597832
 30
0.0
 11
-1.93139296
 21
-57.35454975
 31
0.0
  0
LINE
  5
79
100
AcDbEntity
  8
MST_1_1
 62
   137
  6
CONTINUOUS
100
AcDbLine
 10
-1.93139296
 20
-57.35454975
 30
0.0
 11
-2.06250403
 21
-57.35454975
 31
0.0
  0
LINE
  5
7A
100
AcDbEntity
  8
MST_1_1
 62
   137
  6
CONTINUOUS
100
AcDbLine
 10
-2.06250403
 20
-57.35454975
 30
0.0
 11
-2.06250403
 21
-51.45454975
 31
0.0
  0
LWPOLYLINE
  5
7B
100
AcDbEntity
  8
MST_1_1
 62
   137
  6
CONTINUOUS
100
AcDbPolyline
 90
        6
 70
     0
 43
0.0
 38
2500.0
 10
35.51768065
 20
-48.45454954
 10
35.25178168
 20
-49.60312118
 10
37.49987568
 20
-54.45454975
 10
37.72526175
 20
-53.21855054
 10
35.51768065
 20
-48.45454954
 10
37.49987568
 20
-54.45454975
  0
LWPOLYLINE
  5
7C
100
AcDbEntity
  8
MST_1_1
 62
   137
  6
CONTINUOUS
100
AcDbPolyline
 90
        6
 70
     0
 43
0.0
 38
2500.0
 10
38.89573128
 20
-48.8448741
 10
38.68035311
 20
-49.77521713
 10
40.53686872
 20
-53.78161227
 10
40.75224689
 20
-52.85126925
 10
38.89573128
 20
-48.8448741
 10
40.50130925
 20
-53.70487427
  0
LINE
  5
7D
100
AcDbEntity
  8
MST_1_1
 62
   251
  6
CONTINUOUS
100
AcDbLine
 10
34.33720331
 20
-53.30597832
 30
2500.0
 11
36.05342837
 21
-53.29839642
 31
2500.0
  0
LINE
  5
7E
100
AcDbEntity
  8
MST_1_1
 62
   251
  6
CONTINUOUS
100
AcDbLine
 10
35.25178168
 20
-49.60312118
 30
2500.0
 11
32.62134359
 21
-49.60312118
 31
2500.0
  0
ARC
  5
7F
100
AcDbEntity
  8
MST_1_1
 62
   251
  6
CONTINUOUS
100
AcDbCircle
 10
35.34669829
 20
-81.95095495
 30
2500.0
 40
32.34797303
100
AcDbArc
 50
84.08482032
 51
88.74811714
  0
LWPOLYLINE
  5
80
100
AcDbEntity
  8
MST_1_1
 62
   251
  6
CONTINUOUS
100
AcDbPolyline
 90
        3
 70
     0
 43
0.0
 38
2500.0
 10
47.93749597
 20
-51.45454975
 10
41.56494808
 20
-50.20627463
 42
0.01723995
 10
39.36301585
 20
-49.85328288
  0
ARC
  5
81
100
AcDbEntity
  8
MST_1_1
 62
   251
  6
CONTINUOUS
100
AcDbCircle
 10
35.34669829
 20
-20.95814455
 30
2500.0
 40
32.34797303
100
AcDbArc
 50
271.25189288
 51
272.83975061
  0
LWPOLYLINE
  5
82
100
AcDbEntity
  8
MST_1_1
 62
   251
  6
CONTINUOUS
100
AcDbPolyline
 90
        3
 70
     0
 43
0.0
 38
2500.0
 10
47.93749597
 20
-51.45454975
 10
41.56494808
 20
-52.70282487
 42
-0.0063851
 10
40.75224689
 20
-52.85126925
  0
ARC
  5
83
100
AcDbEntity
  8
MST_1_1
 62
   251
  6
CONTINUOUS
100
AcDbCircle
 10
35.34669829
 20
-20.95814455
 30
2500.0
 40
32.34797303
100
AcDbArc
 50
274.21680449
 51
278.53995004
  0
LWPOLYLINE
  5
84
100
AcDbEntity
  8
MST_1_1
 62
   137
  6
CONTINUOUS
100
AcDbPolyline
 90
        6
 70
     0
 43
0.0
 38
2500.0
 10
42.25107413
 20
-49.69880409
 10
42.10892454
 20
-50.31283048
 10
43.33422484
 20
-52.95705128
 10
43.47016502
 20
-52.32962486
 10
42.25107413
 20
-49.69880409
 10
43.31075559
 20
-52.9064042
  0
LWPOLYLINE
  5
85
100
AcDbEntity
  8
MST_1_1
 62
   137
  6
CONTINUOUS
100
AcDbPolyline
 90
        6
 70
     0
 43
0.0
 38
2500.0
 10
32.08910922
 20
-48.45454954
 10
31.82321025
 20
-49.60312118
 10
34.07130425
 20
-54.45454975
 10
34.33720331
 20
-53.30597832
 10
32.08910922
 20
-48.45454954
 10
34.07130425
 20
-54.45454975
  0
LINE
  5
86
100
AcDbEntity
  8
MST_1_1
 62
   251
  6
CONTINUOUS
100
AcDbLine
 10
30.90863188
 20
-53.30597832
 30
2500.0
 11
33.53906998
 21
-53.30597832
 31
2500.0
  0
LINE
  5
87
100
AcDbEntity
  8
MST_1_1
 62
   251
  6
CONTINUOUS
100
AcDbLine
 10
31.82321025
 20
-49.60312118
 30
2500.0
 11
29.19277216
 21
-49.60312118
 31
2500.0
  0
LWPOLYLINE
  5
88
100
AcDbEntity
  8
MST_1_1
 62
   137
  6
CONTINUOUS
100
AcDbPolyline
 90
        6
 70
     0
 43
0.0
 38
2500.0
 10
11.51768065
 20
-48.45454954
 10
11.25178168
 20
-49.60312118
 10
13.49987568
 20
-54.45454975
 10
13.76577474
 20
-53.30597832
 10
11.51768065
 20
-48.45454954
 10
13.49987568
 20
-54.45454975
  0
LINE
  5
89
100
AcDbEntity
  8
MST_1_1
 62
   251
  6
CONTINUOUS
100
AcDbLine
 10
10.33720331
 20
-53.30597832
 30
2500.0
 11
12.96764141
 21
-53.30597832
 31
2500.0
  0
LINE
  5
8A
100
AcDbEntity
  8
MST_1_1
 62
   251
  6
CONTINUOUS
100
AcDbLine
 10
11.25178168
 20
-49.60312118
 30
2500.0
 11
8.62134359
 21
-49.60312118
 31
2500.0
  0
LWPOLYLINE
  5
8B
100
AcDbEntity
  8
MST_1_1
 62
   137
  6
CONTINUOUS
100
AcDbPolyline
 90
        6
 70
     0
 43
0.0
 38
2500.0
 10
28.6605378
 20
-48.45454954
 10
28.39463883
 20
-49.60312118
 10
30.64273282
 20
-54.45454975
 10
30.90863188
 20
-53.30597832
 10
28.6605378
 20
-48.45454954
 10
30.64273282
 20
-54.45454975
  0
LINE
  5
8C
100
AcDbEntity
  8
MST_1_1
 62
   251
  6
CONTINUOUS
100
AcDbLine
 10
27.48006046
 20
-53.30597832
 30
2500.0
 11
30.11049855
 21
-53.30597832
 31
2500.0
  0
LINE
  5
8D
100
AcDbEntity
  8
MST_1_1
 62
   251
  6
CONTINUOUS
100
AcDbLine
 10
28.39463883
 20
-49.60312118
 30
2500.0
 11
25.76420073
 21
-49.60312118
 31
2500.0
  0
LWPOLYLINE
  5
8E
100
AcDbEntity
  8
MST_1_1
 62
   137
  6
CONTINUOUS
100
AcDbPolyline
 90
        6
 70
     0
 43
0.0
 38
2500.0
 10
25.23196637
 20
-48.45454954
 10
24.9660674
 20
-49.60312118
 10
27.21416139
 20
-54.45454975
 10
27.48006046
 20
-53.30597832
 10
25.23196637
 20
-48.45454954
 10
27.21416139
 20
-54.45454975
  0
LINE
  5
8F
100
AcDbEntity
  8
MST_1_1
 62
   251
  6
CONTINUOUS
100
AcDbLine
 10
24.05148903
 20
-53.30597832
 30
2500.0
 11
26.68192712
 21
-53.30597832
 31
2500.0
  0
LINE
  5
90
100
AcDbEntity
  8
MST_1_1
 62
   251
  6
CONTINUOUS
100
AcDbLine
 10
24.9660674
 20
-49.60312118
 30
2500.0
 11
22.3356293
 21
-49.60312118
 31
2500.0
  0
LWPOLYLINE
  5
91
100
AcDbEntity
  8
MST_1_1
 62
   137
  6
CONTINUOUS
100
AcDbPolyline
 90
        6
 70
     0
 43
0.0
 38
2500.0
 10
8.08910922
 20
-48.45454954
 10
7.82321025
 20
-49.60312118
 10
10.07130425
 20
-54.45454975
 10
10.33720331
 20
-53.30597832
 10
8.08910922
 20
-48.45454954
 10
10.07130425
 20
-54.45454975
  0
LINE
  5
92
100
AcDbEntity
  8
MST_1_1
 62
   251
  6
CONTINUOUS
100
AcDbLine
 10
6.90863188
 20
-53.30597832
 30
2500.0
 11
9.53906998
 21
-53.30597832
 31
2500.0
  0
LINE
  5
93
100
AcDbEntity
  8
MST_1_1
 62
   251
  6
CONTINUOUS
100
AcDbLine
 10
7.82321025
 20
-49.60312118
 30
2500.0
 11
5.19277216
 21
-49.60312118
 31
2500.0
  0
LWPOLYLINE
  5
94
100
AcDbEntity
  8
MST_1_1
 62
   137
  6
CONTINUOUS
100
AcDbPolyline
 90
        6
 70
     0
 43
0.0
 38
2500.0
 10
14.94625208
 20
-48.45454954
 10
14.68035311
 20
-49.60312118
 10
16.9284471
 20
-54.45454975
 10
17.19434617
 20
-53.30597832
 10
14.94625208
 20
-48.45454954
 10
16.9284471
 20
-54.45454975
  0
LINE
  5
95
100
AcDbEntity
  8
MST_1_1
 62
   251
  6
CONTINUOUS
100
AcDbLine
 10
13.76577474
 20
-53.30597832
 30
2500.0
 11
16.39621284
 21
-53.30597832
 31
2500.0
  0
LINE
  5
96
100
AcDbEntity
  8
MST_1_1
 62
   251
  6
CONTINUOUS
100
AcDbLine
 10
14.68035311
 20
-49.60312118
 30
2500.0
 11
12.04991501
 21
-49.60312118
 31
2500.0
  0
LWPOLYLINE
  5
97
100
AcDbEntity
  8
MST_1_1
 62
   137
  6
CONTINUOUS
100
AcDbPolyline
 90
        6
 70
     0
 43
0.0
 38
2500.0
 10
21.80339494
 20
-48.45454954
 10
21.53749597
 20
-49.60312118
 10
23.78558996
 20
-54.45454975
 10
24.05148903
 20
-53.30597832
 10
21.80339494
 20
-48.45454954
 10
23.78558996
 20
-54.45454975
  0
LINE
  5
98
100
AcDbEntity
  8
MST_1_1
 62
   251
  6
CONTINUOUS
100
AcDbLine
 10
20.6229176
 20
-53.30597832
 30
2500.0
 11
23.25335569
 21
-53.30597832
 31
2500.0
  0
LINE
  5
99
100
AcDbEntity
  8
MST_1_1
 62
   251
  6
CONTINUOUS
100
AcDbLine
 10
21.53749597
 20
-49.60312118
 30
2500.0
 11
18.90705787
 21
-49.60312118
 31
2500.0
  0
LWPOLYLINE
  5
9A
100
AcDbEntity
  8
MST_1_1
 62
   137
  6
CONTINUOUS
100
AcDbPolyline
 90
        6
 70
     0
 43
0.0
 38
2500.0
 10
18.37482351
 20
-48.45454954
 10
18.10892454
 20
-49.60312118
 10
20.35701853
 20
-54.45454975
 10
20.6229176
 20
-53.30597832
 10
18.37482351
 20
-48.45454954
 10
20.35701853
 20
-54.45454975
  0
LINE
  5
9B
100
AcDbEntity
  8
MST_1_1
 62
   251
  6
CONTINUOUS
100
AcDbLine
 10
17.19434617
 20
-53.30597832
 30
2500.0
 11
19.82478427
 21
-53.30597832
 31
2500.0
  0
LINE
  5
9C
100
AcDbEntity
  8
MST_1_1
 62
   251
  6
CONTINUOUS
100
AcDbLine
 10
18.10892454
 20
-49.60312118
 30
2500.0
 11
15.47848644
 21
-49.60312118
 31
2500.0
  0
LINE
  5
9D
100
AcDbEntity
  8
MST_1_1
 62
     7
  6
DASHED
100
AcDbLine
 10
67.93749597
 20
28.54545025
 30
0.0
 11
67.93749597
 21
-126.45454975
 31
0.0
  0
LINE
  5
9E
100
AcDbEntity
  8
MST_1_1
 62
     7
  6
DASHED
100
AcDbLine
 10
42.93749597
 20
18.54545025
 30
0.0
 11
42.93749597
 21
-36.45454975
 31
0.0
  0
LWPOLYLINE
  5
9F
100
AcDbEntity
  8
MST_1_1
 62
     1
  6
BORDER
100
AcDbPolyline
 90
        3
 70
     0
 43
0.0
 10
67.93749597
 20
-111.45454975
 10
-2.06250403
 20
-111.45454975
 10
-7.06250403
 20
-111.45454975
  0
LWPOLYLINE
  5
A0
100
AcDbEntity
  8
MST_1_1
 62
     1
  6
BORDER
100
AcDbPolyline
 90
        3
 70
     0
 43
0.0
 10
42.93749597
 20
-21.45454975
 10
-2.06250403
 20
-21.45454975
 10
-7.06250403
 20
-21.45454975
  0
LWPOLYLINE
  5
A1
100
AcDbEntity
  8
MST_1_1
 62
   137
  6
CONTINUOUS
100
AcDbPolyline
 90
        6
 70
     0
 43
0.0
 38
2500.0
 10
4.6605378
 20
-48.45454954
 10
4.39463883
 20
-49.60312118
 10
6.64273282
 20
-54.45454975
 10
6.90863188
 20
-53.30597832
 10
4.6605378
 20
-48.45454954
 10
6.64273282
 20
-54.45454975
  0
LINE
  5
A2
100
AcDbEntity
  8
MST_1_1
 62
   251
  6
CONTINUOUS
100
AcDbLine
 10
3.48006046
 20
-53.30597832
 30
2500.0
 11
6.11049855
 21
-53.30597832
 31
2500.0
  0
LINE
  5
A3
100
AcDbEntity
  8
MST_1_1
 62
   251
  6
CONTINUOUS
100
AcDbLine
 10
4.39463883
 20
-49.60312118
 30
2500.0
 11
1.53749597
 21
-49.60312118
 31
2500.0
  0
LWPOLYLINE
  5
A4
100
AcDbEntity
  8
MST_1_1
 62
   137
  6
CONTINUOUS
100
AcDbPolyline
 90
        4
 70
     0
 43
0.0
 38
2500.0
 10
2.63676247
 20
-53.20851217
 10
3.21416139
 20
-54.45454975
 10
3.48006046
 20
-53.30597832
 10
2.7960677
 20
-51.82990926
  0
LINE
  5
A5
100
AcDbEntity
  8
MST_1_1
 62
   137
  6
CONTINUOUS
100
AcDbLine
 10
2.67971492
 20
-52.83680835
 30
2500.0
 11
3.21416139
 21
-54.45454975
 31
2500.0
  0
LINE
  5
A6
100
AcDbEntity
  8
MST_1_1
 62
   251
  6
CONTINUOUS
100
AcDbLine
 10
2.7960677
 20
-51.82990926
 30
2500.0
 11
2.63676247
 21
-53.20851217
 31
2500.0
  0
LINE
  5
A7
100
AcDbEntity
  8
MST_1_1
 62
   251
  6
CONTINUOUS
100
AcDbLine
 10
1.53749597
 20
-53.30597832
 30
2500.0
 11
2.68192712
 21
-53.30597832
 31
2500.0
  0
LINE
  5
A8
100
AcDbEntity
  8
MST_1_1
 62
   137
  6
CONTINUOUS
100
AcDbLine
 10
-2.06250403
 20
-21.45454975
 30
0.0
 11
-2.06250403
 21
-15.55454975
 31
0.0
  0
LINE
  5
A9
100
AcDbEntity
  8
MST_1_1
 62
   137
  6
CONTINUOUS
100
AcDbLine
 10
-2.06250403
 20
-15.55454975
 30
0.0
 11
-1.93139296
 21
-15.55454975
 31
0.0
  0
LINE
  5
AA
100
AcDbEntity
  8
MST_1_1
 62
   137
  6
CONTINUOUS
100
AcDbLine
 10
-1.93139296
 20
-15.55454975
 30
0.0
 11
1.53749597
 21
-19.60312118
 31
0.0
  0
LINE
  5
AB
100
AcDbEntity
  8
MST_1_1
 62
   137
  6
CONTINUOUS
100
AcDbLine
 10
1.53749597
 20
-23.30597832
 30
0.0
 11
-1.93139296
 21
-27.35454975
 31
0.0
  0
LINE
  5
AC
100
AcDbEntity
  8
MST_1_1
 62
   137
  6
CONTINUOUS
100
AcDbLine
 10
-1.93139296
 20
-27.35454975
 30
0.0
 11
-2.06250403
 21
-27.35454975
 31
0.0
  0
LINE
  5
AD
100
AcDbEntity
  8
MST_1_1
 62
   137
  6
CONTINUOUS
100
AcDbLine
 10
-2.06250403
 20
-27.35454975
 30
0.0
 11
-2.06250403
 21
-21.45454975
 31
0.0
  0
LWPOLYLINE
  5
AE
100
AcDbEntity
  8
MST_1_1
 62
   137
  6
CONTINUOUS
100
AcDbPolyline
 90
        6
 70
     0
 43
0.0
 38
2500.0
 10
30.51768065
 20
-18.45454954
 10
30.25178168
 20
-19.60312118
 10
32.49987568
 20
-24.45454975
 10
32.72526175
 20
-23.21855054
 10
30.51768065
 20
-18.45454954
 10
32.49987568
 20
-24.45454975
  0
LWPOLYLINE
  5
AF
100
AcDbEntity
  8
MST_1_1
 62
   137
  6
CONTINUOUS
100
AcDbPolyline
 90
        6
 70
     0
 43
0.0
 38
2500.0
 10
33.89573128
 20
-18.8448741
 10
33.68035311
 20
-19.77521713
 10
35.53686872
 20
-23.78161227
 10
35.75224689
 20
-22.85126925
 10
33.89573128
 20
-18.8448741
 10
35.50130925
 20
-23.70487427
  0
LINE
  5
B0
100
AcDbEntity
  8
MST_1_1
 62
   251
  6
CONTINUOUS
100
AcDbLine
 10
29.33720331
 20
-23.30597832
 30
2500.0
 11
31.05342837
 21
-23.29839642
 31
2500.0
  0
LINE
  5
B1
100
AcDbEntity
  8
MST_1_1
 62
   251
  6
CONTINUOUS
100
AcDbLine
 10
30.25178168
 20
-19.60312118
 30
2500.0
 11
27.62134359
 21
-19.60312118
 31
2500.0
  0
ARC
  5
B2
100
AcDbEntity
  8
MST_1_1
 62
   251
  6
CONTINUOUS
100
AcDbCircle
 10
30.34669829
 20
-51.95095495
 30
2500.0
 40
32.34797303
100
AcDbArc
 50
84.08482032
 51
88.74811714
  0
LWPOLYLINE
  5
B3
100
AcDbEntity
  8
MST_1_1
 62
   251
  6
CONTINUOUS
100
AcDbPolyline
 90
        3
 70
     0
 43
0.0
 38
2500.0
 10
42.93749597
 20
-21.45454975
 10
36.56494808
 20
-20.20627463
 42
0.01723995
 10
34.36301585
 20
-19.85328288
  0
ARC
  5
B4
100
AcDbEntity
  8
MST_1_1
 62
   251
  6
CONTINUOUS
100
AcDbCircle
 10
30.34669829
 20
9.04185545
 30
2500.0
 40
32.34797303
100
AcDbArc
 50
271.25189288
 51
272.83975061
  0
LWPOLYLINE
  5
B5
100
AcDbEntity
  8
MST_1_1
 62
   251
  6
CONTINUOUS
100
AcDbPolyline
 90
        3
 70
     0
 43
0.0
 38
2500.0
 10
42.93749597
 20
-21.45454975
 10
36.56494808
 20
-22.70282487
 42
-0.0063851
 10
35.75224689
 20
-22.85126925
  0
ARC
  5
B6
100
AcDbEntity
  8
MST_1_1
 62
   251
  6
CONTINUOUS
100
AcDbCircle
 10
30.34669829
 20
9.04185545
 30
2500.0
 40
32.34797303
100
AcDbArc
 50
274.21680449
 51
278.53995004
  0
LWPOLYLINE
  5
B7
100
AcDbEntity
  8
MST_1_1
 62
   137
  6
CONTINUOUS
100
AcDbPolyline
 90
        6
 70
     0
 43
0.0
 38
2500.0
 10
37.25107413
 20
-19.69880409
 10
37.10892454
 20
-20.31283048
 10
38.33422484
 20
-22.95705128
 10
38.47016502
 20
-22.32962486
 10
37.25107413
 20
-19.69880409
 10
38.31075559
 20
-22.9064042
  0
LWPOLYLINE
  5
B8
100
AcDbEntity
  8
MST_1_1
 62
   137
  6
CONTINUOUS
100
AcDbPolyline
 90
        6
 70
     0
 43
0.0
 38
2500.0
 10
27.08910922
 20
-18.45454954
 10
26.82321025
 20
-19.60312118
 10
29.07130425
 20
-24.45454975
 10
29.33720331
 20
-23.30597832
 10
27.08910922
 20
-18.45454954
 10
29.07130425
 20
-24.45454975
  0
LINE
  5
B9
100
AcDbEntity
  8
MST_1_1
 62
   251
  6
CONTINUOUS
100
AcDbLine
 10
25.90863188
 20
-23.30597832
 30
2500.0
 11
28.53906998
 21
-23.30597832
 31
2500.0
  0
LINE
  5
BA
100
AcDbEntity
  8
MST_1_1
 62
   251
  6
CONTINUOUS
100
AcDbLine
 10
26.82321025
 20
-19.60312118
 30
2500.0
 11
24.19277216
 21
-19.60312118
 31
2500.0
  0
LWPOLYLINE
  5
BB
100
AcDbEntity
  8
MST_1_1
 62
   137
  6
CONTINUOUS
100
AcDbPolyline
 90
        6
 70
     0
 43
0.0
 38
2500.0
 10
13.37482351
 20
-18.45454954
 10
13.10892454
 20
-19.60312118
 10
15.35701853
 20
-24.45454975
 10
15.6229176
 20
-23.30597832
 10
13.37482351
 20
-18.45454954
 10
15.35701853
 20
-24.45454975
  0
LINE
  5
BC
100
AcDbEntity
  8
MST_1_1
 62
   251
  6
CONTINUOUS
100
AcDbLine
 10
12.19434617
 20
-23.30597832
 30
2500.0
 11
14.82478427
 21
-23.30597832
 31
2500.0
  0
LINE
  5
BD
100
AcDbEntity
  8
MST_1_1
 62
   251
  6
CONTINUOUS
100
AcDbLine
 10
13.10892454
 20
-19.60312118
 30
2500.0
 11
10.47848644
 21
-19.60312118
 31
2500.0
  0
LWPOLYLINE
  5
BE
100
AcDbEntity
  8
MST_1_1
 62
   137
  6
CONTINUOUS
100
AcDbPolyline
 90
        6
 70
     0
 43
0.0
 38
2500.0
 10
23.6605378
 20
-18.45454954
 10
23.39463883
 20
-19.60312118
 10
25.64273282
 20
-24.45454975
 10
25.90863188
 20
-23.30597832
 10
23.6605378
 20
-18.45454954
 10
25.64273282
 20
-24.45454975
  0
LINE
  5
BF
100
AcDbEntity
  8
MST_1_1
 62
   251
  6
CONTINUOUS
100
AcDbLine
 10
22.48006046
 20
-23.30597832
 30
2500.0
 11
25.11049855
 21
-23.30597832
 31
2500.0
  0
LINE
  5
C0
100
AcDbEntity
  8
MST_1_1
 62
   251
  6
CONTINUOUS
100
AcDbLine
 10
23.39463883
 20
-19.60312118
 30
2500.0
 11
20.76420073
 21
-19.60312118
 31
2500.0
  0
LWPOLYLINE
  5
C1
100
AcDbEntity
  8
MST_1_1
 62
   137
  6
CONTINUOUS
100
AcDbPolyline
 90
        6
 70
     0
 43
0.0
 38
2500.0
 10
20.23196637
 20
-18.45454954
 10
19.9660674
 20
-19.60312118
 10
22.21416139
 20
-24.45454975
 10
22.48006046
 20
-23.30597832
 10
20.23196637
 20
-18.45454954
 10
22.21416139
 20
-24.45454975
  0
LINE
  5
C2
100
AcDbEntity
  8
MST_1_1
 62
   251
  6
CONTINUOUS
100
AcDbLine
 10
19.05148903
 20
-23.30597832
 30
2500.0
 11
21.68192712
 21
-23.30597832
 31
2500.0
  0
LINE
  5
C3
100
AcDbEntity
  8
MST_1_1
 62
   251
  6
CONTINUOUS
100
AcDbLine
 10
19.9660674
 20
-19.60312118
 30
2500.0
 11
17.3356293
 21
-19.60312118
 31
2500.0
  0
LWPOLYLINE
  5
C4
100
AcDbEntity
  8
MST_1_1
 62
   137
  6
CONTINUOUS
100
AcDbPolyline
 90
        6
 70
     0
 43
0.0
 38
2500.0
 10
9.94625208
 20
-18.45454954
 10
9.68035311
 20
-19.60312118
 10
11.9284471
 20
-24.45454975
 10
12.19434617
 20
-23.30597832
 10
9.94625208
 20
-18.45454954
 10
11.9284471
 20
-24.45454975
  0
LINE
  5
C5
100
AcDbEntity
  8
MST_1_1
 62
   251
  6
CONTINUOUS
100
AcDbLine
 10
8.76577474
 20
-23.30597832
 30
2500.0
 11
11.39621284
 21
-23.30597832
 31
2500.0
  0
LINE
  5
C6
100
AcDbEntity
  8
MST_1_1
 62
   251
  6
CONTINUOUS
100
AcDbLine
 10
9.68035311
 20
-19.60312118
 30
2500.0
 11
7.04991501
 21
-19.60312118
 31
2500.0
  0
LWPOLYLINE
  5
C7
100
AcDbEntity
  8
MST_1_1
 62
   137
  6
CONTINUOUS
100
AcDbPolyline
 90
        6
 70
     0
 43
0.0
 38
2500.0
 10
16.80339494
 20
-18.45454954
 10
16.53749597
 20
-19.60312118
 10
18.78558996
 20
-24.45454975
 10
19.05148903
 20
-23.30597832
 10
16.80339494
 20
-18.45454954
 10
18.78558996
 20
-24.45454975
  0
LINE
  5
C8
100
AcDbEntity
  8
MST_1_1
 62
   251
  6
CONTINUOUS
100
AcDbLine
 10
15.6229176
 20
-23.30597832
 30
2500.0
 11
18.25335569
 21
-23.30597832
 31
2500.0
  0
LINE
  5
C9
100
AcDbEntity
  8
MST_1_1
 62
   251
  6
CONTINUOUS
100
AcDbLine
 10
16.53749597
 20
-19.60312118
 30
2500.0
 11
13.90705787
 21
-19.60312118
 31
2500.0
  0
LWPOLYLINE
  5
CA
100
AcDbEntity
  8
MST_1_1
 62
   137
  6
CONTINUOUS
100
AcDbPolyline
 90
        6
 70
     0
 43
0.0
 38
2500.0
 10
6.51768065
 20
-18.45454954
 10
6.25178168
 20
-19.60312118
 10
8.49987568
 20
-24.45454975
 10
8.76577474
 20
-23.30597832
 10
6.51768065
 20
-18.45454954
 10
8.49987568
 20
-24.45454975
  0
LINE
  5
CB
100
AcDbEntity
  8
MST_1_1
 62
   251
  6
CONTINUOUS
100
AcDbLine
 10
5.33720331
 20
-23.30597832
 30
2500.0
 11
7.96764141
 21
-23.30597832
 31
2500.0
  0
LINE
  5
CC
100
AcDbEntity
  8
MST_1_1
 62
   251
  6
CONTINUOUS
100
AcDbLine
 10
6.25178168
 20
-19.60312118
 30
2500.0
 11
1.53749597
 21
-19.60312118
 31
2500.0
  0
LWPOLYLINE
  5
CD
100
AcDbEntity
  8
MST_1_1
 62
   137
  6
CONTINUOUS
100
AcDbPolyline
 90
        4
 70
     0
 43
0.0
 38
2500.0
 10
4.49390533
 20
-23.20851217
 10
5.07130425
 20
-24.45454975
 10
5.33720331
 20
-23.30597832
 10
4.65321056
 20
-21.82990926
  0
LINE
  5
CE
100
AcDbEntity
  8
MST_1_1
 62
   137
  6
CONTINUOUS
100
AcDbLine
 10
4.53685777
 20
-22.83680835
 30
2500.0
 11
5.07130425
 21
-24.45454975
 31
2500.0
  0
LINE
  5
CF
100
AcDbEntity
  8
MST_1_1
 62
   251
  6
CONTINUOUS
100
AcDbLine
 10
4.65321056
 20
-21.82990926
 30
2500.0
 11
4.49390533
 21
-23.20851217
 31
2500.0
  0
LINE
  5
D0
100
AcDbEntity
  8
MST_1_1
 62
   251
  6
CONTINUOUS
100
AcDbLine
 10
1.53749597
 20
-23.30597832
 30
2500.0
 11
4.49390533
 21
-23.30597832
 31
2500.0
  0
LINE
  5
D1
100
AcDbEntity
  8
MST_1_1
 62
   137
  6
CONTINUOUS
100
AcDbLine
 10
-2.06250403
 20
8.54545025
 30
0.0
 11
-2.06250403
 21
14.44545025
 31
0.0
  0
LINE
  5
D2
100
AcDbEntity
  8
MST_1_1
 62
   137
  6
CONTINUOUS
100
AcDbLine
 10
-2.06250403
 20
14.44545025
 30
0.0
 11
-1.93139296
 21
14.44545025
 31
0.0
  0
LINE
  5
D3
100
AcDbEntity
  8
MST_1_1
 62
   137
  6
CONTINUOUS
100
AcDbLine
 10
-1.93139296
 20
14.44545025
 30
0.0
 11
1.53749597
 21
10.39687882
 31
0.0
  0
LINE
  5
D4
100
AcDbEntity
  8
MST_1_1
 62
   137
  6
CONTINUOUS
100
AcDbLine
 10
1.53749597
 20
6.69402168
 30
0.0
 11
-1.93139296
 21
2.64545025
 31
0.0
  0
LINE
  5
D5
100
AcDbEntity
  8
MST_1_1
 62
   137
  6
CONTINUOUS
100
AcDbLine
 10
-1.93139296
 20
2.64545025
 30
0.0
 11
-2.06250403
 21
2.64545025
 31
0.0
  0
LINE
  5
D6
100
AcDbEntity
  8
MST_1_1
 62
   137
  6
CONTINUOUS
100
AcDbLine
 10
-2.06250403
 20
2.64545025
 30
0.0
 11
-2.06250403
 21
8.54545025
 31
0.0
  0
LWPOLYLINE
  5
D7
100
AcDbEntity
  8
MST_1_1
 62
   137
  6
CONTINUOUS
100
AcDbPolyline
 90
        6
 70
     0
 43
0.0
 38
2500.0
 10
25.51768065
 20
11.54545046
 10
25.25178168
 20
10.39687882
 10
27.49987568
 20
5.54545025
 10
27.72526175
 20
6.78144946
 10
25.51768065
 20
11.54545046
 10
27.49987568
 20
5.54545025
  0
LWPOLYLINE
  5
D8
100
AcDbEntity
  8
MST_1_1
 62
   137
  6
CONTINUOUS
100
AcDbPolyline
 90
        6
 70
     0
 43
0.0
 38
2500.0
 10
28.89573128
 20
11.1551259
 10
28.68035311
 20
10.22478287
 10
30.53686872
 20
6.21838773
 10
30.75224689
 20
7.14873075
 10
28.89573128
 20
11.1551259
 10
30.50130925
 20
6.29512573
  0
LINE
  5
D9
100
AcDbEntity
  8
MST_1_1
 62
   251
  6
CONTINUOUS
100
AcDbLine
 10
24.33720331
 20
6.69402168
 30
2500.0
 11
26.05342837
 21
6.70160358
 31
2500.0
  0
LINE
  5
DA
100
AcDbEntity
  8
MST_1_1
 62
   251
  6
CONTINUOUS
100
AcDbLine
 10
25.25178168
 20
10.39687882
 30
2500.0
 11
22.62134359
 21
10.39687882
 31
2500.0
  0
ARC
  5
DB
100
AcDbEntity
  8
MST_1_1
 62
   251
  6
CONTINUOUS
100
AcDbCircle
 10
25.34669829
 20
-21.95095495
 30
2500.0
 40
32.34797303
100
AcDbArc
 50
84.08482032
 51
88.74811714
  0
LWPOLYLINE
  5
DC
100
AcDbEntity
  8
MST_1_1
 62
   251
  6
CONTINUOUS
100
AcDbPolyline
 90
        3
 70
     0
 43
0.0
 38
2500.0
 10
37.93749597
 20
8.54545025
 10
31.56494808
 20
9.79372537
 42
0.01723995
 10
29.36301585
 20
10.14671712
  0
ARC
  5
DD
100
AcDbEntity
  8
MST_1_1
 62
   251
  6
CONTINUOUS
100
AcDbCircle
 10
25.34669829
 20
39.04185545
 30
2500.0
 40
32.34797303
100
AcDbArc
 50
271.25189288
 51
272.83975061
  0
LWPOLYLINE
  5
DE
100
AcDbEntity
  8
MST_1_1
 62
   251
  6
CONTINUOUS
100
AcDbPolyline
 90
        3
 70
     0
 43
0.0
 38
2500.0
 10
37.93749597
 20
8.54545025
 10
31.56494808
 20
7.29717513
 42
-0.0063851
 10
30.75224689
 20
7.14873075
  0
ARC
  5
DF
100
AcDbEntity
  8
MST_1_1
 62
   251
  6
CONTINUOUS
100
AcDbCircle
 10
25.34669829
 20
39.04185545
 30
2500.0
 40
32.34797303
100
AcDbArc
 50
274.21680449
 51
278.53995004
  0
LWPOLYLINE
  5
E0
100
AcDbEntity
  8
MST_1_1
 62
   137
  6
CONTINUOUS
100
AcDbPolyline
 90
        6
 70
     0
 43
0.0
 38
2500.0
 10
32.25107413
 20
10.30119591
 10
32.10892454
 20
9.68716952
 10
33.33422484
 20
7.04294872
 10
33.47016502
 20
7.67037514
 10
32.25107413
 20
10.30119591
 10
33.31075559
 20
7.0935958
  0
LWPOLYLINE
  5
E1
100
AcDbEntity
  8
MST_1_1
 62
   137
  6
CONTINUOUS
100
AcDbPolyline
 90
        6
 70
     0
 43
0.0
 38
2500.0
 10
22.08910922
 20
11.54545046
 10
21.82321025
 20
10.39687882
 10
24.07130425
 20
5.54545025
 10
24.33720331
 20
6.69402168
 10
22.08910922
 20
11.54545046
 10
24.07130425
 20
5.54545025
  0
LINE
  5
E2
100
AcDbEntity
  8
MST_1_1
 62
   251
  6
CONTINUOUS
100
AcDbLine
 10
20.90863188
 20
6.69402168
 30
2500.0
 11
23.53906998
 21
6.69402168
 31
2500.0
  0
LINE
  5
E3
100
AcDbEntity
  8
MST_1_1
 62
   251
  6
CONTINUOUS
100
AcDbLine
 10
21.82321025
 20
10.39687882
 30
2500.0
 11
19.19277216
 21
10.39687882
 31
2500.0
  0
LWPOLYLINE
  5
E4
100
AcDbEntity
  8
MST_1_1
 62
   137
  6
CONTINUOUS
100
AcDbPolyline
 90
        6
 70
     0
 43
0.0
 38
2500.0
 10
18.6605378
 20
11.54545046
 10
18.39463883
 20
10.39687882
 10
20.64273282
 20
5.54545025
 10
20.90863188
 20
6.69402168
 10
18.6605378
 20
11.54545046
 10
20.64273282
 20
5.54545025
  0
LINE
  5
E5
100
AcDbEntity
  8
MST_1_1
 62
   251
  6
CONTINUOUS
100
AcDbLine
 10
17.48006046
 20
6.69402168
 30
2500.0
 11
20.11049855
 21
6.69402168
 31
2500.0
  0
LINE
  5
E6
100
AcDbEntity
  8
MST_1_1
 62
   251
  6
CONTINUOUS
100
AcDbLine
 10
18.39463883
 20
10.39687882
 30
2500.0
 11
15.76420073
 21
10.39687882
 31
2500.0
  0
LWPOLYLINE
  5
E7
100
AcDbEntity
  8
MST_1_1
 62
   137
  6
CONTINUOUS
100
AcDbPolyline
 90
        6
 70
     0
 43
0.0
 38
2500.0
 10
15.23196637
 20
11.54545046
 10
14.9660674
 20
10.39687882
 10
17.21416139
 20
5.54545025
 10
17.48006046
 20
6.69402168
 10
15.23196637
 20
11.54545046
 10
17.21416139
 20
5.54545025
  0
LINE
  5
E8
100
AcDbEntity
  8
MST_1_1
 62
   251
  6
CONTINUOUS
100
AcDbLine
 10
14.05148903
 20
6.69402168
 30
2500.0
 11
16.68192712
 21
6.69402168
 31
2500.0
  0
LINE
  5
E9
100
AcDbEntity
  8
MST_1_1
 62
   251
  6
CONTINUOUS
100
AcDbLine
 10
14.9660674
 20
10.39687882
 30
2500.0
 11
12.3356293
 21
10.39687882
 31
2500.0
  0
LWPOLYLINE
  5
EA
100
AcDbEntity
  8
MST_1_1
 62
   137
  6
CONTINUOUS
100
AcDbPolyline
 90
        6
 70
     0
 43
0.0
 38
2500.0
 10
11.80339494
 20
11.54545046
 10
11.53749597
 20
10.39687882
 10
13.78558996
 20
5.54545025
 10
14.05148903
 20
6.69402168
 10
11.80339494
 20
11.54545046
 10
13.78558996
 20
5.54545025
  0
LINE
  5
EB
100
AcDbEntity
  8
MST_1_1
 62
   251
  6
CONTINUOUS
100
AcDbLine
 10
10.6229176
 20
6.69402168
 30
2500.0
 11
13.25335569
 21
6.69402168
 31
2500.0
  0
LINE
  5
EC
100
AcDbEntity
  8
MST_1_1
 62
   251
  6
CONTINUOUS
100
AcDbLine
 10
11.53749597
 20
10.39687882
 30
2500.0
 11
8.90705787
 21
10.39687882
 31
2500.0
  0
LWPOLYLINE
  5
ED
100
AcDbEntity
  8
MST_1_1
 62
   137
  6
CONTINUOUS
100
AcDbPolyline
 90
        6
 70
     0
 43
0.0
 38
2500.0
 10
8.37482351
 20
11.54545046
 10
8.10892454
 20
10.39687882
 10
10.35701853
 20
5.54545025
 10
10.6229176
 20
6.69402168
 10
8.37482351
 20
11.54545046
 10
10.35701853
 20
5.54545025
  0
LINE
  5
EE
100
AcDbEntity
  8
MST_1_1
 62
   251
  6
CONTINUOUS
100
AcDbLine
 10
7.19434617
 20
6.69402168
 30
2500.0
 11
9.82478427
 21
6.69402168
 31
2500.0
  0
LINE
  5
EF
100
AcDbEntity
  8
MST_1_1
 62
   251
  6
CONTINUOUS
100
AcDbLine
 10
8.10892454
 20
10.39687882
 30
2500.0
 11
5.47848644
 21
10.39687882
 31
2500.0
  0
LWPOLYLINE
  5
F0
100
AcDbEntity
  8
MST_1_1
 62
   137
  6
CONTINUOUS
100
AcDbPolyline
 90
        6
 70
     0
 43
0.0
 38
2500.0
 10
4.94625208
 20
11.54545046
 10
4.68035311
 20
10.39687882
 10
6.9284471
 20
5.54545025
 10
7.19434617
 20
6.69402168
 10
4.94625208
 20
11.54545046
 10
6.9284471
 20
5.54545025
  0
LINE
  5
F1
100
AcDbEntity
  8
MST_1_1
 62
   251
  6
CONTINUOUS
100
AcDbLine
 10
3.76577474
 20
6.69402168
 30
2500.0
 11
6.39621284
 21
6.69402168
 31
2500.0
  0
LINE
  5
F2
100
AcDbEntity
  8
MST_1_1
 62
   251
  6
CONTINUOUS
100
AcDbLine
 10
4.68035311
 20
10.39687882
 30
2500.0
 11
1.53749597
 21
10.39687882
 31
2500.0
  0
LWPOLYLINE
  5
F3
100
AcDbEntity
  8
MST_1_1
 62
   137
  6
CONTINUOUS
100
AcDbPolyline
 90
        4
 70
     0
 43
0.0
 38
2500.0
 10
2.92247676
 20
6.79148783
 10
3.49987568
 20
5.54545025
 10
3.76577474
 20
6.69402168
 10
3.08178199
 20
8.17009074
  0
LINE
  5
F4
100
AcDbEntity
  8
MST_1_1
 62
   137
  6
CONTINUOUS
100
AcDbLine
 10
2.9654292
 20
7.16319165
 30
2500.0
 11
3.49987568
 21
5.54545025
 31
2500.0
  0
LINE
  5
F5
100
AcDbEntity
  8
MST_1_1
 62
   251
  6
CONTINUOUS
100
AcDbLine
 10
3.08178199
 20
8.17009074
 30
2500.0
 11
2.92247676
 21
6.79148783
 31
2500.0
  0
LINE
  5
F6
100
AcDbEntity
  8
MST_1_1
 62
   251
  6
CONTINUOUS
100
AcDbLine
 10
1.53749597
 20
6.69402168
 30
2500.0
 11
2.96764141
 21
6.69402168
 31
2500.0
  0
LINE
  5
F7
100
AcDbEntity
  8
MST_1_1
 62
   137
  6
CONTINUOUS
100
AcDbLine
 10
-2.06250403
 20
-81.45454975
 30
0.0
 11
-2.06250403
 21
-75.55454975
 31
0.0
  0
LINE
  5
F8
100
AcDbEntity
  8
MST_1_1
 62
   137
  6
CONTINUOUS
100
AcDbLine
 10
-2.06250403
 20
-75.55454975
 30
0.0
 11
-1.93139296
 21
-75.55454975
 31
0.0
  0
LINE
  5
F9
100
AcDbEntity
  8
MST_1_1
 62
   137
  6
CONTINUOUS
100
AcDbLine
 10
-1.93139296
 20
-75.55454975
 30
0.0
 11
1.53749597
 21
-79.60312118
 31
0.0
  0
LINE
  5
FA
100
AcDbEntity
  8
MST_1_1
 62
   137
  6
CONTINUOUS
100
AcDbLine
 10
1.53749597
 20
-83.30597832
 30
0.0
 11
-1.93139296
 21
-87.35454975
 31
0.0
  0
LINE
  5
FB
100
AcDbEntity
  8
MST_1_1
 62
   137
  6
CONTINUOUS
100
AcDbLine
 10
-1.93139296
 20
-87.35454975
 30
0.0
 11
-2.06250403
 21
-87.35454975
 31
0.0
  0
LINE
  5
FC
100
AcDbEntity
  8
MST_1_1
 62
   137
  6
CONTINUOUS
100
AcDbLine
 10
-2.06250403
 20
-87.35454975
 30
0.0
 11
-2.06250403
 21
-81.45454975
 31
0.0
  0
LWPOLYLINE
  5
FD
100
AcDbEntity
  8
MST_1_1
 62
   137
  6
CONTINUOUS
100
AcDbPolyline
 90
        6
 70
     0
 43
0.0
 38
2500.0
 10
45.51768065
 20
-78.45454954
 10
45.25178168
 20
-79.60312118
 10
47.49987568
 20
-84.45454975
 10
47.72526175
 20
-83.21855054
 10
45.51768065
 20
-78.45454954
 10
47.49987568
 20
-84.45454975
  0
LWPOLYLINE
  5
FE
100
AcDbEntity
  8
MST_1_1
 62
   137
  6
CONTINUOUS
100
AcDbPolyline
 90
        6
 70
     0
 43
0.0
 38
2500.0
 10
48.89573128
 20
-78.8448741
 10
48.68035311
 20
-79.77521713
 10
50.53686872
 20
-83.78161227
 10
50.75224689
 20
-82.85126925
 10
48.89573128
 20
-78.8448741
 10
50.50130925
 20
-83.70487427
  0
LINE
  5
FF
100
AcDbEntity
  8
MST_1_1
 62
   251
  6
CONTINUOUS
100
AcDbLine
 10
44.33720331
 20
-83.30597832
 30
2500.0
 11
46.05342837
 21
-83.29839642
 31
2500.0
  0
LINE
  5
100
100
AcDbEntity
  8
MST_1_1
 62
   251
  6
CONTINUOUS
100
AcDbLine
 10
45.25178168
 20
-79.60312118
 30
2500.0
 11
42.62134359
 21
-79.60312118
 31
2500.0
  0
ARC
  5
101
100
AcDbEntity
  8
MST_1_1
 62
   251
  6
CONTINUOUS
100
AcDbCircle
 10
45.34669829
 20
-111.95095495
 30
2500.0
 40
32.34797303
100
AcDbArc
 50
84.08482032
 51
88.74811714
  0
LWPOLYLINE
  5
102
100
AcDbEntity
  8
MST_1_1
 62
   251
  6
CONTINUOUS
100
AcDbPolyline
 90
        3
 70
     0
 43
0.0
 38
2500.0
 10
57.93749597
 20
-81.45454975
 10
51.56494808
 20
-80.20627463
 42
0.01723995
 10
49.36301585
 20
-79.85328288
  0
ARC
  5
103
100
AcDbEntity
  8
MST_1_1
 62
   251
  6
CONTINUOUS
100
AcDbCircle
 10
45.34669829
 20
-50.95814455
 30
2500.0
 40
32.34797303
100
AcDbArc
 50
271.25189288
 51
272.83975061
  0
LWPOLYLINE
  5
104
100
AcDbEntity
  8
MST_1_1
 62
   251
  6
CONTINUOUS
100
AcDbPolyline
 90
        3
 70
     0
 43
0.0
 38
2500.0
 10
57.93749597
 20
-81.45454975
 10
51.56494808
 20
-82.70282487
 42
-0.0063851
 10
50.75224689
 20
-82.85126925
  0
ARC
  5
105
100
AcDbEntity
  8
MST_1_1
 62
   251
  6
CONTINUOUS
100
AcDbCircle
 10
45.34669829
 20
-50.95814455
 30
2500.0
 40
32.34797303
100
AcDbArc
 50
274.21680449
 51
278.53995004
  0
LWPOLYLINE
  5
106
100
AcDbEntity
  8
MST_1_1
 62
   137
  6
CONTINUOUS
100
AcDbPolyline
 90
        6
 70
     0
 43
0.0
 38
2500.0
 10
52.25107413
 20
-79.69880409
 10
52.10892454
 20
-80.31283048
 10
53.33422484
 20
-82.95705128
 10
53.47016502
 20
-82.32962486
 10
52.25107413
 20
-79.69880409
 10
53.31075559
 20
-82.9064042
  0
LWPOLYLINE
  5
107
100
AcDbEntity
  8
MST_1_1
 62
   137
  6
CONTINUOUS
100
AcDbPolyline
 90
        6
 70
     0
 43
0.0
 38
2500.0
 10
42.08910922
 20
-78.45454954
 10
41.82321025
 20
-79.60312118
 10
44.07130425
 20
-84.45454975
 10
44.33720331
 20
-83.30597832
 10
42.08910922
 20
-78.45454954
 10
44.07130425
 20
-84.45454975
  0
LINE
  5
108
100
AcDbEntity
  8
MST_1_1
 62
   251
  6
CONTINUOUS
100
AcDbLine
 10
40.90863188
 20
-83.30597832
 30
2500.0
 11
43.53906998
 21
-83.30597832
 31
2500.0
  0
LINE
  5
109
100
AcDbEntity
  8
MST_1_1
 62
   251
  6
CONTINUOUS
100
AcDbLine
 10
41.82321025
 20
-79.60312118
 30
2500.0
 11
39.19277216
 21
-79.60312118
 31
2500.0
  0
LWPOLYLINE
  5
10A
100
AcDbEntity
  8
MST_1_1
 62
   137
  6
CONTINUOUS
100
AcDbPolyline
 90
        6
 70
     0
 43
0.0
 38
2500.0
 10
11.23196637
 20
-78.45454954
 10
10.9660674
 20
-79.60312118
 10
13.21416139
 20
-84.45454975
 10
13.48006046
 20
-83.30597832
 10
11.23196637
 20
-78.45454954
 10
13.21416139
 20
-84.45454975
  0
LINE
  5
10B
100
AcDbEntity
  8
MST_1_1
 62
   251
  6
CONTINUOUS
100
AcDbLine
 10
10.05148903
 20
-83.30597832
 30
2500.0
 11
12.68192712
 21
-83.30597832
 31
2500.0
  0
LINE
  5
10C
100
AcDbEntity
  8
MST_1_1
 62
   251
  6
CONTINUOUS
100
AcDbLine
 10
10.9660674
 20
-79.60312118
 30
2500.0
 11
8.3356293
 21
-79.60312118
 31
2500.0
  0
LWPOLYLINE
  5
10D
100
AcDbEntity
  8
MST_1_1
 62
   137
  6
CONTINUOUS
100
AcDbPolyline
 90
        6
 70
     0
 43
0.0
 38
2500.0
 10
38.6605378
 20
-78.45454954
 10
38.39463883
 20
-79.60312118
 10
40.64273282
 20
-84.45454975
 10
40.90863188
 20
-83.30597832
 10
38.6605378
 20
-78.45454954
 10
40.64273282
 20
-84.45454975
  0
LINE
  5
10E
100
AcDbEntity
  8
MST_1_1
 62
   251
  6
CONTINUOUS
100
AcDbLine
 10
37.48006046
 20
-83.30597832
 30
2500.0
 11
40.11049855
 21
-83.30597832
 31
2500.0
  0
LINE
  5
10F
100
AcDbEntity
  8
MST_1_1
 62
   251
  6
CONTINUOUS
100
AcDbLine
 10
38.39463883
 20
-79.60312118
 30
2500.0
 11
35.76420073
 21
-79.60312118
 31
2500.0
  0
LWPOLYLINE
  5
110
100
AcDbEntity
  8
MST_1_1
 62
   137
  6
CONTINUOUS
100
AcDbPolyline
 90
        6
 70
     0
 43
0.0
 38
2500.0
 10
24.94625208
 20
-78.45454954
 10
24.68035311
 20
-79.60312118
 10
26.9284471
 20
-84.45454975
 10
27.19434617
 20
-83.30597832
 10
24.94625208
 20
-78.45454954
 10
26.9284471
 20
-84.45454975
  0
LINE
  5
111
100
AcDbEntity
  8
MST_1_1
 62
   251
  6
CONTINUOUS
100
AcDbLine
 10
23.76577474
 20
-83.30597832
 30
2500.0
 11
26.39621284
 21
-83.30597832
 31
2500.0
  0
LINE
  5
112
100
AcDbEntity
  8
MST_1_1
 62
   251
  6
CONTINUOUS
100
AcDbLine
 10
24.68035311
 20
-79.60312118
 30
2500.0
 11
22.04991501
 21
-79.60312118
 31
2500.0
  0
LWPOLYLINE
  5
113
100
AcDbEntity
  8
MST_1_1
 62
   137
  6
CONTINUOUS
100
AcDbPolyline
 90
        6
 70
     0
 43
0.0
 38
2500.0
 10
7.80339494
 20
-78.45454954
 10
7.53749597
 20
-79.60312118
 10
9.78558996
 20
-84.45454975
 10
10.05148903
 20
-83.30597832
 10
7.80339494
 20
-78.45454954
 10
9.78558996
 20
-84.45454975
  0
LINE
  5
114
100
AcDbEntity
  8
MST_1_1
 62
   251
  6
CONTINUOUS
100
AcDbLine
 10
6.6229176
 20
-83.30597832
 30
2500.0
 11
9.25335569
 21
-83.30597832
 31
2500.0
  0
LINE
  5
115
100
AcDbEntity
  8
MST_1_1
 62
   251
  6
CONTINUOUS
100
AcDbLine
 10
7.53749597
 20
-79.60312118
 30
2500.0
 11
4.90705787
 21
-79.60312118
 31
2500.0
  0
LWPOLYLINE
  5
116
100
AcDbEntity
  8
MST_1_1
 62
   137
  6
CONTINUOUS
100
AcDbPolyline
 90
        6
 70
     0
 43
0.0
 38
2500.0
 10
14.6605378
 20
-78.45454954
 10
14.39463883
 20
-79.60312118
 10
16.64273282
 20
-84.45454975
 10
16.90863188
 20
-83.30597832
 10
14.6605378
 20
-78.45454954
 10
16.64273282
 20
-84.45454975
  0
LINE
  5
117
100
AcDbEntity
  8
MST_1_1
 62
   251
  6
CONTINUOUS
100
AcDbLine
 10
13.48006046
 20
-83.30597832
 30
2500.0
 11
16.11049855
 21
-83.30597832
 31
2500.0
  0
LINE
  5
118
100
AcDbEntity
  8
MST_1_1
 62
   251
  6
CONTINUOUS
100
AcDbLine
 10
14.39463883
 20
-79.60312118
 30
2500.0
 11
11.76420073
 21
-79.60312118
 31
2500.0
  0
LWPOLYLINE
  5
119
100
AcDbEntity
  8
MST_1_1
 62
   137
  6
CONTINUOUS
100
AcDbPolyline
 90
        6
 70
     0
 43
0.0
 38
2500.0
 10
21.51768065
 20
-78.45454954
 10
21.25178168
 20
-79.60312118
 10
23.49987568
 20
-84.45454975
 10
23.76577474
 20
-83.30597832
 10
21.51768065
 20
-78.45454954
 10
23.49987568
 20
-84.45454975
  0
LINE
  5
11A
100
AcDbEntity
  8
MST_1_1
 62
   251
  6
CONTINUOUS
100
AcDbLine
 10
20.33720331
 20
-83.30597832
 30
2500.0
 11
22.96764141
 21
-83.30597832
 31
2500.0
  0
LINE
  5
11B
100
AcDbEntity
  8
MST_1_1
 62
   251
  6
CONTINUOUS
100
AcDbLine
 10
21.25178168
 20
-79.60312118
 30
2500.0
 11
18.62134359
 21
-79.60312118
 31
2500.0
  0
LWPOLYLINE
  5
11C
100
AcDbEntity
  8
MST_1_1
 62
   137
  6
CONTINUOUS
100
AcDbPolyline
 90
        6
 70
     0
 43
0.0
 38
2500.0
 10
18.08910922
 20
-78.45454954
 10
17.82321025
 20
-79.60312118
 10
20.07130425
 20
-84.45454975
 10
20.33720331
 20
-83.30597832
 10
18.08910922
 20
-78.45454954
 10
20.07130425
 20
-84.45454975
  0
LINE
  5
11D
100
AcDbEntity
  8
MST_1_1
 62
   251
  6
CONTINUOUS
100
AcDbLine
 10
16.90863188
 20
-83.30597832
 30
2500.0
 11
19.53906998
 21
-83.30597832
 31
2500.0
  0
LINE
  5
11E
100
AcDbEntity
  8
MST_1_1
 62
   251
  6
CONTINUOUS
100
AcDbLine
 10
17.82321025
 20
-79.60312118
 30
2500.0
 11
15.19277216
 21
-79.60312118
 31
2500.0
  0
LWPOLYLINE
  5
11F
100
AcDbEntity
  8
MST_1_1
 62
   137
  6
CONTINUOUS
100
AcDbPolyline
 90
        6
 70
     0
 43
0.0
 38
2500.0
 10
4.37482351
 20
-78.45454954
 10
4.10892454
 20
-79.60312118
 10
6.35701853
 20
-84.45454975
 10
6.6229176
 20
-83.30597832
 10
4.37482351
 20
-78.45454954
 10
6.35701853
 20
-84.45454975
  0
LINE
  5
120
100
AcDbEntity
  8
MST_1_1
 62
   251
  6
CONTINUOUS
100
AcDbLine
 10
3.19434617
 20
-83.30597832
 30
2500.0
 11
5.82478427
 21
-83.30597832
 31
2500.0
  0
LINE
  5
121
100
AcDbEntity
  8
MST_1_1
 62
   251
  6
CONTINUOUS
100
AcDbLine
 10
4.10892454
 20
-79.60312118
 30
2500.0
 11
1.53749597
 21
-79.60312118
 31
2500.0
  0
LWPOLYLINE
  5
122
100
AcDbEntity
  8
MST_1_1
 62
   137
  6
CONTINUOUS
100
AcDbPolyline
 90
        4
 70
     0
 43
0.0
 38
2500.0
 10
2.35104819
 20
-83.20851217
 10
2.9284471
 20
-84.45454975
 10
3.19434617
 20
-83.30597832
 10
2.51035341
 20
-81.82990926
  0
LINE
  5
123
100
AcDbEntity
  8
MST_1_1
 62
   137
  6
CONTINUOUS
100
AcDbLine
 10
2.39400063
 20
-82.83680835
 30
2500.0
 11
2.9284471
 21
-84.45454975
 31
2500.0
  0
LINE
  5
124
100
AcDbEntity
  8
MST_1_1
 62
   251
  6
CONTINUOUS
100
AcDbLine
 10
2.51035341
 20
-81.82990926
 30
2500.0
 11
2.35104819
 21
-83.20851217
 31
2500.0
  0
LINE
  5
125
100
AcDbEntity
  8
MST_1_1
 62
   251
  6
CONTINUOUS
100
AcDbLine
 10
1.53749597
 20
-83.30597832
 30
2500.0
 11
2.39621284
 21
-83.30597832
 31
2500.0
  0
LINE
  5
126
100
AcDbEntity
  8
MST_1_1
 62
   137
  6
CONTINUOUS
100
AcDbLine
 10
-2.06250403
 20
-111.45454975
 30
0.0
 11
-2.06250403
 21
-105.55454975
 31
0.0
  0
LINE
  5
127
100
AcDbEntity
  8
MST_1_1
 62
   137
  6
CONTINUOUS
100
AcDbLine
 10
-2.06250403
 20
-105.55454975
 30
0.0
 11
-1.93139296
 21
-105.55454975
 31
0.0
  0
LINE
  5
128
100
AcDbEntity
  8
MST_1_1
 62
   137
  6
CONTINUOUS
100
AcDbLine
 10
-1.93139296
 20
-105.55454975
 30
0.0
 11
1.53749597
 21
-109.60312118
 31
0.0
  0
LINE
  5
129
100
AcDbEntity
  8
MST_1_1
 62
   137
  6
CONTINUOUS
100
AcDbLine
 10
1.53749597
 20
-113.30597832
 30
0.0
 11
-1.93139296
 21
-117.35454975
 31
0.0
  0
LINE
  5
12A
100
AcDbEntity
  8
MST_1_1
 62
   137
  6
CONTINUOUS
100
AcDbLine
 10
-1.93139296
 20
-117.35454975
 30
0.0
 11
-2.06250403
 21
-117.35454975
 31
0.0
  0
LINE
  5
12B
100
AcDbEntity
  8
MST_1_1
 62
   137
  6
CONTINUOUS
100
AcDbLine
 10
-2.06250403
 20
-117.35454975
 30
0.0
 11
-2.06250403
 21
-111.45454975
 31
0.0
  0
LWPOLYLINE
  5
12C
100
AcDbEntity
  8
MST_1_1
 62
   137
  6
CONTINUOUS
100
AcDbPolyline
 90
        6
 70
     0
 43
0.0
 38
2500.0
 10
55.51768065
 20
-108.45454954
 10
55.25178168
 20
-109.60312118
 10
57.49987568
 20
-114.45454975
 10
57.72526175
 20
-113.21855054
 10
55.51768065
 20
-108.45454954
 10
57.49987568
 20
-114.45454975
  0
LWPOLYLINE
  5
12D
100
AcDbEntity
  8
MST_1_1
 62
   137
  6
CONTINUOUS
100
AcDbPolyline
 90
        6
 70
     0
 43
0.0
 38
2500.0
 10
58.89573128
 20
-108.8448741
 10
58.68035311
 20
-109.77521713
 10
60.53686872
 20
-113.78161227
 10
60.75224689
 20
-112.85126925
 10
58.89573128
 20
-108.8448741
 10
60.50130925
 20
-113.70487427
  0
LINE
  5
12E
100
AcDbEntity
  8
MST_1_1
 62
   251
  6
CONTINUOUS
100
AcDbLine
 10
54.33720331
 20
-113.30597832
 30
2500.0
 11
56.05342837
 21
-113.29839642
 31
2500.0
  0
LINE
  5
12F
100
AcDbEntity
  8
MST_1_1
 62
   251
  6
CONTINUOUS
100
AcDbLine
 10
55.25178168
 20
-109.60312118
 30
2500.0
 11
52.62134359
 21
-109.60312118
 31
2500.0
  0
ARC
  5
130
100
AcDbEntity
  8
MST_1_1
 62
   251
  6
CONTINUOUS
100
AcDbCircle
 10
55.34669829
 20
-141.95095495
 30
2500.0
 40
32.34797303
100
AcDbArc
 50
84.08482032
 51
88.74811714
  0
LWPOLYLINE
  5
131
100
AcDbEntity
  8
MST_1_1
 62
   251
  6
CONTINUOUS
100
AcDbPolyline
 90
        3
 70
     0
 43
0.0
 38
2500.0
 10
67.93749597
 20
-111.45454975
 10
61.56494808
 20
-110.20627463
 42
0.01723995
 10
59.36301585
 20
-109.85328288
  0
ARC
  5
132
100
AcDbEntity
  8
MST_1_1
 62
   251
  6
CONTINUOUS
100
AcDbCircle
 10
55.34669829
 20
-80.95814455
 30
2500.0
 40
32.34797303
100
AcDbArc
 50
271.25189288
 51
272.83975061
  0
LWPOLYLINE
  5
133
100
AcDbEntity
  8
MST_1_1
 62
   251
  6
CONTINUOUS
100
AcDbPolyline
 90
        3
 70
     0
 43
0.0
 38
2500.0
 10
67.93749597
 20
-111.45454975
 10
61.56494808
 20
-112.70282487
 42
-0.0063851
 10
60.75224689
 20
-112.85126925
  0
ARC
  5
134
100
AcDbEntity
  8
MST_1_1
 62
   251
  6
CONTINUOUS
100
AcDbCircle
 10
55.34669829
 20
-80.95814455
 30
2500.0
 40
32.34797303
100
AcDbArc
 50
274.21680449
 51
278.53995004
  0
LWPOLYLINE
  5
135
100
AcDbEntity
  8
MST_1_1
 62
   137
  6
CONTINUOUS
100
AcDbPolyline
 90
        6
 70
     0
 43
0.0
 38
2500.0
 10
62.25107413
 20
-109.69880409
 10
62.10892454
 20
-110.31283048
 10
63.33422484
 20
-112.95705128
 10
63.47016502
 20
-112.32962486
 10
62.25107413
 20
-109.69880409
 10
63.31075559
 20
-112.9064042
  0
LWPOLYLINE
  5
136
100
AcDbEntity
  8
MST_1_1
 62
   137
  6
CONTINUOUS
100
AcDbPolyline
 90
        6
 70
     0
 43
0.0
 38
2500.0
 10
31.51768065
 20
-108.45454954
 10
31.25178168
 20
-109.60312118
 10
33.49987568
 20
-114.45454975
 10
33.76577474
 20
-113.30597832
 10
31.51768065
 20
-108.45454954
 10
33.49987568
 20
-114.45454975
  0
LINE
  5
137
100
AcDbEntity
  8
MST_1_1
 62
   251
  6
CONTINUOUS
100
AcDbLine
 10
30.33720331
 20
-113.30597832
 30
2500.0
 11
32.96764141
 21
-113.30597832
 31
2500.0
  0
LINE
  5
138
100
AcDbEntity
  8
MST_1_1
 62
   251
  6
CONTINUOUS
100
AcDbLine
 10
31.25178168
 20
-109.60312118
 30
2500.0
 11
28.62134359
 21
-109.60312118
 31
2500.0
  0
LWPOLYLINE
  5
139
100
AcDbEntity
  8
MST_1_1
 62
   137
  6
CONTINUOUS
100
AcDbPolyline
 90
        6
 70
     0
 43
0.0
 38
2500.0
 10
10.94625208
 20
-108.45454954
 10
10.68035311
 20
-109.60312118
 10
12.9284471
 20
-114.45454975
 10
13.19434617
 20
-113.30597832
 10
10.94625208
 20
-108.45454954
 10
12.9284471
 20
-114.45454975
  0
LINE
  5
13A
100
AcDbEntity
  8
MST_1_1
 62
   251
  6
CONTINUOUS
100
AcDbLine
 10
9.76577474
 20
-113.30597832
 30
2500.0
 11
12.39621284
 21
-113.30597832
 31
2500.0
  0
LINE
  5
13B
100
AcDbEntity
  8
MST_1_1
 62
   251
  6
CONTINUOUS
100
AcDbLine
 10
10.68035311
 20
-109.60312118
 30
2500.0
 11
8.04991501
 21
-109.60312118
 31
2500.0
  0
LWPOLYLINE
  5
13C
100
AcDbEntity
  8
MST_1_1
 62
   137
  6
CONTINUOUS
100
AcDbPolyline
 90
        6
 70
     0
 43
0.0
 38
2500.0
 10
28.08910922
 20
-108.45454954
 10
27.82321025
 20
-109.60312118
 10
30.07130425
 20
-114.45454975
 10
30.33720331
 20
-113.30597832
 10
28.08910922
 20
-108.45454954
 10
30.07130425
 20
-114.45454975
  0
LINE
  5
13D
100
AcDbEntity
  8
MST_1_1
 62
   251
  6
CONTINUOUS
100
AcDbLine
 10
26.90863188
 20
-113.30597832
 30
2500.0
 11
29.53906998
 21
-113.30597832
 31
2500.0
  0
LINE
  5
13E
100
AcDbEntity
  8
MST_1_1
 62
   251
  6
CONTINUOUS
100
AcDbLine
 10
27.82321025
 20
-109.60312118
 30
2500.0
 11
25.19277216
 21
-109.60312118
 31
2500.0
  0
LWPOLYLINE
  5
13F
100
AcDbEntity
  8
MST_1_1
 62
   137
  6
CONTINUOUS
100
AcDbPolyline
 90
        6
 70
     0
 43
0.0
 38
2500.0
 10
24.6605378
 20
-108.45454954
 10
24.39463883
 20
-109.60312118
 10
26.64273282
 20
-114.45454975
 10
26.90863188
 20
-113.30597832
 10
24.6605378
 20
-108.45454954
 10
26.64273282
 20
-114.45454975
  0
LINE
  5
140
100
AcDbEntity
  8
MST_1_1
 62
   251
  6
CONTINUOUS
100
AcDbLine
 10
23.48006046
 20
-113.30597832
 30
2500.0
 11
26.11049855
 21
-113.30597832
 31
2500.0
  0
LINE
  5
141
100
AcDbEntity
  8
MST_1_1
 62
   251
  6
CONTINUOUS
100
AcDbLine
 10
24.39463883
 20
-109.60312118
 30
2500.0
 11
21.76420073
 21
-109.60312118
 31
2500.0
  0
LWPOLYLINE
  5
142
100
AcDbEntity
  8
MST_1_1
 62
   137
  6
CONTINUOUS
100
AcDbPolyline
 90
        6
 70
     0
 43
0.0
 38
2500.0
 10
7.51768065
 20
-108.45454954
 10
7.25178168
 20
-109.60312118
 10
9.49987568
 20
-114.45454975
 10
9.76577474
 20
-113.30597832
 10
7.51768065
 20
-108.45454954
 10
9.49987568
 20
-114.45454975
  0
LINE
  5
143
100
AcDbEntity
  8
MST_1_1
 62
   251
  6
CONTINUOUS
100
AcDbLine
 10
6.33720331
 20
-113.30597832
 30
2500.0
 11
8.96764141
 21
-113.30597832
 31
2500.0
  0
LINE
  5
144
100
AcDbEntity
  8
MST_1_1
 62
   251
  6
CONTINUOUS
100
AcDbLine
 10
7.25178168
 20
-109.60312118
 30
2500.0
 11
4.62134359
 21
-109.60312118
 31
2500.0
  0
LWPOLYLINE
  5
145
100
AcDbEntity
  8
MST_1_1
 62
   137
  6
CONTINUOUS
100
AcDbPolyline
 90
        6
 70
     0
 43
0.0
 38
2500.0
 10
14.37482351
 20
-108.45454954
 10
14.10892454
 20
-109.60312118
 10
16.35701853
 20
-114.45454975
 10
16.6229176
 20
-113.30597832
 10
14.37482351
 20
-108.45454954
 10
16.35701853
 20
-114.45454975
  0
LINE
  5
146
100
AcDbEntity
  8
MST_1_1
 62
   251
  6
CONTINUOUS
100
AcDbLine
 10
13.19434617
 20
-113.30597832
 30
2500.0
 11
15.82478427
 21
-113.30597832
 31
2500.0
  0
LINE
  5
147
100
AcDbEntity
  8
MST_1_1
 62
   251
  6
CONTINUOUS
100
AcDbLine
 10
14.10892454
 20
-109.60312118
 30
2500.0
 11
11.47848644
 21
-109.60312118
 31
2500.0
  0
LWPOLYLINE
  5
148
100
AcDbEntity
  8
MST_1_1
 62
   137
  6
CONTINUOUS
100
AcDbPolyline
 90
        6
 70
     0
 43
0.0
 38
2500.0
 10
21.23196637
 20
-108.45454954
 10
20.9660674
 20
-109.60312118
 10
23.21416139
 20
-114.45454975
 10
23.48006046
 20
-113.30597832
 10
21.23196637
 20
-108.45454954
 10
23.21416139
 20
-114.45454975
  0
LINE
  5
149
100
AcDbEntity
  8
MST_1_1
 62
   251
  6
CONTINUOUS
100
AcDbLine
 10
20.05148903
 20
-113.30597832
 30
2500.0
 11
22.68192712
 21
-113.30597832
 31
2500.0
  0
LINE
  5
14A
100
AcDbEntity
  8
MST_1_1
 62
   251
  6
CONTINUOUS
100
AcDbLine
 10
20.9660674
 20
-109.60312118
 30
2500.0
 11
18.3356293
 21
-109.60312118
 31
2500.0
  0
LWPOLYLINE
  5
14B
100
AcDbEntity
  8
MST_1_1
 62
   137
  6
CONTINUOUS
100
AcDbPolyline
 90
        6
 70
     0
 43
0.0
 38
2500.0
 10
17.80339494
 20
-108.45454954
 10
17.53749597
 20
-109.60312118
 10
19.78558996
 20
-114.45454975
 10
20.05148903
 20
-113.30597832
 10
17.80339494
 20
-108.45454954
 10
19.78558996
 20
-114.45454975
  0
LINE
  5
14C
100
AcDbEntity
  8
MST_1_1
 62
   251
  6
CONTINUOUS
100
AcDbLine
 10
16.6229176
 20
-113.30597832
 30
2500.0
 11
19.25335569
 21
-113.30597832
 31
2500.0
  0
LINE
  5
14D
100
AcDbEntity
  8
MST_1_1
 62
   251
  6
CONTINUOUS
100
AcDbLine
 10
17.53749597
 20
-109.60312118
 30
2500.0
 11
14.90705787
 21
-109.60312118
 31
2500.0
  0
LWPOLYLINE
  5
14E
100
AcDbEntity
  8
MST_1_1
 62
   137
  6
CONTINUOUS
100
AcDbPolyline
 90
        6
 70
     0
 43
0.0
 38
2500.0
 10
4.08910922
 20
-108.45454954
 10
3.82321025
 20
-109.60312118
 10
6.07130425
 20
-114.45454975
 10
6.33720331
 20
-113.30597832
 10
4.08910922
 20
-108.45454954
 10
6.07130425
 20
-114.45454975
  0
LINE
  5
14F
100
AcDbEntity
  8
MST_1_1
 62
   251
  6
CONTINUOUS
100
AcDbLine
 10
2.90863188
 20
-113.30597832
 30
2500.0
 11
5.53906998
 21
-113.30597832
 31
2500.0
  0
LINE
  5
150
100
AcDbEntity
  8
MST_1_1
 62
   251
  6
CONTINUOUS
100
AcDbLine
 10
3.82321025
 20
-109.60312118
 30
2500.0
 11
1.53749597
 21
-109.60312118
 31
2500.0
  0
LWPOLYLINE
  5
151
100
AcDbEntity
  8
MST_1_1
 62
   137
  6
CONTINUOUS
100
AcDbPolyline
 90
        4
 70
     0
 43
0.0
 38
2500.0
 10
2.0653339
 20
-113.20851217
 10
2.64273282
 20
-114.45454975
 10
2.90863188
 20
-113.30597832
 10
2.22463913
 20
-111.82990926
  0
LINE
  5
152
100
AcDbEntity
  8
MST_1_1
 62
   137
  6
CONTINUOUS
100
AcDbLine
 10
2.10828634
 20
-112.83680835
 30
2500.0
 11
2.64273282
 21
-114.45454975
 31
2500.0
  0
LINE
  5
153
100
AcDbEntity
  8
MST_1_1
 62
   251
  6
CONTINUOUS
100
AcDbLine
 10
2.22463913
 20
-111.82990926
 30
2500.0
 11
2.0653339
 21
-113.20851217
 31
2500.0
  0
LINE
  5
154
100
AcDbEntity
  8
MST_1_1
 62
   251
  6
CONTINUOUS
100
AcDbLine
 10
1.53749597
 20
-113.30597832
 30
2500.0
 11
2.11049855
 21
-113.30597832
 31
2500.0
  0
LWPOLYLINE
  5
155
100
AcDbEntity
  8
MST_1_1
 62
   137
  6
CONTINUOUS
100
AcDbPolyline
 90
        6
 70
     0
 43
0.0
 38
2500.0
 10
35.23196637
 20
-78.45454954
 10
34.9660674
 20
-79.60312118
 10
37.21416139
 20
-84.45454975
 10
37.48006046
 20
-83.30597832
 10
35.23196637
 20
-78.45454954
 10
37.21416139
 20
-84.45454975
  0
LINE
  5
156
100
AcDbEntity
  8
MST_1_1
 62
   251
  6
CONTINUOUS
100
AcDbLine
 10
34.05148903
 20
-83.30597832
 30
2500.0
 11
36.68192712
 21
-83.30597832
 31
2500.0
  0
LINE
  5
157
100
AcDbEntity
  8
MST_1_1
 62
   251
  6
CONTINUOUS
100
AcDbLine
 10
34.9660674
 20
-79.60312118
 30
2500.0
 11
32.3356293
 21
-79.60312118
 31
2500.0
  0
LWPOLYLINE
  5
158
100
AcDbEntity
  8
MST_1_1
 62
   137
  6
CONTINUOUS
100
AcDbPolyline
 90
        6
 70
     0
 43
0.0
 38
2500.0
 10
31.80339494
 20
-78.45454954
 10
31.53749597
 20
-79.60312118
 10
33.78558996
 20
-84.45454975
 10
34.05148903
 20
-83.30597832
 10
31.80339494
 20
-78.45454954
 10
33.78558996
 20
-84.45454975
  0
LINE
  5
159
100
AcDbEntity
  8
MST_1_1
 62
   251
  6
CONTINUOUS
100
AcDbLine
 10
30.6229176
 20
-83.30597832
 30
2500.0
 11
33.25335569
 21
-83.30597832
 31
2500.0
  0
LINE
  5
15A
100
AcDbEntity
  8
MST_1_1
 62
   251
  6
CONTINUOUS
100
AcDbLine
 10
31.53749597
 20
-79.60312118
 30
2500.0
 11
28.90705787
 21
-79.60312118
 31
2500.0
  0
LWPOLYLINE
  5
15B
100
AcDbEntity
  8
MST_1_1
 62
   137
  6
CONTINUOUS
100
AcDbPolyline
 90
        6
 70
     0
 43
0.0
 38
2500.0
 10
28.37482351
 20
-78.45454954
 10
28.10892454
 20
-79.60312118
 10
30.35701853
 20
-84.45454975
 10
30.6229176
 20
-83.30597832
 10
28.37482351
 20
-78.45454954
 10
30.35701853
 20
-84.45454975
  0
LINE
  5
15C
100
AcDbEntity
  8
MST_1_1
 62
   251
  6
CONTINUOUS
100
AcDbLine
 10
27.19434617
 20
-83.30597832
 30
2500.0
 11
29.82478427
 21
-83.30597832
 31
2500.0
  0
LINE
  5
15D
100
AcDbEntity
  8
MST_1_1
 62
   251
  6
CONTINUOUS
100
AcDbLine
 10
28.10892454
 20
-79.60312118
 30
2500.0
 11
25.47848644
 21
-79.60312118
 31
2500.0
  0
LWPOLYLINE
  5
15E
100
AcDbEntity
  8
MST_1_1
 62
   137
  6
CONTINUOUS
100
AcDbPolyline
 90
        6
 70
     0
 43
0.0
 38
2500.0
 10
52.08910922
 20
-108.45454954
 10
51.82321025
 20
-109.60312118
 10
54.07130425
 20
-114.45454975
 10
54.33720331
 20
-113.30597832
 10
52.08910922
 20
-108.45454954
 10
54.07130425
 20
-114.45454975
  0
LINE
  5
15F
100
AcDbEntity
  8
MST_1_1
 62
   251
  6
CONTINUOUS
100
AcDbLine
 10
50.90863188
 20
-113.30597832
 30
2500.0
 11
53.53906998
 21
-113.30597832
 31
2500.0
  0
LINE
  5
160
100
AcDbEntity
  8
MST_1_1
 62
   251
  6
CONTINUOUS
100
AcDbLine
 10
51.82321025
 20
-109.60312118
 30
2500.0
 11
49.19277216
 21
-109.60312118
 31
2500.0
  0
LWPOLYLINE
  5
161
100
AcDbEntity
  8
MST_1_1
 62
   137
  6
CONTINUOUS
100
AcDbPolyline
 90
        6
 70
     0
 43
0.0
 38
2500.0
 10
48.6605378
 20
-108.45454954
 10
48.39463883
 20
-109.60312118
 10
50.64273282
 20
-114.45454975
 10
50.90863188
 20
-113.30597832
 10
48.6605378
 20
-108.45454954
 10
50.64273282
 20
-114.45454975
  0
LINE
  5
162
100
AcDbEntity
  8
MST_1_1
 62
   251
  6
CONTINUOUS
100
AcDbLine
 10
47.48006046
 20
-113.30597832
 30
2500.0
 11
50.11049855
 21
-113.30597832
 31
2500.0
  0
LINE
  5
163
100
AcDbEntity
  8
MST_1_1
 62
   251
  6
CONTINUOUS
100
AcDbLine
 10
48.39463883
 20
-109.60312118
 30
2500.0
 11
45.76420073
 21
-109.60312118
 31
2500.0
  0
LWPOLYLINE
  5
164
100
AcDbEntity
  8
MST_1_1
 62
   137
  6
CONTINUOUS
100
AcDbPolyline
 90
        6
 70
     0
 43
0.0
 38
2500.0
 10
45.23196637
 20
-108.45454954
 10
44.9660674
 20
-109.60312118
 10
47.21416139
 20
-114.45454975
 10
47.48006046
 20
-113.30597832
 10
45.23196637
 20
-108.45454954
 10
47.21416139
 20
-114.45454975
  0
LINE
  5
165
100
AcDbEntity
  8
MST_1_1
 62
   251
  6
CONTINUOUS
100
AcDbLine
 10
44.05148903
 20
-113.30597832
 30
2500.0
 11
46.68192712
 21
-113.30597832
 31
2500.0
  0
LINE
  5
166
100
AcDbEntity
  8
MST_1_1
 62
   251
  6
CONTINUOUS
100
AcDbLine
 10
44.9660674
 20
-109.60312118
 30
2500.0
 11
42.3356293
 21
-109.60312118
 31
2500.0
  0
LWPOLYLINE
  5
167
100
AcDbEntity
  8
MST_1_1
 62
   137
  6
CONTINUOUS
100
AcDbPolyline
 90
        6
 70
     0
 43
0.0
 38
2500.0
 10
34.94625208
 20
-108.45454954
 10
34.68035311
 20
-109.60312118
 10
36.9284471
 20
-114.45454975
 10
37.19434617
 20
-113.30597832
 10
34.94625208
 20
-108.45454954
 10
36.9284471
 20
-114.45454975
  0
LINE
  5
168
100
AcDbEntity
  8
MST_1_1
 62
   251
  6
CONTINUOUS
100
AcDbLine
 10
33.76577474
 20
-113.30597832
 30
2500.0
 11
36.39621284
 21
-113.30597832
 31
2500.0
  0
LINE
  5
169
100
AcDbEntity
  8
MST_1_1
 62
   251
  6
CONTINUOUS
100
AcDbLine
 10
34.68035311
 20
-109.60312118
 30
2500.0
 11
32.04991501
 21
-109.60312118
 31
2500.0
  0
LWPOLYLINE
  5
16A
100
AcDbEntity
  8
MST_1_1
 62
   137
  6
CONTINUOUS
100
AcDbPolyline
 90
        6
 70
     0
 43
0.0
 38
2500.0
 10
41.80339494
 20
-108.45454954
 10
41.53749597
 20
-109.60312118
 10
43.78558996
 20
-114.45454975
 10
44.05148903
 20
-113.30597832
 10
41.80339494
 20
-108.45454954
 10
43.78558996
 20
-114.45454975
  0
LINE
  5
16B
100
AcDbEntity
  8
MST_1_1
 62
   251
  6
CONTINUOUS
100
AcDbLine
 10
40.6229176
 20
-113.30597832
 30
2500.0
 11
43.25335569
 21
-113.30597832
 31
2500.0
  0
LINE
  5
16C
100
AcDbEntity
  8
MST_1_1
 62
   251
  6
CONTINUOUS
100
AcDbLine
 10
41.53749597
 20
-109.60312118
 30
2500.0
 11
38.90705787
 21
-109.60312118
 31
2500.0
  0
LWPOLYLINE
  5
16D
100
AcDbEntity
  8
MST_1_1
 62
   137
  6
CONTINUOUS
100
AcDbPolyline
 90
        6
 70
     0
 43
0.0
 38
2500.0
 10
38.37482351
 20
-108.45454954
 10
38.10892454
 20
-109.60312118
 10
40.35701853
 20
-114.45454975
 10
40.6229176
 20
-113.30597832
 10
38.37482351
 20
-108.45454954
 10
40.35701853
 20
-114.45454975
  0
LINE
  5
16E
100
AcDbEntity
  8
MST_1_1
 62
   251
  6
CONTINUOUS
100
AcDbLine
 10
37.19434617
 20
-113.30597832
 30
2500.0
 11
39.82478427
 21
-113.30597832
 31
2500.0
  0
LINE
  5
16F
100
AcDbEntity
  8
MST_1_1
 62
   251
  6
CONTINUOUS
100
AcDbLine
 10
38.10892454
 20
-109.60312118
 30
2500.0
 11
35.47848644
 21
-109.60312118
 31
2500.0
  0
CIRCLE
  5
170
100
AcDbEntity
  8
MST_1_1
 62
   137
  6
CONTINUOUS
100
AcDbCircle
 10
-87.58431053
 20
8.54545025
 30
0.0
 40
2.32981333
  0
CIRCLE
  5
171
100
AcDbEntity
  8
MST_1_1
 62
   137
  6
CONTINUOUS
100
AcDbCircle
 10
-87.58431053
 20
8.54545025
 30
0.0
 40
1.32203389
  0
CIRCLE
  5
172
100
AcDbEntity
  8
MST_1_1
 62
   137
  6
CONTINUOUS
100
AcDbCircle
 10
-87.58431053
 20
8.54545025
 30
0.0
 40
2.32981333
  0
CIRCLE
  5
173
100
AcDbEntity
  8
MST_1_1
 62
   137
  6
CONTINUOUS
100
AcDbCircle
 10
-87.58431053
 20
8.54545025
 30
0.0
 40
2.32981333
  0
CIRCLE
  5
174
100
AcDbEntity
  8
MST_1_1
 62
   137
  6
CONTINUOUS
100
AcDbCircle
 10
-87.58431053
 20
8.54545025
 30
0.0
 40
5.9
  0
ARC
  5
175
100
AcDbEntity
  8
MST_1_1
 62
   137
  6
CONTINUOUS
100
AcDbCircle
 10
-89.45831047
 20
8.54545025
 30
0.0
 40
0.37600003
100
AcDbArc
 50
106.48878485
 51
253.51122516
  0
ARC
  5
176
100
AcDbEntity
  8
MST_1_1
 62
   137
  6
CONTINUOUS
100
AcDbCircle
 10
-89.84458127
 20
7.2404823
 30
0.0
 40
0.98493585
100
AcDbArc
 50
346.4887751
 51
73.5112424
  0
ARC
  5
177
100
AcDbEntity
  8
MST_1_1
 62
   137
  6
CONTINUOUS
100
AcDbCircle
 10
-88.52131046
 20
6.9225187
 30
0.0
 40
0.37600004
100
AcDbArc
 50
166.48877314
 51
313.51122983
  0
ARC
  5
178
100
AcDbEntity
  8
MST_1_1
 62
   137
  6
CONTINUOUS
100
AcDbCircle
 10
-87.58431053
 20
5.93551458
 30
0.0
 40
0.98493568
100
AcDbArc
 50
46.48875513
 51
133.51124487
  0
ARC
  5
179
100
AcDbEntity
  8
MST_1_1
 62
   137
  6
CONTINUOUS
100
AcDbCircle
 10
-86.64731056
 20
6.92251866
 30
0.0
 40
0.37600002
100
AcDbArc
 50
226.48878273
 51
13.51123435
  0
ARC
  5
17A
100
AcDbEntity
  8
MST_1_1
 62
   137
  6
CONTINUOUS
100
AcDbCircle
 10
-85.32403974
 20
7.24048228
 30
0.0
 40
0.98493588
100
AcDbArc
 50
106.48875933
 51
193.51124321
  0
ARC
  5
17B
100
AcDbEntity
  8
MST_1_1
 62
   137
  6
CONTINUOUS
100
AcDbCircle
 10
-85.71031058
 20
8.54545025
 30
0.0
 40
0.37600003
100
AcDbArc
 50
286.48879487
 51
73.51121515
  0
ARC
  5
17C
100
AcDbEntity
  8
MST_1_1
 62
   137
  6
CONTINUOUS
100
AcDbCircle
 10
-85.32403978
 20
9.8504182
 30
0.0
 40
0.98493585
100
AcDbArc
 50
166.48876508
 51
253.51125242
  0
ARC
  5
17D
100
AcDbEntity
  8
MST_1_1
 62
   137
  6
CONTINUOUS
100
AcDbCircle
 10
-86.64731059
 20
10.1683818
 30
0.0
 40
0.37600004
100
AcDbArc
 50
346.48878316
 51
133.51121981
  0
ARC
  5
17E
100
AcDbEntity
  8
MST_1_1
 62
   137
  6
CONTINUOUS
100
AcDbCircle
 10
-87.58431053
 20
11.15538593
 30
0.0
 40
0.98493568
100
AcDbArc
 50
226.48876515
 51
313.51125489
  0
ARC
  5
17F
100
AcDbEntity
  8
MST_1_1
 62
   137
  6
CONTINUOUS
100
AcDbCircle
 10
-88.52131049
 20
10.16838185
 30
0.0
 40
0.37600002
100
AcDbArc
 50
46.48877271
 51
193.51124436
  0
ARC
  5
180
100
AcDbEntity
  8
MST_1_1
 62
   137
  6
CONTINUOUS
100
AcDbCircle
 10
-89.84458131
 20
9.85041822
 30
0.0
 40
0.98493588
100
AcDbArc
 50
286.48876935
 51
13.51123319
  0
LWPOLYLINE
  5
181
100
AcDbEntity
  8
MST_1_1
 62
   137
  6
CONTINUOUS
100
AcDbPolyline
 90
        9
 70
     0
 43
0.0
 10
-89.28136675
 20
5.57560179
 10
-89.26928156
 20
5.5876871
 10
-89.25718694
 20
5.59978172
 10
-89.24508312
 20
5.61188542
 10
-89.23297011
 20
5.62399844
 10
-89.22084802
 20
5.63612053
 10
-89.20871684
 20
5.64825171
 10
-89.19657659
 20
5.66039196
 10
-89.18442725
 20
5.6725413
  0
ARC
  5
182
100
AcDbEntity
  8
MST_1_1
 62
   137
  6
CONTINUOUS
100
AcDbCircle
 10
-88.98155354
 20
5.84147391
 30
0.0
 40
0.26399994
100
AcDbArc
 50
50.21590624
 51
219.78410378
  0
LWPOLYLINE
  5
183
100
AcDbEntity
  8
MST_1_1
 62
   137
  6
CONTINUOUS
100
AcDbPolyline
 90
        9
 70
     0
 43
0.0
 10
-88.81262093
 20
6.04434762
 10
-88.80052782
 20
6.05644085
 10
-88.78842761
 20
6.06854105
 10
-88.77632042
 20
6.08064802
 10
-88.76420635
 20
6.09276219
 10
-88.75208531
 20
6.10488312
 10
-88.73995751
 20
6.11701104
 10
-88.72782284
 20
6.12914571
 10
-88.71568142
 20
6.14128713
  0
LWPOLYLINE
  5
184
100
AcDbEntity
  8
MST_1_1
 62
   137
  6
CONTINUOUS
100
AcDbPolyline
 90
        9
 70
     0
 43
0.0
 10
-88.71568142
 20
6.14128713
 10
-88.78813017
 20
6.21373611
 10
-88.86065517
 20
6.28626099
 10
-88.93324664
 20
6.35885246
 10
-89.00589457
 20
6.43150051
 10
-89.07858931
 20
6.50419513
 10
-89.15132106
 20
6.57692676
 10
-89.22407994
 20
6.64968576
 10
-89.29685604
 20
6.72246187
  0
LWPOLYLINE
  5
185
100
AcDbEntity
  8
MST_1_1
 62
   137
  6
CONTINUOUS
100
AcDbPolyline
 90
        9
 70
     0
 43
0.0
 10
-89.29685604
 20
6.72246187
 10
-89.30115224
 20
6.71816567
 10
-89.3054475
 20
6.7138703
 10
-89.30974206
 20
6.70957574
 10
-89.3140358
 20
6.70528211
 10
-89.31832862
 20
6.70098918
 10
-89.32262062
 20
6.69669718
 10
-89.3269118
 20
6.69240611
 10
-89.33120206
 20
6.68811574
  0
LWPOLYLINE
  5
186
100
AcDbEntity
  8
MST_1_1
 62
   137
  6
CONTINUOUS
100
AcDbPolyline
 90
       25
 70
     0
 43
0.0
 10
-89.33120206
 20
6.68811576
 10
-89.33479156
 20
6.69364466
 10
-89.33847644
 20
6.69910031
 10
-89.34225569
 20
6.70448171
 10
-89.34612831
 20
6.70978784
 10
-89.3500933
 20
6.71501772
 10
-89.35414966
 20
6.72017032
 10
-89.35829638
 20
6.72524465
 10
-89.36253246
 20
6.7302397
 10
-89.3668569
 20
6.73515447
 10
-89.37126869
 20
6.73998796
 10
-89.37576684
 20
6.74473915
 10
-89.38035035
 20
6.74940704
 10
-89.3850182
 20
6.75399062
 10
-89.3897694
 20
6.75848891
 10
-89.39460294
 20
6.76290087
 10
-89.39951783
 20
6.76722552
 10
-89.40451306
 20
6.77146185
 10
-89.40958763
 20
6.77560886
 10
-89.41474053
 20
6.77966552
 10
-89.41997077
 20
6.78363086
 10
-89.42527734
 20
6.78750385
 10
-89.43065924
 20
6.79128349
 10
-89.43611546
 20
6.79496879
 10
-89.44164501
 20
6.79855872
  0
LWPOLYLINE
  5
187
100
AcDbEntity
  8
MST_1_1
 62
   137
  6
CONTINUOUS
100
AcDbPolyline
 90
        9
 70
     0
 43
0.0
 10
-89.44164504
 20
6.79855872
 10
-89.43735467
 20
6.80284897
 10
-89.4330636
 20
6.80714016
 10
-89.4287716
 20
6.81143216
 10
-89.42447867
 20
6.81572497
 10
-89.42018504
 20
6.82001872
 10
-89.41589048
 20
6.82431328
 10
-89.4115951
 20
6.82860854
 10
-89.40729891
 20
6.83290473
  0
LWPOLYLINE
  5
188
100
AcDbEntity
  8
MST_1_1
 62
   137
  6
CONTINUOUS
100
AcDbPolyline
 90
        9
 70
     0
 43
0.0
 10
-89.40729891
 20
6.83290473
 10
-89.48007502
 20
6.90568084
 10
-89.55283401
 20
6.97843972
 10
-89.62556565
 20
7.05117147
 10
-89.69826027
 20
7.1238662
 10
-89.77090832
 20
7.19651414
 10
-89.84349979
 20
7.26910561
 10
-89.91602467
 20
7.34163061
 10
-89.98847365
 20
7.41407936
  0
LWPOLYLINE
  5
189
100
AcDbEntity
  8
MST_1_1
 62
   137
  6
CONTINUOUS
100
AcDbPolyline
 90
        9
 70
     0
 43
0.0
 10
-89.98847365
 20
7.41407936
 10
-90.00061507
 20
7.40193794
 10
-90.01274974
 20
7.38980327
 10
-90.02487765
 20
7.37767547
 10
-90.03699858
 20
7.36555442
 10
-90.04911276
 20
7.35344036
 10
-90.06121972
 20
7.34133317
 10
-90.07331993
 20
7.32923296
 10
-90.08541316
 20
7.31713985
  0
ARC
  5
18A
100
AcDbEntity
  8
MST_1_1
 62
   137
  6
CONTINUOUS
100
AcDbCircle
 10
-90.28828675
 20
7.14820712
 30
0.0
 40
0.26399993
100
AcDbArc
 50
230.21587884
 51
39.78413117
  0
LWPOLYLINE
  5
18B
100
AcDbEntity
  8
MST_1_1
 62
   137
  6
CONTINUOUS
100
AcDbPolyline
 90
        9
 70
     0
 43
0.0
 10
-90.45721948
 20
6.94533353
 10
-90.46936881
 20
6.93318419
 10
-90.48150907
 20
6.92104394
 10
-90.49364024
 20
6.90891276
 10
-90.50576234
 20
6.89679067
 10
-90.51787535
 20
6.88467765
 10
-90.52997905
 20
6.87257384
 10
-90.54207368
 20
6.86047921
 10
-90.55415898
 20
6.84839402
  0
LWPOLYLINE
  5
18C
100
AcDbEntity
  8
MST_1_1
 62
   137
  6
CONTINUOUS
100
AcDbPolyline
 90
        9
 70
     0
 43
0.0
 10
-90.55415898
 20
6.84839402
 10
-90.48172281
 20
6.77595762
 10
-90.40920538
 20
6.7034403
 10
-90.3366174
 20
6.63085244
 10
-90.26396935
 20
6.55820439
 10
-90.1912717
 20
6.48550651
 10
-90.11853448
 20
6.41276952
 10
-90.04576862
 20
6.34000366
 10
-89.97298436
 20
6.2672194
  0
LWPOLYLINE
  5
18D
100
AcDbEntity
  8
MST_1_1
 62
   137
  6
CONTINUOUS
100
AcDbPolyline
 90
        9
 70
     0
 43
0.0
 10
-89.97298436
 20
6.2672194
 10
-89.96869515
 20
6.27150861
 10
-89.96440478
 20
6.27579898
 10
-89.96011325
 20
6.28009051
 10
-89.95582055
 20
6.28438321
 10
-89.95152669
 20
6.28867707
 10
-89.94723166
 20
6.29297187
 10
-89.9429357
 20
6.29726806
 10
-89.93863835
 20
6.30156541
  0
LWPOLYLINE
  5
18E
100
AcDbEntity
  8
MST_1_1
 62
   137
  6
CONTINUOUS
100
AcDbPolyline
 90
       25
 70
     0
 43
0.0
 10
-89.93863833
 20
6.30156541
 10
-89.93504914
 20
6.29603703
 10
-89.93136447
 20
6.29058178
 10
-89.92758535
 20
6.28520067
 10
-89.92371278
 20
6.27989473
 10
-89.91974777
 20
6.27466497
 10
-89.91569134
 20
6.2695124
 10
-89.91154449
 20
6.26443803
 10
-89.90730824
 20
6.25944289
 10
-89.9029836
 20
6.25452798
 10
-89.89857159
 20
6.24969432
 10
-89.89407321
 20
6.24494292
 10
-89.88948947
 20
6.24027481
 10
-89.8848214
 20
6.23569098
 10
-89.88006999
 20
6.23119247
 10
-89.87523626
 20
6.22678027
 10
-89.87032123
 20
6.22245542
 10
-89.8653259
 20
6.21821891
 10
-89.8602513
 20
6.21407178
 10
-89.85509842
 20
6.21001502
 10
-89.84986828
 20
6.20604966
 10
-89.84456189
 20
6.2021767
 10
-89.83918027
 20
6.19839718
 10
-89.83372442
 20
6.19471209
 10
-89.82819537
 20
6.19112245
  0
LWPOLYLINE
  5
18F
100
AcDbEntity
  8
MST_1_1
 62
   137
  6
CONTINUOUS
100
AcDbPolyline
 90
        9
 70
     0
 43
0.0
 10
-89.82819536
 20
6.19112243
 10
-89.83249272
 20
6.18682507
 10
-89.83678891
 20
6.18252912
 10
-89.8410837
 20
6.17823409
 10
-89.84537757
 20
6.17394023
 10
-89.84967027
 20
6.16964753
 10
-89.8539618
 20
6.16535599
 10
-89.85825217
 20
6.16106562
 10
-89.86254138
 20
6.15677642
  0
LWPOLYLINE
  5
190
100
AcDbEntity
  8
MST_1_1
 62
   137
  6
CONTINUOUS
100
AcDbPolyline
 90
        9
 70
     0
 43
0.0
 10
-89.86254138
 20
6.15677642
 10
-89.78975712
 20
6.08399216
 10
-89.71699126
 20
6.0112263
 10
-89.64425427
 20
5.93848907
 10
-89.57155639
 20
5.86579143
 10
-89.49890834
 20
5.79314338
 10
-89.42632048
 20
5.7205554
 10
-89.35380316
 20
5.64803797
 10
-89.28136675
 20
5.57560179
  0
CIRCLE
  5
191
100
AcDbEntity
  8
MST_1_1
 62
   137
  6
CONTINUOUS
100
AcDbCircle
 10
-87.58431053
 20
8.54545025
 30
0.0
 40
5.16766278
  0
LWPOLYLINE
  5
192
100
AcDbEntity
  8
MST_1_1
 62
   137
  6
CONTINUOUS
100
AcDbPolyline
 90
        9
 70
     0
 43
0.0
 10
-89.55631227
 20
6.84615349
 10
-89.60395198
 20
6.89379321
 10
-89.65158075
 20
6.94142209
 10
-89.69919624
 20
6.98903759
 10
-89.74679544
 20
7.03663678
 10
-89.79437555
 20
7.08421689
 10
-89.84193377
 20
7.13177523
 10
-89.88946754
 20
7.17930888
 10
-89.93697384
 20
7.22681518
  0
ARC
  5
193
100
AcDbEntity
  8
MST_1_1
 62
   137
  6
CONTINUOUS
100
AcDbCircle
 10
-89.63492045
 20
6.49484095
 30
0.0
 40
0.35999965
100
AcDbArc
 50
77.38749365
 51
127.33775307
  0
LWPOLYLINE
  5
194
100
AcDbEntity
  8
MST_1_1
 62
   137
  6
CONTINUOUS
100
AcDbPolyline
 90
        9
 70
     0
 43
0.0
 10
-89.34869346
 20
6.27649607
 10
-89.4117419
 20
6.33954451
 10
-89.47481002
 20
6.40261275
 10
-89.53789117
 20
6.46569402
 10
-89.60097897
 20
6.52878181
 10
-89.66406676
 20
6.5918696
 10
-89.72714803
 20
6.65495076
 10
-89.79021626
 20
6.71801888
 10
-89.85326471
 20
6.78106732
  0
ARC
  5
195
100
AcDbEntity
  8
MST_1_1
 62
   137
  6
CONTINUOUS
100
AcDbCircle
 10
-89.63492055
 20
6.49484049
 30
0.0
 40
0.36000032
100
AcDbArc
 50
322.66230677
 51
12.61245653
  0
LWPOLYLINE
  5
196
100
AcDbEntity
  8
MST_1_1
 62
   137
  6
CONTINUOUS
100
AcDbPolyline
 90
        9
 70
     0
 43
0.0
 10
-88.90294559
 20
6.19278694
 10
-88.95045189
 20
6.24029324
 10
-88.99798555
 20
6.28782701
 10
-89.04554389
 20
6.33538523
 10
-89.09312399
 20
6.38296533
 10
-89.14072319
 20
6.43056453
 10
-89.18833869
 20
6.47818003
 10
-89.23596757
 20
6.5258088
 10
-89.28360728
 20
6.57344851
  0
ARC
  5
197
100
AcDbEntity
  8
MST_1_1
 62
   137
  6
CONTINUOUS
100
AcDbCircle
 10
-88.98155336
 20
5.84147381
 30
0.0
 40
0.36000013
100
AcDbArc
 50
77.38757789
 51
192.61246315
  0
LWPOLYLINE
  5
198
100
AcDbEntity
  8
MST_1_1
 62
   137
  6
CONTINUOUS
100
AcDbPolyline
 90
        9
 70
     0
 43
0.0
 10
-89.71352813
 20
6.14352766
 10
-89.66588586
 20
6.09588515
 10
-89.61825453
 20
6.04825405
 10
-89.57063764
 20
6.00063716
 10
-89.52303774
 20
5.95303726
 10
-89.47545775
 20
5.90545716
 10
-89.42790058
 20
5.8579001
 10
-89.38036914
 20
5.81036866
 10
-89.33286645
 20
5.76286585
  0
ARC
  5
199
100
AcDbEntity
  8
MST_1_1
 62
   137
  6
CONTINUOUS
100
AcDbCircle
 10
-89.63492035
 20
6.4948416
 30
0.0
 40
0.36000093
100
AcDbArc
 50
257.38761324
 51
307.3376629
  0
LWPOLYLINE
  5
19A
100
AcDbEntity
  8
MST_1_1
 62
   137
  6
CONTINUOUS
100
AcDbPolyline
 90
        9
 70
     0
 43
0.0
 10
-89.92114695
 20
6.71318496
 10
-89.8580985
 20
6.65013675
 10
-89.7950305
 20
6.58706863
 10
-89.73194923
 20
6.52398736
 10
-89.66886121
 20
6.46089957
 10
-89.60577341
 20
6.39781155
 10
-89.54269214
 20
6.33473028
 10
-89.47962403
 20
6.27166228
 10
-89.41657582
 20
6.20861383
  0
ARC
  5
19B
100
AcDbEntity
  8
MST_1_1
 62
   137
  6
CONTINUOUS
100
AcDbCircle
 10
-89.63492018
 20
6.49484065
 30
0.0
 40
0.36
100
AcDbArc
 50
142.66227791
 51
192.61247599
  0
LWPOLYLINE
  5
19C
100
AcDbEntity
  8
MST_1_1
 62
   137
  6
CONTINUOUS
100
AcDbPolyline
 90
        9
 70
     0
 43
0.0
 10
-90.36689493
 20
6.79689433
 10
-90.31939212
 20
6.74939164
 10
-90.27186068
 20
6.7018602
 10
-90.22430362
 20
6.65430302
 10
-90.17672351
 20
6.60672303
 10
-90.12912362
 20
6.55912314
 10
-90.08150672
 20
6.51150624
 10
-90.03387563
 20
6.46387491
 10
-89.98623312
 20
6.41623264
  0
ARC
  5
19D
100
AcDbEntity
  8
MST_1_1
 62
   137
  6
CONTINUOUS
100
AcDbCircle
 10
-90.28828687
 20
7.14820731
 30
0.0
 40
0.36000006
100
AcDbArc
 50
257.38753734
 51
12.61244165
  0
LWPOLYLINE
  5
19E
100
AcDbEntity
  8
MST_1_1
 62
   137
  6
CONTINUOUS
100
AcDbPolyline
 90
        9
 70
     0
 43
0.0
 10
-89.7409344
 20
6.73661937
 10
-89.69746771
 20
6.69315268
 10
-89.65399474
 20
6.64967971
 10
-89.61051734
 20
6.60620231
 10
-89.56703785
 20
6.56272293
 10
-89.52355847
 20
6.51924344
 10
-89.48008107
 20
6.47576604
 10
-89.4366081
 20
6.43229307
 10
-89.39314141
 20
6.38882638
  0
ARC
  5
19F
100
AcDbEntity
  8
MST_1_1
 62
   137
  6
CONTINUOUS
100
AcDbCircle
 10
-89.63492015
 20
6.49484063
 30
0.0
 40
0.26399996
100
AcDbArc
 50
336.32369791
 51
113.67631211
  0
LWPOLYLINE
  5
1A0
100
AcDbEntity
  8
MST_1_1
 62
   137
  6
CONTINUOUS
100
AcDbPolyline
 90
        9
 70
     0
 43
0.0
 10
-89.52890589
 20
6.2530619
 10
-89.57237246
 20
6.29652835
 10
-89.61584544
 20
6.34000133
 10
-89.65932283
 20
6.38347873
 10
-89.70280233
 20
6.42695845
 10
-89.74628205
 20
6.47043794
 10
-89.78975945
 20
6.51391534
 10
-89.83323242
 20
6.55738832
 10
-89.87669888
 20
6.60085489
  0
ARC
  5
1A1
100
AcDbEntity
  8
MST_1_1
 62
   137
  6
CONTINUOUS
100
AcDbCircle
 10
-89.63492023
 20
6.49484055
 30
0.0
 40
0.26399992
100
AcDbArc
 50
156.32366302
 51
293.676347
  0
CIRCLE
  5
1A2
100
AcDbEntity
  8
MST_1_1
 62
   137
  6
CONTINUOUS
100
AcDbCircle
 10
-87.58431053
 20
-21.45454975
 30
0.0
 40
2.32981333
  0
CIRCLE
  5
1A3
100
AcDbEntity
  8
MST_1_1
 62
   137
  6
CONTINUOUS
100
AcDbCircle
 10
-87.58431053
 20
-21.45454975
 30
0.0
 40
1.32203389
  0
CIRCLE
  5
1A4
100
AcDbEntity
  8
MST_1_1
 62
   137
  6
CONTINUOUS
100
AcDbCircle
 10
-87.58431053
 20
-21.45454975
 30
0.0
 40
2.32981333
  0
CIRCLE
  5
1A5
100
AcDbEntity
  8
MST_1_1
 62
   137
  6
CONTINUOUS
100
AcDbCircle
 10
-87.58431053
 20
-21.45454975
 30
0.0
 40
2.32981333
  0
CIRCLE
  5
1A6
100
AcDbEntity
  8
MST_1_1
 62
   137
  6
CONTINUOUS
100
AcDbCircle
 10
-87.58431053
 20
-21.45454975
 30
0.0
 40
5.9
  0
ARC
  5
1A7
100
AcDbEntity
  8
MST_1_1
 62
   137
  6
CONTINUOUS
100
AcDbCircle
 10
-89.45831047
 20
-21.45454975
 30
0.0
 40
0.37600003
100
AcDbArc
 50
106.48878485
 51
253.51122516
  0
ARC
  5
1A8
100
AcDbEntity
  8
MST_1_1
 62
   137
  6
CONTINUOUS
100
AcDbCircle
 10
-89.84458127
 20
-22.7595177
 30
0.0
 40
0.98493585
100
AcDbArc
 50
346.4887751
 51
73.5112424
  0
ARC
  5
1A9
100
AcDbEntity
  8
MST_1_1
 62
   137
  6
CONTINUOUS
100
AcDbCircle
 10
-88.52131046
 20
-23.0774813
 30
0.0
 40
0.37600004
100
AcDbArc
 50
166.48877314
 51
313.51122983
  0
ARC
  5
1AA
100
AcDbEntity
  8
MST_1_1
 62
   137
  6
CONTINUOUS
100
AcDbCircle
 10
-87.58431053
 20
-24.06448542
 30
0.0
 40
0.98493568
100
AcDbArc
 50
46.48875513
 51
133.51124487
  0
ARC
  5
1AB
100
AcDbEntity
  8
MST_1_1
 62
   137
  6
CONTINUOUS
100
AcDbCircle
 10
-86.64731056
 20
-23.07748134
 30
0.0
 40
0.37600002
100
AcDbArc
 50
226.48878273
 51
13.51123435
  0
ARC
  5
1AC
100
AcDbEntity
  8
MST_1_1
 62
   137
  6
CONTINUOUS
100
AcDbCircle
 10
-85.32403974
 20
-22.75951772
 30
0.0
 40
0.98493588
100
AcDbArc
 50
106.48875933
 51
193.51124321
  0
ARC
  5
1AD
100
AcDbEntity
  8
MST_1_1
 62
   137
  6
CONTINUOUS
100
AcDbCircle
 10
-85.71031058
 20
-21.45454975
 30
0.0
 40
0.37600003
100
AcDbArc
 50
286.48879487
 51
73.51121515
  0
ARC
  5
1AE
100
AcDbEntity
  8
MST_1_1
 62
   137
  6
CONTINUOUS
100
AcDbCircle
 10
-85.32403978
 20
-20.1495818
 30
0.0
 40
0.98493585
100
AcDbArc
 50
166.48876508
 51
253.51125242
  0
ARC
  5
1AF
100
AcDbEntity
  8
MST_1_1
 62
   137
  6
CONTINUOUS
100
AcDbCircle
 10
-86.64731059
 20
-19.8316182
 30
0.0
 40
0.37600004
100
AcDbArc
 50
346.48878316
 51
133.51121981
  0
ARC
  5
1B0
100
AcDbEntity
  8
MST_1_1
 62
   137
  6
CONTINUOUS
100
AcDbCircle
 10
-87.58431053
 20
-18.84461407
 30
0.0
 40
0.98493568
100
AcDbArc
 50
226.48876515
 51
313.51125489
  0
ARC
  5
1B1
100
AcDbEntity
  8
MST_1_1
 62
   137
  6
CONTINUOUS
100
AcDbCircle
 10
-88.52131049
 20
-19.83161815
 30
0.0
 40
0.37600002
100
AcDbArc
 50
46.48877271
 51
193.51124436
  0
ARC
  5
1B2
100
AcDbEntity
  8
MST_1_1
 62
   137
  6
CONTINUOUS
100
AcDbCircle
 10
-89.84458131
 20
-20.14958178
 30
0.0
 40
0.98493588
100
AcDbArc
 50
286.48876935
 51
13.51123319
  0
LWPOLYLINE
  5
1B3
100
AcDbEntity
  8
MST_1_1
 62
   137
  6
CONTINUOUS
100
AcDbPolyline
 90
        9
 70
     0
 43
0.0
 10
-89.28136675
 20
-24.42439821
 10
-89.26928156
 20
-24.4123129
 10
-89.25718694
 20
-24.40021828
 10
-89.24508312
 20
-24.38811458
 10
-89.23297011
 20
-24.37600156
 10
-89.22084802
 20
-24.36387947
 10
-89.20871684
 20
-24.35174829
 10
-89.19657659
 20
-24.33960804
 10
-89.18442725
 20
-24.3274587
  0
ARC
  5
1B4
100
AcDbEntity
  8
MST_1_1
 62
   137
  6
CONTINUOUS
100
AcDbCircle
 10
-88.98155354
 20
-24.15852609
 30
0.0
 40
0.26399994
100
AcDbArc
 50
50.21590624
 51
219.78410378
  0
LWPOLYLINE
  5
1B5
100
AcDbEntity
  8
MST_1_1
 62
   137
  6
CONTINUOUS
100
AcDbPolyline
 90
        9
 70
     0
 43
0.0
 10
-88.81262093
 20
-23.95565238
 10
-88.80052782
 20
-23.94355915
 10
-88.78842761
 20
-23.93145895
 10
-88.77632042
 20
-23.91935198
 10
-88.76420635
 20
-23.90723781
 10
-88.75208531
 20
-23.89511688
 10
-88.73995751
 20
-23.88298896
 10
-88.72782284
 20
-23.87085429
 10
-88.71568142
 20
-23.85871287
  0
LWPOLYLINE
  5
1B6
100
AcDbEntity
  8
MST_1_1
 62
   137
  6
CONTINUOUS
100
AcDbPolyline
 90
        9
 70
     0
 43
0.0
 10
-88.71568142
 20
-23.85871287
 10
-88.78813017
 20
-23.78626389
 10
-88.86065517
 20
-23.71373901
 10
-88.93324664
 20
-23.64114754
 10
-89.00589457
 20
-23.56849949
 10
-89.07858931
 20
-23.49580487
 10
-89.15132106
 20
-23.42307324
 10
-89.22407994
 20
-23.35031424
 10
-89.29685604
 20
-23.27753813
  0
LWPOLYLINE
  5
1B7
100
AcDbEntity
  8
MST_1_1
 62
   137
  6
CONTINUOUS
100
AcDbPolyline
 90
        9
 70
     0
 43
0.0
 10
-89.29685604
 20
-23.27753813
 10
-89.30115224
 20
-23.28183433
 10
-89.3054475
 20
-23.2861297
 10
-89.30974206
 20
-23.29042426
 10
-89.3140358
 20
-23.29471789
 10
-89.31832862
 20
-23.29901082
 10
-89.32262062
 20
-23.30330282
 10
-89.3269118
 20
-23.30759389
 10
-89.33120206
 20
-23.31188426
  0
LWPOLYLINE
  5
1B8
100
AcDbEntity
  8
MST_1_1
 62
   137
  6
CONTINUOUS
100
AcDbPolyline
 90
       25
 70
     0
 43
0.0
 10
-89.33120206
 20
-23.31188424
 10
-89.33479156
 20
-23.30635534
 10
-89.33847644
 20
-23.30089969
 10
-89.34225569
 20
-23.29551829
 10
-89.34612831
 20
-23.29021216
 10
-89.3500933
 20
-23.28498228
 10
-89.35414966
 20
-23.27982968
 10
-89.35829638
 20
-23.27475535
 10
-89.36253246
 20
-23.2697603
 10
-89.3668569
 20
-23.26484553
 10
-89.37126869
 20
-23.26001204
 10
-89.37576684
 20
-23.25526085
 10
-89.38035035
 20
-23.25059296
 10
-89.3850182
 20
-23.24600938
 10
-89.3897694
 20
-23.24151109
 10
-89.39460294
 20
-23.23709913
 10
-89.39951783
 20
-23.23277448
 10
-89.40451306
 20
-23.22853815
 10
-89.40958763
 20
-23.22439114
 10
-89.41474053
 20
-23.22033448
 10
-89.41997077
 20
-23.21636914
 10
-89.42527734
 20
-23.21249615
 10
-89.43065924
 20
-23.20871651
 10
-89.43611546
 20
-23.20503121
 10
-89.44164501
 20
-23.20144128
  0
LWPOLYLINE
  5
1B9
100
AcDbEntity
  8
MST_1_1
 62
   137
  6
CONTINUOUS
100
AcDbPolyline
 90
        9
 70
     0
 43
0.0
 10
-89.44164504
 20
-23.20144128
 10
-89.43735467
 20
-23.19715103
 10
-89.4330636
 20
-23.19285984
 10
-89.4287716
 20
-23.18856784
 10
-89.42447867
 20
-23.18427503
 10
-89.42018504
 20
-23.17998128
 10
-89.41589048
 20
-23.17568672
 10
-89.4115951
 20
-23.17139146
 10
-89.40729891
 20
-23.16709527
  0
LWPOLYLINE
  5
1BA
100
AcDbEntity
  8
MST_1_1
 62
   137
  6
CONTINUOUS
100
AcDbPolyline
 90
        9
 70
     0
 43
0.0
 10
-89.40729891
 20
-23.16709527
 10
-89.48007502
 20
-23.09431916
 10
-89.55283401
 20
-23.02156028
 10
-89.62556565
 20
-22.94882853
 10
-89.69826027
 20
-22.8761338
 10
-89.77090832
 20
-22.80348586
 10
-89.84349979
 20
-22.73089439
 10
-89.91602467
 20
-22.65836939
 10
-89.98847365
 20
-22.58592064
  0
LWPOLYLINE
  5
1BB
100
AcDbEntity
  8
MST_1_1
 62
   137
  6
CONTINUOUS
100
AcDbPolyline
 90
        9
 70
     0
 43
0.0
 10
-89.98847365
 20
-22.58592064
 10
-90.00061507
 20
-22.59806206
 10
-90.01274974
 20
-22.61019673
 10
-90.02487765
 20
-22.62232453
 10
-90.03699858
 20
-22.63444558
 10
-90.04911276
 20
-22.64655964
 10
-90.06121972
 20
-22.65866683
 10
-90.07331993
 20
-22.67076704
 10
-90.08541316
 20
-22.68286015
  0
ARC
  5
1BC
100
AcDbEntity
  8
MST_1_1
 62
   137
  6
CONTINUOUS
100
AcDbCircle
 10
-90.28828675
 20
-22.85179288
 30
0.0
 40
0.26399993
100
AcDbArc
 50
230.21587884
 51
39.78413117
  0
LWPOLYLINE
  5
1BD
100
AcDbEntity
  8
MST_1_1
 62
   137
  6
CONTINUOUS
100
AcDbPolyline
 90
        9
 70
     0
 43
0.0
 10
-90.45721948
 20
-23.05466647
 10
-90.46936881
 20
-23.06681581
 10
-90.48150907
 20
-23.07895606
 10
-90.49364024
 20
-23.09108724
 10
-90.50576234
 20
-23.10320933
 10
-90.51787535
 20
-23.11532235
 10
-90.52997905
 20
-23.12742616
 10
-90.54207368
 20
-23.13952079
 10
-90.55415898
 20
-23.15160598
  0
LWPOLYLINE
  5
1BE
100
AcDbEntity
  8
MST_1_1
 62
   137
  6
CONTINUOUS
100
AcDbPolyline
 90
        9
 70
     0
 43
0.0
 10
-90.55415898
 20
-23.15160598
 10
-90.48172281
 20
-23.22404238
 10
-90.40920538
 20
-23.2965597
 10
-90.3366174
 20
-23.36914756
 10
-90.26396935
 20
-23.44179561
 10
-90.1912717
 20
-23.51449349
 10
-90.11853448
 20
-23.58723048
 10
-90.04576862
 20
-23.65999634
 10
-89.97298436
 20
-23.7327806
  0
LWPOLYLINE
  5
1BF
100
AcDbEntity
  8
MST_1_1
 62
   137
  6
CONTINUOUS
100
AcDbPolyline
 90
        9
 70
     0
 43
0.0
 10
-89.97298436
 20
-23.7327806
 10
-89.96869515
 20
-23.72849139
 10
-89.96440478
 20
-23.72420102
 10
-89.96011325
 20
-23.71990949
 10
-89.95582055
 20
-23.71561679
 10
-89.95152669
 20
-23.71132293
 10
-89.94723166
 20
-23.70702813
 10
-89.9429357
 20
-23.70273194
 10
-89.93863835
 20
-23.69843459
  0
LWPOLYLINE
  5
1C0
100
AcDbEntity
  8
MST_1_1
 62
   137
  6
CONTINUOUS
100
AcDbPolyline
 90
       25
 70
     0
 43
0.0
 10
-89.93863833
 20
-23.69843459
 10
-89.93504914
 20
-23.70396297
 10
-89.93136447
 20
-23.70941822
 10
-89.92758535
 20
-23.71479933
 10
-89.92371278
 20
-23.72010527
 10
-89.91974777
 20
-23.72533503
 10
-89.91569134
 20
-23.7304876
 10
-89.91154449
 20
-23.73556197
 10
-89.90730824
 20
-23.74055711
 10
-89.9029836
 20
-23.74547202
 10
-89.89857159
 20
-23.75030568
 10
-89.89407321
 20
-23.75505708
 10
-89.88948947
 20
-23.75972519
 10
-89.8848214
 20
-23.76430902
 10
-89.88006999
 20
-23.76880753
 10
-89.87523626
 20
-23.77321973
 10
-89.87032123
 20
-23.77754458
 10
-89.8653259
 20
-23.78178109
 10
-89.8602513
 20
-23.78592822
 10
-89.85509842
 20
-23.78998498
 10
-89.84986828
 20
-23.79395034
 10
-89.84456189
 20
-23.7978233
 10
-89.83918027
 20
-23.80160282
 10
-89.83372442
 20
-23.80528791
 10
-89.82819537
 20
-23.80887755
  0
LWPOLYLINE
  5
1C1
100
AcDbEntity
  8
MST_1_1
 62
   137
  6
CONTINUOUS
100
AcDbPolyline
 90
        9
 70
     0
 43
0.0
 10
-89.82819536
 20
-23.80887757
 10
-89.83249272
 20
-23.81317493
 10
-89.83678891
 20
-23.81747088
 10
-89.8410837
 20
-23.82176591
 10
-89.84537757
 20
-23.82605977
 10
-89.84967027
 20
-23.83035247
 10
-89.8539618
 20
-23.83464401
 10
-89.85825217
 20
-23.83893438
 10
-89.86254138
 20
-23.84322358
  0
LWPOLYLINE
  5
1C2
100
AcDbEntity
  8
MST_1_1
 62
   137
  6
CONTINUOUS
100
AcDbPolyline
 90
        9
 70
     0
 43
0.0
 10
-89.86254138
 20
-23.84322358
 10
-89.78975712
 20
-23.91600784
 10
-89.71699126
 20
-23.9887737
 10
-89.64425427
 20
-24.06151093
 10
-89.57155639
 20
-24.13420857
 10
-89.49890834
 20
-24.20685662
 10
-89.42632048
 20
-24.2794446
 10
-89.35380316
 20
-24.35196203
 10
-89.28136675
 20
-24.42439821
  0
CIRCLE
  5
1C3
100
AcDbEntity
  8
MST_1_1
 62
   137
  6
CONTINUOUS
100
AcDbCircle
 10
-87.58431053
 20
-21.45454975
 30
0.0
 40
5.16766278
  0
LWPOLYLINE
  5
1C4
100
AcDbEntity
  8
MST_1_1
 62
   137
  6
CONTINUOUS
100
AcDbPolyline
 90
        9
 70
     0
 43
0.0
 10
-89.55631227
 20
-23.15384651
 10
-89.60395198
 20
-23.10620679
 10
-89.65158075
 20
-23.05857791
 10
-89.69919624
 20
-23.01096241
 10
-89.74679544
 20
-22.96336322
 10
-89.79437555
 20
-22.91578311
 10
-89.84193377
 20
-22.86822477
 10
-89.88946754
 20
-22.82069112
 10
-89.93697384
 20
-22.77318482
  0
ARC
  5
1C5
100
AcDbEntity
  8
MST_1_1
 62
   137
  6
CONTINUOUS
100
AcDbCircle
 10
-89.63492045
 20
-23.50515905
 30
0.0
 40
0.35999965
100
AcDbArc
 50
77.38749365
 51
127.33775307
  0
LWPOLYLINE
  5
1C6
100
AcDbEntity
  8
MST_1_1
 62
   137
  6
CONTINUOUS
100
AcDbPolyline
 90
        9
 70
     0
 43
0.0
 10
-89.34869346
 20
-23.72350393
 10
-89.4117419
 20
-23.66045549
 10
-89.47481002
 20
-23.59738725
 10
-89.53789117
 20
-23.53430598
 10
-89.60097897
 20
-23.47121819
 10
-89.66406676
 20
-23.4081304
 10
-89.72714803
 20
-23.34504924
 10
-89.79021626
 20
-23.28198112
 10
-89.85326471
 20
-23.21893268
  0
ARC
  5
1C7
100
AcDbEntity
  8
MST_1_1
 62
   137
  6
CONTINUOUS
100
AcDbCircle
 10
-89.63492055
 20
-23.50515951
 30
0.0
 40
0.36000032
100
AcDbArc
 50
322.66230677
 51
12.61245653
  0
LWPOLYLINE
  5
1C8
100
AcDbEntity
  8
MST_1_1
 62
   137
  6
CONTINUOUS
100
AcDbPolyline
 90
        9
 70
     0
 43
0.0
 10
-88.90294559
 20
-23.80721306
 10
-88.95045189
 20
-23.75970676
 10
-88.99798555
 20
-23.71217299
 10
-89.04554389
 20
-23.66461477
 10
-89.09312399
 20
-23.61703467
 10
-89.14072319
 20
-23.56943547
 10
-89.18833869
 20
-23.52181997
 10
-89.23596757
 20
-23.4741912
 10
-89.28360728
 20
-23.42655149
  0
ARC
  5
1C9
100
AcDbEntity
  8
MST_1_1
 62
   137
  6
CONTINUOUS
100
AcDbCircle
 10
-88.98155336
 20
-24.15852619
 30
0.0
 40
0.36000013
100
AcDbArc
 50
77.38757789
 51
192.61246315
  0
LWPOLYLINE
  5
1CA
100
AcDbEntity
  8
MST_1_1
 62
   137
  6
CONTINUOUS
100
AcDbPolyline
 90
        9
 70
     0
 43
0.0
 10
-89.71352813
 20
-23.85647234
 10
-89.66588586
 20
-23.90411485
 10
-89.61825453
 20
-23.95174595
 10
-89.57063764
 20
-23.99936284
 10
-89.52303774
 20
-24.04696274
 10
-89.47545775
 20
-24.09454284
 10
-89.42790058
 20
-24.1420999
 10
-89.38036914
 20
-24.18963134
 10
-89.33286645
 20
-24.23713415
  0
ARC
  5
1CB
100
AcDbEntity
  8
MST_1_1
 62
   137
  6
CONTINUOUS
100
AcDbCircle
 10
-89.63492035
 20
-23.5051584
 30
0.0
 40
0.36000093
100
AcDbArc
 50
257.38761324
 51
307.3376629
  0
LWPOLYLINE
  5
1CC
100
AcDbEntity
  8
MST_1_1
 62
   137
  6
CONTINUOUS
100
AcDbPolyline
 90
        9
 70
     0
 43
0.0
 10
-89.92114695
 20
-23.28681504
 10
-89.8580985
 20
-23.34986325
 10
-89.7950305
 20
-23.41293137
 10
-89.73194923
 20
-23.47601264
 10
-89.66886121
 20
-23.53910043
 10
-89.60577341
 20
-23.60218845
 10
-89.54269214
 20
-23.66526972
 10
-89.47962403
 20
-23.72833772
 10
-89.41657582
 20
-23.79138617
  0
ARC
  5
1CD
100
AcDbEntity
  8
MST_1_1
 62
   137
  6
CONTINUOUS
100
AcDbCircle
 10
-89.63492018
 20
-23.50515935
 30
0.0
 40
0.36
100
AcDbArc
 50
142.66227791
 51
192.61247599
  0
LWPOLYLINE
  5
1CE
100
AcDbEntity
  8
MST_1_1
 62
   137
  6
CONTINUOUS
100
AcDbPolyline
 90
        9
 70
     0
 43
0.0
 10
-90.36689493
 20
-23.20310567
 10
-90.31939212
 20
-23.25060836
 10
-90.27186068
 20
-23.2981398
 10
-90.22430362
 20
-23.34569698
 10
-90.17672351
 20
-23.39327697
 10
-90.12912362
 20
-23.44087686
 10
-90.08150672
 20
-23.48849376
 10
-90.03387563
 20
-23.53612509
 10
-89.98623312
 20
-23.58376736
  0
ARC
  5
1CF
100
AcDbEntity
  8
MST_1_1
 62
   137
  6
CONTINUOUS
100
AcDbCircle
 10
-90.28828687
 20
-22.85179269
 30
0.0
 40
0.36000006
100
AcDbArc
 50
257.38753734
 51
12.61244165
  0
LWPOLYLINE
  5
1D0
100
AcDbEntity
  8
MST_1_1
 62
   137
  6
CONTINUOUS
100
AcDbPolyline
 90
        9
 70
     0
 43
0.0
 10
-89.7409344
 20
-23.26338063
 10
-89.69746771
 20
-23.30684732
 10
-89.65399474
 20
-23.35032029
 10
-89.61051734
 20
-23.39379769
 10
-89.56703785
 20
-23.43727707
 10
-89.52355847
 20
-23.48075656
 10
-89.48008107
 20
-23.52423396
 10
-89.4366081
 20
-23.56770693
 10
-89.39314141
 20
-23.61117362
  0
ARC
  5
1D1
100
AcDbEntity
  8
MST_1_1
 62
   137
  6
CONTINUOUS
100
AcDbCircle
 10
-89.63492015
 20
-23.50515937
 30
0.0
 40
0.26399996
100
AcDbArc
 50
336.32369791
 51
113.67631211
  0
LWPOLYLINE
  5
1D2
100
AcDbEntity
  8
MST_1_1
 62
   137
  6
CONTINUOUS
100
AcDbPolyline
 90
        9
 70
     0
 43
0.0
 10
-89.52890589
 20
-23.7469381
 10
-89.57237246
 20
-23.70347165
 10
-89.61584544
 20
-23.65999867
 10
-89.65932283
 20
-23.61652127
 10
-89.70280233
 20
-23.57304155
 10
-89.74628205
 20
-23.52956206
 10
-89.78975945
 20
-23.48608466
 10
-89.83323242
 20
-23.44261168
 10
-89.87669888
 20
-23.39914511
  0
ARC
  5
1D3
100
AcDbEntity
  8
MST_1_1
 62
   137
  6
CONTINUOUS
100
AcDbCircle
 10
-89.63492023
 20
-23.50515945
 30
0.0
 40
0.26399992
100
AcDbArc
 50
156.32366302
 51
293.676347
  0
CIRCLE
  5
1D4
100
AcDbEntity
  8
MST_1_1
 62
   137
  6
CONTINUOUS
100
AcDbCircle
 10
-87.58431053
 20
-51.45454975
 30
0.0
 40
2.32981333
  0
CIRCLE
  5
1D5
100
AcDbEntity
  8
MST_1_1
 62
   137
  6
CONTINUOUS
100
AcDbCircle
 10
-87.58431053
 20
-51.45454975
 30
0.0
 40
1.32203389
  0
CIRCLE
  5
1D6
100
AcDbEntity
  8
MST_1_1
 62
   137
  6
CONTINUOUS
100
AcDbCircle
 10
-87.58431053
 20
-51.45454975
 30
0.0
 40
2.32981333
  0
CIRCLE
  5
1D7
100
AcDbEntity
  8
MST_1_1
 62
   137
  6
CONTINUOUS
100
AcDbCircle
 10
-87.58431053
 20
-51.45454975
 30
0.0
 40
2.32981333
  0
CIRCLE
  5
1D8
100
AcDbEntity
  8
MST_1_1
 62
   137
  6
CONTINUOUS
100
AcDbCircle
 10
-87.58431053
 20
-51.45454975
 30
0.0
 40
5.9
  0
ARC
  5
1D9
100
AcDbEntity
  8
MST_1_1
 62
   137
  6
CONTINUOUS
100
AcDbCircle
 10
-89.45831047
 20
-51.45454975
 30
0.0
 40
0.37600003
100
AcDbArc
 50
106.48878485
 51
253.51122516
  0
ARC
  5
1DA
100
AcDbEntity
  8
MST_1_1
 62
   137
  6
CONTINUOUS
100
AcDbCircle
 10
-89.84458127
 20
-52.7595177
 30
0.0
 40
0.98493585
100
AcDbArc
 50
346.4887751
 51
73.5112424
  0
ARC
  5
1DB
100
AcDbEntity
  8
MST_1_1
 62
   137
  6
CONTINUOUS
100
AcDbCircle
 10
-88.52131046
 20
-53.0774813
 30
0.0
 40
0.37600004
100
AcDbArc
 50
166.48877314
 51
313.51122983
  0
ARC
  5
1DC
100
AcDbEntity
  8
MST_1_1
 62
   137
  6
CONTINUOUS
100
AcDbCircle
 10
-87.58431053
 20
-54.06448542
 30
0.0
 40
0.98493568
100
AcDbArc
 50
46.48875513
 51
133.51124487
  0
ARC
  5
1DD
100
AcDbEntity
  8
MST_1_1
 62
   137
  6
CONTINUOUS
100
AcDbCircle
 10
-86.64731056
 20
-53.07748134
 30
0.0
 40
0.37600002
100
AcDbArc
 50
226.48878273
 51
13.51123435
  0
ARC
  5
1DE
100
AcDbEntity
  8
MST_1_1
 62
   137
  6
CONTINUOUS
100
AcDbCircle
 10
-85.32403974
 20
-52.75951772
 30
0.0
 40
0.98493588
100
AcDbArc
 50
106.48875933
 51
193.51124321
  0
ARC
  5
1DF
100
AcDbEntity
  8
MST_1_1
 62
   137
  6
CONTINUOUS
100
AcDbCircle
 10
-85.71031058
 20
-51.45454975
 30
0.0
 40
0.37600003
100
AcDbArc
 50
286.48879487
 51
73.51121515
  0
ARC
  5
1E0
100
AcDbEntity
  8
MST_1_1
 62
   137
  6
CONTINUOUS
100
AcDbCircle
 10
-85.32403978
 20
-50.1495818
 30
0.0
 40
0.98493585
100
AcDbArc
 50
166.48876508
 51
253.51125242
  0
ARC
  5
1E1
100
AcDbEntity
  8
MST_1_1
 62
   137
  6
CONTINUOUS
100
AcDbCircle
 10
-86.64731059
 20
-49.8316182
 30
0.0
 40
0.37600004
100
AcDbArc
 50
346.48878316
 51
133.51121981
  0
ARC
  5
1E2
100
AcDbEntity
  8
MST_1_1
 62
   137
  6
CONTINUOUS
100
AcDbCircle
 10
-87.58431053
 20
-48.84461407
 30
0.0
 40
0.98493568
100
AcDbArc
 50
226.48876515
 51
313.51125489
  0
ARC
  5
1E3
100
AcDbEntity
  8
MST_1_1
 62
   137
  6
CONTINUOUS
100
AcDbCircle
 10
-88.52131049
 20
-49.83161815
 30
0.0
 40
0.37600002
100
AcDbArc
 50
46.48877271
 51
193.51124436
  0
ARC
  5
1E4
100
AcDbEntity
  8
MST_1_1
 62
   137
  6
CONTINUOUS
100
AcDbCircle
 10
-89.84458131
 20
-50.14958178
 30
0.0
 40
0.98493588
100
AcDbArc
 50
286.48876935
 51
13.51123319
  0
LWPOLYLINE
  5
1E5
100
AcDbEntity
  8
MST_1_1
 62
   137
  6
CONTINUOUS
100
AcDbPolyline
 90
        9
 70
     0
 43
0.0
 10
-89.28136675
 20
-54.42439821
 10
-89.26928156
 20
-54.4123129
 10
-89.25718694
 20
-54.40021828
 10
-89.24508312
 20
-54.38811458
 10
-89.23297011
 20
-54.37600156
 10
-89.22084802
 20
-54.36387947
 10
-89.20871684
 20
-54.35174829
 10
-89.19657659
 20
-54.33960804
 10
-89.18442725
 20
-54.3274587
  0
ARC
  5
1E6
100
AcDbEntity
  8
MST_1_1
 62
   137
  6
CONTINUOUS
100
AcDbCircle
 10
-88.98155354
 20
-54.15852609
 30
0.0
 40
0.26399994
100
AcDbArc
 50
50.21590624
 51
219.78410378
  0
LWPOLYLINE
  5
1E7
100
AcDbEntity
  8
MST_1_1
 62
   137
  6
CONTINUOUS
100
AcDbPolyline
 90
        9
 70
     0
 43
0.0
 10
-88.81262093
 20
-53.95565238
 10
-88.80052782
 20
-53.94355915
 10
-88.78842761
 20
-53.93145895
 10
-88.77632042
 20
-53.91935198
 10
-88.76420635
 20
-53.90723781
 10
-88.75208531
 20
-53.89511688
 10
-88.73995751
 20
-53.88298896
 10
-88.72782284
 20
-53.87085429
 10
-88.71568142
 20
-53.85871287
  0
LWPOLYLINE
  5
1E8
100
AcDbEntity
  8
MST_1_1
 62
   137
  6
CONTINUOUS
100
AcDbPolyline
 90
        9
 70
     0
 43
0.0
 10
-88.71568142
 20
-53.85871287
 10
-88.78813017
 20
-53.78626389
 10
-88.86065517
 20
-53.71373901
 10
-88.93324664
 20
-53.64114754
 10
-89.00589457
 20
-53.56849949
 10
-89.07858931
 20
-53.49580487
 10
-89.15132106
 20
-53.42307324
 10
-89.22407994
 20
-53.35031424
 10
-89.29685604
 20
-53.27753813
  0
LWPOLYLINE
  5
1E9
100
AcDbEntity
  8
MST_1_1
 62
   137
  6
CONTINUOUS
100
AcDbPolyline
 90
        9
 70
     0
 43
0.0
 10
-89.29685604
 20
-53.27753813
 10
-89.30115224
 20
-53.28183433
 10
-89.3054475
 20
-53.2861297
 10
-89.30974206
 20
-53.29042426
 10
-89.3140358
 20
-53.29471789
 10
-89.31832862
 20
-53.29901082
 10
-89.32262062
 20
-53.30330282
 10
-89.3269118
 20
-53.30759389
 10
-89.33120206
 20
-53.31188426
  0
LWPOLYLINE
  5
1EA
100
AcDbEntity
  8
MST_1_1
 62
   137
  6
CONTINUOUS
100
AcDbPolyline
 90
       25
 70
     0
 43
0.0
 10
-89.33120206
 20
-53.31188424
 10
-89.33479156
 20
-53.30635534
 10
-89.33847644
 20
-53.30089969
 10
-89.34225569
 20
-53.29551829
 10
-89.34612831
 20
-53.29021216
 10
-89.3500933
 20
-53.28498228
 10
-89.35414966
 20
-53.27982968
 10
-89.35829638
 20
-53.27475535
 10
-89.36253246
 20
-53.2697603
 10
-89.3668569
 20
-53.26484553
 10
-89.37126869
 20
-53.26001204
 10
-89.37576684
 20
-53.25526085
 10
-89.38035035
 20
-53.25059296
 10
-89.3850182
 20
-53.24600938
 10
-89.3897694
 20
-53.24151109
 10
-89.39460294
 20
-53.23709913
 10
-89.39951783
 20
-53.23277448
 10
-89.40451306
 20
-53.22853815
 10
-89.40958763
 20
-53.22439114
 10
-89.41474053
 20
-53.22033448
 10
-89.41997077
 20
-53.21636914
 10
-89.42527734
 20
-53.21249615
 10
-89.43065924
 20
-53.20871651
 10
-89.43611546
 20
-53.20503121
 10
-89.44164501
 20
-53.20144128
  0
LWPOLYLINE
  5
1EB
100
AcDbEntity
  8
MST_1_1
 62
   137
  6
CONTINUOUS
100
AcDbPolyline
 90
        9
 70
     0
 43
0.0
 10
-89.44164504
 20
-53.20144128
 10
-89.43735467
 20
-53.19715103
 10
-89.4330636
 20
-53.19285984
 10
-89.4287716
 20
-53.18856784
 10
-89.42447867
 20
-53.18427503
 10
-89.42018504
 20
-53.17998128
 10
-89.41589048
 20
-53.17568672
 10
-89.4115951
 20
-53.17139146
 10
-89.40729891
 20
-53.16709527
  0
LWPOLYLINE
  5
1EC
100
AcDbEntity
  8
MST_1_1
 62
   137
  6
CONTINUOUS
100
AcDbPolyline
 90
        9
 70
     0
 43
0.0
 10
-89.40729891
 20
-53.16709527
 10
-89.48007502
 20
-53.09431916
 10
-89.55283401
 20
-53.02156028
 10
-89.62556565
 20
-52.94882853
 10
-89.69826027
 20
-52.8761338
 10
-89.77090832
 20
-52.80348586
 10
-89.84349979
 20
-52.73089439
 10
-89.91602467
 20
-52.65836939
 10
-89.98847365
 20
-52.58592064
  0
LWPOLYLINE
  5
1ED
100
AcDbEntity
  8
MST_1_1
 62
   137
  6
CONTINUOUS
100
AcDbPolyline
 90
        9
 70
     0
 43
0.0
 10
-89.98847365
 20
-52.58592064
 10
-90.00061507
 20
-52.59806206
 10
-90.01274974
 20
-52.61019673
 10
-90.02487765
 20
-52.62232453
 10
-90.03699858
 20
-52.63444558
 10
-90.04911276
 20
-52.64655964
 10
-90.06121972
 20
-52.65866683
 10
-90.07331993
 20
-52.67076704
 10
-90.08541316
 20
-52.68286015
  0
ARC
  5
1EE
100
AcDbEntity
  8
MST_1_1
 62
   137
  6
CONTINUOUS
100
AcDbCircle
 10
-90.28828675
 20
-52.85179288
 30
0.0
 40
0.26399993
100
AcDbArc
 50
230.21587884
 51
39.78413117
  0
LWPOLYLINE
  5
1EF
100
AcDbEntity
  8
MST_1_1
 62
   137
  6
CONTINUOUS
100
AcDbPolyline
 90
        9
 70
     0
 43
0.0
 10
-90.45721948
 20
-53.05466647
 10
-90.46936881
 20
-53.06681581
 10
-90.48150907
 20
-53.07895606
 10
-90.49364024
 20
-53.09108724
 10
-90.50576234
 20
-53.10320933
 10
-90.51787535
 20
-53.11532235
 10
-90.52997905
 20
-53.12742616
 10
-90.54207368
 20
-53.13952079
 10
-90.55415898
 20
-53.15160598
  0
LWPOLYLINE
  5
1F0
100
AcDbEntity
  8
MST_1_1
 62
   137
  6
CONTINUOUS
100
AcDbPolyline
 90
        9
 70
     0
 43
0.0
 10
-90.55415898
 20
-53.15160598
 10
-90.48172281
 20
-53.22404238
 10
-90.40920538
 20
-53.2965597
 10
-90.3366174
 20
-53.36914756
 10
-90.26396935
 20
-53.44179561
 10
-90.1912717
 20
-53.51449349
 10
-90.11853448
 20
-53.58723048
 10
-90.04576862
 20
-53.65999634
 10
-89.97298436
 20
-53.7327806
  0
LWPOLYLINE
  5
1F1
100
AcDbEntity
  8
MST_1_1
 62
   137
  6
CONTINUOUS
100
AcDbPolyline
 90
        9
 70
     0
 43
0.0
 10
-89.97298436
 20
-53.7327806
 10
-89.96869515
 20
-53.72849139
 10
-89.96440478
 20
-53.72420102
 10
-89.96011325
 20
-53.71990949
 10
-89.95582055
 20
-53.71561679
 10
-89.95152669
 20
-53.71132293
 10
-89.94723166
 20
-53.70702813
 10
-89.9429357
 20
-53.70273194
 10
-89.93863835
 20
-53.69843459
  0
LWPOLYLINE
  5
1F2
100
AcDbEntity
  8
MST_1_1
 62
   137
  6
CONTINUOUS
100
AcDbPolyline
 90
       25
 70
     0
 43
0.0
 10
-89.93863833
 20
-53.69843459
 10
-89.93504914
 20
-53.70396297
 10
-89.93136447
 20
-53.70941822
 10
-89.92758535
 20
-53.71479933
 10
-89.92371278
 20
-53.72010527
 10
-89.91974777
 20
-53.72533503
 10
-89.91569134
 20
-53.7304876
 10
-89.91154449
 20
-53.73556197
 10
-89.90730824
 20
-53.74055711
 10
-89.9029836
 20
-53.74547202
 10
-89.89857159
 20
-53.75030568
 10
-89.89407321
 20
-53.75505708
 10
-89.88948947
 20
-53.75972519
 10
-89.8848214
 20
-53.76430902
 10
-89.88006999
 20
-53.76880753
 10
-89.87523626
 20
-53.77321973
 10
-89.87032123
 20
-53.77754458
 10
-89.8653259
 20
-53.78178109
 10
-89.8602513
 20
-53.78592822
 10
-89.85509842
 20
-53.78998498
 10
-89.84986828
 20
-53.79395034
 10
-89.84456189
 20
-53.7978233
 10
-89.83918027
 20
-53.80160282
 10
-89.83372442
 20
-53.80528791
 10
-89.82819537
 20
-53.80887755
  0
LWPOLYLINE
  5
1F3
100
AcDbEntity
  8
MST_1_1
 62
   137
  6
CONTINUOUS
100
AcDbPolyline
 90
        9
 70
     0
 43
0.0
 10
-89.82819536
 20
-53.80887757
 10
-89.83249272
 20
-53.81317493
 10
-89.83678891
 20
-53.81747088
 10
-89.8410837
 20
-53.82176591
 10
-89.84537757
 20
-53.82605977
 10
-89.84967027
 20
-53.83035247
 10
-89.8539618
 20
-53.83464401
 10
-89.85825217
 20
-53.83893438
 10
-89.86254138
 20
-53.84322358
  0
LWPOLYLINE
  5
1F4
100
AcDbEntity
  8
MST_1_1
 62
   137
  6
CONTINUOUS
100
AcDbPolyline
 90
        9
 70
     0
 43
0.0
 10
-89.86254138
 20
-53.84322358
 10
-89.78975712
 20
-53.91600784
 10
-89.71699126
 20
-53.9887737
 10
-89.64425427
 20
-54.06151093
 10
-89.57155639
 20
-54.13420857
 10
-89.49890834
 20
-54.20685662
 10
-89.42632048
 20
-54.2794446
 10
-89.35380316
 20
-54.35196203
 10
-89.28136675
 20
-54.42439821
  0
CIRCLE
  5
1F5
100
AcDbEntity
  8
MST_1_1
 62
   137
  6
CONTINUOUS
100
AcDbCircle
 10
-87.58431053
 20
-51.45454975
 30
0.0
 40
5.16766278
  0
LWPOLYLINE
  5
1F6
100
AcDbEntity
  8
MST_1_1
 62
   137
  6
CONTINUOUS
100
AcDbPolyline
 90
        9
 70
     0
 43
0.0
 10
-89.55631227
 20
-53.15384651
 10
-89.60395198
 20
-53.10620679
 10
-89.65158075
 20
-53.05857791
 10
-89.69919624
 20
-53.01096241
 10
-89.74679544
 20
-52.96336322
 10
-89.79437555
 20
-52.91578311
 10
-89.84193377
 20
-52.86822477
 10
-89.88946754
 20
-52.82069112
 10
-89.93697384
 20
-52.77318482
  0
ARC
  5
1F7
100
AcDbEntity
  8
MST_1_1
 62
   137
  6
CONTINUOUS
100
AcDbCircle
 10
-89.63492045
 20
-53.50515905
 30
0.0
 40
0.35999965
100
AcDbArc
 50
77.38749365
 51
127.33775307
  0
LWPOLYLINE
  5
1F8
100
AcDbEntity
  8
MST_1_1
 62
   137
  6
CONTINUOUS
100
AcDbPolyline
 90
        9
 70
     0
 43
0.0
 10
-89.34869346
 20
-53.72350393
 10
-89.4117419
 20
-53.66045549
 10
-89.47481002
 20
-53.59738725
 10
-89.53789117
 20
-53.53430598
 10
-89.60097897
 20
-53.47121819
 10
-89.66406676
 20
-53.4081304
 10
-89.72714803
 20
-53.34504924
 10
-89.79021626
 20
-53.28198112
 10
-89.85326471
 20
-53.21893268
  0
ARC
  5
1F9
100
AcDbEntity
  8
MST_1_1
 62
   137
  6
CONTINUOUS
100
AcDbCircle
 10
-89.63492055
 20
-53.50515951
 30
0.0
 40
0.36000032
100
AcDbArc
 50
322.66230677
 51
12.61245653
  0
LWPOLYLINE
  5
1FA
100
AcDbEntity
  8
MST_1_1
 62
   137
  6
CONTINUOUS
100
AcDbPolyline
 90
        9
 70
     0
 43
0.0
 10
-88.90294559
 20
-53.80721306
 10
-88.95045189
 20
-53.75970676
 10
-88.99798555
 20
-53.71217299
 10
-89.04554389
 20
-53.66461477
 10
-89.09312399
 20
-53.61703467
 10
-89.14072319
 20
-53.56943547
 10
-89.18833869
 20
-53.52181997
 10
-89.23596757
 20
-53.4741912
 10
-89.28360728
 20
-53.42655149
  0
ARC
  5
1FB
100
AcDbEntity
  8
MST_1_1
 62
   137
  6
CONTINUOUS
100
AcDbCircle
 10
-88.98155336
 20
-54.15852619
 30
0.0
 40
0.36000013
100
AcDbArc
 50
77.38757789
 51
192.61246315
  0
LWPOLYLINE
  5
1FC
100
AcDbEntity
  8
MST_1_1
 62
   137
  6
CONTINUOUS
100
AcDbPolyline
 90
        9
 70
     0
 43
0.0
 10
-89.71352813
 20
-53.85647234
 10
-89.66588586
 20
-53.90411485
 10
-89.61825453
 20
-53.95174595
 10
-89.57063764
 20
-53.99936284
 10
-89.52303774
 20
-54.04696274
 10
-89.47545775
 20
-54.09454284
 10
-89.42790058
 20
-54.1420999
 10
-89.38036914
 20
-54.18963134
 10
-89.33286645
 20
-54.23713415
  0
ARC
  5
1FD
100
AcDbEntity
  8
MST_1_1
 62
   137
  6
CONTINUOUS
100
AcDbCircle
 10
-89.63492035
 20
-53.5051584
 30
0.0
 40
0.36000093
100
AcDbArc
 50
257.38761324
 51
307.3376629
  0
LWPOLYLINE
  5
1FE
100
AcDbEntity
  8
MST_1_1
 62
   137
  6
CONTINUOUS
100
AcDbPolyline
 90
        9
 70
     0
 43
0.0
 10
-89.92114695
 20
-53.28681504
 10
-89.8580985
 20
-53.34986325
 10
-89.7950305
 20
-53.41293137
 10
-89.73194923
 20
-53.47601264
 10
-89.66886121
 20
-53.53910043
 10
-89.60577341
 20
-53.60218845
 10
-89.54269214
 20
-53.66526972
 10
-89.47962403
 20
-53.72833772
 10
-89.41657582
 20
-53.79138617
  0
ARC
  5
1FF
100
AcDbEntity
  8
MST_1_1
 62
   137
  6
CONTINUOUS
100
AcDbCircle
 10
-89.63492018
 20
-53.50515935
 30
0.0
 40
0.36
100
AcDbArc
 50
142.66227791
 51
192.61247599
  0
LWPOLYLINE
  5
200
100
AcDbEntity
  8
MST_1_1
 62
   137
  6
CONTINUOUS
100
AcDbPolyline
 90
        9
 70
     0
 43
0.0
 10
-90.36689493
 20
-53.20310567
 10
-90.31939212
 20
-53.25060836
 10
-90.27186068
 20
-53.2981398
 10
-90.22430362
 20
-53.34569698
 10
-90.17672351
 20
-53.39327697
 10
-90.12912362
 20
-53.44087686
 10
-90.08150672
 20
-53.48849376
 10
-90.03387563
 20
-53.53612509
 10
-89.98623312
 20
-53.58376736
  0
ARC
  5
201
100
AcDbEntity
  8
MST_1_1
 62
   137
  6
CONTINUOUS
100
AcDbCircle
 10
-90.28828687
 20
-52.85179269
 30
0.0
 40
0.36000006
100
AcDbArc
 50
257.38753734
 51
12.61244165
  0
LWPOLYLINE
  5
202
100
AcDbEntity
  8
MST_1_1
 62
   137
  6
CONTINUOUS
100
AcDbPolyline
 90
        9
 70
     0
 43
0.0
 10
-89.7409344
 20
-53.26338063
 10
-89.69746771
 20
-53.30684732
 10
-89.65399474
 20
-53.35032029
 10
-89.61051734
 20
-53.39379769
 10
-89.56703785
 20
-53.43727707
 10
-89.52355847
 20
-53.48075656
 10
-89.48008107
 20
-53.52423396
 10
-89.4366081
 20
-53.56770693
 10
-89.39314141
 20
-53.61117362
  0
ARC
  5
203
100
AcDbEntity
  8
MST_1_1
 62
   137
  6
CONTINUOUS
100
AcDbCircle
 10
-89.63492015
 20
-53.50515937
 30
0.0
 40
0.26399996
100
AcDbArc
 50
336.32369791
 51
113.67631211
  0
LWPOLYLINE
  5
204
100
AcDbEntity
  8
MST_1_1
 62
   137
  6
CONTINUOUS
100
AcDbPolyline
 90
        9
 70
     0
 43
0.0
 10
-89.52890589
 20
-53.7469381
 10
-89.57237246
 20
-53.70347165
 10
-89.61584544
 20
-53.65999867
 10
-89.65932283
 20
-53.61652127
 10
-89.70280233
 20
-53.57304155
 10
-89.74628205
 20
-53.52956206
 10
-89.78975945
 20
-53.48608466
 10
-89.83323242
 20
-53.44261168
 10
-89.87669888
 20
-53.39914511
  0
ARC
  5
205
100
AcDbEntity
  8
MST_1_1
 62
   137
  6
CONTINUOUS
100
AcDbCircle
 10
-89.63492023
 20
-53.50515945
 30
0.0
 40
0.26399992
100
AcDbArc
 50
156.32366302
 51
293.676347
  0
CIRCLE
  5
206
100
AcDbEntity
  8
MST_1_1
 62
   137
  6
CONTINUOUS
100
AcDbCircle
 10
-87.58431053
 20
-81.45454975
 30
0.0
 40
2.32981333
  0
CIRCLE
  5
207
100
AcDbEntity
  8
MST_1_1
 62
   137
  6
CONTINUOUS
100
AcDbCircle
 10
-87.58431053
 20
-81.45454975
 30
0.0
 40
1.32203389
  0
CIRCLE
  5
208
100
AcDbEntity
  8
MST_1_1
 62
   137
  6
CONTINUOUS
100
AcDbCircle
 10
-87.58431053
 20
-81.45454975
 30
0.0
 40
2.32981333
  0
CIRCLE
  5
209
100
AcDbEntity
  8
MST_1_1
 62
   137
  6
CONTINUOUS
100
AcDbCircle
 10
-87.58431053
 20
-81.45454975
 30
0.0
 40
2.32981333
  0
CIRCLE
  5
20A
100
AcDbEntity
  8
MST_1_1
 62
   137
  6
CONTINUOUS
100
AcDbCircle
 10
-87.58431053
 20
-81.45454975
 30
0.0
 40
5.9
  0
ARC
  5
20B
100
AcDbEntity
  8
MST_1_1
 62
   137
  6
CONTINUOUS
100
AcDbCircle
 10
-89.45831047
 20
-81.45454975
 30
0.0
 40
0.37600003
100
AcDbArc
 50
106.48878485
 51
253.51122516
  0
ARC
  5
20C
100
AcDbEntity
  8
MST_1_1
 62
   137
  6
CONTINUOUS
100
AcDbCircle
 10
-89.84458127
 20
-82.7595177
 30
0.0
 40
0.98493585
100
AcDbArc
 50
346.4887751
 51
73.5112424
  0
ARC
  5
20D
100
AcDbEntity
  8
MST_1_1
 62
   137
  6
CONTINUOUS
100
AcDbCircle
 10
-88.52131046
 20
-83.0774813
 30
0.0
 40
0.37600004
100
AcDbArc
 50
166.48877314
 51
313.51122983
  0
ARC
  5
20E
100
AcDbEntity
  8
MST_1_1
 62
   137
  6
CONTINUOUS
100
AcDbCircle
 10
-87.58431053
 20
-84.06448542
 30
0.0
 40
0.98493568
100
AcDbArc
 50
46.48875513
 51
133.51124487
  0
ARC
  5
20F
100
AcDbEntity
  8
MST_1_1
 62
   137
  6
CONTINUOUS
100
AcDbCircle
 10
-86.64731056
 20
-83.07748134
 30
0.0
 40
0.37600002
100
AcDbArc
 50
226.48878273
 51
13.51123435
  0
ARC
  5
210
100
AcDbEntity
  8
MST_1_1
 62
   137
  6
CONTINUOUS
100
AcDbCircle
 10
-85.32403974
 20
-82.75951772
 30
0.0
 40
0.98493588
100
AcDbArc
 50
106.48875933
 51
193.51124321
  0
ARC
  5
211
100
AcDbEntity
  8
MST_1_1
 62
   137
  6
CONTINUOUS
100
AcDbCircle
 10
-85.71031058
 20
-81.45454975
 30
0.0
 40
0.37600003
100
AcDbArc
 50
286.48879487
 51
73.51121515
  0
ARC
  5
212
100
AcDbEntity
  8
MST_1_1
 62
   137
  6
CONTINUOUS
100
AcDbCircle
 10
-85.32403978
 20
-80.1495818
 30
0.0
 40
0.98493585
100
AcDbArc
 50
166.48876508
 51
253.51125242
  0
ARC
  5
213
100
AcDbEntity
  8
MST_1_1
 62
   137
  6
CONTINUOUS
100
AcDbCircle
 10
-86.64731059
 20
-79.8316182
 30
0.0
 40
0.37600004
100
AcDbArc
 50
346.48878316
 51
133.51121981
  0
ARC
  5
214
100
AcDbEntity
  8
MST_1_1
 62
   137
  6
CONTINUOUS
100
AcDbCircle
 10
-87.58431053
 20
-78.84461407
 30
0.0
 40
0.98493568
100
AcDbArc
 50
226.48876515
 51
313.51125489
  0
ARC
  5
215
100
AcDbEntity
  8
MST_1_1
 62
   137
  6
CONTINUOUS
100
AcDbCircle
 10
-88.52131049
 20
-79.83161815
 30
0.0
 40
0.37600002
100
AcDbArc
 50
46.48877271
 51
193.51124436
  0
ARC
  5
216
100
AcDbEntity
  8
MST_1_1
 62
   137
  6
CONTINUOUS
100
AcDbCircle
 10
-89.84458131
 20
-80.14958178
 30
0.0
 40
0.98493588
100
AcDbArc
 50
286.48876935
 51
13.51123319
  0
LWPOLYLINE
  5
217
100
AcDbEntity
  8
MST_1_1
 62
   137
  6
CONTINUOUS
100
AcDbPolyline
 90
        9
 70
     0
 43
0.0
 10
-89.28136675
 20
-84.42439821
 10
-89.26928156
 20
-84.4123129
 10
-89.25718694
 20
-84.40021828
 10
-89.24508312
 20
-84.38811458
 10
-89.23297011
 20
-84.37600156
 10
-89.22084802
 20
-84.36387947
 10
-89.20871684
 20
-84.35174829
 10
-89.19657659
 20
-84.33960804
 10
-89.18442725
 20
-84.3274587
  0
ARC
  5
218
100
AcDbEntity
  8
MST_1_1
 62
   137
  6
CONTINUOUS
100
AcDbCircle
 10
-88.98155354
 20
-84.15852609
 30
0.0
 40
0.26399994
100
AcDbArc
 50
50.21590624
 51
219.78410378
  0
LWPOLYLINE
  5
219
100
AcDbEntity
  8
MST_1_1
 62
   137
  6
CONTINUOUS
100
AcDbPolyline
 90
        9
 70
     0
 43
0.0
 10
-88.81262093
 20
-83.95565238
 10
-88.80052782
 20
-83.94355915
 10
-88.78842761
 20
-83.93145895
 10
-88.77632042
 20
-83.91935198
 10
-88.76420635
 20
-83.90723781
 10
-88.75208531
 20
-83.89511688
 10
-88.73995751
 20
-83.88298896
 10
-88.72782284
 20
-83.87085429
 10
-88.71568142
 20
-83.85871287
  0
LWPOLYLINE
  5
21A
100
AcDbEntity
  8
MST_1_1
 62
   137
  6
CONTINUOUS
100
AcDbPolyline
 90
        9
 70
     0
 43
0.0
 10
-88.71568142
 20
-83.85871287
 10
-88.78813017
 20
-83.78626389
 10
-88.86065517
 20
-83.71373901
 10
-88.93324664
 20
-83.64114754
 10
-89.00589457
 20
-83.56849949
 10
-89.07858931
 20
-83.49580487
 10
-89.15132106
 20
-83.42307324
 10
-89.22407994
 20
-83.35031424
 10
-89.29685604
 20
-83.27753813
  0
LWPOLYLINE
  5
21B
100
AcDbEntity
  8
MST_1_1
 62
   137
  6
CONTINUOUS
100
AcDbPolyline
 90
        9
 70
     0
 43
0.0
 10
-89.29685604
 20
-83.27753813
 10
-89.30115224
 20
-83.28183433
 10
-89.3054475
 20
-83.2861297
 10
-89.30974206
 20
-83.29042426
 10
-89.3140358
 20
-83.29471789
 10
-89.31832862
 20
-83.29901082
 10
-89.32262062
 20
-83.30330282
 10
-89.3269118
 20
-83.30759389
 10
-89.33120206
 20
-83.31188426
  0
LWPOLYLINE
  5
21C
100
AcDbEntity
  8
MST_1_1
 62
   137
  6
CONTINUOUS
100
AcDbPolyline
 90
       25
 70
     0
 43
0.0
 10
-89.33120206
 20
-83.31188424
 10
-89.33479156
 20
-83.30635534
 10
-89.33847644
 20
-83.30089969
 10
-89.34225569
 20
-83.29551829
 10
-89.34612831
 20
-83.29021216
 10
-89.3500933
 20
-83.28498228
 10
-89.35414966
 20
-83.27982968
 10
-89.35829638
 20
-83.27475535
 10
-89.36253246
 20
-83.2697603
 10
-89.3668569
 20
-83.26484553
 10
-89.37126869
 20
-83.26001204
 10
-89.37576684
 20
-83.25526085
 10
-89.38035035
 20
-83.25059296
 10
-89.3850182
 20
-83.24600938
 10
-89.3897694
 20
-83.24151109
 10
-89.39460294
 20
-83.23709913
 10
-89.39951783
 20
-83.23277448
 10
-89.40451306
 20
-83.22853815
 10
-89.40958763
 20
-83.22439114
 10
-89.41474053
 20
-83.22033448
 10
-89.41997077
 20
-83.21636914
 10
-89.42527734
 20
-83.21249615
 10
-89.43065924
 20
-83.20871651
 10
-89.43611546
 20
-83.20503121
 10
-89.44164501
 20
-83.20144128
  0
LWPOLYLINE
  5
21D
100
AcDbEntity
  8
MST_1_1
 62
   137
  6
CONTINUOUS
100
AcDbPolyline
 90
        9
 70
     0
 43
0.0
 10
-89.44164504
 20
-83.20144128
 10
-89.43735467
 20
-83.19715103
 10
-89.4330636
 20
-83.19285984
 10
-89.4287716
 20
-83.18856784
 10
-89.42447867
 20
-83.18427503
 10
-89.42018504
 20
-83.17998128
 10
-89.41589048
 20
-83.17568672
 10
-89.4115951
 20
-83.17139146
 10
-89.40729891
 20
-83.16709527
  0
LWPOLYLINE
  5
21E
100
AcDbEntity
  8
MST_1_1
 62
   137
  6
CONTINUOUS
100
AcDbPolyline
 90
        9
 70
     0
 43
0.0
 10
-89.40729891
 20
-83.16709527
 10
-89.48007502
 20
-83.09431916
 10
-89.55283401
 20
-83.02156028
 10
-89.62556565
 20
-82.94882853
 10
-89.69826027
 20
-82.8761338
 10
-89.77090832
 20
-82.80348586
 10
-89.84349979
 20
-82.73089439
 10
-89.91602467
 20
-82.65836939
 10
-89.98847365
 20
-82.58592064
  0
LWPOLYLINE
  5
21F
100
AcDbEntity
  8
MST_1_1
 62
   137
  6
CONTINUOUS
100
AcDbPolyline
 90
        9
 70
     0
 43
0.0
 10
-89.98847365
 20
-82.58592064
 10
-90.00061507
 20
-82.59806206
 10
-90.01274974
 20
-82.61019673
 10
-90.02487765
 20
-82.62232453
 10
-90.03699858
 20
-82.63444558
 10
-90.04911276
 20
-82.64655964
 10
-90.06121972
 20
-82.65866683
 10
-90.07331993
 20
-82.67076704
 10
-90.08541316
 20
-82.68286015
  0
ARC
  5
220
100
AcDbEntity
  8
MST_1_1
 62
   137
  6
CONTINUOUS
100
AcDbCircle
 10
-90.28828675
 20
-82.85179288
 30
0.0
 40
0.26399993
100
AcDbArc
 50
230.21587884
 51
39.78413117
  0
LWPOLYLINE
  5
221
100
AcDbEntity
  8
MST_1_1
 62
   137
  6
CONTINUOUS
100
AcDbPolyline
 90
        9
 70
     0
 43
0.0
 10
-90.45721948
 20
-83.05466647
 10
-90.46936881
 20
-83.06681581
 10
-90.48150907
 20
-83.07895606
 10
-90.49364024
 20
-83.09108724
 10
-90.50576234
 20
-83.10320933
 10
-90.51787535
 20
-83.11532235
 10
-90.52997905
 20
-83.12742616
 10
-90.54207368
 20
-83.13952079
 10
-90.55415898
 20
-83.15160598
  0
LWPOLYLINE
  5
222
100
AcDbEntity
  8
MST_1_1
 62
   137
  6
CONTINUOUS
100
AcDbPolyline
 90
        9
 70
     0
 43
0.0
 10
-90.55415898
 20
-83.15160598
 10
-90.48172281
 20
-83.22404238
 10
-90.40920538
 20
-83.2965597
 10
-90.3366174
 20
-83.36914756
 10
-90.26396935
 20
-83.44179561
 10
-90.1912717
 20
-83.51449349
 10
-90.11853448
 20
-83.58723048
 10
-90.04576862
 20
-83.65999634
 10
-89.97298436
 20
-83.7327806
  0
LWPOLYLINE
  5
223
100
AcDbEntity
  8
MST_1_1
 62
   137
  6
CONTINUOUS
100
AcDbPolyline
 90
        9
 70
     0
 43
0.0
 10
-89.97298436
 20
-83.7327806
 10
-89.96869515
 20
-83.72849139
 10
-89.96440478
 20
-83.72420102
 10
-89.96011325
 20
-83.71990949
 10
-89.95582055
 20
-83.71561679
 10
-89.95152669
 20
-83.71132293
 10
-89.94723166
 20
-83.70702813
 10
-89.9429357
 20
-83.70273194
 10
-89.93863835
 20
-83.69843459
  0
LWPOLYLINE
  5
224
100
AcDbEntity
  8
MST_1_1
 62
   137
  6
CONTINUOUS
100
AcDbPolyline
 90
       25
 70
     0
 43
0.0
 10
-89.93863833
 20
-83.69843459
 10
-89.93504914
 20
-83.70396297
 10
-89.93136447
 20
-83.70941822
 10
-89.92758535
 20
-83.71479933
 10
-89.92371278
 20
-83.72010527
 10
-89.91974777
 20
-83.72533503
 10
-89.91569134
 20
-83.7304876
 10
-89.91154449
 20
-83.73556197
 10
-89.90730824
 20
-83.74055711
 10
-89.9029836
 20
-83.74547202
 10
-89.89857159
 20
-83.75030568
 10
-89.89407321
 20
-83.75505708
 10
-89.88948947
 20
-83.75972519
 10
-89.8848214
 20
-83.76430902
 10
-89.88006999
 20
-83.76880753
 10
-89.87523626
 20
-83.77321973
 10
-89.87032123
 20
-83.77754458
 10
-89.8653259
 20
-83.78178109
 10
-89.8602513
 20
-83.78592822
 10
-89.85509842
 20
-83.78998498
 10
-89.84986828
 20
-83.79395034
 10
-89.84456189
 20
-83.7978233
 10
-89.83918027
 20
-83.80160282
 10
-89.83372442
 20
-83.80528791
 10
-89.82819537
 20
-83.80887755
  0
LWPOLYLINE
  5
225
100
AcDbEntity
  8
MST_1_1
 62
   137
  6
CONTINUOUS
100
AcDbPolyline
 90
        9
 70
     0
 43
0.0
 10
-89.82819536
 20
-83.80887757
 10
-89.83249272
 20
-83.81317493
 10
-89.83678891
 20
-83.81747088
 10
-89.8410837
 20
-83.82176591
 10
-89.84537757
 20
-83.82605977
 10
-89.84967027
 20
-83.83035247
 10
-89.8539618
 20
-83.83464401
 10
-89.85825217
 20
-83.83893438
 10
-89.86254138
 20
-83.84322358
  0
LWPOLYLINE
  5
226
100
AcDbEntity
  8
MST_1_1
 62
   137
  6
CONTINUOUS
100
AcDbPolyline
 90
        9
 70
     0
 43
0.0
 10
-89.86254138
 20
-83.84322358
 10
-89.78975712
 20
-83.91600784
 10
-89.71699126
 20
-83.9887737
 10
-89.64425427
 20
-84.06151093
 10
-89.57155639
 20
-84.13420857
 10
-89.49890834
 20
-84.20685662
 10
-89.42632048
 20
-84.2794446
 10
-89.35380316
 20
-84.35196203
 10
-89.28136675
 20
-84.42439821
  0
CIRCLE
  5
227
100
AcDbEntity
  8
MST_1_1
 62
   137
  6
CONTINUOUS
100
AcDbCircle
 10
-87.58431053
 20
-81.45454975
 30
0.0
 40
5.16766278
  0
LWPOLYLINE
  5
228
100
AcDbEntity
  8
MST_1_1
 62
   137
  6
CONTINUOUS
100
AcDbPolyline
 90
        9
 70
     0
 43
0.0
 10
-89.55631227
 20
-83.15384651
 10
-89.60395198
 20
-83.10620679
 10
-89.65158075
 20
-83.05857791
 10
-89.69919624
 20
-83.01096241
 10
-89.74679544
 20
-82.96336322
 10
-89.79437555
 20
-82.91578311
 10
-89.84193377
 20
-82.86822477
 10
-89.88946754
 20
-82.82069112
 10
-89.93697384
 20
-82.77318482
  0
ARC
  5
229
100
AcDbEntity
  8
MST_1_1
 62
   137
  6
CONTINUOUS
100
AcDbCircle
 10
-89.63492045
 20
-83.50515905
 30
0.0
 40
0.35999965
100
AcDbArc
 50
77.38749365
 51
127.33775307
  0
LWPOLYLINE
  5
22A
100
AcDbEntity
  8
MST_1_1
 62
   137
  6
CONTINUOUS
100
AcDbPolyline
 90
        9
 70
     0
 43
0.0
 10
-89.34869346
 20
-83.72350393
 10
-89.4117419
 20
-83.66045549
 10
-89.47481002
 20
-83.59738725
 10
-89.53789117
 20
-83.53430598
 10
-89.60097897
 20
-83.47121819
 10
-89.66406676
 20
-83.4081304
 10
-89.72714803
 20
-83.34504924
 10
-89.79021626
 20
-83.28198112
 10
-89.85326471
 20
-83.21893268
  0
ARC
  5
22B
100
AcDbEntity
  8
MST_1_1
 62
   137
  6
CONTINUOUS
100
AcDbCircle
 10
-89.63492055
 20
-83.50515951
 30
0.0
 40
0.36000032
100
AcDbArc
 50
322.66230677
 51
12.61245653
  0
LWPOLYLINE
  5
22C
100
AcDbEntity
  8
MST_1_1
 62
   137
  6
CONTINUOUS
100
AcDbPolyline
 90
        9
 70
     0
 43
0.0
 10
-88.90294559
 20
-83.80721306
 10
-88.95045189
 20
-83.75970676
 10
-88.99798555
 20
-83.71217299
 10
-89.04554389
 20
-83.66461477
 10
-89.09312399
 20
-83.61703467
 10
-89.14072319
 20
-83.56943547
 10
-89.18833869
 20
-83.52181997
 10
-89.23596757
 20
-83.4741912
 10
-89.28360728
 20
-83.42655149
  0
ARC
  5
22D
100
AcDbEntity
  8
MST_1_1
 62
   137
  6
CONTINUOUS
100
AcDbCircle
 10
-88.98155336
 20
-84.15852619
 30
0.0
 40
0.36000013
100
AcDbArc
 50
77.38757789
 51
192.61246315
  0
LWPOLYLINE
  5
22E
100
AcDbEntity
  8
MST_1_1
 62
   137
  6
CONTINUOUS
100
AcDbPolyline
 90
        9
 70
     0
 43
0.0
 10
-89.71352813
 20
-83.85647234
 10
-89.66588586
 20
-83.90411485
 10
-89.61825453
 20
-83.95174595
 10
-89.57063764
 20
-83.99936284
 10
-89.52303774
 20
-84.04696274
 10
-89.47545775
 20
-84.09454284
 10
-89.42790058
 20
-84.1420999
 10
-89.38036914
 20
-84.18963134
 10
-89.33286645
 20
-84.23713415
  0
ARC
  5
22F
100
AcDbEntity
  8
MST_1_1
 62
   137
  6
CONTINUOUS
100
AcDbCircle
 10
-89.63492035
 20
-83.5051584
 30
0.0
 40
0.36000093
100
AcDbArc
 50
257.38761324
 51
307.3376629
  0
LWPOLYLINE
  5
230
100
AcDbEntity
  8
MST_1_1
 62
   137
  6
CONTINUOUS
100
AcDbPolyline
 90
        9
 70
     0
 43
0.0
 10
-89.92114695
 20
-83.28681504
 10
-89.8580985
 20
-83.34986325
 10
-89.7950305
 20
-83.41293137
 10
-89.73194923
 20
-83.47601264
 10
-89.66886121
 20
-83.53910043
 10
-89.60577341
 20
-83.60218845
 10
-89.54269214
 20
-83.66526972
 10
-89.47962403
 20
-83.72833772
 10
-89.41657582
 20
-83.79138617
  0
ARC
  5
231
100
AcDbEntity
  8
MST_1_1
 62
   137
  6
CONTINUOUS
100
AcDbCircle
 10
-89.63492018
 20
-83.50515935
 30
0.0
 40
0.36
100
AcDbArc
 50
142.66227791
 51
192.61247599
  0
LWPOLYLINE
  5
232
100
AcDbEntity
  8
MST_1_1
 62
   137
  6
CONTINUOUS
100
AcDbPolyline
 90
        9
 70
     0
 43
0.0
 10
-90.36689493
 20
-83.20310567
 10
-90.31939212
 20
-83.25060836
 10
-90.27186068
 20
-83.2981398
 10
-90.22430362
 20
-83.34569698
 10
-90.17672351
 20
-83.39327697
 10
-90.12912362
 20
-83.44087686
 10
-90.08150672
 20
-83.48849376
 10
-90.03387563
 20
-83.53612509
 10
-89.98623312
 20
-83.58376736
  0
ARC
  5
233
100
AcDbEntity
  8
MST_1_1
 62
   137
  6
CONTINUOUS
100
AcDbCircle
 10
-90.28828687
 20
-82.85179269
 30
0.0
 40
0.36000006
100
AcDbArc
 50
257.38753734
 51
12.61244165
  0
LWPOLYLINE
  5
234
100
AcDbEntity
  8
MST_1_1
 62
   137
  6
CONTINUOUS
100
AcDbPolyline
 90
        9
 70
     0
 43
0.0
 10
-89.7409344
 20
-83.26338063
 10
-89.69746771
 20
-83.30684732
 10
-89.65399474
 20
-83.35032029
 10
-89.61051734
 20
-83.39379769
 10
-89.56703785
 20
-83.43727707
 10
-89.52355847
 20
-83.48075656
 10
-89.48008107
 20
-83.52423396
 10
-89.4366081
 20
-83.56770693
 10
-89.39314141
 20
-83.61117362
  0
ARC
  5
235
100
AcDbEntity
  8
MST_1_1
 62
   137
  6
CONTINUOUS
100
AcDbCircle
 10
-89.63492015
 20
-83.50515937
 30
0.0
 40
0.26399996
100
AcDbArc
 50
336.32369791
 51
113.67631211
  0
LWPOLYLINE
  5
236
100
AcDbEntity
  8
MST_1_1
 62
   137
  6
CONTINUOUS
100
AcDbPolyline
 90
        9
 70
     0
 43
0.0
 10
-89.52890589
 20
-83.7469381
 10
-89.57237246
 20
-83.70347165
 10
-89.61584544
 20
-83.65999867
 10
-89.65932283
 20
-83.61652127
 10
-89.70280233
 20
-83.57304155
 10
-89.74628205
 20
-83.52956206
 10
-89.78975945
 20
-83.48608466
 10
-89.83323242
 20
-83.44261168
 10
-89.87669888
 20
-83.39914511
  0
ARC
  5
237
100
AcDbEntity
  8
MST_1_1
 62
   137
  6
CONTINUOUS
100
AcDbCircle
 10
-89.63492023
 20
-83.50515945
 30
0.0
 40
0.26399992
100
AcDbArc
 50
156.32366302
 51
293.676347
  0
CIRCLE
  5
238
100
AcDbEntity
  8
MST_1_1
 62
   137
  6
CONTINUOUS
100
AcDbCircle
 10
-87.58431053
 20
-111.45454975
 30
0.0
 40
2.32981333
  0
CIRCLE
  5
239
100
AcDbEntity
  8
MST_1_1
 62
   137
  6
CONTINUOUS
100
AcDbCircle
 10
-87.58431053
 20
-111.45454975
 30
0.0
 40
1.32203389
  0
CIRCLE
  5
23A
100
AcDbEntity
  8
MST_1_1
 62
   137
  6
CONTINUOUS
100
AcDbCircle
 10
-87.58431053
 20
-111.45454975
 30
0.0
 40
2.32981333
  0
CIRCLE
  5
23B
100
AcDbEntity
  8
MST_1_1
 62
   137
  6
CONTINUOUS
100
AcDbCircle
 10
-87.58431053
 20
-111.45454975
 30
0.0
 40
2.32981333
  0
CIRCLE
  5
23C
100
AcDbEntity
  8
MST_1_1
 62
   137
  6
CONTINUOUS
100
AcDbCircle
 10
-87.58431053
 20
-111.45454975
 30
0.0
 40
5.9
  0
ARC
  5
23D
100
AcDbEntity
  8
MST_1_1
 62
   137
  6
CONTINUOUS
100
AcDbCircle
 10
-89.45831047
 20
-111.45454975
 30
0.0
 40
0.37600003
100
AcDbArc
 50
106.48878485
 51
253.51122516
  0
ARC
  5
23E
100
AcDbEntity
  8
MST_1_1
 62
   137
  6
CONTINUOUS
100
AcDbCircle
 10
-89.84458127
 20
-112.7595177
 30
0.0
 40
0.98493585
100
AcDbArc
 50
346.4887751
 51
73.5112424
  0
ARC
  5
23F
100
AcDbEntity
  8
MST_1_1
 62
   137
  6
CONTINUOUS
100
AcDbCircle
 10
-88.52131046
 20
-113.0774813
 30
0.0
 40
0.37600004
100
AcDbArc
 50
166.48877314
 51
313.51122983
  0
ARC
  5
240
100
AcDbEntity
  8
MST_1_1
 62
   137
  6
CONTINUOUS
100
AcDbCircle
 10
-87.58431053
 20
-114.06448542
 30
0.0
 40
0.98493568
100
AcDbArc
 50
46.48875513
 51
133.51124487
  0
ARC
  5
241
100
AcDbEntity
  8
MST_1_1
 62
   137
  6
CONTINUOUS
100
AcDbCircle
 10
-86.64731056
 20
-113.07748134
 30
0.0
 40
0.37600002
100
AcDbArc
 50
226.48878273
 51
13.51123435
  0
ARC
  5
242
100
AcDbEntity
  8
MST_1_1
 62
   137
  6
CONTINUOUS
100
AcDbCircle
 10
-85.32403974
 20
-112.75951772
 30
0.0
 40
0.98493588
100
AcDbArc
 50
106.48875933
 51
193.51124321
  0
ARC
  5
243
100
AcDbEntity
  8
MST_1_1
 62
   137
  6
CONTINUOUS
100
AcDbCircle
 10
-85.71031058
 20
-111.45454975
 30
0.0
 40
0.37600003
100
AcDbArc
 50
286.48879487
 51
73.51121515
  0
ARC
  5
244
100
AcDbEntity
  8
MST_1_1
 62
   137
  6
CONTINUOUS
100
AcDbCircle
 10
-85.32403978
 20
-110.1495818
 30
0.0
 40
0.98493585
100
AcDbArc
 50
166.48876508
 51
253.51125242
  0
ARC
  5
245
100
AcDbEntity
  8
MST_1_1
 62
   137
  6
CONTINUOUS
100
AcDbCircle
 10
-86.64731059
 20
-109.8316182
 30
0.0
 40
0.37600004
100
AcDbArc
 50
346.48878316
 51
133.51121981
  0
ARC
  5
246
100
AcDbEntity
  8
MST_1_1
 62
   137
  6
CONTINUOUS
100
AcDbCircle
 10
-87.58431053
 20
-108.84461407
 30
0.0
 40
0.98493568
100
AcDbArc
 50
226.48876515
 51
313.51125489
  0
ARC
  5
247
100
AcDbEntity
  8
MST_1_1
 62
   137
  6
CONTINUOUS
100
AcDbCircle
 10
-88.52131049
 20
-109.83161815
 30
0.0
 40
0.37600002
100
AcDbArc
 50
46.48877271
 51
193.51124436
  0
ARC
  5
248
100
AcDbEntity
  8
MST_1_1
 62
   137
  6
CONTINUOUS
100
AcDbCircle
 10
-89.84458131
 20
-110.14958178
 30
0.0
 40
0.98493588
100
AcDbArc
 50
286.48876935
 51
13.51123319
  0
LWPOLYLINE
  5
249
100
AcDbEntity
  8
MST_1_1
 62
   137
  6
CONTINUOUS
100
AcDbPolyline
 90
        9
 70
     0
 43
0.0
 10
-89.28136675
 20
-114.42439821
 10
-89.26928156
 20
-114.4123129
 10
-89.25718694
 20
-114.40021828
 10
-89.24508312
 20
-114.38811458
 10
-89.23297011
 20
-114.37600156
 10
-89.22084802
 20
-114.36387947
 10
-89.20871684
 20
-114.35174829
 10
-89.19657659
 20
-114.33960804
 10
-89.18442725
 20
-114.3274587
  0
ARC
  5
24A
100
AcDbEntity
  8
MST_1_1
 62
   137
  6
CONTINUOUS
100
AcDbCircle
 10
-88.98155354
 20
-114.15852609
 30
0.0
 40
0.26399994
100
AcDbArc
 50
50.21590624
 51
219.78410378
  0
LWPOLYLINE
  5
24B
100
AcDbEntity
  8
MST_1_1
 62
   137
  6
CONTINUOUS
100
AcDbPolyline
 90
        9
 70
     0
 43
0.0
 10
-88.81262093
 20
-113.95565238
 10
-88.80052782
 20
-113.94355915
 10
-88.78842761
 20
-113.93145895
 10
-88.77632042
 20
-113.91935198
 10
-88.76420635
 20
-113.90723781
 10
-88.75208531
 20
-113.89511688
 10
-88.73995751
 20
-113.88298896
 10
-88.72782284
 20
-113.87085429
 10
-88.71568142
 20
-113.85871287
  0
LWPOLYLINE
  5
24C
100
AcDbEntity
  8
MST_1_1
 62
   137
  6
CONTINUOUS
100
AcDbPolyline
 90
        9
 70
     0
 43
0.0
 10
-88.71568142
 20
-113.85871287
 10
-88.78813017
 20
-113.78626389
 10
-88.86065517
 20
-113.71373901
 10
-88.93324664
 20
-113.64114754
 10
-89.00589457
 20
-113.56849949
 10
-89.07858931
 20
-113.49580487
 10
-89.15132106
 20
-113.42307324
 10
-89.22407994
 20
-113.35031424
 10
-89.29685604
 20
-113.27753813
  0
LWPOLYLINE
  5
24D
100
AcDbEntity
  8
MST_1_1
 62
   137
  6
CONTINUOUS
100
AcDbPolyline
 90
        9
 70
     0
 43
0.0
 10
-89.29685604
 20
-113.27753813
 10
-89.30115224
 20
-113.28183433
 10
-89.3054475
 20
-113.2861297
 10
-89.30974206
 20
-113.29042426
 10
-89.3140358
 20
-113.29471789
 10
-89.31832862
 20
-113.29901082
 10
-89.32262062
 20
-113.30330282
 10
-89.3269118
 20
-113.30759389
 10
-89.33120206
 20
-113.31188426
  0
LWPOLYLINE
  5
24E
100
AcDbEntity
  8
MST_1_1
 62
   137
  6
CONTINUOUS
100
AcDbPolyline
 90
       25
 70
     0
 43
0.0
 10
-89.33120206
 20
-113.31188424
 10
-89.33479156
 20
-113.30635534
 10
-89.33847644
 20
-113.30089969
 10
-89.34225569
 20
-113.29551829
 10
-89.34612831
 20
-113.29021216
 10
-89.3500933
 20
-113.28498228
 10
-89.35414966
 20
-113.27982968
 10
-89.35829638
 20
-113.27475535
 10
-89.36253246
 20
-113.2697603
 10
-89.3668569
 20
-113.26484553
 10
-89.37126869
 20
-113.26001204
 10
-89.37576684
 20
-113.25526085
 10
-89.38035035
 20
-113.25059296
 10
-89.3850182
 20
-113.24600938
 10
-89.3897694
 20
-113.24151109
 10
-89.39460294
 20
-113.23709913
 10
-89.39951783
 20
-113.23277448
 10
-89.40451306
 20
-113.22853815
 10
-89.40958763
 20
-113.22439114
 10
-89.41474053
 20
-113.22033448
 10
-89.41997077
 20
-113.21636914
 10
-89.42527734
 20
-113.21249615
 10
-89.43065924
 20
-113.20871651
 10
-89.43611546
 20
-113.20503121
 10
-89.44164501
 20
-113.20144128
  0
LWPOLYLINE
  5
24F
100
AcDbEntity
  8
MST_1_1
 62
   137
  6
CONTINUOUS
100
AcDbPolyline
 90
        9
 70
     0
 43
0.0
 10
-89.44164504
 20
-113.20144128
 10
-89.43735467
 20
-113.19715103
 10
-89.4330636
 20
-113.19285984
 10
-89.4287716
 20
-113.18856784
 10
-89.42447867
 20
-113.18427503
 10
-89.42018504
 20
-113.17998128
 10
-89.41589048
 20
-113.17568672
 10
-89.4115951
 20
-113.17139146
 10
-89.40729891
 20
-113.16709527
  0
LWPOLYLINE
  5
250
100
AcDbEntity
  8
MST_1_1
 62
   137
  6
CONTINUOUS
100
AcDbPolyline
 90
        9
 70
     0
 43
0.0
 10
-89.40729891
 20
-113.16709527
 10
-89.48007502
 20
-113.09431916
 10
-89.55283401
 20
-113.02156028
 10
-89.62556565
 20
-112.94882853
 10
-89.69826027
 20
-112.8761338
 10
-89.77090832
 20
-112.80348586
 10
-89.84349979
 20
-112.73089439
 10
-89.91602467
 20
-112.65836939
 10
-89.98847365
 20
-112.58592064
  0
LWPOLYLINE
  5
251
100
AcDbEntity
  8
MST_1_1
 62
   137
  6
CONTINUOUS
100
AcDbPolyline
 90
        9
 70
     0
 43
0.0
 10
-89.98847365
 20
-112.58592064
 10
-90.00061507
 20
-112.59806206
 10
-90.01274974
 20
-112.61019673
 10
-90.02487765
 20
-112.62232453
 10
-90.03699858
 20
-112.63444558
 10
-90.04911276
 20
-112.64655964
 10
-90.06121972
 20
-112.65866683
 10
-90.07331993
 20
-112.67076704
 10
-90.08541316
 20
-112.68286015
  0
ARC
  5
252
100
AcDbEntity
  8
MST_1_1
 62
   137
  6
CONTINUOUS
100
AcDbCircle
 10
-90.28828675
 20
-112.85179288
 30
0.0
 40
0.26399993
100
AcDbArc
 50
230.21587884
 51
39.78413117
  0
LWPOLYLINE
  5
253
100
AcDbEntity
  8
MST_1_1
 62
   137
  6
CONTINUOUS
100
AcDbPolyline
 90
        9
 70
     0
 43
0.0
 10
-90.45721948
 20
-113.05466647
 10
-90.46936881
 20
-113.06681581
 10
-90.48150907
 20
-113.07895606
 10
-90.49364024
 20
-113.09108724
 10
-90.50576234
 20
-113.10320933
 10
-90.51787535
 20
-113.11532235
 10
-90.52997905
 20
-113.12742616
 10
-90.54207368
 20
-113.13952079
 10
-90.55415898
 20
-113.15160598
  0
LWPOLYLINE
  5
254
100
AcDbEntity
  8
MST_1_1
 62
   137
  6
CONTINUOUS
100
AcDbPolyline
 90
        9
 70
     0
 43
0.0
 10
-90.55415898
 20
-113.15160598
 10
-90.48172281
 20
-113.22404238
 10
-90.40920538
 20
-113.2965597
 10
-90.3366174
 20
-113.36914756
 10
-90.26396935
 20
-113.44179561
 10
-90.1912717
 20
-113.51449349
 10
-90.11853448
 20
-113.58723048
 10
-90.04576862
 20
-113.65999634
 10
-89.97298436
 20
-113.7327806
  0
LWPOLYLINE
  5
255
100
AcDbEntity
  8
MST_1_1
 62
   137
  6
CONTINUOUS
100
AcDbPolyline
 90
        9
 70
     0
 43
0.0
 10
-89.97298436
 20
-113.7327806
 10
-89.96869515
 20
-113.72849139
 10
-89.96440478
 20
-113.72420102
 10
-89.96011325
 20
-113.71990949
 10
-89.95582055
 20
-113.71561679
 10
-89.95152669
 20
-113.71132293
 10
-89.94723166
 20
-113.70702813
 10
-89.9429357
 20
-113.70273194
 10
-89.93863835
 20
-113.69843459
  0
LWPOLYLINE
  5
256
100
AcDbEntity
  8
MST_1_1
 62
   137
  6
CONTINUOUS
100
AcDbPolyline
 90
       25
 70
     0
 43
0.0
 10
-89.93863833
 20
-113.69843459
 10
-89.93504914
 20
-113.70396297
 10
-89.93136447
 20
-113.70941822
 10
-89.92758535
 20
-113.71479933
 10
-89.92371278
 20
-113.72010527
 10
-89.91974777
 20
-113.72533503
 10
-89.91569134
 20
-113.7304876
 10
-89.91154449
 20
-113.73556197
 10
-89.90730824
 20
-113.74055711
 10
-89.9029836
 20
-113.74547202
 10
-89.89857159
 20
-113.75030568
 10
-89.89407321
 20
-113.75505708
 10
-89.88948947
 20
-113.75972519
 10
-89.8848214
 20
-113.76430902
 10
-89.88006999
 20
-113.76880753
 10
-89.87523626
 20
-113.77321973
 10
-89.87032123
 20
-113.77754458
 10
-89.8653259
 20
-113.78178109
 10
-89.8602513
 20
-113.78592822
 10
-89.85509842
 20
-113.78998498
 10
-89.84986828
 20
-113.79395034
 10
-89.84456189
 20
-113.7978233
 10
-89.83918027
 20
-113.80160282
 10
-89.83372442
 20
-113.80528791
 10
-89.82819537
 20
-113.80887755
  0
LWPOLYLINE
  5
257
100
AcDbEntity
  8
MST_1_1
 62
   137
  6
CONTINUOUS
100
AcDbPolyline
 90
        9
 70
     0
 43
0.0
 10
-89.82819536
 20
-113.80887757
 10
-89.83249272
 20
-113.81317493
 10
-89.83678891
 20
-113.81747088
 10
-89.8410837
 20
-113.82176591
 10
-89.84537757
 20
-113.82605977
 10
-89.84967027
 20
-113.83035247
 10
-89.8539618
 20
-113.83464401
 10
-89.85825217
 20
-113.83893438
 10
-89.86254138
 20
-113.84322358
  0
LWPOLYLINE
  5
258
100
AcDbEntity
  8
MST_1_1
 62
   137
  6
CONTINUOUS
100
AcDbPolyline
 90
        9
 70
     0
 43
0.0
 10
-89.86254138
 20
-113.84322358
 10
-89.78975712
 20
-113.91600784
 10
-89.71699126
 20
-113.9887737
 10
-89.64425427
 20
-114.06151093
 10
-89.57155639
 20
-114.13420857
 10
-89.49890834
 20
-114.20685662
 10
-89.42632048
 20
-114.2794446
 10
-89.35380316
 20
-114.35196203
 10
-89.28136675
 20
-114.42439821
  0
CIRCLE
  5
259
100
AcDbEntity
  8
MST_1_1
 62
   137
  6
CONTINUOUS
100
AcDbCircle
 10
-87.58431053
 20
-111.45454975
 30
0.0
 40
5.16766278
  0
LWPOLYLINE
  5
25A
100
AcDbEntity
  8
MST_1_1
 62
   137
  6
CONTINUOUS
100
AcDbPolyline
 90
        9
 70
     0
 43
0.0
 10
-89.55631227
 20
-113.15384651
 10
-89.60395198
 20
-113.10620679
 10
-89.65158075
 20
-113.05857791
 10
-89.69919624
 20
-113.01096241
 10
-89.74679544
 20
-112.96336322
 10
-89.79437555
 20
-112.91578311
 10
-89.84193377
 20
-112.86822477
 10
-89.88946754
 20
-112.82069112
 10
-89.93697384
 20
-112.77318482
  0
ARC
  5
25B
100
AcDbEntity
  8
MST_1_1
 62
   137
  6
CONTINUOUS
100
AcDbCircle
 10
-89.63492045
 20
-113.50515905
 30
0.0
 40
0.35999965
100
AcDbArc
 50
77.38749365
 51
127.33775307
  0
LWPOLYLINE
  5
25C
100
AcDbEntity
  8
MST_1_1
 62
   137
  6
CONTINUOUS
100
AcDbPolyline
 90
        9
 70
     0
 43
0.0
 10
-89.34869346
 20
-113.72350393
 10
-89.4117419
 20
-113.66045549
 10
-89.47481002
 20
-113.59738725
 10
-89.53789117
 20
-113.53430598
 10
-89.60097897
 20
-113.47121819
 10
-89.66406676
 20
-113.4081304
 10
-89.72714803
 20
-113.34504924
 10
-89.79021626
 20
-113.28198112
 10
-89.85326471
 20
-113.21893268
  0
ARC
  5
25D
100
AcDbEntity
  8
MST_1_1
 62
   137
  6
CONTINUOUS
100
AcDbCircle
 10
-89.63492055
 20
-113.50515951
 30
0.0
 40
0.36000032
100
AcDbArc
 50
322.66230677
 51
12.61245653
  0
LWPOLYLINE
  5
25E
100
AcDbEntity
  8
MST_1_1
 62
   137
  6
CONTINUOUS
100
AcDbPolyline
 90
        9
 70
     0
 43
0.0
 10
-88.90294559
 20
-113.80721306
 10
-88.95045189
 20
-113.75970676
 10
-88.99798555
 20
-113.71217299
 10
-89.04554389
 20
-113.66461477
 10
-89.09312399
 20
-113.61703467
 10
-89.14072319
 20
-113.56943547
 10
-89.18833869
 20
-113.52181997
 10
-89.23596757
 20
-113.4741912
 10
-89.28360728
 20
-113.42655149
  0
ARC
  5
25F
100
AcDbEntity
  8
MST_1_1
 62
   137
  6
CONTINUOUS
100
AcDbCircle
 10
-88.98155336
 20
-114.15852619
 30
0.0
 40
0.36000013
100
AcDbArc
 50
77.38757789
 51
192.61246315
  0
LWPOLYLINE
  5
260
100
AcDbEntity
  8
MST_1_1
 62
   137
  6
CONTINUOUS
100
AcDbPolyline
 90
        9
 70
     0
 43
0.0
 10
-89.71352813
 20
-113.85647234
 10
-89.66588586
 20
-113.90411485
 10
-89.61825453
 20
-113.95174595
 10
-89.57063764
 20
-113.99936284
 10
-89.52303774
 20
-114.04696274
 10
-89.47545775
 20
-114.09454284
 10
-89.42790058
 20
-114.1420999
 10
-89.38036914
 20
-114.18963134
 10
-89.33286645
 20
-114.23713415
  0
ARC
  5
261
100
AcDbEntity
  8
MST_1_1
 62
   137
  6
CONTINUOUS
100
AcDbCircle
 10
-89.63492035
 20
-113.5051584
 30
0.0
 40
0.36000093
100
AcDbArc
 50
257.38761324
 51
307.3376629
  0
LWPOLYLINE
  5
262
100
AcDbEntity
  8
MST_1_1
 62
   137
  6
CONTINUOUS
100
AcDbPolyline
 90
        9
 70
     0
 43
0.0
 10
-89.92114695
 20
-113.28681504
 10
-89.8580985
 20
-113.34986325
 10
-89.7950305
 20
-113.41293137
 10
-89.73194923
 20
-113.47601264
 10
-89.66886121
 20
-113.53910043
 10
-89.60577341
 20
-113.60218845
 10
-89.54269214
 20
-113.66526972
 10
-89.47962403
 20
-113.72833772
 10
-89.41657582
 20
-113.79138617
  0
ARC
  5
263
100
AcDbEntity
  8
MST_1_1
 62
   137
  6
CONTINUOUS
100
AcDbCircle
 10
-89.63492018
 20
-113.50515935
 30
0.0
 40
0.36
100
AcDbArc
 50
142.66227791
 51
192.61247599
  0
LWPOLYLINE
  5
264
100
AcDbEntity
  8
MST_1_1
 62
   137
  6
CONTINUOUS
100
AcDbPolyline
 90
        9
 70
     0
 43
0.0
 10
-90.36689493
 20
-113.20310567
 10
-90.31939212
 20
-113.25060836
 10
-90.27186068
 20
-113.2981398
 10
-90.22430362
 20
-113.34569698
 10
-90.17672351
 20
-113.39327697
 10
-90.12912362
 20
-113.44087686
 10
-90.08150672
 20
-113.48849376
 10
-90.03387563
 20
-113.53612509
 10
-89.98623312
 20
-113.58376736
  0
ARC
  5
265
100
AcDbEntity
  8
MST_1_1
 62
   137
  6
CONTINUOUS
100
AcDbCircle
 10
-90.28828687
 20
-112.85179269
 30
0.0
 40
0.36000006
100
AcDbArc
 50
257.38753734
 51
12.61244165
  0
LWPOLYLINE
  5
266
100
AcDbEntity
  8
MST_1_1
 62
   137
  6
CONTINUOUS
100
AcDbPolyline
 90
        9
 70
     0
 43
0.0
 10
-89.7409344
 20
-113.26338063
 10
-89.69746771
 20
-113.30684732
 10
-89.65399474
 20
-113.35032029
 10
-89.61051734
 20
-113.39379769
 10
-89.56703785
 20
-113.43727707
 10
-89.52355847
 20
-113.48075656
 10
-89.48008107
 20
-113.52423396
 10
-89.4366081
 20
-113.56770693
 10
-89.39314141
 20
-113.61117362
  0
ARC
  5
267
100
AcDbEntity
  8
MST_1_1
 62
   137
  6
CONTINUOUS
100
AcDbCircle
 10
-89.63492015
 20
-113.50515937
 30
0.0
 40
0.26399996
100
AcDbArc
 50
336.32369791
 51
113.67631211
  0
LWPOLYLINE
  5
268
100
AcDbEntity
  8
MST_1_1
 62
   137
  6
CONTINUOUS
100
AcDbPolyline
 90
        9
 70
     0
 43
0.0
 10
-89.52890589
 20
-113.7469381
 10
-89.57237246
 20
-113.70347165
 10
-89.61584544
 20
-113.65999867
 10
-89.65932283
 20
-113.61652127
 10
-89.70280233
 20
-113.57304155
 10
-89.74628205
 20
-113.52956206
 10
-89.78975945
 20
-113.48608466
 10
-89.83323242
 20
-113.44261168
 10
-89.87669888
 20
-113.39914511
  0
ARC
  5
269
100
AcDbEntity
  8
MST_1_1
 62
   137
  6
CONTINUOUS
100
AcDbCircle
 10
-89.63492023
 20
-113.50515945
 30
0.0
 40
0.26399992
100
AcDbArc
 50
156.32366302
 51
293.676347
  0
MTEXT
  5
26A
100
AcDbEntity
  8
MST_1_1
 62
     4
100
AcDbMText
 10
-125.58638407
 20
167.4285629
 30
2500.0
 11
1.0
 21
0.0
 31
0.0
 40
20.0
 41
316.1838307
 71
     1
 72
     1
  1
\fTahoma|b0|i0|c0|p18;\H20;\W0.80000001;\C7;Spanplattenschrauben Senkkopf\PHECO-FIX-plus 6.0mm\P35.301
  0
LWPOLYLINE
  5
26B
102
{ACAD_REACTORS
330
26C
102
}
100
AcDbEntity
  8
MST_1_1
 62
    12
100
AcDbPolyline
 90
       46
 70
     1
 43
0.0
 10
288.29361942
 20
177.9943129
 10
288.16279808
 20
178.00495123
 10
288.03864875
 20
178.03573957
 10
287.92284342
 20
178.0849879
 10
287.81705408
 20
178.15100623
 10
287.72295275
 20
178.23210457
 10
287.64221142
 20
178.3265929
 10
287.57650208
 20
178.43278123
 10
287.52749675
 20
178.54897957
 10
287.49686742
 20
178.6734979
 10
287.48628608
 20
178.80464623
 10
287.48628608
 20
178.80464623
 10
287.49686742
 20
178.9358584
 10
287.52749675
 20
179.06046357
 10
287.57650208
 20
179.17676473
 10
287.64221142
 20
179.2830649
 10
287.72295275
 20
179.37766707
 10
287.81705408
 20
179.45887423
 10
287.92284342
 20
179.5249894
 10
288.03864875
 20
179.57431557
 10
288.16279808
 20
179.60515573
 10
288.29361942
 20
179.6158129
 10
288.29361942
 20
179.6158129
 10
288.42427408
 20
179.60515573
 10
288.54831675
 20
179.57431557
 10
288.66406542
 20
179.5249894
 10
288.76983808
 20
179.45887423
 10
288.86395275
 20
179.37766707
 10
288.94472742
 20
179.2830649
 10
289.01048008
 20
179.17676473
 10
289.05952875
 20
179.06046357
 10
289.09019142
 20
178.9358584
 10
289.10078608
 20
178.80464623
 10
289.10078608
 20
178.80464623
 10
289.09019142
 20
178.6734979
 10
289.05952875
 20
178.54897957
 10
289.01048008
 20
178.43278123
 10
288.94472742
 20
178.3265929
 10
288.86395275
 20
178.23210457
 10
288.76983808
 20
178.15100623
 10
288.66406542
 20
178.0849879
 10
288.54831675
 20
178.03573957
 10
288.42427408
 20
178.00495123
 10
288.29361942
 20
177.9943129
 10
288.29361942
 20
177.9943129
 10
288.29361942
 20
177.9943129
  0
HATCH
  5
26C
100
AcDbEntity
  8
MST_1_1
 62
    12
100
AcDbHatch
 10
0.0
 20
0.0
 30
0.0
210
0.0
220
0.0
230
1.0
  2
SOLID
 70
     1
 71
     1
 91
        1
 92
        7
 72
     0
 73
     1
 93
       40
 10
288.29361942
 20
177.9943129
 10
288.16279808
 20
178.00495123
 10
288.03864875
 20
178.03573957
 10
287.92284342
 20
178.0849879
 10
287.81705408
 20
178.15100623
 10
287.72295275
 20
178.23210457
 10
287.64221142
 20
178.3265929
 10
287.57650208
 20
178.43278123
 10
287.52749675
 20
178.54897957
 10
287.49686742
 20
178.6734979
 10
287.48628608
 20
178.80464623
 10
287.49686742
 20
178.9358584
 10
287.52749675
 20
179.06046357
 10
287.57650208
 20
179.17676473
 10
287.64221142
 20
179.2830649
 10
287.72295275
 20
179.37766707
 10
287.81705408
 20
179.45887423
 10
287.92284342
 20
179.5249894
 10
288.03864875
 20
179.57431557
 10
288.16279808
 20
179.60515573
 10
288.29361942
 20
179.6158129
 10
288.42427408
 20
179.60515573
 10
288.54831675
 20
179.57431557
 10
288.66406542
 20
179.5249894
 10
288.76983808
 20
179.45887423
 10
288.86395275
 20
179.37766707
 10
288.94472742
 20
179.2830649
 10
289.01048008
 20
179.17676473
 10
289.05952875
 20
179.06046357
 10
289.09019142
 20
178.9358584
 10
289.10078608
 20
178.80464623
 10
289.09019142
 20
178.6734979
 10
289.05952875
 20
178.54897957
 10
289.01048008
 20
178.43278123
 10
288.94472742
 20
178.3265929
 10
288.86395275
 20
178.23210457
 10
288.76983808
 20
178.15100623
 10
288.66406542
 20
178.0849879
 10
288.54831675
 20
178.03573957
 10
288.42427408
 20
178.00495123
 97
        1
330
26B
 75
     0
 76
     2
 47
0.775229
 98
        1
 10
0.0
 20
0.0
  0
LWPOLYLINE
  5
26D
102
{ACAD_REACTORS
330
26E
102
}
100
AcDbEntity
  8
MST_1_1
 62
    12
100
AcDbPolyline
 90
        8
 70
     1
 43
0.0
 10
220.82861942
 20
177.4285629
 10
286.79645275
 20
177.4285629
 10
286.79645275
 20
177.4285629
 10
286.79645275
 20
160.8473129
 10
286.79645275
 20
160.8473129
 10
220.82861942
 20
160.8473129
 10
220.82861942
 20
160.8473129
 10
220.82861942
 20
177.4285629
  0
HATCH
  5
26E
100
AcDbEntity
  8
MST_1_1
 62
    12
100
AcDbHatch
 10
0.0
 20
0.0
 30
0.0
210
0.0
220
0.0
230
1.0
  2
SOLID
 70
     1
 71
     1
 91
        1
 92
        7
 72
     0
 73
     1
 93
        4
 10
220.82861942
 20
177.4285629
 10
286.79645275
 20
177.4285629
 10
286.79645275
 20
160.8473129
 10
220.82861942
 20
160.8473129
 97
        1
330
26D
 75
     0
 76
     2
 47
0.775229
 98
        1
 10
0.0
 20
0.0
  0
LINE
  5
26F
100
AcDbEntity
  8
MST_1_1
100
AcDbLine
 10
220.82861942
 20
160.8473129
 30
0.0
 11
220.82861942
 21
160.8473129
 31
0.0
  0
LINE
  5
270
100
AcDbEntity
  8
MST_1_1
100
AcDbLine
 10
220.82861942
 20
160.8473129
 30
0.0
 11
220.82861942
 21
160.8473129
 31
0.0
  0
LINE
  5
271
100
AcDbEntity
  8
MST_1_1
100
AcDbLine
 10
220.82861942
 20
160.8473129
 30
0.0
 11
220.82861942
 21
160.8473129
 31
0.0
  0
LINE
  5
272
100
AcDbEntity
  8
MST_1_1
100
AcDbLine
 10
220.82861942
 20
160.8473129
 30
0.0
 11
220.82861942
 21
160.8473129
 31
0.0
  0
LINE
  5
273
100
AcDbEntity
  8
MST_1_1
100
AcDbLine
 10
220.82861942
 20
160.8473129
 30
0.0
 11
220.82861942
 21
160.8473129
 31
0.0
  0
LINE
  5
274
100
AcDbEntity
  8
MST_1_1
100
AcDbLine
 10
220.82861942
 20
160.8473129
 30
0.0
 11
220.82861942
 21
160.8473129
 31
0.0
  0
LINE
  5
275
100
AcDbEntity
  8
MST_1_1
100
AcDbLine
 10
220.82861942
 20
160.8473129
 30
0.0
 11
220.82861942
 21
160.8473129
 31
0.0
  0
LINE
  5
276
100
AcDbEntity
  8
MST_1_1
100
AcDbLine
 10
220.82861942
 20
160.8473129
 30
0.0
 11
220.82861942
 21
160.8473129
 31
0.0
  0
LINE
  5
277
100
AcDbEntity
  8
MST_1_1
100
AcDbLine
 10
220.82861942
 20
160.8473129
 30
0.0
 11
220.82861942
 21
160.8473129
 31
0.0
  0
LINE
  5
278
100
AcDbEntity
  8
MST_1_1
100
AcDbLine
 10
220.82861942
 20
160.8473129
 30
0.0
 11
220.82861942
 21
160.8473129
 31
0.0
  0
LINE
  5
279
100
AcDbEntity
  8
MST_1_1
100
AcDbLine
 10
220.82861942
 20
160.8473129
 30
0.0
 11
220.82861942
 21
160.8473129
 31
0.0
  0
LWPOLYLINE
  5
27A
102
{ACAD_REACTORS
330
27B
102
}
100
AcDbEntity
  8
MST_1_1
 62
   190
100
AcDbPolyline
 90
        8
 70
     1
 43
0.0
 10
253.63511942
 20
176.27889623
 10
285.64995275
 20
176.27889623
 10
285.64995275
 20
176.27889623
 10
285.64995275
 20
161.99514457
 10
285.64995275
 20
161.99514457
 10
253.63511942
 20
161.99514457
 10
253.63511942
 20
161.99514457
 10
253.63511942
 20
176.27889623
  0
HATCH
  5
27B
100
AcDbEntity
  8
MST_1_1
 62
   190
100
AcDbHatch
 10
0.0
 20
0.0
 30
0.0
210
0.0
220
0.0
230
1.0
  2
SOLID
 70
     1
 71
     1
 91
        1
 92
        7
 72
     0
 73
     1
 93
        4
 10
253.63511942
 20
176.27889623
 10
285.64995275
 20
176.27889623
 10
285.64995275
 20
161.99514457
 10
253.63511942
 20
161.99514457
 97
        1
330
27A
 75
     0
 76
     2
 47
0.775229
 98
        1
 10
0.0
 20
0.0
  0
LWPOLYLINE
  5
27C
102
{ACAD_REACTORS
330
27D
102
}
100
AcDbEntity
  8
MST_1_1
 62
    12
100
AcDbPolyline
 90
       22
 70
     1
 43
0.0
 10
255.55295275
 20
164.2884129
 10
255.55295275
 20
173.37492957
 10
255.55295275
 20
173.37492957
 10
263.73228608
 20
173.37492957
 10
263.73228608
 20
173.37492957
 10
263.73228608
 20
170.91057957
 10
263.73228608
 20
170.91057957
 10
259.95628608
 20
170.91057957
 10
259.95628608
 20
170.91057957
 10
259.95628608
 20
169.8559629
 10
259.95628608
 20
169.8559629
 10
263.37395275
 20
169.8559629
 10
263.37395275
 20
169.8559629
 10
263.37395275
 20
167.5281629
 10
263.37395275
 20
167.5281629
 10
259.95628608
 20
167.5281629
 10
259.95628608
 20
167.5281629
 10
259.95628608
 20
164.2884129
 10
259.95628608
 20
164.2884129
 10
255.55295275
 20
164.2884129
 10
255.55295275
 20
164.2884129
 10
255.55295275
 20
164.2884129
  0
HATCH
  5
27D
100
AcDbEntity
  8
MST_1_1
 62
    12
100
AcDbHatch
 10
0.0
 20
0.0
 30
0.0
210
0.0
220
0.0
230
1.0
  2
SOLID
 70
     1
 71
     1
 91
        1
 92
        7
 72
     0
 73
     1
 93
       10
 10
255.55295275
 20
164.2884129
 10
255.55295275
 20
173.37492957
 10
263.73228608
 20
173.37492957
 10
263.73228608
 20
170.91057957
 10
259.95628608
 20
170.91057957
 10
259.95628608
 20
169.8559629
 10
263.37395275
 20
169.8559629
 10
263.37395275
 20
167.5281629
 10
259.95628608
 20
167.5281629
 10
259.95628608
 20
164.2884129
 97
        1
330
27C
 75
     0
 76
     2
 47
0.775229
 98
        1
 10
0.0
 20
0.0
  0
LWPOLYLINE
  5
27E
102
{ACAD_REACTORS
330
27F
102
}
100
AcDbEntity
  8
MST_1_1
 62
   190
100
AcDbPolyline
 90
      178
 70
     1
 43
0.0
 10
251.77761942
 20
168.8135629
 10
251.77404742
 20
168.61539618
 10
251.76334342
 20
168.41992917
 10
251.74552542
 20
168.22718155
 10
251.72061142
 20
168.03717303
 10
251.68861942
 20
167.84992332
 10
251.64956742
 20
167.6654521
 10
251.60347342
 20
167.48377908
 10
251.55035542
 20
167.30492397
 10
251.49023142
 20
167.12890645
 10
251.42311942
 20
166.95574623
 10
251.42311942
 20
166.95574623
 10
251.34938642
 20
166.78527237
 10
251.26899542
 20
166.6185253
 10
251.18195842
 20
166.45549683
 10
251.08828742
 20
166.29617877
 10
250.98799442
 20
166.1405629
 10
250.88109142
 20
165.98864103
 10
250.76759042
 20
165.84040497
 10
250.64750342
 20
165.6958465
 10
250.52084242
 20
165.55495743
 10
250.38761942
 20
165.41772957
 10
250.38761942
 20
165.41772957
 10
250.24888075
 20
165.28794878
 10
250.10597008
 20
165.1643813
 10
249.95889542
 20
165.04703442
 10
249.80766475
 20
164.93591543
 10
249.65228608
 20
164.83103165
 10
249.49276742
 20
164.73239037
 10
249.32911675
 20
164.63999888
 10
249.16134208
 20
164.5538645
 10
248.98945142
 20
164.47399452
 10
248.81345275
 20
164.40039623
 10
248.81345275
 20
164.40039623
 10
248.63440475
 20
164.3333981
 10
248.45288875
 20
164.27334117
 10
248.26894675
 20
164.22025163
 10
248.08262075
 20
164.1741557
 10
247.89395275
 20
164.13507957
 10
247.70298475
 20
164.10304943
 10
247.50975875
 20
164.0780915
 10
247.31431675
 20
164.06023197
 10
247.11670075
 20
164.04949703
 10
246.91695275
 20
164.0459129
 10
246.91695275
 20
164.0459129
 10
246.71503242
 20
164.04949703
 10
246.51559008
 20
164.06023197
 10
246.31865375
 20
164.0780915
 10
246.12425142
 20
164.10304943
 10
245.93241108
 20
164.13507957
 10
245.74316075
 20
164.1741557
 10
245.55652842
 20
164.22025163
 10
245.37254208
 20
164.27334117
 10
245.19122975
 20
164.3333981
 10
245.01261942
 20
164.40039623
 10
245.01261942
 20
164.40039623
 10
244.83669292
 20
164.47411187
 10
244.66480742
 20
164.5543353
 10
244.49695392
 20
164.64106133
 10
244.33312342
 20
164.73428477
 10
244.17330692
 20
164.8340004
 10
244.01749542
 20
164.94020303
 10
243.86567992
 20
165.05288747
 10
243.71785142
 20
165.1720485
 10
243.57400092
 20
165.29768093
 10
243.43411942
 20
165.42977957
 10
243.43411942
 20
165.42977957
 10
243.30256058
 20
165.56355445
 10
243.17740875
 20
165.70129863
 10
243.05870092
 20
165.84299642
 10
242.94647408
 20
165.9886321
 10
242.84076525
 20
166.13818998
 10
242.74161142
 20
166.29165437
 10
242.64904958
 20
166.44900955
 10
242.56311675
 20
166.61023983
 10
242.48384992
 20
166.77532952
 10
242.41128608
 20
166.9442629
 10
242.41128608
 20
166.9442629
 10
242.34546825
 20
167.11738555
 10
242.28652342
 20
167.2935901
 10
242.23446458
 20
167.47287145
 10
242.18930475
 20
167.6552245
 10
242.15105692
 20
167.84064415
 10
242.11973408
 20
168.0291253
 10
242.09534925
 20
168.22066285
 10
242.07791542
 20
168.4152517
 10
242.06744558
 20
168.61288675
 10
242.06395275
 20
168.8135629
 10
242.06395275
 20
168.8135629
 10
242.06744558
 20
169.01423493
 10
242.07791542
 20
169.21195717
 10
242.09534925
 20
169.4067388
 10
242.11973408
 20
169.59858903
 10
242.15105692
 20
169.78751707
 10
242.18930475
 20
169.9735321
 10
242.23446458
 20
170.15664333
 10
242.28652342
 20
170.33685997
 10
242.34546825
 20
170.5141912
 10
242.41128608
 20
170.68864623
 10
242.41128608
 20
170.68864623
 10
242.48384992
 20
170.85871268
 10
242.56311675
 20
171.02488583
 10
242.64904958
 20
171.18712638
 10
242.74161142
 20
171.34539503
 10
242.84076525
 20
171.49965248
 10
242.94647408
 20
171.64985943
 10
243.05870092
 20
171.79597658
 10
243.17740875
 20
171.93796463
 10
243.30256058
 20
172.07578428
 10
243.43411942
 20
172.20939623
 10
243.43411942
 20
172.20939623
 10
243.57292325
 20
172.33978807
 10
243.71575008
 20
172.4639109
 10
243.86262292
 20
172.58174573
 10
244.01356475
 20
172.69327357
 10
244.16859858
 20
172.7984754
 10
244.32774742
 20
172.89733223
 10
244.49103425
 20
172.98982507
 10
244.65848208
 20
173.0759349
 10
244.83011392
 20
173.15564273
 10
245.00595275
 20
173.22892957
 10
245.00595275
 20
173.22892957
 10
245.18486675
 20
173.29596115
 10
245.36650475
 20
173.35585823
 10
245.55086075
 20
173.40863932
 10
245.73792875
 20
173.4543229
 10
245.92770275
 20
173.49292748
 10
246.12017675
 20
173.52447157
 10
246.31534475
 20
173.54897365
 10
246.51320075
 20
173.56645223
 10
246.71373875
 20
173.57692582
 10
246.91695275
 20
173.5804129
 10
246.91695275
 20
173.5804129
 10
247.12032442
 20
173.57692582
 10
247.32102608
 20
173.56645223
 10
247.51903775
 20
173.54897365
 10
247.71433942
 20
173.52447157
 10
247.90691108
 20
173.49292748
 10
248.09673275
 20
173.4543229
 10
248.28378442
 20
173.40863932
 10
248.46804608
 20
173.35585823
 10
248.64949775
 20
173.29596115
 10
248.82811942
 20
173.22892957
 10
248.82811942
 20
173.22892957
 10
249.00412208
 20
173.15564273
 10
249.17604075
 20
173.0759349
 10
249.34389142
 20
172.98982507
 10
249.50769008
 20
172.89733223
 10
249.66745275
 20
172.7984754
 10
249.82319542
 20
172.69327357
 10
249.97493408
 20
172.58174573
 10
250.12268475
 20
172.4639109
 10
250.26646342
 20
172.33978807
 10
250.40628608
 20
172.20939623
 10
250.40628608
 20
172.20939623
 10
250.53663092
 20
172.07462172
 10
250.66074475
 20
171.9357941
 10
250.77859658
 20
171.79293728
 10
250.89015542
 20
171.64607517
 10
250.99539025
 20
171.49523165
 10
251.09427008
 20
171.34043063
 10
251.18676392
 20
171.18169602
 10
251.27284075
 20
171.0190517
 10
251.35246958
 20
170.85252158
 10
251.42561942
 20
170.68212957
 10
251.42561942
 20
170.68212957
 10
251.49266142
 20
170.50783765
 10
251.55259542
 20
170.33076023
 10
251.60543342
 20
170.15089482
 10
251.65118742
 20
169.9682389
 10
251.68986942
 20
169.78278998
 10
251.72149142
 20
169.59454557
 10
251.74606542
 20
169.40350315
 10
251.76360342
 20
169.20966023
 10
251.77411742
 20
169.01301432
 10
251.77761942
 20
168.8135629
 10
251.77761942
 20
168.8135629
 10
251.77761942
 20
168.8135629
  0
HATCH
  5
27F
100
AcDbEntity
  8
MST_1_1
 62
   190
100
AcDbHatch
 10
0.0
 20
0.0
 30
0.0
210
0.0
220
0.0
230
1.0
  2
SOLID
 70
     1
 71
     1
 91
        1
 92
        7
 72
     0
 73
     1
 93
      160
 10
251.77761942
 20
168.8135629
 10
251.77404742
 20
168.61539618
 10
251.76334342
 20
168.41992917
 10
251.74552542
 20
168.22718155
 10
251.72061142
 20
168.03717303
 10
251.68861942
 20
167.84992332
 10
251.64956742
 20
167.6654521
 10
251.60347342
 20
167.48377908
 10
251.55035542
 20
167.30492397
 10
251.49023142
 20
167.12890645
 10
251.42311942
 20
166.95574623
 10
251.34938642
 20
166.78527237
 10
251.26899542
 20
166.6185253
 10
251.18195842
 20
166.45549683
 10
251.08828742
 20
166.29617877
 10
250.98799442
 20
166.1405629
 10
250.88109142
 20
165.98864103
 10
250.76759042
 20
165.84040497
 10
250.64750342
 20
165.6958465
 10
250.52084242
 20
165.55495743
 10
250.38761942
 20
165.41772957
 10
250.24888075
 20
165.28794878
 10
250.10597008
 20
165.1643813
 10
249.95889542
 20
165.04703442
 10
249.80766475
 20
164.93591543
 10
249.65228608
 20
164.83103165
 10
249.49276742
 20
164.73239037
 10
249.32911675
 20
164.63999888
 10
249.16134208
 20
164.5538645
 10
248.98945142
 20
164.47399452
 10
248.81345275
 20
164.40039623
 10
248.63440475
 20
164.3333981
 10
248.45288875
 20
164.27334117
 10
248.26894675
 20
164.22025163
 10
248.08262075
 20
164.1741557
 10
247.89395275
 20
164.13507957
 10
247.70298475
 20
164.10304943
 10
247.50975875
 20
164.0780915
 10
247.31431675
 20
164.06023197
 10
247.11670075
 20
164.04949703
 10
246.91695275
 20
164.0459129
 10
246.71503242
 20
164.04949703
 10
246.51559008
 20
164.06023197
 10
246.31865375
 20
164.0780915
 10
246.12425142
 20
164.10304943
 10
245.93241108
 20
164.13507957
 10
245.74316075
 20
164.1741557
 10
245.55652842
 20
164.22025163
 10
245.37254208
 20
164.27334117
 10
245.19122975
 20
164.3333981
 10
245.01261942
 20
164.40039623
 10
244.83669292
 20
164.47411187
 10
244.66480742
 20
164.5543353
 10
244.49695392
 20
164.64106133
 10
244.33312342
 20
164.73428477
 10
244.17330692
 20
164.8340004
 10
244.01749542
 20
164.94020303
 10
243.86567992
 20
165.05288747
 10
243.71785142
 20
165.1720485
 10
243.57400092
 20
165.29768093
 10
243.43411942
 20
165.42977957
 10
243.30256058
 20
165.56355445
 10
243.17740875
 20
165.70129863
 10
243.05870092
 20
165.84299642
 10
242.94647408
 20
165.9886321
 10
242.84076525
 20
166.13818998
 10
242.74161142
 20
166.29165437
 10
242.64904958
 20
166.44900955
 10
242.56311675
 20
166.61023983
 10
242.48384992
 20
166.77532952
 10
242.41128608
 20
166.9442629
 10
242.34546825
 20
167.11738555
 10
242.28652342
 20
167.2935901
 10
242.23446458
 20
167.47287145
 10
242.18930475
 20
167.6552245
 10
242.15105692
 20
167.84064415
 10
242.11973408
 20
168.0291253
 10
242.09534925
 20
168.22066285
 10
242.07791542
 20
168.4152517
 10
242.06744558
 20
168.61288675
 10
242.06395275
 20
168.8135629
 10
242.06744558
 20
169.01423493
 10
242.07791542
 20
169.21195717
 10
242.09534925
 20
169.4067388
 10
242.11973408
 20
169.59858903
 10
242.15105692
 20
169.78751707
 10
242.18930475
 20
169.9735321
 10
242.23446458
 20
170.15664333
 10
242.28652342
 20
170.33685997
 10
242.34546825
 20
170.5141912
 10
242.41128608
 20
170.68864623
 10
242.48384992
 20
170.85871268
 10
242.56311675
 20
171.02488583
 10
242.64904958
 20
171.18712638
 10
242.74161142
 20
171.34539503
 10
242.84076525
 20
171.49965248
 10
242.94647408
 20
171.64985943
 10
243.05870092
 20
171.79597658
 10
243.17740875
 20
171.93796463
 10
243.30256058
 20
172.07578428
 10
243.43411942
 20
172.20939623
 10
243.57292325
 20
172.33978807
 10
243.71575008
 20
172.4639109
 10
243.86262292
 20
172.58174573
 10
244.01356475
 20
172.69327357
 10
244.16859858
 20
172.7984754
 10
244.32774742
 20
172.89733223
 10
244.49103425
 20
172.98982507
 10
244.65848208
 20
173.0759349
 10
244.83011392
 20
173.15564273
 10
245.00595275
 20
173.22892957
 10
245.18486675
 20
173.29596115
 10
245.36650475
 20
173.35585823
 10
245.55086075
 20
173.40863932
 10
245.73792875
 20
173.4543229
 10
245.92770275
 20
173.49292748
 10
246.12017675
 20
173.52447157
 10
246.31534475
 20
173.54897365
 10
246.51320075
 20
173.56645223
 10
246.71373875
 20
173.57692582
 10
246.91695275
 20
173.5804129
 10
247.12032442
 20
173.57692582
 10
247.32102608
 20
173.56645223
 10
247.51903775
 20
173.54897365
 10
247.71433942
 20
173.52447157
 10
247.90691108
 20
173.49292748
 10
248.09673275
 20
173.4543229
 10
248.28378442
 20
173.40863932
 10
248.46804608
 20
173.35585823
 10
248.64949775
 20
173.29596115
 10
248.82811942
 20
173.22892957
 10
249.00412208
 20
173.15564273
 10
249.17604075
 20
173.0759349
 10
249.34389142
 20
172.98982507
 10
249.50769008
 20
172.89733223
 10
249.66745275
 20
172.7984754
 10
249.82319542
 20
172.69327357
 10
249.97493408
 20
172.58174573
 10
250.12268475
 20
172.4639109
 10
250.26646342
 20
172.33978807
 10
250.40628608
 20
172.20939623
 10
250.53663092
 20
172.07462172
 10
250.66074475
 20
171.9357941
 10
250.77859658
 20
171.79293728
 10
250.89015542
 20
171.64607517
 10
250.99539025
 20
171.49523165
 10
251.09427008
 20
171.34043063
 10
251.18676392
 20
171.18169602
 10
251.27284075
 20
171.0190517
 10
251.35246958
 20
170.85252158
 10
251.42561942
 20
170.68212957
 10
251.49266142
 20
170.50783765
 10
251.55259542
 20
170.33076023
 10
251.60543342
 20
170.15089482
 10
251.65118742
 20
169.9682389
 10
251.68986942
 20
169.78278998
 10
251.72149142
 20
169.59454557
 10
251.74606542
 20
169.40350315
 10
251.76360342
 20
169.20966023
 10
251.77411742
 20
169.01301432
 97
        1
330
27E
 75
     0
 76
     2
 47
0.775229
 98
        1
 10
0.0
 20
0.0
  0
LWPOLYLINE
  5
280
102
{ACAD_REACTORS
330
281
102
}
100
AcDbEntity
  8
MST_1_1
 62
    12
100
AcDbPolyline
 90
       90
 70
     1
 43
0.0
 10
246.91695275
 20
167.09937957
 10
247.05216992
 20
167.10411488
 10
247.18193008
 20
167.1182981
 10
247.30624625
 20
167.14189512
 10
247.42513142
 20
167.17487183
 10
247.53859858
 20
167.21719415
 10
247.64666075
 20
167.26882797
 10
247.74933092
 20
167.32973918
 10
247.84662208
 20
167.3998937
 10
247.93854725
 20
167.47925742
 10
248.02511942
 20
167.56779623
 10
248.02511942
 20
167.56779623
 10
248.10481192
 20
167.66492125
 10
248.17617942
 20
167.76804237
 10
248.23920692
 20
167.87719868
 10
248.29387942
 20
167.9924293
 10
248.34018192
 20
168.11377332
 10
248.37809942
 20
168.24126983
 10
248.40761692
 20
168.37495795
 10
248.42871942
 20
168.51487677
 10
248.44139192
 20
168.66106538
 10
248.44561942
 20
168.8135629
 10
248.44561942
 20
168.8135629
 10
248.44139192
 20
168.96680843
 10
248.42871942
 20
169.11381717
 10
248.40761692
 20
169.2546223
 10
248.37809942
 20
169.38925703
 10
248.34018192
 20
169.51775457
 10
248.29387942
 20
169.6401481
 10
248.23920692
 20
169.75647083
 10
248.17617942
 20
169.86675597
 10
248.10481192
 20
169.9710367
 10
248.02511942
 20
170.06934623
 10
248.02511942
 20
170.06934623
 10
247.93854725
 20
170.15937162
 10
247.84662208
 20
170.2399873
 10
247.74933092
 20
170.31117758
 10
247.64666075
 20
170.37292677
 10
247.53859858
 20
170.42521915
 10
247.42513142
 20
170.46803903
 10
247.30624625
 20
170.50137072
 10
247.18193008
 20
170.5251985
 10
247.05216992
 20
170.53950668
 10
246.91695275
 20
170.54427957
 10
246.91695275
 20
170.54427957
 10
246.78179975
 20
170.53950262
 10
246.65194875
 20
170.52516597
 10
246.52741175
 20
170.50126092
 10
246.40820075
 20
170.46777877
 10
246.29432775
 20
170.42471082
 10
246.18580475
 20
170.37204837
 10
246.08264375
 20
170.30978272
 10
245.98485675
 20
170.23790517
 10
245.89245575
 20
170.15640702
 10
245.80545275
 20
170.06527957
 10
245.80545275
 20
170.06527957
 10
245.72510608
 20
169.9669156
 10
245.65325942
 20
169.86259383
 10
245.58990275
 20
169.75231447
 10
245.53502608
 20
169.6360777
 10
245.48861942
 20
169.51388373
 10
245.45067275
 20
169.38573277
 10
245.42117608
 20
169.251625
 10
245.40011942
 20
169.11156063
 10
245.38749275
 20
168.96553987
 10
245.38328608
 20
168.8135629
 10
245.38328608
 20
168.8135629
 10
245.38749275
 20
168.66106538
 10
245.40011942
 20
168.51487677
 10
245.42117608
 20
168.37495795
 10
245.45067275
 20
168.24126983
 10
245.48861942
 20
168.11377332
 10
245.53502608
 20
167.9924293
 10
245.58990275
 20
167.87719868
 10
245.65325942
 20
167.76804237
 10
245.72510608
 20
167.66492125
 10
245.80545275
 20
167.56779623
 10
245.80545275
 20
167.56779623
 10
245.89245575
 20
167.47925742
 10
245.98485675
 20
167.3998937
 10
246.08264375
 20
167.32973918
 10
246.18580475
 20
167.26882797
 10
246.29432775
 20
167.21719415
 10
246.40820075
 20
167.17487183
 10
246.52741175
 20
167.14189512
 10
246.65194875
 20
167.1182981
 10
246.78179975
 20
167.10411488
 10
246.91695275
 20
167.09937957
 10
246.91695275
 20
167.09937957
 10
246.91695275
 20
167.09937957
  0
HATCH
  5
281
100
AcDbEntity
  8
MST_1_1
 62
    12
100
AcDbHatch
 10
0.0
 20
0.0
 30
0.0
210
0.0
220
0.0
230
1.0
  2
SOLID
 70
     1
 71
     1
 91
        1
 92
        7
 72
     0
 73
     1
 93
       80
 10
246.91695275
 20
167.09937957
 10
247.05216992
 20
167.10411488
 10
247.18193008
 20
167.1182981
 10
247.30624625
 20
167.14189512
 10
247.42513142
 20
167.17487183
 10
247.53859858
 20
167.21719415
 10
247.64666075
 20
167.26882797
 10
247.74933092
 20
167.32973918
 10
247.84662208
 20
167.3998937
 10
247.93854725
 20
167.47925742
 10
248.02511942
 20
167.56779623
 10
248.10481192
 20
167.66492125
 10
248.17617942
 20
167.76804237
 10
248.23920692
 20
167.87719868
 10
248.29387942
 20
167.9924293
 10
248.34018192
 20
168.11377332
 10
248.37809942
 20
168.24126983
 10
248.40761692
 20
168.37495795
 10
248.42871942
 20
168.51487677
 10
248.44139192
 20
168.66106538
 10
248.44561942
 20
168.8135629
 10
248.44139192
 20
168.96680843
 10
248.42871942
 20
169.11381717
 10
248.40761692
 20
169.2546223
 10
248.37809942
 20
169.38925703
 10
248.34018192
 20
169.51775457
 10
248.29387942
 20
169.6401481
 10
248.23920692
 20
169.75647083
 10
248.17617942
 20
169.86675597
 10
248.10481192
 20
169.9710367
 10
248.02511942
 20
170.06934623
 10
247.93854725
 20
170.15937162
 10
247.84662208
 20
170.2399873
 10
247.74933092
 20
170.31117758
 10
247.64666075
 20
170.37292677
 10
247.53859858
 20
170.42521915
 10
247.42513142
 20
170.46803903
 10
247.30624625
 20
170.50137072
 10
247.18193008
 20
170.5251985
 10
247.05216992
 20
170.53950668
 10
246.91695275
 20
170.54427957
 10
246.78179975
 20
170.53950262
 10
246.65194875
 20
170.52516597
 10
246.52741175
 20
170.50126092
 10
246.40820075
 20
170.46777877
 10
246.29432775
 20
170.42471082
 10
246.18580475
 20
170.37204837
 10
246.08264375
 20
170.30978272
 10
245.98485675
 20
170.23790517
 10
245.89245575
 20
170.15640702
 10
245.80545275
 20
170.06527957
 10
245.72510608
 20
169.9669156
 10
245.65325942
 20
169.86259383
 10
245.58990275
 20
169.75231447
 10
245.53502608
 20
169.6360777
 10
245.48861942
 20
169.51388373
 10
245.45067275
 20
169.38573277
 10
245.42117608
 20
169.251625
 10
245.40011942
 20
169.11156063
 10
245.38749275
 20
168.96553987
 10
245.38328608
 20
168.8135629
 10
245.38749275
 20
168.66106538
 10
245.40011942
 20
168.51487677
 10
245.42117608
 20
168.37495795
 10
245.45067275
 20
168.24126983
 10
245.48861942
 20
168.11377332
 10
245.53502608
 20
167.9924293
 10
245.58990275
 20
167.87719868
 10
245.65325942
 20
167.76804237
 10
245.72510608
 20
167.66492125
 10
245.80545275
 20
167.56779623
 10
245.89245575
 20
167.47925742
 10
245.98485675
 20
167.3998937
 10
246.08264375
 20
167.32973918
 10
246.18580475
 20
167.26882797
 10
246.29432775
 20
167.21719415
 10
246.40820075
 20
167.17487183
 10
246.52741175
 20
167.14189512
 10
246.65194875
 20
167.1182981
 10
246.78179975
 20
167.10411488
 97
        1
330
280
 75
     0
 76
     2
 47
0.775229
 98
        1
 10
0.0
 20
0.0
  0
LWPOLYLINE
  5
282
102
{ACAD_REACTORS
330
283
102
}
100
AcDbEntity
  8
MST_1_1
 62
   190
100
AcDbPolyline
 90
       60
 70
     1
 43
0.0
 10
233.27791942
 20
164.2884129
 10
233.27791942
 20
173.37492957
 10
233.27791942
 20
173.37492957
 10
237.38818608
 20
173.37492957
 10
237.38818608
 20
173.37492957
 10
237.73692185
 20
173.36702893
 10
238.06886422
 20
173.3433365
 10
238.38400578
 20
173.30386647
 10
238.68233915
 20
173.24863303
 10
238.96385692
 20
173.1776504
 10
239.22855168
 20
173.09093277
 10
239.47641605
 20
172.98849433
 10
239.70744262
 20
172.8703493
 10
239.92162398
 20
172.73651187
 10
240.11895275
 20
172.58699623
 10
240.11895275
 20
172.58699623
 10
240.29815858
 20
172.42240718
 10
240.45847942
 20
172.24384183
 10
240.59992025
 20
172.05133288
 10
240.72248608
 20
171.84491303
 10
240.82618192
 20
171.62461498
 10
240.91101275
 20
171.39047143
 10
240.97698358
 20
171.14251508
 10
241.02409942
 20
170.88077863
 10
241.05236525
 20
170.60529478
 10
241.06178608
 20
170.31609623
 10
241.06178608
 20
170.31609623
 10
241.05700442
 20
170.12561167
 10
241.04267275
 20
169.9419657
 10
241.01881108
 20
169.76516993
 10
240.98543942
 20
169.59523597
 10
240.94257775
 20
169.4321754
 10
240.89024608
 20
169.27599983
 10
240.82846442
 20
169.12672087
 10
240.75725275
 20
168.9843501
 10
240.67663108
 20
168.84889913
 10
240.58661942
 20
168.72037957
 10
240.58661942
 20
168.72037957
 10
240.48817842
 20
168.59978732
 10
240.38323142
 20
168.48975157
 10
240.27174242
 20
168.39025882
 10
240.15367542
 20
168.30129557
 10
240.02899442
 20
168.22284832
 10
239.89766342
 20
168.15490357
 10
239.75964642
 20
168.09744782
 10
239.61490742
 20
168.05046757
 10
239.46341042
 20
168.01394932
 10
239.30511942
 20
167.98787957
 10
239.30511942
 20
167.98787957
 10
241.73145275
 20
164.2884129
 10
241.73145275
 20
164.2884129
 10
238.07095275
 20
164.2884129
 10
238.07095275
 20
164.2884129
 10
236.48096942
 20
167.28572957
 10
236.48096942
 20
167.28572957
 10
236.48096942
 20
164.2884129
 10
236.48096942
 20
164.2884129
 10
233.27791942
 20
164.2884129
 10
233.27791942
 20
164.2884129
 10
233.27791942
 20
164.2884129
  0
HATCH
  5
283
100
AcDbEntity
  8
MST_1_1
 62
   190
100
AcDbHatch
 10
0.0
 20
0.0
 30
0.0
210
0.0
220
0.0
230
1.0
  2
SOLID
 70
     1
 71
     1
 91
        1
 92
        7
 72
     0
 73
     1
 93
       47
 10
233.27791942
 20
164.2884129
 10
233.27791942
 20
173.37492957
 10
237.38818608
 20
173.37492957
 10
237.73692185
 20
173.36702893
 10
238.06886422
 20
173.3433365
 10
238.38400578
 20
173.30386647
 10
238.68233915
 20
173.24863303
 10
238.96385692
 20
173.1776504
 10
239.22855168
 20
173.09093277
 10
239.47641605
 20
172.98849433
 10
239.70744262
 20
172.8703493
 10
239.92162398
 20
172.73651187
 10
240.11895275
 20
172.58699623
 10
240.29815858
 20
172.42240718
 10
240.45847942
 20
172.24384183
 10
240.59992025
 20
172.05133288
 10
240.72248608
 20
171.84491303
 10
240.82618192
 20
171.62461498
 10
240.91101275
 20
171.39047143
 10
240.97698358
 20
171.14251508
 10
241.02409942
 20
170.88077863
 10
241.05236525
 20
170.60529478
 10
241.06178608
 20
170.31609623
 10
241.05700442
 20
170.12561167
 10
241.04267275
 20
169.9419657
 10
241.01881108
 20
169.76516993
 10
240.98543942
 20
169.59523597
 10
240.94257775
 20
169.4321754
 10
240.89024608
 20
169.27599983
 10
240.82846442
 20
169.12672087
 10
240.75725275
 20
168.9843501
 10
240.67663108
 20
168.84889913
 10
240.58661942
 20
168.72037957
 10
240.48817842
 20
168.59978732
 10
240.38323142
 20
168.48975157
 10
240.27174242
 20
168.39025882
 10
240.15367542
 20
168.30129557
 10
240.02899442
 20
168.22284832
 10
239.89766342
 20
168.15490357
 10
239.75964642
 20
168.09744782
 10
239.61490742
 20
168.05046757
 10
239.46341042
 20
168.01394932
 10
239.30511942
 20
167.98787957
 10
241.73145275
 20
164.2884129
 10
238.07095275
 20
164.2884129
 10
236.48096942
 20
167.28572957
 10
236.48096942
 20
164.2884129
 97
        1
330
282
 75
     0
 76
     2
 47
0.775229
 98
        1
 10
0.0
 20
0.0
  0
LWPOLYLINE
  5
284
102
{ACAD_REACTORS
330
285
102
}
100
AcDbEntity
  8
MST_1_1
 62
    12
100
AcDbPolyline
 90
       52
 70
     1
 43
0.0
 10
236.48096942
 20
171.03629623
 10
236.48096942
 20
169.26124623
 10
236.48096942
 20
169.26124623
 10
236.99008608
 20
169.26124623
 10
236.99008608
 20
169.26124623
 10
237.08113253
 20
169.26351763
 10
237.16781168
 20
169.27032743
 10
237.25013823
 20
169.28166903
 10
237.32812688
 20
169.29753583
 10
237.40179233
 20
169.31792123
 10
237.47114928
 20
169.34281863
 10
237.53621243
 20
169.37222143
 10
237.59699648
 20
169.40612303
 10
237.65351613
 20
169.44451683
 10
237.70578608
 20
169.48739623
 10
237.70578608
 20
169.48739623
 10
237.75363025
 20
169.53447972
 10
237.79645942
 20
169.5855021
 10
237.83426858
 20
169.64046628
 10
237.86705275
 20
169.69937517
 10
237.89480692
 20
169.76223165
 10
237.91752608
 20
169.82903863
 10
237.93520525
 20
169.89979902
 10
237.94783942
 20
169.9745157
 10
237.95542358
 20
170.05319158
 10
237.95795275
 20
170.13582957
 10
237.95795275
 20
170.13582957
 10
237.95542358
 20
170.22066837
 10
237.94783942
 20
170.30149797
 10
237.93520525
 20
170.37830817
 10
237.91752608
 20
170.45108877
 10
237.89480692
 20
170.51982957
 10
237.86705275
 20
170.58452037
 10
237.83426858
 20
170.64515097
 10
237.79645942
 20
170.70171117
 10
237.75363025
 20
170.75419077
 10
237.70578608
 20
170.80257957
 10
237.70578608
 20
170.80257957
 10
237.65351613
 20
170.84671573
 10
237.59699648
 20
170.8862909
 10
237.53621243
 20
170.92128507
 10
237.47114928
 20
170.95167823
 10
237.40179233
 20
170.9774504
 10
237.32812688
 20
170.99858157
 10
237.25013823
 20
171.01505173
 10
237.16781168
 20
171.0268409
 10
237.08113253
 20
171.03392907
 10
236.99008608
 20
171.03629623
 10
236.99008608
 20
171.03629623
 10
236.48096942
 20
171.03629623
 10
236.48096942
 20
171.03629623
 10
236.48096942
 20
171.03629623
  0
HATCH
  5
285
100
AcDbEntity
  8
MST_1_1
 62
    12
100
AcDbHatch
 10
0.0
 20
0.0
 30
0.0
210
0.0
220
0.0
230
1.0
  2
SOLID
 70
     1
 71
     1
 91
        1
 92
        7
 72
     0
 73
     1
 93
       43
 10
236.48096942
 20
171.03629623
 10
236.48096942
 20
169.26124623
 10
236.99008608
 20
169.26124623
 10
237.08113253
 20
169.26351763
 10
237.16781168
 20
169.27032743
 10
237.25013823
 20
169.28166903
 10
237.32812688
 20
169.29753583
 10
237.40179233
 20
169.31792123
 10
237.47114928
 20
169.34281863
 10
237.53621243
 20
169.37222143
 10
237.59699648
 20
169.40612303
 10
237.65351613
 20
169.44451683
 10
237.70578608
 20
169.48739623
 10
237.75363025
 20
169.53447972
 10
237.79645942
 20
169.5855021
 10
237.83426858
 20
169.64046628
 10
237.86705275
 20
169.69937517
 10
237.89480692
 20
169.76223165
 10
237.91752608
 20
169.82903863
 10
237.93520525
 20
169.89979902
 10
237.94783942
 20
169.9745157
 10
237.95542358
 20
170.05319158
 10
237.95795275
 20
170.13582957
 10
237.95542358
 20
170.22066837
 10
237.94783942
 20
170.30149797
 10
237.93520525
 20
170.37830817
 10
237.91752608
 20
170.45108877
 10
237.89480692
 20
170.51982957
 10
237.86705275
 20
170.58452037
 10
237.83426858
 20
170.64515097
 10
237.79645942
 20
170.70171117
 10
237.75363025
 20
170.75419077
 10
237.70578608
 20
170.80257957
 10
237.65351613
 20
170.84671573
 10
237.59699648
 20
170.8862909
 10
237.53621243
 20
170.92128507
 10
237.47114928
 20
170.95167823
 10
237.40179233
 20
170.9774504
 10
237.32812688
 20
170.99858157
 10
237.25013823
 20
171.01505173
 10
237.16781168
 20
171.0268409
 10
237.08113253
 20
171.03392907
 10
236.99008608
 20
171.03629623
 97
        1
330
284
 75
     0
 76
     2
 47
0.775229
 98
        1
 10
0.0
 20
0.0
  0
LWPOLYLINE
  5
286
102
{ACAD_REACTORS
330
287
102
}
100
AcDbEntity
  8
MST_1_1
 62
   190
100
AcDbPolyline
 90
       56
 70
     1
 43
0.0
 10
224.27831942
 20
164.2884129
 10
224.27831942
 20
173.37492957
 10
224.27831942
 20
173.37492957
 10
228.18303608
 20
173.37492957
 10
228.18303608
 20
173.37492957
 10
228.58381223
 20
173.3669809
 10
228.96246328
 20
173.34313823
 10
229.31899313
 20
173.30340657
 10
229.65340568
 20
173.2477909
 10
229.96570483
 20
173.17629623
 10
230.25589448
 20
173.08892757
 10
230.52397853
 20
172.9856899
 10
230.76996088
 20
172.86658823
 10
230.99384543
 20
172.73162757
 10
231.19563608
 20
172.5808129
 10
231.19563608
 20
172.5808129
 10
231.37669128
 20
172.41245157
 10
231.53869568
 20
172.22556423
 10
231.68164748
 20
172.0201309
 10
231.80554488
 20
171.79613157
 10
231.91038608
 20
171.55354623
 10
231.99616928
 20
171.2923549
 10
232.06289268
 20
171.01253757
 10
232.11055448
 20
170.71407423
 10
232.13915288
 20
170.3969449
 10
232.14868608
 20
170.06112957
 10
232.14868608
 20
170.06112957
 10
232.14011618
 20
169.74813755
 10
232.11441288
 20
169.45247543
 10
232.07158578
 20
169.17414912
 10
232.01164448
 20
168.9131645
 10
231.93459858
 20
168.66952748
 10
231.84045768
 20
168.44324397
 10
231.72923138
 20
168.23431985
 10
231.60092928
 20
168.04276103
 10
231.45556098
 20
167.86857342
 10
231.29313608
 20
167.7117629
 10
231.29313608
 20
167.7117629
 10
231.11138342
 20
167.57120545
 10
230.90958075
 20
167.4453913
 10
230.68772108
 20
167.33433275
 10
230.44579742
 20
167.2380421
 10
230.18380275
 20
167.15653165
 10
229.90173008
 20
167.0898137
 10
229.59957242
 20
167.03790055
 10
229.27732275
 20
167.0008045
 10
228.93497408
 20
166.97853785
 10
228.57251942
 20
166.9711129
 10
228.57251942
 20
166.9711129
 10
227.54956942
 20
166.9711129
 10
227.54956942
 20
166.9711129
 10
227.54956942
 20
164.2884129
 10
227.54956942
 20
164.2884129
 10
224.27831942
 20
164.2884129
 10
224.27831942
 20
164.2884129
 10
224.27831942
 20
164.2884129
  0
HATCH
  5
287
100
AcDbEntity
  8
MST_1_1
 62
   190
100
AcDbHatch
 10
0.0
 20
0.0
 30
0.0
210
0.0
220
0.0
230
1.0
  2
SOLID
 70
     1
 71
     1
 91
        1
 92
        7
 72
     0
 73
     1
 93
       45
 10
224.27831942
 20
164.2884129
 10
224.27831942
 20
173.37492957
 10
228.18303608
 20
173.37492957
 10
228.58381223
 20
173.3669809
 10
228.96246328
 20
173.34313823
 10
229.31899313
 20
173.30340657
 10
229.65340568
 20
173.2477909
 10
229.96570483
 20
173.17629623
 10
230.25589448
 20
173.08892757
 10
230.52397853
 20
172.9856899
 10
230.76996088
 20
172.86658823
 10
230.99384543
 20
172.73162757
 10
231.19563608
 20
172.5808129
 10
231.37669128
 20
172.41245157
 10
231.53869568
 20
172.22556423
 10
231.68164748
 20
172.0201309
 10
231.80554488
 20
171.79613157
 10
231.91038608
 20
171.55354623
 10
231.99616928
 20
171.2923549
 10
232.06289268
 20
171.01253757
 10
232.11055448
 20
170.71407423
 10
232.13915288
 20
170.3969449
 10
232.14868608
 20
170.06112957
 10
232.14011618
 20
169.74813755
 10
232.11441288
 20
169.45247543
 10
232.07158578
 20
169.17414912
 10
232.01164448
 20
168.9131645
 10
231.93459858
 20
168.66952748
 10
231.84045768
 20
168.44324397
 10
231.72923138
 20
168.23431985
 10
231.60092928
 20
168.04276103
 10
231.45556098
 20
167.86857342
 10
231.29313608
 20
167.7117629
 10
231.11138342
 20
167.57120545
 10
230.90958075
 20
167.4453913
 10
230.68772108
 20
167.33433275
 10
230.44579742
 20
167.2380421
 10
230.18380275
 20
167.15653165
 10
229.90173008
 20
167.0898137
 10
229.59957242
 20
167.03790055
 10
229.27732275
 20
167.0008045
 10
228.93497408
 20
166.97853785
 10
228.57251942
 20
166.9711129
 10
227.54956942
 20
166.9711129
 10
227.54956942
 20
164.2884129
 97
        1
330
286
 75
     0
 76
     2
 47
0.775229
 98
        1
 10
0.0
 20
0.0
  0
LWPOLYLINE
  5
288
102
{ACAD_REACTORS
330
289
102
}
100
AcDbEntity
  8
MST_1_1
 62
    12
100
AcDbPolyline
 90
       52
 70
     1
 43
0.0
 10
227.56233608
 20
170.84937957
 10
227.56233608
 20
169.3348129
 10
227.56233608
 20
169.3348129
 10
228.06998608
 20
169.3348129
 10
228.06998608
 20
169.3348129
 10
228.1608242
 20
169.3367812
 10
228.24742902
 20
169.3426793
 10
228.32977123
 20
169.352497
 10
228.40782155
 20
169.3662241
 10
228.48155067
 20
169.3838504
 10
228.55092928
 20
169.4053657
 10
228.6159281
 20
169.4307598
 10
228.67651782
 20
169.4600225
 10
228.73266913
 20
169.4931436
 10
228.78435275
 20
169.5301129
 10
228.78435275
 20
169.5301129
 10
228.8314215
 20
169.57093027
 10
228.87355475
 20
169.61501783
 10
228.910748
 20
169.6623838
 10
228.94299675
 20
169.71303637
 10
228.9702965
 20
169.76698373
 10
228.99264275
 20
169.8242341
 10
229.010031
 20
169.88479567
 10
229.02245675
 20
169.94867663
 10
229.0299155
 20
170.0158852
 10
229.03240275
 20
170.08642957
 10
229.03240275
 20
170.08642957
 10
229.02986898
 20
170.15668725
 10
229.02226062
 20
170.22380303
 10
229.00956705
 20
170.28778102
 10
228.99177768
 20
170.3486253
 10
228.96888192
 20
170.40633998
 10
228.94086915
 20
170.46092917
 10
228.90772878
 20
170.51239695
 10
228.86945022
 20
170.56074743
 10
228.82602285
 20
170.60598472
 10
228.77743608
 20
170.6481129
 10
228.77743608
 20
170.6481129
 10
228.72469018
 20
170.68614432
 10
228.66796688
 20
170.72023823
 10
228.60725778
 20
170.75037915
 10
228.54255448
 20
170.77655157
 10
228.47384858
 20
170.79873998
 10
228.40113168
 20
170.8169289
 10
228.32439538
 20
170.83110282
 10
228.24363128
 20
170.84124623
 10
228.15883098
 20
170.84734365
 10
228.06998608
 20
170.84937957
 10
228.06998608
 20
170.84937957
 10
227.56233608
 20
170.84937957
 10
227.56233608
 20
170.84937957
 10
227.56233608
 20
170.84937957
  0
HATCH
  5
289
100
AcDbEntity
  8
MST_1_1
 62
    12
100
AcDbHatch
 10
0.0
 20
0.0
 30
0.0
210
0.0
220
0.0
230
1.0
  2
SOLID
 70
     1
 71
     1
 91
        1
 92
        7
 72
     0
 73
     1
 93
       43
 10
227.56233608
 20
170.84937957
 10
227.56233608
 20
169.3348129
 10
228.06998608
 20
169.3348129
 10
228.1608242
 20
169.3367812
 10
228.24742902
 20
169.3426793
 10
228.32977123
 20
169.352497
 10
228.40782155
 20
169.3662241
 10
228.48155067
 20
169.3838504
 10
228.55092928
 20
169.4053657
 10
228.6159281
 20
169.4307598
 10
228.67651782
 20
169.4600225
 10
228.73266913
 20
169.4931436
 10
228.78435275
 20
169.5301129
 10
228.8314215
 20
169.57093027
 10
228.87355475
 20
169.61501783
 10
228.910748
 20
169.6623838
 10
228.94299675
 20
169.71303637
 10
228.9702965
 20
169.76698373
 10
228.99264275
 20
169.8242341
 10
229.010031
 20
169.88479567
 10
229.02245675
 20
169.94867663
 10
229.0299155
 20
170.0158852
 10
229.03240275
 20
170.08642957
 10
229.02986898
 20
170.15668725
 10
229.02226062
 20
170.22380303
 10
229.00956705
 20
170.28778102
 10
228.99177768
 20
170.3486253
 10
228.96888192
 20
170.40633998
 10
228.94086915
 20
170.46092917
 10
228.90772878
 20
170.51239695
 10
228.86945022
 20
170.56074743
 10
228.82602285
 20
170.60598472
 10
228.77743608
 20
170.6481129
 10
228.72469018
 20
170.68614432
 10
228.66796688
 20
170.72023823
 10
228.60725778
 20
170.75037915
 10
228.54255448
 20
170.77655157
 10
228.47384858
 20
170.79873998
 10
228.40113168
 20
170.8169289
 10
228.32439538
 20
170.83110282
 10
228.24363128
 20
170.84124623
 10
228.15883098
 20
170.84734365
 10
228.06998608
 20
170.84937957
 97
        1
330
288
 75
     0
 76
     2
 47
0.775229
 98
        1
 10
0.0
 20
0.0
  0
LWPOLYLINE
  5
28A
102
{ACAD_REACTORS
330
28B
102
}
100
AcDbEntity
  8
MST_1_1
 62
    12
100
AcDbPolyline
 90
       10
 70
     1
 43
0.0
 10
265.32478608
 20
164.2884129
 10
265.32478608
 20
173.37492957
 10
265.32478608
 20
173.37492957
 10
269.79261942
 20
173.37492957
 10
269.79261942
 20
173.37492957
 10
269.79261942
 20
164.2884129
 10
269.79261942
 20
164.2884129
 10
265.32478608
 20
164.2884129
 10
265.32478608
 20
164.2884129
 10
265.32478608
 20
164.2884129
  0
HATCH
  5
28B
100
AcDbEntity
  8
MST_1_1
 62
    12
100
AcDbHatch
 10
0.0
 20
0.0
 30
0.0
210
0.0
220
0.0
230
1.0
  2
SOLID
 70
     1
 71
     1
 91
        1
 92
        7
 72
     0
 73
     1
 93
        4
 10
265.32478608
 20
164.2884129
 10
265.32478608
 20
173.37492957
 10
269.79261942
 20
173.37492957
 10
269.79261942
 20
164.2884129
 97
        1
330
28A
 75
     0
 76
     2
 47
0.775229
 98
        1
 10
0.0
 20
0.0
  0
LWPOLYLINE
  5
28C
102
{ACAD_REACTORS
330
28D
102
}
100
AcDbEntity
  8
MST_1_1
 62
    12
100
AcDbPolyline
 90
      114
 70
     1
 43
0.0
 10
277.54195275
 20
166.34952957
 10
277.50759875
 20
166.40434792
 10
277.47504075
 20
166.45689837
 10
277.44428475
 20
166.50720402
 10
277.41533675
 20
166.55528797
 10
277.38820275
 20
166.60117332
 10
277.36288875
 20
166.64488317
 10
277.33940075
 20
166.68644062
 10
277.31774475
 20
166.72586877
 10
277.29792675
 20
166.76319072
 10
277.27995275
 20
166.79842957
 10
277.27995275
 20
166.79842957
 10
277.26265008
 20
166.83238073
 10
277.24633142
 20
166.8655909
 10
277.23098075
 20
166.89807007
 10
277.21658208
 20
166.92982823
 10
277.20311942
 20
166.9608754
 10
277.19057675
 20
166.99122157
 10
277.17893808
 20
167.02087673
 10
277.16818742
 20
167.0498509
 10
277.15830875
 20
167.07815407
 10
277.14928608
 20
167.10579623
 10
277.14928608
 20
167.10579623
 10
277.14162175
 20
167.07959225
 10
277.13319142
 20
167.05282837
 10
277.12393908
 20
167.02550168
 10
277.11380875
 20
166.9976093
 10
277.10274442
 20
166.96914832
 10
277.09069008
 20
166.94011583
 10
277.07758975
 20
166.91050895
 10
277.06338742
 20
166.88032477
 10
277.04802708
 20
166.84956038
 10
277.03145275
 20
166.8182129
 10
277.03145275
 20
166.8182129
 10
277.01411642
 20
166.78480692
 10
276.99412208
 20
166.74836903
 10
276.97149175
 20
166.70891435
 10
276.94624742
 20
166.66645797
 10
276.91841108
 20
166.62101498
 10
276.88800475
 20
166.5726005
 10
276.85505042
 20
166.52122962
 10
276.81957008
 20
166.46691743
 10
276.78158575
 20
166.40967905
 10
276.74111942
 20
166.34952957
 10
276.74111942
 20
166.34952957
 10
275.35145275
 20
164.2884129
 10
275.35145275
 20
164.2884129
 10
270.32378608
 20
164.2884129
 10
270.32378608
 20
164.2884129
 10
274.66661942
 20
169.12842957
 10
274.66661942
 20
169.12842957
 10
270.83461942
 20
173.37492957
 10
270.83461942
 20
173.37492957
 10
275.85411942
 20
173.37492957
 10
275.85411942
 20
173.37492957
 10
276.75745275
 20
171.89184623
 10
276.75745275
 20
171.89184623
 10
276.76027875
 20
171.88633315
 10
276.76364075
 20
171.88023557
 10
276.76751475
 20
171.87355598
 10
276.77187675
 20
171.8662969
 10
276.77670275
 20
171.85846082
 10
276.78196875
 20
171.85005023
 10
276.78765075
 20
171.84106765
 10
276.79372475
 20
171.83151557
 10
276.80016675
 20
171.82139648
 10
276.80695275
 20
171.8107129
 10
276.80695275
 20
171.8107129
 10
276.85568808
 20
171.72805998
 10
276.90119542
 20
171.64881157
 10
276.94347675
 20
171.57298315
 10
276.98253408
 20
171.50059023
 10
277.01836942
 20
171.43164832
 10
277.05098475
 20
171.3661729
 10
277.08038208
 20
171.30417948
 10
277.10656342
 20
171.24568357
 10
277.12953075
 20
171.19070065
 10
277.14928608
 20
171.13924623
 10
277.14928608
 20
171.13924623
 10
277.16139975
 20
171.17188953
 10
277.17405542
 20
171.20463863
 10
277.18727508
 20
171.23750733
 10
277.20108075
 20
171.27050943
 10
277.21549442
 20
171.30365873
 10
277.23053808
 20
171.33696903
 10
277.24623375
 20
171.37045413
 10
277.26260342
 20
171.40412783
 10
277.27966908
 20
171.43800393
 10
277.29745275
 20
171.47209623
 10
277.29745275
 20
171.47209623
 10
277.31473908
 20
171.50717858
 10
277.33336342
 20
171.54381903
 10
277.35327375
 20
171.58200768
 10
277.37441808
 20
171.62173463
 10
277.39674442
 20
171.66298998
 10
277.42020075
 20
171.70576383
 10
277.44473508
 20
171.75004628
 10
277.47029542
 20
171.79582743
 10
277.49682975
 20
171.84309738
 10
277.52428608
 20
171.89184623
 10
277.52428608
 20
171.89184623
 10
278.45178608
 20
173.37492957
 10
278.45178608
 20
173.37492957
 10
283.44845275
 20
173.37492957
 10
283.44845275
 20
173.37492957
 10
279.62911942
 20
169.12842957
 10
279.62911942
 20
169.12842957
 10
283.97678608
 20
164.2884129
 10
283.97678608
 20
164.2884129
 10
278.94461942
 20
164.2884129
 10
278.94461942
 20
164.2884129
 10
277.54195275
 20
166.34952957
 10
277.54195275
 20
166.34952957
 10
277.54195275
 20
166.34952957
  0
HATCH
  5
28D
100
AcDbEntity
  8
MST_1_1
 62
    12
100
AcDbHatch
 10
0.0
 20
0.0
 30
0.0
210
0.0
220
0.0
230
1.0
  2
SOLID
 70
     1
 71
     1
 91
        1
 92
        7
 72
     0
 73
     1
 93
       92
 10
277.54195275
 20
166.34952957
 10
277.50759875
 20
166.40434792
 10
277.47504075
 20
166.45689837
 10
277.44428475
 20
166.50720402
 10
277.41533675
 20
166.55528797
 10
277.38820275
 20
166.60117332
 10
277.36288875
 20
166.64488317
 10
277.33940075
 20
166.68644062
 10
277.31774475
 20
166.72586877
 10
277.29792675
 20
166.76319072
 10
277.27995275
 20
166.79842957
 10
277.26265008
 20
166.83238073
 10
277.24633142
 20
166.8655909
 10
277.23098075
 20
166.89807007
 10
277.21658208
 20
166.92982823
 10
277.20311942
 20
166.9608754
 10
277.19057675
 20
166.99122157
 10
277.17893808
 20
167.02087673
 10
277.16818742
 20
167.0498509
 10
277.15830875
 20
167.07815407
 10
277.14928608
 20
167.10579623
 10
277.14162175
 20
167.07959225
 10
277.13319142
 20
167.05282837
 10
277.12393908
 20
167.02550168
 10
277.11380875
 20
166.9976093
 10
277.10274442
 20
166.96914832
 10
277.09069008
 20
166.94011583
 10
277.07758975
 20
166.91050895
 10
277.06338742
 20
166.88032477
 10
277.04802708
 20
166.84956038
 10
277.03145275
 20
166.8182129
 10
277.01411642
 20
166.78480692
 10
276.99412208
 20
166.74836903
 10
276.97149175
 20
166.70891435
 10
276.94624742
 20
166.66645797
 10
276.91841108
 20
166.62101498
 10
276.88800475
 20
166.5726005
 10
276.85505042
 20
166.52122962
 10
276.81957008
 20
166.46691743
 10
276.78158575
 20
166.40967905
 10
276.74111942
 20
166.34952957
 10
275.35145275
 20
164.2884129
 10
270.32378608
 20
164.2884129
 10
274.66661942
 20
169.12842957
 10
270.83461942
 20
173.37492957
 10
275.85411942
 20
173.37492957
 10
276.75745275
 20
171.89184623
 10
276.76027875
 20
171.88633315
 10
276.76364075
 20
171.88023557
 10
276.76751475
 20
171.87355598
 10
276.77187675
 20
171.8662969
 10
276.77670275
 20
171.85846082
 10
276.78196875
 20
171.85005023
 10
276.78765075
 20
171.84106765
 10
276.79372475
 20
171.83151557
 10
276.80016675
 20
171.82139648
 10
276.80695275
 20
171.8107129
 10
276.85568808
 20
171.72805998
 10
276.90119542
 20
171.64881157
 10
276.94347675
 20
171.57298315
 10
276.98253408
 20
171.50059023
 10
277.01836942
 20
171.43164832
 10
277.05098475
 20
171.3661729
 10
277.08038208
 20
171.30417948
 10
277.10656342
 20
171.24568357
 10
277.12953075
 20
171.19070065
 10
277.14928608
 20
171.13924623
 10
277.16139975
 20
171.17188953
 10
277.17405542
 20
171.20463863
 10
277.18727508
 20
171.23750733
 10
277.20108075
 20
171.27050943
 10
277.21549442
 20
171.30365873
 10
277.23053808
 20
171.33696903
 10
277.24623375
 20
171.37045413
 10
277.26260342
 20
171.40412783
 10
277.27966908
 20
171.43800393
 10
277.29745275
 20
171.47209623
 10
277.31473908
 20
171.50717858
 10
277.33336342
 20
171.54381903
 10
277.35327375
 20
171.58200768
 10
277.37441808
 20
171.62173463
 10
277.39674442
 20
171.66298998
 10
277.42020075
 20
171.70576383
 10
277.44473508
 20
171.75004628
 10
277.47029542
 20
171.79582743
 10
277.49682975
 20
171.84309738
 10
277.52428608
 20
171.89184623
 10
278.45178608
 20
173.37492957
 10
283.44845275
 20
173.37492957
 10
279.62911942
 20
169.12842957
 10
283.97678608
 20
164.2884129
 10
278.94461942
 20
164.2884129
 97
        1
330
28C
 75
     0
 76
     2
 47
0.775229
 98
        1
 10
0.0
 20
0.0
  0
LWPOLYLINE
  5
28E
102
{ACAD_REACTORS
330
28F
102
}
100
AcDbEntity
  8
MST_1_1
 62
     7
100
AcDbPolyline
 90
       46
 70
     1
 43
0.0
 10
288.29195275
 20
179.50097957
 10
288.40448325
 20
179.49186607
 10
288.51139675
 20
179.46549157
 10
288.61122625
 20
179.42330507
 10
288.70250475
 20
179.36675557
 10
288.78376525
 20
179.29729207
 10
288.85354075
 20
179.21636357
 10
288.91036425
 20
179.12541907
 10
288.95276875
 20
179.02590757
 10
288.97928725
 20
178.91927807
 10
288.98845275
 20
178.80697957
 10
288.98845275
 20
178.80697957
 10
288.97928725
 20
178.6948259
 10
288.95276875
 20
178.58833023
 10
288.91036425
 20
178.48894057
 10
288.85354075
 20
178.3981049
 10
288.78376525
 20
178.31727123
 10
288.70250475
 20
178.24788757
 10
288.61122625
 20
178.1914019
 10
288.51139675
 20
178.14926223
 10
288.40448325
 20
178.12291657
 10
288.29195275
 20
178.1138129
 10
288.29195275
 20
178.1138129
 10
288.17883192
 20
178.12291657
 10
288.07152608
 20
178.14926223
 10
287.97147025
 20
178.1914019
 10
287.88009942
 20
178.24788757
 10
287.79884858
 20
178.31727123
 10
287.72915275
 20
178.3981049
 10
287.67244692
 20
178.48894057
 10
287.63016608
 20
178.58833023
 10
287.60374525
 20
178.6948259
 10
287.59461942
 20
178.80697957
 10
287.59461942
 20
178.80697957
 10
287.60374525
 20
178.91927807
 10
287.63016608
 20
179.02590757
 10
287.67244692
 20
179.12541907
 10
287.72915275
 20
179.21636357
 10
287.79884858
 20
179.29729207
 10
287.88009942
 20
179.36675557
 10
287.97147025
 20
179.42330507
 10
288.07152608
 20
179.46549157
 10
288.17883192
 20
179.49186607
 10
288.29195275
 20
179.50097957
 10
288.29195275
 20
179.50097957
 10
288.29195275
 20
179.50097957
  0
HATCH
  5
28F
100
AcDbEntity
  8
MST_1_1
 62
     7
100
AcDbHatch
 10
0.0
 20
0.0
 30
0.0
210
0.0
220
0.0
230
1.0
  2
SOLID
 70
     1
 71
     1
 91
        1
 92
        7
 72
     0
 73
     1
 93
       40
 10
288.29195275
 20
179.50097957
 10
288.40448325
 20
179.49186607
 10
288.51139675
 20
179.46549157
 10
288.61122625
 20
179.42330507
 10
288.70250475
 20
179.36675557
 10
288.78376525
 20
179.29729207
 10
288.85354075
 20
179.21636357
 10
288.91036425
 20
179.12541907
 10
288.95276875
 20
179.02590757
 10
288.97928725
 20
178.91927807
 10
288.98845275
 20
178.80697957
 10
288.97928725
 20
178.6948259
 10
288.95276875
 20
178.58833023
 10
288.91036425
 20
178.48894057
 10
288.85354075
 20
178.3981049
 10
288.78376525
 20
178.31727123
 10
288.70250475
 20
178.24788757
 10
288.61122625
 20
178.1914019
 10
288.51139675
 20
178.14926223
 10
288.40448325
 20
178.12291657
 10
288.29195275
 20
178.1138129
 10
288.17883192
 20
178.12291657
 10
288.07152608
 20
178.14926223
 10
287.97147025
 20
178.1914019
 10
287.88009942
 20
178.24788757
 10
287.79884858
 20
178.31727123
 10
287.72915275
 20
178.3981049
 10
287.67244692
 20
178.48894057
 10
287.63016608
 20
178.58833023
 10
287.60374525
 20
178.6948259
 10
287.59461942
 20
178.80697957
 10
287.60374525
 20
178.91927807
 10
287.63016608
 20
179.02590757
 10
287.67244692
 20
179.12541907
 10
287.72915275
 20
179.21636357
 10
287.79884858
 20
179.29729207
 10
287.88009942
 20
179.36675557
 10
287.97147025
 20
179.42330507
 10
288.07152608
 20
179.46549157
 10
288.17883192
 20
179.49186607
 97
        1
330
28E
 75
     0
 76
     2
 47
0.775229
 98
        1
 10
0.0
 20
0.0
  0
LWPOLYLINE
  5
290
102
{ACAD_REACTORS
330
291
102
}
100
AcDbEntity
  8
MST_1_1
 62
    12
100
AcDbPolyline
 90
       29
 70
     1
 43
0.0
 10
287.97228608
 20
179.28897957
 10
287.97228608
 20
178.3823129
 10
287.97228608
 20
178.3823129
 10
288.10645275
 20
178.3823129
 10
288.10645275
 20
178.3823129
 10
288.10645275
 20
178.7893129
 10
288.10645275
 20
178.7893129
 10
288.28478608
 20
178.7893129
 10
288.28478608
 20
178.7893129
 10
288.54411942
 20
178.3883129
 10
288.54411942
 20
178.3883129
 10
288.68028608
 20
178.3883129
 10
288.68028608
 20
178.3883129
 10
288.42145275
 20
178.79664623
 10
288.42145275
 20
178.79664623
 10
288.51003975
 20
178.8150679
 10
288.57970875
 20
178.85521957
 10
288.63017175
 20
178.91153123
 10
288.66114075
 20
178.9784329
 10
288.67232775
 20
179.05035457
 10
288.66344475
 20
179.12172623
 10
288.63420375
 20
179.1869779
 10
288.58431675
 20
179.24053957
 10
288.51349575
 20
179.27684123
 10
288.42145275
 20
179.2903129
 10
288.42145275
 20
179.2903129
 10
287.97228608
 20
179.28897957
 10
287.97228608
 20
179.28897957
 10
287.97228608
 20
179.28897957
  0
HATCH
  5
291
100
AcDbEntity
  8
MST_1_1
 62
    12
100
AcDbHatch
 10
0.0
 20
0.0
 30
0.0
210
0.0
220
0.0
230
1.0
  2
SOLID
 70
     1
 71
     1
 91
        1
 92
        7
 72
     0
 73
     1
 93
       18
 10
287.97228608
 20
179.28897957
 10
287.97228608
 20
178.3823129
 10
288.10645275
 20
178.3823129
 10
288.10645275
 20
178.7893129
 10
288.28478608
 20
178.7893129
 10
288.54411942
 20
178.3883129
 10
288.68028608
 20
178.3883129
 10
288.42145275
 20
178.79664623
 10
288.51003975
 20
178.8150679
 10
288.57970875
 20
178.85521957
 10
288.63017175
 20
178.91153123
 10
288.66114075
 20
178.9784329
 10
288.67232775
 20
179.05035457
 10
288.66344475
 20
179.12172623
 10
288.63420375
 20
179.1869779
 10
288.58431675
 20
179.24053957
 10
288.51349575
 20
179.27684123
 10
288.42145275
 20
179.2903129
 97
        1
330
290
 75
     0
 76
     2
 47
0.775229
 98
        1
 10
0.0
 20
0.0
  0
LWPOLYLINE
  5
292
102
{ACAD_REACTORS
330
293
102
}
100
AcDbEntity
  8
MST_1_1
 62
     7
100
AcDbPolyline
 90
       19
 70
     1
 43
0.0
 10
288.10645275
 20
179.1858129
 10
288.10645275
 20
178.89514623
 10
288.10645275
 20
178.89514623
 10
288.40778608
 20
178.89597957
 10
288.40778608
 20
178.89597957
 10
288.46076458
 20
178.9078299
 10
288.50223408
 20
178.93220223
 10
288.53209558
 20
178.96582857
 10
288.55025008
 20
179.0054409
 10
288.55659858
 20
179.04777123
 10
288.55104208
 20
179.08955157
 10
288.53348158
 20
179.1275139
 10
288.50381808
 20
179.15839023
 10
288.46195258
 20
179.17891257
 10
288.40778608
 20
179.1858129
 10
288.40778608
 20
179.1858129
 10
288.10645275
 20
179.1858129
 10
288.10645275
 20
179.1858129
 10
288.10645275
 20
179.1858129
  0
HATCH
  5
293
100
AcDbEntity
  8
MST_1_1
 62
     7
100
AcDbHatch
 10
0.0
 20
0.0
 30
0.0
210
0.0
220
0.0
230
1.0
  2
SOLID
 70
     1
 71
     1
 91
        1
 92
        7
 72
     0
 73
     1
 93
       13
 10
288.10645275
 20
179.1858129
 10
288.10645275
 20
178.89514623
 10
288.40778608
 20
178.89597957
 10
288.46076458
 20
178.9078299
 10
288.50223408
 20
178.93220223
 10
288.53209558
 20
178.96582857
 10
288.55025008
 20
179.0054409
 10
288.55659858
 20
179.04777123
 10
288.55104208
 20
179.08955157
 10
288.53348158
 20
179.1275139
 10
288.50381808
 20
179.15839023
 10
288.46195258
 20
179.17891257
 10
288.40778608
 20
179.1858129
 97
        1
330
292
 75
     0
 76
     2
 47
0.775229
 98
        1
 10
0.0
 20
0.0
  0
TEXT
  5
294
100
AcDbEntity
  8
MST_1_1
 62
     7
100
AcDbText
 10
52.93749597
 20
28.54545025
 30
0.0
 40
5.0
  1
50
  7
ARIAL
 50
89.9999975
 41
0.8
 51
0.0
100
AcDbText
  0
TEXT
  5
295
100
AcDbEntity
  8
MST_1_1
 62
     7
100
AcDbText
 10
42.93749597
 20
28.54545025
 30
0.0
 40
5.0
  1
40
  7
ARIAL
 50
89.9999975
 41
0.8
 51
0.0
100
AcDbText
  0
TEXT
  5
296
100
AcDbEntity
  8
MST_1_1
 62
     7
100
AcDbText
 10
-74.34408066
 20
6.04545025
 30
0.0
 40
5.0
  1
HECO-FIX-plus SK 6.0x40
  7
ARIAL
 50
0.0
 41
0.8
 51
0.0
100
AcDbText
  0
TEXT
  5
297
100
AcDbEntity
  8
MST_1_1
 62
     7
100
AcDbText
 10
-74.34408066
 20
-53.95454975
 30
0.0
 40
5.0
  1
HECO-FIX-plus SK 6.0x50
  7
ARIAL
 50
0.0
 41
0.8
 51
0.0
100
AcDbText
  0
TEXT
  5
298
100
AcDbEntity
  8
MST_1_1
 62
     7
100
AcDbText
 10
62.93749597
 20
28.54545025
 30
0.0
 40
5.0
  1
60
  7
ARIAL
 50
89.9999975
 41
0.8
 51
0.0
100
AcDbText
  0
TEXT
  5
299
100
AcDbEntity
  8
MST_1_1
 62
     7
100
AcDbText
 10
-74.34408066
 20
-83.95454975
 30
0.0
 40
5.0
  1
HECO-FIX-plus SK 6.0x60
  7
ARIAL
 50
0.0
 41
0.8
 51
0.0
100
AcDbText
  0
TEXT
  5
29A
100
AcDbEntity
  8
MST_1_1
 62
     7
100
AcDbText
 10
72.93749597
 20
28.54545025
 30
0.0
 40
5.0
  1
70
  7
ARIAL
 50
89.9999975
 41
0.8
 51
0.0
100
AcDbText
  0
TEXT
  5
29B
100
AcDbEntity
  8
MST_1_1
 62
     7
100
AcDbText
 10
47.93749597
 20
18.54545025
 30
0.0
 40
5.0
  1
45
  7
ARIAL
 50
89.9999975
 41
0.8
 51
0.0
100
AcDbText
  0
TEXT
  5
29C
100
AcDbEntity
  8
MST_1_1
 62
     7
100
AcDbText
 10
-74.34408066
 20
-23.95454975
 30
0.0
 40
5.0
  1
HECO-FIX-plus SK 6.0x45
  7
ARIAL
 50
0.0
 41
0.8
 51
0.0
100
AcDbText
  0
TEXT
  5
29D
100
AcDbEntity
  8
MST_1_1
 62
     7
100
AcDbText
 10
-74.34408066
 20
-113.95454975
 30
0.0
 40
5.0
  1
HECO-FIX-plus SK 6.0x70
  7
ARIAL
 50
0.0
 41
0.8
 51
0.0
100
AcDbText
  0
TEXT
  5
29E
100
AcDbEntity
  8
MST_1_1
 62
     7
100
AcDbText
 10
-127.41702932
 20
6.04545025
 30
0.0
 40
5.0
  1
T-Drive T25
  7
ARIAL
 50
0.0
 41
0.8
 51
0.0
100
AcDbText
  0
TEXT
  5
29F
100
AcDbEntity
  8
MST_1_1
 62
     7
100
AcDbText
 10
-127.41702932
 20
-23.95454975
 30
0.0
 40
5.0
  1
T-Drive T25
  7
ARIAL
 50
0.0
 41
0.8
 51
0.0
100
AcDbText
  0
TEXT
  5
2A0
100
AcDbEntity
  8
MST_1_1
 62
     7
100
AcDbText
 10
-127.41702932
 20
-53.95454975
 30
0.0
 40
5.0
  1
T-Drive T25
  7
ARIAL
 50
0.0
 41
0.8
 51
0.0
100
AcDbText
  0
TEXT
  5
2A1
100
AcDbEntity
  8
MST_1_1
 62
     7
100
AcDbText
 10
-127.41702932
 20
-83.95454975
 30
0.0
 40
5.0
  1
T-Drive T25
  7
ARIAL
 50
0.0
 41
0.8
 51
0.0
100
AcDbText
  0
TEXT
  5
2A2
100
AcDbEntity
  8
MST_1_1
 62
     7
100
AcDbText
 10
-127.41702932
 20
-113.95454975
 30
0.0
 40
5.0
  1
T-Drive T25
  7
ARIAL
 50
0.0
 41
0.8
 51
0.0
100
AcDbText
  0
ENDSEC
  0
SECTION
  2
OBJECTS
  0
DICTIONARY
  5
1
100
AcDbDictionary
  3
ACAD_GROUP
350
2
  3
ACAD_MLINESTYLE
350
3
  0
DICTIONARY
  5
2
102
{CDWK_REACTORS
330
1
102
}
100
AcDbDictionary
  0
DICTIONARY
  5
3
102
{CDWK_REACTORS
330
1
102
}
100
AcDbDictionary
  3
STANDARD
350
4
  0
MLINESTYLE
  5
4
102
{CDWK_REACTORS
330
3
102
}
100
AcDbMlineStyle
  2
STANDARD
 70
     0
  3

 62
     0
 51
90.0
 52
90.0
 71
     2
 49
0.5
 62
   256
  6
BYLAYER
 49
-0.5
 62
   256
  6
BYLAYER
  0
ENDSEC
  0
EOF
