  0
SECTION
  2
HEADER
  9
$ACADVER
  1
AC1012
  9
$DWGCODEPAGE
  3
ANSI_1252
  9
$INSBASE
 10
0.0
 20
0.0
 30
0.0
  9
$EXTMIN
 10
-159.64347937
 20
-149.15162711
  9
$EXTMAX
 10
321.42930109
 20
200.55810628
  9
$LIMMIN
 10
-159.64347937
 20
-149.15162711
  9
$LIMMAX
 10
321.42930109
 20
200.55810628
  9
$ORTHOMODE
 70
     0
  9
$REGENMODE
 70
     1
  9
$FILLMODE
 70
     1
  9
$QTEXTMODE
 70
     0
  9
$MIRRTEXT
 70
     1
  9
$DRAGMODE
 70
     2
  9
$LTSCALE
 40
1.0
  9
$OSMODE
 70
     0
  9
$ATTMODE
 70
     1
  9
$TEXTSIZE
 40
3.5
  9
$TRACEWID
 40
1.0
  9
$TEXTSTYLE
  7
STANDARD
  9
$CLAYER
  8
0
  9
$CELTYPE
  6
BYLAYER
  9
$CECOLOR
 62
   256
  9
$DIMSCALE
 40
1.0
  9
$DIMASZ
 40
2.0
  9
$DIMEXO
 40
5.0
  9
$DIMDLI
 40
10.0
  9
$DIMRND
 40
0.0
  9
$DIMDLE
 40
2.0
  9
$DIMEXE
 40
2.0
  9
$DIMTP
 40
0.0
  9
$DIMTM
 40
0.0
  9
$DIMTXT
 40
2.5
  9
$DIMCEN
 40
1.5
  9
$DIMTSZ
 40
0.0
  9
$DIMTOL
 70
     0
  9
$DIMLIM
 70
     0
  9
$DIMTIH
 70
     1
  9
$DIMTOH
 70
     0
  9
$DIMSE1
 70
     0
  9
$DIMSE2
 70
     0
  9
$DIMTAD
 70
     1
  9
$DIMZIN
 70
     8
  9
$DIMBLK
  1

  9
$DIMASO
 70
     1
  9
$DIMSHO
 70
     1
  9
$DIMPOST
  1

  9
$DIMAPOST
  1

  9
$DIMALT
 70
     0
  9
$DIMALTD
 70
     2
  9
$DIMALTF
 40
25.4
  9
$DIMLFAC
 40
1.0
  9
$DIMTOFL
 70
     0
  9
$DIMTVP
 40
0.0
  9
$DIMTIX
 70
     0
  9
$DIMSOXD
 70
     0
  9
$DIMSAH
 70
     0
  9
$DIMBLK1
  1

  9
$DIMBLK2
  1

  9
$DIMSTYLE
  2
*UNNAMED
  9
$DIMCLRD
 70
     9
  9
$DIMCLRE
 70
     9
  9
$DIMCLRT
 70
     7
  9
$DIMTFAC
 40
1.0
  9
$DIMGAP
 40
0.09
  9
$DIMUNIT
 70
     2
  9
$LUNITS
 70
     2
  9
$LUPREC
 70
     6
  9
$AXISMODE
 70
     0
  9
$AXISUNIT
 10
0.0
 20
0.0
  9
$SKETCHINC
 40
0.1
  9
$FILLETRAD
 40
0.0
  9
$AUNITS
 70
     0
  9
$AUPREC
 70
     0
  9
$MENU
  1
ACAD
  9
$ELEVATION
 40
0.0
  9
$PELEVATION
 40
0.0
  9
$THICKNESS
 40
0.0
  9
$LIMCHECK
 70
     0
  9
$BLIPMODE
 70
     1
  9
$CHAMFERA
 40
0.0
  9
$CHAMFERB
 40
0.0
  9
$SKPOLY
 70
     1
  9
$TDCREATE
 40
2456119.0000000000
  9
$TDUPDATE
 40
2456119.0000000000
  9
$TDINDWG
 40
0.0
  9
$TDUSRTIMER
 40
0.0
  9
$USRTIMER
 70
     1
  9
$ANGBASE
 50
0.0
  9
$ANGDIR
 70
     0
  9
$PDMODE
 70
     0
  9
$PDSIZE
 40
0.0
  9
$PLINEWID
 40
0.0
  9
$COORDS
 70
     2
  9
$SPLFRAME
 70
     0
  9
$SPLINETYPE
 70
     6
  9
$SPLINESEGS
 70
     8
  9
$ATTDIA
 70
     1
  9
$ATTREQ
 70
     1
  9
$HANDLING
 70
     1
  9
$HANDSEED
  5
     150
  9
$SURFTAB1
 70
     6
  9
$SURFTAB2
 70
     6
  9
$SURFTYPE
 70
     6
  9
$SURFU
 70
     6
  9
$SURFV
 70
     6
  9
$UCSNAME
  2

  9
$UCSORG
 10
0.0
 20
0.0
 30
0.0
  9
$UCSXDIR
 10
1.0
 20
0.0
 30
0.0
  9
$UCSYDIR
 10
0.0
 20
1.0
 30
0.0
  9
$PUCSNAME
  2

  9
$PUCSORG
 10
0.0
 20
0.0
 30
0.0
  9
$PUCSXDIR
 10
1.0
 20
0.0
 30
0.0
  9
$PUCSYDIR
 10
0.0
 20
1.0
 30
0.0
  9
$USERI1
 70
     0
  9
$USERI2
 70
     0
  9
$USERI3
 70
     0
  9
$USERI4
 70
     0
  9
$USERI5
 70
     0
  9
$USERR1
 40
0.0
  9
$USERR2
 40
0.0
  9
$USERR3
 40
0.0
  9
$USERR4
 40
0.0
  9
$USERR5
 40
0.0
  9
$WORLDVIEW
 70
     1
  9
$SHADEDGE
 70
     3
  9
$SHADEDIF
 70
    70
  9
$TILEMODE
 70
     1
  9
$MAXACTVP
 70
    16
  9
$PINSBASE
 10
0.0
 20
0.0
 30
0.0
  9
$PLIMCHECK
 70
     0
  9
$PEXTMIN
 10
1.0000000000000E+20
 20
1.0000000000000E+20
 30
1.0000000000000E+20
  9
$PEXTMAX
 10
-1.0000000000000E+20
 20
-1.0000000000000E+20
 30
-1.0000000000000E+20
  9
$PLIMMIN
 10
0.0
 20
0.0
  9
$UNITMODE
 70
     0
  9
$VISRETAIN
 70
     0
  9
$MEASUREMENT
 70
     1
  0
ENDSEC
  0
SECTION
  2
TABLES
  0
TABLE
  2
VPORT
  5
17
100
AcDbSymbolTable
 70
     1
  0
ENDTAB
  0
TABLE
  2
STYLE
  5
18
100
AcDbSymbolTable
 70
     4
  0
STYLE
  5
19
100
AcDbSymbolTableRecord
100
AcDbTextStyleTableRecord
  2
STANDARD
 70
     0
 40
0.0
 41
1.0
 50
0.0
 71
     0
 42
3.5
  3
MONOTXT
  4

  0
STYLE
  5
1A
100
AcDbSymbolTableRecord
100
AcDbTextStyleTableRecord
  2
CADWORK1
 70
     0
 40
0.0
 41
1.0
 50
0.0
 71
     0
 42
3.5
  3
MONOTXT
  4

  0
STYLE
  5
1B
100
AcDbSymbolTableRecord
100
AcDbTextStyleTableRecord
  2
MONOTXT
 70
     0
 40
0.0
 41
1.0
 50
0.0
 71
     0
 42
3.5
  3
MONOTXT
  4

  0
STYLE
  5
1C
100
AcDbSymbolTableRecord
100
AcDbTextStyleTableRecord
  2
TAHOMA
 70
     0
 40
0.0
 41
1.0
 50
0.0
 71
     0
 42
3.5
  3

  4

1001
ACAD
1000
Tahoma
1071
        0
  0
STYLE
  5
1D
100
AcDbSymbolTableRecord
100
AcDbTextStyleTableRecord
  2
ARIAL
 70
     0
 40
0.0
 41
1.0
 50
0.0
 71
     0
 42
3.5
  3

  4

1001
ACAD
1000
Arial
1071
        0
  0
ENDTAB
  0
TABLE
  2
LTYPE
  5
1E
100
AcDbSymbolTable
 70
    12
  0
LTYPE
  5
1F
100
AcDbSymbolTableRecord
100
AcDbLinetypeTableRecord
  2
BYBLOCK
 70
    64
  3

 72
    65
 73
     0
 40
0.0
  0
LTYPE
  5
20
100
AcDbSymbolTableRecord
100
AcDbLinetypeTableRecord
  2
BYLAYER
 70
    64
  3

 72
    65
 73
     0
 40
0.0
  0
LTYPE
  5
21
100
AcDbSymbolTableRecord
100
AcDbLinetypeTableRecord
  2
CONTINUOUS
 70
    64
  3
Solid line
 72
    65
 73
     0
 40
0.0
  0
LTYPE
  5
22
100
AcDbSymbolTableRecord
100
AcDbLinetypeTableRecord
  2
DOT
 70
    64
  3
. . . . . . . . . . . . . . . . . . . . . . . .
 72
    65
 73
     2
 40
2.5
 49
0.0
 74
     0
 49
-2.5
 74
     0
  0
LTYPE
  5
23
100
AcDbSymbolTableRecord
100
AcDbLinetypeTableRecord
  2
DASHED
 70
    64
  3
__ __ __ __ __ __ __ __ __ __ __ __ __ __ __ __
 72
    65
 73
     2
 40
7.5
 49
5.0
 74
     0
 49
-2.5
 74
     0
  0
LTYPE
  5
24
100
AcDbSymbolTableRecord
100
AcDbLinetypeTableRecord
  2
BORDER
 70
    64
  3
 __ __ . __ __ . __ __ . __ __ . __ __ . __ __ .
 72
    65
 73
     6
 40
17.0
 49
5.0
 74
     0
 49
-2.0
 74
     0
 49
5.0
 74
     0
 49
-2.0
 74
     0
 49
1.0
 74
     0
 49
-2.0
 74
     0
  0
LTYPE
  5
25
100
AcDbSymbolTableRecord
100
AcDbLinetypeTableRecord
  2
DAL
 70
    64
  3
Solid line (for MAPS)
 72
    65
 73
     0
 40
0.0
  0
LTYPE
  5
26
100
AcDbSymbolTableRecord
100
AcDbLinetypeTableRecord
  2
MUR
 70
    64
  3
Solid line (for MAPS)
 72
    65
 73
     0
 40
0.0
  0
LTYPE
  5
27
100
AcDbSymbolTableRecord
100
AcDbLinetypeTableRecord
  2
SOM
 70
    64
  3
Solid line (for MAPS)
 72
    65
 73
     0
 40
0.0
  0
LTYPE
  5
28
100
AcDbSymbolTableRecord
100
AcDbLinetypeTableRecord
  2
COL
 70
    64
  3
Solid line (for MAPS)
 72
    65
 73
     0
 40
0.0
  0
LTYPE
  5
29
100
AcDbSymbolTableRecord
100
AcDbLinetypeTableRecord
  2
LGN
 70
    64
  3
Solid line (for MAPS)
 72
    65
 73
     0
 40
0.0
  0
LTYPE
  5
2A
100
AcDbSymbolTableRecord
100
AcDbLinetypeTableRecord
  2
PNT
 70
    64
  3
Solid line (for MAPS)
 72
    65
 73
     0
 40
0.0
  0
ENDTAB
  0
TABLE
  2
LAYER
  5
2B
100
AcDbSymbolTable
 70
     1
  0
LAYER
  5
2C
100
AcDbSymbolTableRecord
100
AcDbLayerTableRecord
  2
0
 70
     0
 62
     1
  6
CONTINUOUS
  0
LAYER
  5
2D
100
AcDbSymbolTableRecord
100
AcDbLayerTableRecord
  2
MST_1_1
 70
     0
 62
     7
  6
CONTINUOUS
  0
ENDTAB
  0
TABLE
  2
VIEW
  5
2E
100
AcDbSymbolTable
 70
     0
  0
ENDTAB
  0
TABLE
  2
UCS
  5
2F
100
AcDbSymbolTable
 70
     0
  0
ENDTAB
  0
TABLE
  2
APPID
  5
30
100
AcDbSymbolTable
 70
     1
  0
APPID
  5
31
100
AcDbSymbolTableRecord
100
AcDbRegAppTableRecord
  2
ACAD
 70
     0
  0
ENDTAB
  0
TABLE
  2
DIMSTYLE
  5
32
100
AcDbSymbolTable
 70
     0
  0
ENDTAB
  0
TABLE
  2
BLOCK_RECORD
  5
33
100
AcDbSymbolTable
 70
     0
  0
BLOCK_RECORD
  5
34
100
AcDbSymbolTableRecord
100
AcDbBlockTableRecord
  2
*MODEL_SPACE
  0
BLOCK_RECORD
  5
35
100
AcDbSymbolTableRecord
100
AcDbBlockTableRecord
  2
*PAPER_SPACE
  0
BLOCK_RECORD
  5
36
100
AcDbSymbolTableRecord
100
AcDbBlockTableRecord
  2
CDWK_EXTR_0
  0
BLOCK_RECORD
  5
37
100
AcDbSymbolTableRecord
100
AcDbBlockTableRecord
  2
CDWK_EXTR_1D
  0
BLOCK_RECORD
  5
38
100
AcDbSymbolTableRecord
100
AcDbBlockTableRecord
  2
CDWK_EXTR_1G
  0
BLOCK_RECORD
  5
39
100
AcDbSymbolTableRecord
100
AcDbBlockTableRecord
  2
CDWK_EXTR_2
  0
BLOCK_RECORD
  5
3A
100
AcDbSymbolTableRecord
100
AcDbBlockTableRecord
  2
CDWK_EXTR_3
  0
BLOCK_RECORD
  5
3B
100
AcDbSymbolTableRecord
100
AcDbBlockTableRecord
  2
CDWK_EXTR_4
  0
BLOCK_RECORD
  5
3C
100
AcDbSymbolTableRecord
100
AcDbBlockTableRecord
  2
CDWK_PTTYP0
  0
ENDTAB
  0
ENDSEC
  0
SECTION
  2
BLOCKS
  0
BLOCK
  5
3D
100
AcDbEntity
  8
0
100
AcDbBlockBegin
  2
*MODEL_SPACE
 70
     0
 10
0.0
 20
0.0
 30
0.0
  3
*MODEL_SPACE
  1

  0
ENDBLK
  5
3E
100
AcDbEntity
100
AcDbBlockEnd
  0
BLOCK
  5
3F
100
AcDbEntity
  8
0
100
AcDbBlockBegin
  2
*PAPER_SPACE
 70
     0
 10
0.0
 20
0.0
 30
0.0
  3
*PAPER_SPACE
  1

  0
ENDBLK
  5
40
100
AcDbEntity
100
AcDbBlockEnd
  0
BLOCK
  5
41
100
AcDbEntity
  8
0
100
AcDbBlockBegin
  2
CDWK_EXTR_0
 70
     0
 10
0.0
 20
0.0
 30
0.0
  3
CDWK_EXTR_0
  1

  4
Cadwork line-extremity
  0
LINE
  5
42
100
AcDbEntity
  8
0
 62
     0
100
AcDbLine
 10
0.0
 20
0.0
 30
0.0
 11
2.0
 21
0.5
 31
0.0
  0
LINE
  5
43
100
AcDbEntity
  8
0
 62
     0
100
AcDbLine
 10
0.0
 20
0.0
 30
0.0
 11
2.0
 21
-0.5
 31
0.0
  0
LINE
  5
44
100
AcDbEntity
  8
0
 62
     0
100
AcDbLine
 10
2.0
 20
0.5
 30
0.0
 11
2.0
 21
-0.5
 31
0.0
  0
ENDBLK
  5
45
100
AcDbEntity
100
AcDbBlockEnd
  0
BLOCK
  5
46
100
AcDbEntity
  8
0
100
AcDbBlockBegin
  2
CDWK_EXTR_1D
 70
     0
 10
0.0
 20
0.0
 30
0.0
  3
CDWK_EXTR_1D
  1

  4
Cadwork line-extremity
  0
LINE
  5
47
100
AcDbEntity
  8
0
 62
     0
100
AcDbLine
 10
0.0
 20
0.0
 30
0.0
 11
0.0
 21
1.0
 31
0.0
  0
LINE
  5
48
100
AcDbEntity
  8
0
 62
     0
100
AcDbLine
 10
0.0
 20
1.0
 30
0.0
 11
0.5
 21
1.5
 31
0.0
  0
LINE
  5
49
100
AcDbEntity
  8
0
 62
     0
100
AcDbLine
 10
0.5
 20
1.5
 30
0.0
 11
1.5
 21
1.5
 31
0.0
  0
ENDBLK
  5
4A
100
AcDbEntity
100
AcDbBlockEnd
  0
BLOCK
  5
4B
100
AcDbEntity
  8
0
100
AcDbBlockBegin
  2
CDWK_EXTR_1G
 70
     0
 10
0.0
 20
0.0
 30
0.0
  3
CDWK_EXTR_1G
  1

  4
Cadwork line-extremity
  0
LINE
  5
4C
100
AcDbEntity
  8
0
 62
     0
100
AcDbLine
 10
0.0
 20
0.0
 30
0.0
 11
0.0
 21
-1.0
 31
0.0
  0
LINE
  5
4D
100
AcDbEntity
  8
0
 62
     0
100
AcDbLine
 10
0.0
 20
-1.0
 30
0.0
 11
0.5
 21
-1.5
 31
0.0
  0
LINE
  5
4E
100
AcDbEntity
  8
0
 62
     0
100
AcDbLine
 10
0.5
 20
-1.5
 30
0.0
 11
1.5
 21
-1.5
 31
0.0
  0
ENDBLK
  5
4F
100
AcDbEntity
100
AcDbBlockEnd
  0
BLOCK
  5
50
100
AcDbEntity
  8
0
100
AcDbBlockBegin
  2
CDWK_EXTR_2
 70
     0
 10
0.0
 20
0.0
 30
0.0
  3
CDWK_EXTR_2
  1

  4
Cadwork line-extremity
  0
SOLID
  5
51
100
AcDbEntity
  8
0
 62
     0
100
AcDbTrace
 10
0.0
 20
0.0
 11
2.0
 21
0.5
 12
2.0
 22
-0.5
 13
2.0
 23
-0.5
  0
ENDBLK
  5
52
100
AcDbEntity
100
AcDbBlockEnd
  0
BLOCK
  5
53
100
AcDbEntity
  8
0
100
AcDbBlockBegin
  2
CDWK_EXTR_3
 70
     0
 10
0.0
 20
0.0
 30
0.0
  3
CDWK_EXTR_3
  1

  4
Cadwork line-extremity
  0
SOLID
  5
54
100
AcDbEntity
  8
0
 62
     0
100
AcDbTrace
 10
0.0
 20
0.0
 11
2.0
 21
0.5
 12
2.0
 22
-0.5
 13
2.0
 23
-0.5
  0
LINE
  5
55
100
AcDbEntity
  8
0
 62
     0
100
AcDbLine
 10
0.0
 20
1.0
 30
0.0
 11
0.0
 21
-1.0
 31
0.0
  0
ENDBLK
  5
56
100
AcDbEntity
100
AcDbBlockEnd
  0
BLOCK
  5
57
100
AcDbEntity
  8
0
100
AcDbBlockBegin
  2
CDWK_EXTR_4
 70
     0
 10
0.0
 20
0.0
 30
0.0
  3
CDWK_EXTR_4
  1

  4
Cadwork line-extremity
  0
POLYLINE
  5
58
100
AcDbEntity
  8
0
 62
     0
100
AcDb2dPolyline
 70
     1
 66
     1
 10
0.0
 20
0.0
 30
0.0
 40
0.5
 41
0.5
  0
VERTEX
  5
59
100
AcDbEntity
  8
0
100
AcDbVertex
100
AcDb2dVertex
 10
-0.25
 20
0.0
 30
0.0
 42
1.0
  0
VERTEX
  5
5A
100
AcDbEntity
  8
0
100
AcDbVertex
100
AcDb2dVertex
 10
0.25
 20
0.0
 30
0.0
 42
1.0
  0
SEQEND
  5
5B
100
AcDbEntity
  0
ENDBLK
  5
5C
100
AcDbEntity
100
AcDbBlockEnd
  0
BLOCK
  5
5D
100
AcDbEntity
  8
0
100
AcDbBlockBegin
  2
CDWK_PTTYP0
 70
     0
 10
0.0
 20
0.0
 30
0.0
  3
CDWK_PTTYP0
  1

  4
Cadwork point
  0
POINT
  5
5E
100
AcDbEntity
  8
0
 62
     0
100
AcDbPoint
 10
0.0
 20
0.0
 30
0.0
  0
ENDBLK
  5
5F
100
AcDbEntity
100
AcDbBlockEnd
  0
ENDSEC
  0
SECTION
  2
ENTITIES
  0
LINE
  5
60
100
AcDbEntity
  8
MST_1_1
 62
     7
  6
DASHED
100
AcDbLine
 10
-2.06250403
 20
28.54545025
 30
0.0
 11
-2.06250403
 21
-36.45454975
 31
0.0
  0
LINE
  5
61
100
AcDbEntity
  8
MST_1_1
 62
     7
  6
DASHED
100
AcDbLine
 10
37.93749597
 20
28.54545025
 30
0.0
 11
37.93749597
 21
-36.45454975
 31
0.0
  0
LINE
  5
62
100
AcDbEntity
  8
MST_1_1
 62
     7
  6
DASHED
100
AcDbLine
 10
32.93749597
 20
18.54545025
 30
0.0
 11
32.93749597
 21
-6.45454975
 31
0.0
  0
LWPOLYLINE
  5
63
100
AcDbEntity
  8
MST_1_1
 62
     1
  6
BORDER
100
AcDbPolyline
 90
        3
 70
     0
 43
0.0
 10
32.93749597
 20
8.54545025
 10
-2.06250403
 20
8.54545025
 10
-7.06250403
 20
8.54545025
  0
LWPOLYLINE
  5
64
100
AcDbEntity
  8
MST_1_1
 62
     1
  6
BORDER
100
AcDbPolyline
 90
        3
 70
     0
 43
0.0
 10
37.93749597
 20
-21.45454975
 10
-2.06250403
 20
-21.45454975
 10
-7.06250403
 20
-21.45454975
  0
LINE
  5
65
100
AcDbEntity
  8
MST_1_1
 62
   137
  6
CONTINUOUS
100
AcDbLine
 10
-2.06250403
 20
-21.45454975
 30
0.0
 11
-2.06250403
 21
-16.60454975
 31
0.0
  0
LINE
  5
66
100
AcDbEntity
  8
MST_1_1
 62
   137
  6
CONTINUOUS
100
AcDbLine
 10
-2.06250403
 20
-16.60454975
 30
0.0
 11
-1.95472628
 21
-16.60454975
 31
0.0
  0
LWPOLYLINE
  5
67
100
AcDbEntity
  8
MST_1_1
 62
   137
  6
CONTINUOUS
100
AcDbPolyline
 90
        6
 70
     0
 43
0.0
 38
2500.0
 10
4.73050701
 20
-18.95454958
 10
4.50892454
 20
-19.9116926
 10
6.3823362
 20
-23.95454975
 10
6.60391876
 20
-22.99740689
 10
4.73050701
 20
-18.95454958
 10
6.3823362
 20
-23.95454975
  0
LINE
  5
68
100
AcDbEntity
  8
MST_1_1
 62
   137
  6
CONTINUOUS
100
AcDbLine
 10
0.93749597
 20
-19.9116926
 30
2500.0
 11
4.50892454
 21
-19.9116926
 31
2500.0
  0
LWPOLYLINE
  5
69
100
AcDbEntity
  8
MST_1_1
 62
   137
  6
CONTINUOUS
100
AcDbPolyline
 90
        4
 70
     0
 43
0.0
 38
2500.0
 10
3.08166479
 20
-22.99740689
 10
3.52519334
 20
-23.95454975
 10
3.7467759
 20
-22.99740689
 10
3.41441802
 20
-22.28017241
  0
LINE
  5
6A
100
AcDbEntity
  8
MST_1_1
 62
   137
  6
CONTINUOUS
100
AcDbLine
 10
3.15603084
 20
-22.83711424
 30
2500.0
 11
3.52519334
 21
-23.95454975
 31
2500.0
  0
LINE
  5
6B
100
AcDbEntity
  8
MST_1_1
 62
   137
  6
CONTINUOUS
100
AcDbLine
 10
3.08166479
 20
-22.99740689
 30
2500.0
 11
3.41441802
 21
-22.28017241
 31
2500.0
  0
LINE
  5
6C
100
AcDbEntity
  8
MST_1_1
 62
   137
  6
CONTINUOUS
100
AcDbLine
 10
5.93880764
 20
-22.99740689
 30
2500.0
 11
3.7467759
 21
-22.99740689
 31
2500.0
  0
LINE
  5
6D
100
AcDbEntity
  8
MST_1_1
 62
   137
  6
CONTINUOUS
100
AcDbLine
 10
3.08166479
 20
-22.99740689
 30
2500.0
 11
0.93749597
 21
-22.99740689
 31
2500.0
  0
LINE
  5
6E
100
AcDbEntity
  8
MST_1_1
 62
   137
  6
CONTINUOUS
100
AcDbLine
 10
-1.95472628
 20
-16.60454975
 30
0.0
 11
0.93749597
 21
-19.9116926
 31
0.0
  0
LINE
  5
6F
100
AcDbEntity
  8
MST_1_1
 62
   137
  6
CONTINUOUS
100
AcDbLine
 10
0.93749597
 20
-22.99740689
 30
0.0
 11
-1.95472628
 21
-26.30454975
 31
0.0
  0
LINE
  5
70
100
AcDbEntity
  8
MST_1_1
 62
   137
  6
CONTINUOUS
100
AcDbLine
 10
-1.95472628
 20
-26.30454975
 30
0.0
 11
-2.06250403
 21
-26.30454975
 31
0.0
  0
LINE
  5
71
100
AcDbEntity
  8
MST_1_1
 62
   137
  6
CONTINUOUS
100
AcDbLine
 10
-2.06250403
 20
-26.30454975
 30
0.0
 11
-2.06250403
 21
-21.45454975
 31
0.0
  0
LWPOLYLINE
  5
72
100
AcDbEntity
  8
MST_1_1
 62
   137
  6
CONTINUOUS
100
AcDbPolyline
 90
        6
 70
     0
 43
0.0
 38
2500.0
 10
7.58764987
 20
-18.95454958
 10
7.3660674
 20
-19.9116926
 10
9.23947906
 20
-23.95454975
 10
9.46106161
 20
-22.99740689
 10
7.58764987
 20
-18.95454958
 10
9.23947906
 20
-23.95454975
  0
LWPOLYLINE
  5
73
100
AcDbEntity
  8
MST_1_1
 62
   137
  6
CONTINUOUS
100
AcDbPolyline
 90
        6
 70
     0
 43
0.0
 38
2500.0
 10
10.44479273
 20
-18.95454958
 10
10.22321025
 20
-19.9116926
 10
12.09662192
 20
-23.95454975
 10
12.31820447
 20
-22.99740689
 10
10.44479273
 20
-18.95454958
 10
12.09662192
 20
-23.95454975
  0
LWPOLYLINE
  5
74
100
AcDbEntity
  8
MST_1_1
 62
   137
  6
CONTINUOUS
100
AcDbPolyline
 90
        6
 70
     0
 43
0.0
 38
2500.0
 10
27.58764987
 20
-18.95454958
 10
27.3660674
 20
-19.9116926
 10
29.23947906
 20
-23.95454975
 10
29.42730079
 20
-22.92455041
 10
27.58764987
 20
-18.95454958
 10
29.23947906
 20
-23.95454975
  0
LWPOLYLINE
  5
75
100
AcDbEntity
  8
MST_1_1
 62
   137
  6
CONTINUOUS
100
AcDbPolyline
 90
        6
 70
     0
 43
0.0
 38
2500.0
 10
30.40269206
 20
-19.27982004
 10
30.22321025
 20
-20.0551059
 10
31.77030659
 20
-23.39376852
 10
31.9497884
 20
-22.61848267
 10
30.40269206
 20
-19.27982004
 10
31.7406737
 20
-23.32982018
  0
LINE
  5
76
100
AcDbEntity
  8
MST_1_1
 62
   137
  6
CONTINUOUS
100
AcDbLine
 10
6.60391876
 20
-22.99740689
 30
2500.0
 11
8.7959505
 21
-22.99740689
 31
2500.0
  0
LINE
  5
77
100
AcDbEntity
  8
MST_1_1
 62
   137
  6
CONTINUOUS
100
AcDbLine
 10
9.46106161
 20
-22.99740689
 30
2500.0
 11
11.65309336
 21
-22.99740689
 31
2500.0
  0
LINE
  5
78
100
AcDbEntity
  8
MST_1_1
 62
   137
  6
CONTINUOUS
100
AcDbLine
 10
26.60391876
 20
-22.99740689
 30
2500.0
 11
28.03410631
 21
-22.99108865
 31
2500.0
  0
LINE
  5
79
100
AcDbEntity
  8
MST_1_1
 62
   137
  6
CONTINUOUS
100
AcDbLine
 10
7.3660674
 20
-19.9116926
 30
2500.0
 11
5.17403565
 21
-19.9116926
 31
2500.0
  0
LINE
  5
7A
100
AcDbEntity
  8
MST_1_1
 62
   137
  6
CONTINUOUS
100
AcDbLine
 10
10.22321025
 20
-19.9116926
 30
2500.0
 11
8.03117851
 21
-19.9116926
 31
2500.0
  0
LINE
  5
7B
100
AcDbEntity
  8
MST_1_1
 62
   137
  6
CONTINUOUS
100
AcDbLine
 10
27.3660674
 20
-19.9116926
 30
2500.0
 11
25.17403565
 21
-19.9116926
 31
2500.0
  0
ARC
  5
7C
100
AcDbEntity
  8
MST_1_1
 62
   137
  6
CONTINUOUS
100
AcDbCircle
 10
27.44516457
 20
-46.86822075
 30
2500.0
 40
26.95664419
100
AcDbArc
 50
84.08482032
 51
88.74811714
  0
LWPOLYLINE
  5
7D
100
AcDbEntity
  8
MST_1_1
 62
   137
  6
CONTINUOUS
100
AcDbPolyline
 90
        3
 70
     0
 43
0.0
 38
2500.0
 10
37.93749597
 20
-21.45454975
 10
32.6270394
 20
-20.41432048
 42
0.01723995
 10
30.79209587
 20
-20.12016069
  0
ARC
  5
7E
100
AcDbEntity
  8
MST_1_1
 62
   137
  6
CONTINUOUS
100
AcDbCircle
 10
27.44516457
 20
3.95912125
 30
2500.0
 40
26.95664419
100
AcDbArc
 50
271.25189287
 51
272.83975061
  0
LWPOLYLINE
  5
7F
100
AcDbEntity
  8
MST_1_1
 62
   137
  6
CONTINUOUS
100
AcDbPolyline
 90
        3
 70
     0
 43
0.0
 38
2500.0
 10
37.93749597
 20
-21.45454975
 10
32.6270394
 20
-22.49477901
 42
-0.0063851
 10
31.9497884
 20
-22.61848267
  0
ARC
  5
80
100
AcDbEntity
  8
MST_1_1
 62
   137
  6
CONTINUOUS
100
AcDbCircle
 10
27.44516457
 20
3.95912125
 30
2500.0
 40
26.95664419
100
AcDbArc
 50
274.21680449
 51
278.53995004
  0
LWPOLYLINE
  5
81
100
AcDbEntity
  8
MST_1_1
 62
   137
  6
CONTINUOUS
100
AcDbPolyline
 90
        6
 70
     0
 43
0.0
 38
2500.0
 10
33.1988111
 20
-19.99142836
 10
33.08035311
 20
-20.50311703
 10
34.1014367
 20
-22.70663436
 10
34.21472018
 20
-22.18377901
 10
33.1988111
 20
-19.99142836
 10
34.08187899
 20
-22.66442846
  0
LWPOLYLINE
  5
82
100
AcDbEntity
  8
MST_1_1
 62
   137
  6
CONTINUOUS
100
AcDbPolyline
 90
        6
 70
     0
 43
0.0
 38
2500.0
 10
24.73050701
 20
-18.95454958
 10
24.50892454
 20
-19.9116926
 10
26.3823362
 20
-23.95454975
 10
26.60391876
 20
-22.99740689
 10
24.73050701
 20
-18.95454958
 10
26.3823362
 20
-23.95454975
  0
LINE
  5
83
100
AcDbEntity
  8
MST_1_1
 62
   137
  6
CONTINUOUS
100
AcDbLine
 10
23.7467759
 20
-22.99740689
 30
2500.0
 11
25.93880764
 21
-22.99740689
 31
2500.0
  0
LINE
  5
84
100
AcDbEntity
  8
MST_1_1
 62
   137
  6
CONTINUOUS
100
AcDbLine
 10
24.50892454
 20
-19.9116926
 30
2500.0
 11
22.31689279
 21
-19.9116926
 31
2500.0
  0
LWPOLYLINE
  5
85
100
AcDbEntity
  8
MST_1_1
 62
   137
  6
CONTINUOUS
100
AcDbPolyline
 90
        6
 70
     0
 43
0.0
 38
2500.0
 10
16.15907844
 20
-18.95454958
 10
15.93749597
 20
-19.9116926
 10
17.81090763
 20
-23.95454975
 10
18.03249018
 20
-22.99740689
 10
16.15907844
 20
-18.95454958
 10
17.81090763
 20
-23.95454975
  0
LINE
  5
86
100
AcDbEntity
  8
MST_1_1
 62
   137
  6
CONTINUOUS
100
AcDbLine
 10
15.17534733
 20
-22.99740689
 30
2500.0
 11
17.36737907
 21
-22.99740689
 31
2500.0
  0
LINE
  5
87
100
AcDbEntity
  8
MST_1_1
 62
   137
  6
CONTINUOUS
100
AcDbLine
 10
15.93749597
 20
-19.9116926
 30
2500.0
 11
13.74546422
 21
-19.9116926
 31
2500.0
  0
LWPOLYLINE
  5
88
100
AcDbEntity
  8
MST_1_1
 62
   137
  6
CONTINUOUS
100
AcDbPolyline
 90
        6
 70
     0
 43
0.0
 38
2500.0
 10
21.87336416
 20
-18.95454958
 10
21.65178168
 20
-19.9116926
 10
23.52519334
 20
-23.95454975
 10
23.7467759
 20
-22.99740689
 10
21.87336416
 20
-18.95454958
 10
23.52519334
 20
-23.95454975
  0
LINE
  5
89
100
AcDbEntity
  8
MST_1_1
 62
   137
  6
CONTINUOUS
100
AcDbLine
 10
20.88963304
 20
-22.99740689
 30
2500.0
 11
23.08166479
 21
-22.99740689
 31
2500.0
  0
LINE
  5
8A
100
AcDbEntity
  8
MST_1_1
 62
   137
  6
CONTINUOUS
100
AcDbLine
 10
21.65178168
 20
-19.9116926
 30
2500.0
 11
19.45974994
 21
-19.9116926
 31
2500.0
  0
LWPOLYLINE
  5
8B
100
AcDbEntity
  8
MST_1_1
 62
   137
  6
CONTINUOUS
100
AcDbPolyline
 90
        6
 70
     0
 43
0.0
 38
2500.0
 10
19.0162213
 20
-18.95454958
 10
18.79463883
 20
-19.9116926
 10
20.66805049
 20
-23.95454975
 10
20.88963304
 20
-22.99740689
 10
19.0162213
 20
-18.95454958
 10
20.66805049
 20
-23.95454975
  0
LINE
  5
8C
100
AcDbEntity
  8
MST_1_1
 62
   137
  6
CONTINUOUS
100
AcDbLine
 10
18.03249018
 20
-22.99740689
 30
2500.0
 11
20.22452193
 21
-22.99740689
 31
2500.0
  0
LINE
  5
8D
100
AcDbEntity
  8
MST_1_1
 62
   137
  6
CONTINUOUS
100
AcDbLine
 10
18.79463883
 20
-19.9116926
 30
2500.0
 11
16.60260708
 21
-19.9116926
 31
2500.0
  0
LWPOLYLINE
  5
8E
100
AcDbEntity
  8
MST_1_1
 62
   137
  6
CONTINUOUS
100
AcDbPolyline
 90
        6
 70
     0
 43
0.0
 38
2500.0
 10
13.30193559
 20
-18.95454958
 10
13.08035311
 20
-19.9116926
 10
14.95376477
 20
-23.95454975
 10
15.17534733
 20
-22.99740689
 10
13.30193559
 20
-18.95454958
 10
14.95376477
 20
-23.95454975
  0
LINE
  5
8F
100
AcDbEntity
  8
MST_1_1
 62
   137
  6
CONTINUOUS
100
AcDbLine
 10
12.31820447
 20
-22.99740689
 30
2500.0
 11
14.51023622
 21
-22.99740689
 31
2500.0
  0
LINE
  5
90
100
AcDbEntity
  8
MST_1_1
 62
   137
  6
CONTINUOUS
100
AcDbLine
 10
13.08035311
 20
-19.9116926
 30
2500.0
 11
10.88832136
 21
-19.9116926
 31
2500.0
  0
LINE
  5
91
100
AcDbEntity
  8
MST_1_1
 62
   137
  6
CONTINUOUS
100
AcDbLine
 10
-2.06250403
 20
8.54545025
 30
0.0
 11
-2.06250403
 21
13.39545025
 31
0.0
  0
LINE
  5
92
100
AcDbEntity
  8
MST_1_1
 62
   137
  6
CONTINUOUS
100
AcDbLine
 10
-2.06250403
 20
13.39545025
 30
0.0
 11
-1.95472628
 21
13.39545025
 31
0.0
  0
LWPOLYLINE
  5
93
100
AcDbEntity
  8
MST_1_1
 62
   137
  6
CONTINUOUS
100
AcDbPolyline
 90
        6
 70
     0
 43
0.0
 38
2500.0
 10
5.44479273
 20
11.04545042
 10
5.22321025
 20
10.0883074
 10
7.09662192
 20
6.04545025
 10
7.31820447
 20
7.00259311
 10
5.44479273
 20
11.04545042
 10
7.09662192
 20
6.04545025
  0
LINE
  5
94
100
AcDbEntity
  8
MST_1_1
 62
   137
  6
CONTINUOUS
100
AcDbLine
 10
0.93749597
 20
10.0883074
 30
2500.0
 11
2.3660674
 21
10.0883074
 31
2500.0
  0
LINE
  5
95
100
AcDbEntity
  8
MST_1_1
 62
   137
  6
CONTINUOUS
100
AcDbLine
 10
6.65309336
 20
7.00259311
 30
2500.0
 11
4.46106161
 21
7.00259311
 31
2500.0
  0
LINE
  5
96
100
AcDbEntity
  8
MST_1_1
 62
   137
  6
CONTINUOUS
100
AcDbLine
 10
3.7959505
 20
7.00259311
 30
2500.0
 11
0.93749597
 21
7.00259311
 31
2500.0
  0
LINE
  5
97
100
AcDbEntity
  8
MST_1_1
 62
   137
  6
CONTINUOUS
100
AcDbLine
 10
-1.95472628
 20
13.39545025
 30
0.0
 11
0.93749597
 21
10.0883074
 31
0.0
  0
LINE
  5
98
100
AcDbEntity
  8
MST_1_1
 62
   137
  6
CONTINUOUS
100
AcDbLine
 10
0.93749597
 20
7.00259311
 30
0.0
 11
-1.95472628
 21
3.69545025
 31
0.0
  0
LINE
  5
99
100
AcDbEntity
  8
MST_1_1
 62
   137
  6
CONTINUOUS
100
AcDbLine
 10
-1.95472628
 20
3.69545025
 30
0.0
 11
-2.06250403
 21
3.69545025
 31
0.0
  0
LINE
  5
9A
100
AcDbEntity
  8
MST_1_1
 62
   137
  6
CONTINUOUS
100
AcDbLine
 10
-2.06250403
 20
3.69545025
 30
0.0
 11
-2.06250403
 21
8.54545025
 31
0.0
  0
LWPOLYLINE
  5
9B
100
AcDbEntity
  8
MST_1_1
 62
   137
  6
CONTINUOUS
100
AcDbPolyline
 90
        6
 70
     0
 43
0.0
 38
2500.0
 10
8.30193559
 20
11.04545042
 10
8.08035311
 20
10.0883074
 10
9.95376477
 20
6.04545025
 10
10.17534733
 20
7.00259311
 10
8.30193559
 20
11.04545042
 10
9.95376477
 20
6.04545025
  0
LWPOLYLINE
  5
9C
100
AcDbEntity
  8
MST_1_1
 62
   137
  6
CONTINUOUS
100
AcDbPolyline
 90
        6
 70
     0
 43
0.0
 38
2500.0
 10
22.58764987
 20
11.04545042
 10
22.3660674
 20
10.0883074
 10
24.23947906
 20
6.04545025
 10
24.42730079
 20
7.07544959
 10
22.58764987
 20
11.04545042
 10
24.23947906
 20
6.04545025
  0
LWPOLYLINE
  5
9D
100
AcDbEntity
  8
MST_1_1
 62
   137
  6
CONTINUOUS
100
AcDbPolyline
 90
        6
 70
     0
 43
0.0
 38
2500.0
 10
25.40269206
 20
10.72017996
 10
25.22321025
 20
9.9448941
 10
26.77030659
 20
6.60623148
 10
26.9497884
 20
7.38151733
 10
25.40269206
 20
10.72017996
 10
26.7406737
 20
6.67017982
  0
LINE
  5
9E
100
AcDbEntity
  8
MST_1_1
 62
   137
  6
CONTINUOUS
100
AcDbLine
 10
7.31820447
 20
7.00259311
 30
2500.0
 11
9.51023622
 21
7.00259311
 31
2500.0
  0
LINE
  5
9F
100
AcDbEntity
  8
MST_1_1
 62
   137
  6
CONTINUOUS
100
AcDbLine
 10
21.60391876
 20
7.00259311
 30
2500.0
 11
23.03410631
 21
7.00891135
 31
2500.0
  0
LINE
  5
A0
100
AcDbEntity
  8
MST_1_1
 62
   137
  6
CONTINUOUS
100
AcDbLine
 10
8.08035311
 20
10.0883074
 30
2500.0
 11
5.88832136
 21
10.0883074
 31
2500.0
  0
LINE
  5
A1
100
AcDbEntity
  8
MST_1_1
 62
   137
  6
CONTINUOUS
100
AcDbLine
 10
22.3660674
 20
10.0883074
 30
2500.0
 11
20.17403565
 21
10.0883074
 31
2500.0
  0
ARC
  5
A2
100
AcDbEntity
  8
MST_1_1
 62
   137
  6
CONTINUOUS
100
AcDbCircle
 10
22.44516457
 20
-16.86822075
 30
2500.0
 40
26.95664419
100
AcDbArc
 50
84.08482032
 51
88.74811714
  0
LWPOLYLINE
  5
A3
100
AcDbEntity
  8
MST_1_1
 62
   137
  6
CONTINUOUS
100
AcDbPolyline
 90
        3
 70
     0
 43
0.0
 38
2500.0
 10
32.93749597
 20
8.54545025
 10
27.6270394
 20
9.58567952
 42
0.01723995
 10
25.79209587
 20
9.87983931
  0
ARC
  5
A4
100
AcDbEntity
  8
MST_1_1
 62
   137
  6
CONTINUOUS
100
AcDbCircle
 10
22.44516457
 20
33.95912125
 30
2500.0
 40
26.95664419
100
AcDbArc
 50
271.25189287
 51
272.83975061
  0
LWPOLYLINE
  5
A5
100
AcDbEntity
  8
MST_1_1
 62
   137
  6
CONTINUOUS
100
AcDbPolyline
 90
        3
 70
     0
 43
0.0
 38
2500.0
 10
32.93749597
 20
8.54545025
 10
27.6270394
 20
7.50522099
 42
-0.0063851
 10
26.9497884
 20
7.38151733
  0
ARC
  5
A6
100
AcDbEntity
  8
MST_1_1
 62
   137
  6
CONTINUOUS
100
AcDbCircle
 10
22.44516457
 20
33.95912125
 30
2500.0
 40
26.95664419
100
AcDbArc
 50
274.21680449
 51
278.53995004
  0
LWPOLYLINE
  5
A7
100
AcDbEntity
  8
MST_1_1
 62
   137
  6
CONTINUOUS
100
AcDbPolyline
 90
        6
 70
     0
 43
0.0
 38
2500.0
 10
28.1988111
 20
10.00857164
 10
28.08035311
 20
9.49688297
 10
29.1014367
 20
7.29336564
 10
29.21472018
 20
7.81622099
 10
28.1988111
 20
10.00857164
 10
29.08187899
 20
7.33557154
  0
LWPOLYLINE
  5
A8
100
AcDbEntity
  8
MST_1_1
 62
   137
  6
CONTINUOUS
100
AcDbPolyline
 90
        6
 70
     0
 43
0.0
 38
2500.0
 10
19.73050701
 20
11.04545042
 10
19.50892454
 20
10.0883074
 10
21.3823362
 20
6.04545025
 10
21.60391876
 20
7.00259311
 10
19.73050701
 20
11.04545042
 10
21.3823362
 20
6.04545025
  0
LINE
  5
A9
100
AcDbEntity
  8
MST_1_1
 62
   137
  6
CONTINUOUS
100
AcDbLine
 10
18.7467759
 20
7.00259311
 30
2500.0
 11
20.93880764
 21
7.00259311
 31
2500.0
  0
LINE
  5
AA
100
AcDbEntity
  8
MST_1_1
 62
   137
  6
CONTINUOUS
100
AcDbLine
 10
19.50892454
 20
10.0883074
 30
2500.0
 11
17.31689279
 21
10.0883074
 31
2500.0
  0
LWPOLYLINE
  5
AB
100
AcDbEntity
  8
MST_1_1
 62
   137
  6
CONTINUOUS
100
AcDbPolyline
 90
        6
 70
     0
 43
0.0
 38
2500.0
 10
11.15907844
 20
11.04545042
 10
10.93749597
 20
10.0883074
 10
12.81090763
 20
6.04545025
 10
13.03249018
 20
7.00259311
 10
11.15907844
 20
11.04545042
 10
12.81090763
 20
6.04545025
  0
LINE
  5
AC
100
AcDbEntity
  8
MST_1_1
 62
   137
  6
CONTINUOUS
100
AcDbLine
 10
10.17534733
 20
7.00259311
 30
2500.0
 11
12.36737907
 21
7.00259311
 31
2500.0
  0
LINE
  5
AD
100
AcDbEntity
  8
MST_1_1
 62
   137
  6
CONTINUOUS
100
AcDbLine
 10
10.93749597
 20
10.0883074
 30
2500.0
 11
8.74546422
 21
10.0883074
 31
2500.0
  0
LWPOLYLINE
  5
AE
100
AcDbEntity
  8
MST_1_1
 62
   137
  6
CONTINUOUS
100
AcDbPolyline
 90
        6
 70
     0
 43
0.0
 38
2500.0
 10
16.87336416
 20
11.04545042
 10
16.65178168
 20
10.0883074
 10
18.52519334
 20
6.04545025
 10
18.7467759
 20
7.00259311
 10
16.87336416
 20
11.04545042
 10
18.52519334
 20
6.04545025
  0
LINE
  5
AF
100
AcDbEntity
  8
MST_1_1
 62
   137
  6
CONTINUOUS
100
AcDbLine
 10
15.88963304
 20
7.00259311
 30
2500.0
 11
18.08166479
 21
7.00259311
 31
2500.0
  0
LINE
  5
B0
100
AcDbEntity
  8
MST_1_1
 62
   137
  6
CONTINUOUS
100
AcDbLine
 10
16.65178168
 20
10.0883074
 30
2500.0
 11
14.45974994
 21
10.0883074
 31
2500.0
  0
LWPOLYLINE
  5
B1
100
AcDbEntity
  8
MST_1_1
 62
   137
  6
CONTINUOUS
100
AcDbPolyline
 90
        6
 70
     0
 43
0.0
 38
2500.0
 10
14.0162213
 20
11.04545042
 10
13.79463883
 20
10.0883074
 10
15.66805049
 20
6.04545025
 10
15.88963304
 20
7.00259311
 10
14.0162213
 20
11.04545042
 10
15.66805049
 20
6.04545025
  0
LINE
  5
B2
100
AcDbEntity
  8
MST_1_1
 62
   137
  6
CONTINUOUS
100
AcDbLine
 10
13.03249018
 20
7.00259311
 30
2500.0
 11
15.22452193
 21
7.00259311
 31
2500.0
  0
LINE
  5
B3
100
AcDbEntity
  8
MST_1_1
 62
   137
  6
CONTINUOUS
100
AcDbLine
 10
13.79463883
 20
10.0883074
 30
2500.0
 11
11.60260708
 21
10.0883074
 31
2500.0
  0
LWPOLYLINE
  5
B4
100
AcDbEntity
  8
MST_1_1
 62
   137
  6
CONTINUOUS
100
AcDbPolyline
 90
        6
 70
     0
 43
0.0
 38
2500.0
 10
2.58764987
 20
11.04545042
 10
2.3660674
 20
10.0883074
 10
4.23947906
 20
6.04545025
 10
4.46106161
 20
7.00259311
 10
2.58764987
 20
11.04545042
 10
4.23947906
 20
6.04545025
  0
LINE
  5
B5
100
AcDbEntity
  8
MST_1_1
 62
   137
  6
CONTINUOUS
100
AcDbLine
 10
5.22321025
 20
10.0883074
 30
2500.0
 11
3.03117851
 21
10.0883074
 31
2500.0
  0
LINE
  5
B6
100
AcDbEntity
  8
MST_1_1
 62
   147
  6
CONTINUOUS
100
AcDbLine
 10
-3.34759863
 20
11.36035221
 30
2500.0
 11
-3.34759863
 21
5.73054829
 31
2500.0
  0
LWPOLYLINE
  5
B7
100
AcDbEntity
  8
MST_1_1
 62
   147
  6
CONTINUOUS
100
AcDbPolyline
 90
       13
 70
     0
 43
0.0
 38
2500.0
 10
-3.34759863
 20
11.36035221
 10
-3.3452535
 20
11.55592144
 10
-3.32243757
 20
11.75072385
 10
-3.27929645
 20
11.9435161
 10
-3.21610549
 20
12.13306768
 10
-3.13326801
 20
12.3181688
 10
-3.03131272
 20
12.49763802
 10
-2.91089036
 20
12.6703299
 10
-2.77276951
 20
12.83514221
 10
-2.61783175
 20
12.99102304
 10
-2.44706596
 20
13.13697748
 10
-2.26156206
 20
13.27207397
 10
-2.06250403
 20
13.39545025
  0
LWPOLYLINE
  5
B8
100
AcDbEntity
  8
MST_1_1
 62
   147
  6
CONTINUOUS
100
AcDbPolyline
 90
       13
 70
     0
 43
0.0
 38
2500.0
 10
-3.34759863
 20
5.73054829
 10
-3.3452535
 20
5.53497906
 10
-3.32243757
 20
5.34017666
 10
-3.27929645
 20
5.14738441
 10
-3.21610549
 20
4.95783282
 10
-3.13326801
 20
4.77273171
 10
-3.03131272
 20
4.59326248
 10
-2.91089036
 20
4.42057061
 10
-2.77276951
 20
4.2557583
 10
-2.61783175
 20
4.09987747
 10
-2.44706596
 20
3.95392303
 10
-2.26156206
 20
3.81882654
 10
-2.06250403
 20
3.69545025
  0
LINE
  5
B9
100
AcDbEntity
  8
MST_1_1
 62
   147
  6
CONTINUOUS
100
AcDbLine
 10
-3.34759863
 20
-18.63964779
 30
2500.0
 11
-3.34759863
 21
-24.26945171
 31
2500.0
  0
LWPOLYLINE
  5
BA
100
AcDbEntity
  8
MST_1_1
 62
   147
  6
CONTINUOUS
100
AcDbPolyline
 90
       13
 70
     0
 43
0.0
 38
2500.0
 10
-3.34759863
 20
-18.63964779
 10
-3.3452535
 20
-18.44407856
 10
-3.32243757
 20
-18.24927615
 10
-3.27929645
 20
-18.0564839
 10
-3.21610549
 20
-17.86693232
 10
-3.13326801
 20
-17.6818312
 10
-3.03131272
 20
-17.50236198
 10
-2.91089036
 20
-17.3296701
 10
-2.77276951
 20
-17.16485779
 10
-2.61783175
 20
-17.00897696
 10
-2.44706596
 20
-16.86302252
 10
-2.26156206
 20
-16.72792603
 10
-2.06250403
 20
-16.60454975
  0
LWPOLYLINE
  5
BB
100
AcDbEntity
  8
MST_1_1
 62
   147
  6
CONTINUOUS
100
AcDbPolyline
 90
       13
 70
     0
 43
0.0
 38
2500.0
 10
-3.34759863
 20
-24.26945171
 10
-3.3452535
 20
-24.46502094
 10
-3.32243757
 20
-24.65982334
 10
-3.27929645
 20
-24.85261559
 10
-3.21610549
 20
-25.04216718
 10
-3.13326801
 20
-25.22726829
 10
-3.03131272
 20
-25.40673752
 10
-2.91089036
 20
-25.57942939
 10
-2.77276951
 20
-25.7442417
 10
-2.61783175
 20
-25.90012253
 10
-2.44706596
 20
-26.04607697
 10
-2.26156206
 20
-26.18117346
 10
-2.06250403
 20
-26.30454975
  0
CIRCLE
  5
BC
100
AcDbEntity
  8
MST_1_1
 62
   137
  6
CONTINUOUS
100
AcDbCircle
 10
-91.68887097
 20
8.54545025
 30
0.0
 40
2.32981333
  0
CIRCLE
  5
BD
100
AcDbEntity
  8
MST_1_1
 62
   137
  6
CONTINUOUS
100
AcDbCircle
 10
-91.68887097
 20
8.54545025
 30
0.0
 40
1.32203389
  0
CIRCLE
  5
BE
100
AcDbEntity
  8
MST_1_1
 62
   137
  6
CONTINUOUS
100
AcDbCircle
 10
-91.68887097
 20
8.54545025
 30
0.0
 40
2.32981333
  0
CIRCLE
  5
BF
100
AcDbEntity
  8
MST_1_1
 62
   137
  6
CONTINUOUS
100
AcDbCircle
 10
-91.68887097
 20
8.54545025
 30
0.0
 40
2.32981333
  0
CIRCLE
  5
C0
100
AcDbEntity
  8
MST_1_1
 62
   137
  6
CONTINUOUS
100
AcDbCircle
 10
-91.68887097
 20
8.54545025
 30
0.0
 40
4.85
  0
ARC
  5
C1
100
AcDbEntity
  8
MST_1_1
 62
   137
  6
CONTINUOUS
100
AcDbCircle
 10
-93.56287092
 20
8.54545025
 30
0.0
 40
0.37600003
100
AcDbArc
 50
106.48878485
 51
253.51122516
  0
ARC
  5
C2
100
AcDbEntity
  8
MST_1_1
 62
   137
  6
CONTINUOUS
100
AcDbCircle
 10
-93.94914172
 20
7.2404823
 30
0.0
 40
0.98493585
100
AcDbArc
 50
346.4887751
 51
73.5112424
  0
ARC
  5
C3
100
AcDbEntity
  8
MST_1_1
 62
   137
  6
CONTINUOUS
100
AcDbCircle
 10
-92.62587091
 20
6.9225187
 30
0.0
 40
0.37600004
100
AcDbArc
 50
166.48877314
 51
313.51122983
  0
ARC
  5
C4
100
AcDbEntity
  8
MST_1_1
 62
   137
  6
CONTINUOUS
100
AcDbCircle
 10
-91.68887097
 20
5.93551458
 30
0.0
 40
0.98493568
100
AcDbArc
 50
46.48875513
 51
133.51124487
  0
ARC
  5
C5
100
AcDbEntity
  8
MST_1_1
 62
   137
  6
CONTINUOUS
100
AcDbCircle
 10
-90.75187101
 20
6.92251866
 30
0.0
 40
0.37600002
100
AcDbArc
 50
226.48878273
 51
13.51123435
  0
ARC
  5
C6
100
AcDbEntity
  8
MST_1_1
 62
   137
  6
CONTINUOUS
100
AcDbCircle
 10
-89.42860019
 20
7.24048228
 30
0.0
 40
0.98493588
100
AcDbArc
 50
106.48875933
 51
193.51124321
  0
ARC
  5
C7
100
AcDbEntity
  8
MST_1_1
 62
   137
  6
CONTINUOUS
100
AcDbCircle
 10
-89.81487102
 20
8.54545025
 30
0.0
 40
0.37600003
100
AcDbArc
 50
286.48879487
 51
73.51121515
  0
ARC
  5
C8
100
AcDbEntity
  8
MST_1_1
 62
   137
  6
CONTINUOUS
100
AcDbCircle
 10
-89.42860023
 20
9.8504182
 30
0.0
 40
0.98493585
100
AcDbArc
 50
166.48876508
 51
253.51125242
  0
ARC
  5
C9
100
AcDbEntity
  8
MST_1_1
 62
   137
  6
CONTINUOUS
100
AcDbCircle
 10
-90.75187104
 20
10.1683818
 30
0.0
 40
0.37600004
100
AcDbArc
 50
346.48878316
 51
133.51121981
  0
ARC
  5
CA
100
AcDbEntity
  8
MST_1_1
 62
   137
  6
CONTINUOUS
100
AcDbCircle
 10
-91.68887097
 20
11.15538593
 30
0.0
 40
0.98493568
100
AcDbArc
 50
226.48876515
 51
313.51125489
  0
ARC
  5
CB
100
AcDbEntity
  8
MST_1_1
 62
   137
  6
CONTINUOUS
100
AcDbCircle
 10
-92.62587093
 20
10.16838185
 30
0.0
 40
0.37600002
100
AcDbArc
 50
46.48877271
 51
193.51124436
  0
ARC
  5
CC
100
AcDbEntity
  8
MST_1_1
 62
   137
  6
CONTINUOUS
100
AcDbCircle
 10
-93.94914175
 20
9.85041822
 30
0.0
 40
0.98493588
100
AcDbArc
 50
286.48876935
 51
13.51123319
  0
LWPOLYLINE
  5
CD
100
AcDbEntity
  8
MST_1_1
 62
   137
  6
CONTINUOUS
100
AcDbPolyline
 90
        9
 70
     0
 43
0.0
 10
-93.3859272
 20
5.57560179
 10
-93.37384201
 20
5.5876871
 10
-93.36174739
 20
5.59978172
 10
-93.34964357
 20
5.61188542
 10
-93.33753056
 20
5.62399844
 10
-93.32540846
 20
5.63612053
 10
-93.31327729
 20
5.64825171
 10
-93.30113703
 20
5.66039196
 10
-93.2889877
 20
5.6725413
  0
ARC
  5
CE
100
AcDbEntity
  8
MST_1_1
 62
   137
  6
CONTINUOUS
100
AcDbCircle
 10
-93.08611398
 20
5.84147391
 30
0.0
 40
0.26399994
100
AcDbArc
 50
50.21590624
 51
219.78410378
  0
LWPOLYLINE
  5
CF
100
AcDbEntity
  8
MST_1_1
 62
   137
  6
CONTINUOUS
100
AcDbPolyline
 90
        9
 70
     0
 43
0.0
 10
-92.91718137
 20
6.04434762
 10
-92.90508826
 20
6.05644085
 10
-92.89298806
 20
6.06854105
 10
-92.88088086
 20
6.08064802
 10
-92.8687668
 20
6.09276219
 10
-92.85664575
 20
6.10488312
 10
-92.84451795
 20
6.11701104
 10
-92.83238329
 20
6.12914571
 10
-92.82024187
 20
6.14128713
  0
LWPOLYLINE
  5
D0
100
AcDbEntity
  8
MST_1_1
 62
   137
  6
CONTINUOUS
100
AcDbPolyline
 90
        9
 70
     0
 43
0.0
 10
-92.82024187
 20
6.14128713
 10
-92.89269061
 20
6.21373611
 10
-92.96521561
 20
6.28626099
 10
-93.03780709
 20
6.35885246
 10
-93.11045502
 20
6.43150051
 10
-93.18314975
 20
6.50419513
 10
-93.25588151
 20
6.57692676
 10
-93.32864038
 20
6.64968576
 10
-93.40141649
 20
6.72246187
  0
LWPOLYLINE
  5
D1
100
AcDbEntity
  8
MST_1_1
 62
   137
  6
CONTINUOUS
100
AcDbPolyline
 90
        9
 70
     0
 43
0.0
 10
-93.40141649
 20
6.72246187
 10
-93.40571268
 20
6.71816567
 10
-93.41000794
 20
6.7138703
 10
-93.4143025
 20
6.70957574
 10
-93.41859625
 20
6.70528211
 10
-93.42288906
 20
6.70098918
 10
-93.42718106
 20
6.69669718
 10
-93.43147225
 20
6.69240611
 10
-93.4357625
 20
6.68811574
  0
LWPOLYLINE
  5
D2
100
AcDbEntity
  8
MST_1_1
 62
   137
  6
CONTINUOUS
100
AcDbPolyline
 90
       25
 70
     0
 43
0.0
 10
-93.4357625
 20
6.68811576
 10
-93.43935201
 20
6.69364466
 10
-93.44303688
 20
6.69910031
 10
-93.44681614
 20
6.70448171
 10
-93.45068876
 20
6.70978784
 10
-93.45465375
 20
6.71501772
 10
-93.4587101
 20
6.72017032
 10
-93.46285682
 20
6.72524465
 10
-93.4670929
 20
6.7302397
 10
-93.47141734
 20
6.73515447
 10
-93.47582914
 20
6.73998796
 10
-93.48032729
 20
6.74473915
 10
-93.48491079
 20
6.74940704
 10
-93.48957864
 20
6.75399062
 10
-93.49432984
 20
6.75848891
 10
-93.49916339
 20
6.76290087
 10
-93.50407828
 20
6.76722552
 10
-93.50907351
 20
6.77146185
 10
-93.51414807
 20
6.77560886
 10
-93.51930098
 20
6.77966552
 10
-93.52453121
 20
6.78363086
 10
-93.52983778
 20
6.78750385
 10
-93.53521968
 20
6.79128349
 10
-93.54067591
 20
6.79496879
 10
-93.54620546
 20
6.79855872
  0
LWPOLYLINE
  5
D3
100
AcDbEntity
  8
MST_1_1
 62
   137
  6
CONTINUOUS
100
AcDbPolyline
 90
        9
 70
     0
 43
0.0
 10
-93.54620549
 20
6.79855872
 10
-93.54191512
 20
6.80284897
 10
-93.53762405
 20
6.80714016
 10
-93.53333205
 20
6.81143216
 10
-93.52903912
 20
6.81572497
 10
-93.52474549
 20
6.82001872
 10
-93.52045092
 20
6.82431328
 10
-93.51615555
 20
6.82860854
 10
-93.51185936
 20
6.83290473
  0
LWPOLYLINE
  5
D4
100
AcDbEntity
  8
MST_1_1
 62
   137
  6
CONTINUOUS
100
AcDbPolyline
 90
        9
 70
     0
 43
0.0
 10
-93.51185936
 20
6.83290473
 10
-93.58463546
 20
6.90568084
 10
-93.65739446
 20
6.97843972
 10
-93.7301261
 20
7.05117147
 10
-93.80282071
 20
7.1238662
 10
-93.87546876
 20
7.19651414
 10
-93.94806023
 20
7.26910561
 10
-94.02058512
 20
7.34163061
 10
-94.0930341
 20
7.41407936
  0
LWPOLYLINE
  5
D5
100
AcDbEntity
  8
MST_1_1
 62
   137
  6
CONTINUOUS
100
AcDbPolyline
 90
        9
 70
     0
 43
0.0
 10
-94.0930341
 20
7.41407936
 10
-94.10517552
 20
7.40193794
 10
-94.11731018
 20
7.38980327
 10
-94.1294381
 20
7.37767547
 10
-94.14155903
 20
7.36555442
 10
-94.15367321
 20
7.35344036
 10
-94.16578017
 20
7.34133317
 10
-94.17788038
 20
7.32923296
 10
-94.1899736
 20
7.31713985
  0
ARC
  5
D6
100
AcDbEntity
  8
MST_1_1
 62
   137
  6
CONTINUOUS
100
AcDbCircle
 10
-94.39284719
 20
7.14820712
 30
0.0
 40
0.26399993
100
AcDbArc
 50
230.21587884
 51
39.78413117
  0
LWPOLYLINE
  5
D7
100
AcDbEntity
  8
MST_1_1
 62
   137
  6
CONTINUOUS
100
AcDbPolyline
 90
        9
 70
     0
 43
0.0
 10
-94.56177992
 20
6.94533353
 10
-94.57392926
 20
6.93318419
 10
-94.58606952
 20
6.92104394
 10
-94.59820069
 20
6.90891276
 10
-94.61032279
 20
6.89679067
 10
-94.6224358
 20
6.88467765
 10
-94.6345395
 20
6.87257384
 10
-94.64663412
 20
6.86047921
 10
-94.65871943
 20
6.84839402
  0
LWPOLYLINE
  5
D8
100
AcDbEntity
  8
MST_1_1
 62
   137
  6
CONTINUOUS
100
AcDbPolyline
 90
        9
 70
     0
 43
0.0
 10
-94.65871943
 20
6.84839402
 10
-94.58628325
 20
6.77595762
 10
-94.51376582
 20
6.7034403
 10
-94.44117784
 20
6.63085244
 10
-94.36852979
 20
6.55820439
 10
-94.29583215
 20
6.48550651
 10
-94.22309492
 20
6.41276952
 10
-94.15032906
 20
6.34000366
 10
-94.07754481
 20
6.2672194
  0
LWPOLYLINE
  5
D9
100
AcDbEntity
  8
MST_1_1
 62
   137
  6
CONTINUOUS
100
AcDbPolyline
 90
        9
 70
     0
 43
0.0
 10
-94.07754481
 20
6.2672194
 10
-94.0732556
 20
6.27150861
 10
-94.06896523
 20
6.27579898
 10
-94.06467369
 20
6.28009051
 10
-94.060381
 20
6.28438321
 10
-94.05608713
 20
6.28867707
 10
-94.05179211
 20
6.29297187
 10
-94.04749615
 20
6.29726806
 10
-94.04319879
 20
6.30156541
  0
LWPOLYLINE
  5
DA
100
AcDbEntity
  8
MST_1_1
 62
   137
  6
CONTINUOUS
100
AcDbPolyline
 90
       25
 70
     0
 43
0.0
 10
-94.04319877
 20
6.30156541
 10
-94.03960958
 20
6.29603703
 10
-94.03592492
 20
6.29058178
 10
-94.0321458
 20
6.28520067
 10
-94.02827322
 20
6.27989473
 10
-94.02430822
 20
6.27466497
 10
-94.02025178
 20
6.2695124
 10
-94.01610494
 20
6.26443803
 10
-94.01186869
 20
6.25944289
 10
-94.00754405
 20
6.25452798
 10
-94.00313203
 20
6.24969432
 10
-93.99863365
 20
6.24494292
 10
-93.99404992
 20
6.24027481
 10
-93.98938184
 20
6.23569098
 10
-93.98463043
 20
6.23119247
 10
-93.97979671
 20
6.22678027
 10
-93.97488168
 20
6.22245542
 10
-93.96988635
 20
6.21821891
 10
-93.96481174
 20
6.21407178
 10
-93.95965886
 20
6.21001502
 10
-93.95442872
 20
6.20604966
 10
-93.94912234
 20
6.2021767
 10
-93.94374072
 20
6.19839718
 10
-93.93828487
 20
6.19471209
 10
-93.93275581
 20
6.19112245
  0
LWPOLYLINE
  5
DB
100
AcDbEntity
  8
MST_1_1
 62
   137
  6
CONTINUOUS
100
AcDbPolyline
 90
        9
 70
     0
 43
0.0
 10
-93.93275581
 20
6.19112243
 10
-93.93705317
 20
6.18682507
 10
-93.94134936
 20
6.18252912
 10
-93.94564415
 20
6.17823409
 10
-93.94993801
 20
6.17394023
 10
-93.95423071
 20
6.16964753
 10
-93.95852225
 20
6.16535599
 10
-93.96281262
 20
6.16106562
 10
-93.96710182
 20
6.15677642
  0
LWPOLYLINE
  5
DC
100
AcDbEntity
  8
MST_1_1
 62
   137
  6
CONTINUOUS
100
AcDbPolyline
 90
        9
 70
     0
 43
0.0
 10
-93.96710182
 20
6.15677642
 10
-93.89431757
 20
6.08399216
 10
-93.8215517
 20
6.0112263
 10
-93.74881471
 20
5.93848907
 10
-93.67611684
 20
5.86579143
 10
-93.60346879
 20
5.79314338
 10
-93.53088092
 20
5.7205554
 10
-93.45836361
 20
5.64803797
 10
-93.3859272
 20
5.57560179
  0
CIRCLE
  5
DD
100
AcDbEntity
  8
MST_1_1
 62
   137
  6
CONTINUOUS
100
AcDbCircle
 10
-91.68887097
 20
8.54545025
 30
0.0
 40
4.57662018
  0
LWPOLYLINE
  5
DE
100
AcDbEntity
  8
MST_1_1
 62
   137
  6
CONTINUOUS
100
AcDbPolyline
 90
        9
 70
     0
 43
0.0
 10
-93.66087272
 20
6.84615349
 10
-93.70851243
 20
6.89379321
 10
-93.75614119
 20
6.94142209
 10
-93.80375669
 20
6.98903759
 10
-93.85135589
 20
7.03663678
 10
-93.898936
 20
7.08421689
 10
-93.94649422
 20
7.13177523
 10
-93.99402799
 20
7.17930888
 10
-94.04153429
 20
7.22681518
  0
ARC
  5
DF
100
AcDbEntity
  8
MST_1_1
 62
   137
  6
CONTINUOUS
100
AcDbCircle
 10
-93.73948089
 20
6.49484095
 30
0.0
 40
0.35999965
100
AcDbArc
 50
77.38749365
 51
127.33775307
  0
LWPOLYLINE
  5
E0
100
AcDbEntity
  8
MST_1_1
 62
   137
  6
CONTINUOUS
100
AcDbPolyline
 90
        9
 70
     0
 43
0.0
 10
-93.45325391
 20
6.27649607
 10
-93.51630235
 20
6.33954451
 10
-93.57937047
 20
6.40261275
 10
-93.64245162
 20
6.46569402
 10
-93.70553941
 20
6.52878181
 10
-93.7686272
 20
6.5918696
 10
-93.83170848
 20
6.65495076
 10
-93.89477671
 20
6.71801888
 10
-93.95782515
 20
6.78106732
  0
ARC
  5
E1
100
AcDbEntity
  8
MST_1_1
 62
   137
  6
CONTINUOUS
100
AcDbCircle
 10
-93.739481
 20
6.49484049
 30
0.0
 40
0.36000032
100
AcDbArc
 50
322.66230677
 51
12.61245653
  0
LWPOLYLINE
  5
E2
100
AcDbEntity
  8
MST_1_1
 62
   137
  6
CONTINUOUS
100
AcDbPolyline
 90
        9
 70
     0
 43
0.0
 10
-93.00750604
 20
6.19278694
 10
-93.05501234
 20
6.24029324
 10
-93.102546
 20
6.28782701
 10
-93.15010433
 20
6.33538523
 10
-93.19768444
 20
6.38296533
 10
-93.24528364
 20
6.43056453
 10
-93.29289913
 20
6.47818003
 10
-93.34052802
 20
6.5258088
 10
-93.38816773
 20
6.57344851
  0
ARC
  5
E3
100
AcDbEntity
  8
MST_1_1
 62
   137
  6
CONTINUOUS
100
AcDbCircle
 10
-93.08611381
 20
5.84147381
 30
0.0
 40
0.36000013
100
AcDbArc
 50
77.38757789
 51
192.61246315
  0
LWPOLYLINE
  5
E4
100
AcDbEntity
  8
MST_1_1
 62
   137
  6
CONTINUOUS
100
AcDbPolyline
 90
        9
 70
     0
 43
0.0
 10
-93.81808858
 20
6.14352766
 10
-93.77044631
 20
6.09588515
 10
-93.72281498
 20
6.04825405
 10
-93.67519809
 20
6.00063716
 10
-93.62759819
 20
5.95303726
 10
-93.5800182
 20
5.90545716
 10
-93.53246103
 20
5.8579001
 10
-93.48492958
 20
5.81036866
 10
-93.43742689
 20
5.76286585
  0
ARC
  5
E5
100
AcDbEntity
  8
MST_1_1
 62
   137
  6
CONTINUOUS
100
AcDbCircle
 10
-93.7394808
 20
6.4948416
 30
0.0
 40
0.36000093
100
AcDbArc
 50
257.38761324
 51
307.3376629
  0
LWPOLYLINE
  5
E6
100
AcDbEntity
  8
MST_1_1
 62
   137
  6
CONTINUOUS
100
AcDbPolyline
 90
        9
 70
     0
 43
0.0
 10
-94.02570739
 20
6.71318496
 10
-93.96265895
 20
6.65013675
 10
-93.89959095
 20
6.58706863
 10
-93.83650968
 20
6.52398736
 10
-93.77342165
 20
6.46089957
 10
-93.71033386
 20
6.39781155
 10
-93.64725259
 20
6.33473028
 10
-93.58418447
 20
6.27166228
 10
-93.52113626
 20
6.20861383
  0
ARC
  5
E7
100
AcDbEntity
  8
MST_1_1
 62
   137
  6
CONTINUOUS
100
AcDbCircle
 10
-93.73948063
 20
6.49484065
 30
0.0
 40
0.36
100
AcDbArc
 50
142.66227791
 51
192.61247599
  0
LWPOLYLINE
  5
E8
100
AcDbEntity
  8
MST_1_1
 62
   137
  6
CONTINUOUS
100
AcDbPolyline
 90
        9
 70
     0
 43
0.0
 10
-94.47145537
 20
6.79689433
 10
-94.42395257
 20
6.74939164
 10
-94.37642112
 20
6.7018602
 10
-94.32886407
 20
6.65430302
 10
-94.28128396
 20
6.60672303
 10
-94.23368406
 20
6.55912314
 10
-94.18606717
 20
6.51150624
 10
-94.13843607
 20
6.46387491
 10
-94.09079357
 20
6.41623264
  0
ARC
  5
E9
100
AcDbEntity
  8
MST_1_1
 62
   137
  6
CONTINUOUS
100
AcDbCircle
 10
-94.39284731
 20
7.14820731
 30
0.0
 40
0.36000006
100
AcDbArc
 50
257.38753734
 51
12.61244165
  0
LWPOLYLINE
  5
EA
100
AcDbEntity
  8
MST_1_1
 62
   137
  6
CONTINUOUS
100
AcDbPolyline
 90
        9
 70
     0
 43
0.0
 10
-93.84549484
 20
6.73661937
 10
-93.80202816
 20
6.69315268
 10
-93.75855518
 20
6.64967971
 10
-93.71507779
 20
6.60620231
 10
-93.67159829
 20
6.56272293
 10
-93.62811892
 20
6.51924344
 10
-93.58464152
 20
6.47576604
 10
-93.54116854
 20
6.43229307
 10
-93.49770186
 20
6.38882638
  0
ARC
  5
EB
100
AcDbEntity
  8
MST_1_1
 62
   137
  6
CONTINUOUS
100
AcDbCircle
 10
-93.7394806
 20
6.49484063
 30
0.0
 40
0.26399996
100
AcDbArc
 50
336.32369791
 51
113.67631211
  0
LWPOLYLINE
  5
EC
100
AcDbEntity
  8
MST_1_1
 62
   137
  6
CONTINUOUS
100
AcDbPolyline
 90
        9
 70
     0
 43
0.0
 10
-93.63346634
 20
6.2530619
 10
-93.67693291
 20
6.29652835
 10
-93.72040588
 20
6.34000133
 10
-93.76388328
 20
6.38347873
 10
-93.80736277
 20
6.42695845
 10
-93.8508425
 20
6.47043794
 10
-93.89431989
 20
6.51391534
 10
-93.93779287
 20
6.55738832
 10
-93.98125932
 20
6.60085489
  0
ARC
  5
ED
100
AcDbEntity
  8
MST_1_1
 62
   137
  6
CONTINUOUS
100
AcDbCircle
 10
-93.73948067
 20
6.49484055
 30
0.0
 40
0.26399992
100
AcDbArc
 50
156.32366302
 51
293.676347
  0
CIRCLE
  5
EE
100
AcDbEntity
  8
MST_1_1
 62
   137
  6
CONTINUOUS
100
AcDbCircle
 10
-91.68887097
 20
-21.45454975
 30
0.0
 40
2.32981333
  0
CIRCLE
  5
EF
100
AcDbEntity
  8
MST_1_1
 62
   137
  6
CONTINUOUS
100
AcDbCircle
 10
-91.68887097
 20
-21.45454975
 30
0.0
 40
1.32203389
  0
CIRCLE
  5
F0
100
AcDbEntity
  8
MST_1_1
 62
   137
  6
CONTINUOUS
100
AcDbCircle
 10
-91.68887097
 20
-21.45454975
 30
0.0
 40
2.32981333
  0
CIRCLE
  5
F1
100
AcDbEntity
  8
MST_1_1
 62
   137
  6
CONTINUOUS
100
AcDbCircle
 10
-91.68887097
 20
-21.45454975
 30
0.0
 40
2.32981333
  0
CIRCLE
  5
F2
100
AcDbEntity
  8
MST_1_1
 62
   137
  6
CONTINUOUS
100
AcDbCircle
 10
-91.68887097
 20
-21.45454975
 30
0.0
 40
4.85
  0
ARC
  5
F3
100
AcDbEntity
  8
MST_1_1
 62
   137
  6
CONTINUOUS
100
AcDbCircle
 10
-93.56287092
 20
-21.45454975
 30
0.0
 40
0.37600003
100
AcDbArc
 50
106.48878485
 51
253.51122516
  0
ARC
  5
F4
100
AcDbEntity
  8
MST_1_1
 62
   137
  6
CONTINUOUS
100
AcDbCircle
 10
-93.94914172
 20
-22.7595177
 30
0.0
 40
0.98493585
100
AcDbArc
 50
346.4887751
 51
73.5112424
  0
ARC
  5
F5
100
AcDbEntity
  8
MST_1_1
 62
   137
  6
CONTINUOUS
100
AcDbCircle
 10
-92.62587091
 20
-23.0774813
 30
0.0
 40
0.37600004
100
AcDbArc
 50
166.48877314
 51
313.51122983
  0
ARC
  5
F6
100
AcDbEntity
  8
MST_1_1
 62
   137
  6
CONTINUOUS
100
AcDbCircle
 10
-91.68887097
 20
-24.06448542
 30
0.0
 40
0.98493568
100
AcDbArc
 50
46.48875513
 51
133.51124487
  0
ARC
  5
F7
100
AcDbEntity
  8
MST_1_1
 62
   137
  6
CONTINUOUS
100
AcDbCircle
 10
-90.75187101
 20
-23.07748134
 30
0.0
 40
0.37600002
100
AcDbArc
 50
226.48878273
 51
13.51123435
  0
ARC
  5
F8
100
AcDbEntity
  8
MST_1_1
 62
   137
  6
CONTINUOUS
100
AcDbCircle
 10
-89.42860019
 20
-22.75951772
 30
0.0
 40
0.98493588
100
AcDbArc
 50
106.48875933
 51
193.51124321
  0
ARC
  5
F9
100
AcDbEntity
  8
MST_1_1
 62
   137
  6
CONTINUOUS
100
AcDbCircle
 10
-89.81487102
 20
-21.45454975
 30
0.0
 40
0.37600003
100
AcDbArc
 50
286.48879487
 51
73.51121515
  0
ARC
  5
FA
100
AcDbEntity
  8
MST_1_1
 62
   137
  6
CONTINUOUS
100
AcDbCircle
 10
-89.42860023
 20
-20.1495818
 30
0.0
 40
0.98493585
100
AcDbArc
 50
166.48876508
 51
253.51125242
  0
ARC
  5
FB
100
AcDbEntity
  8
MST_1_1
 62
   137
  6
CONTINUOUS
100
AcDbCircle
 10
-90.75187104
 20
-19.8316182
 30
0.0
 40
0.37600004
100
AcDbArc
 50
346.48878316
 51
133.51121981
  0
ARC
  5
FC
100
AcDbEntity
  8
MST_1_1
 62
   137
  6
CONTINUOUS
100
AcDbCircle
 10
-91.68887097
 20
-18.84461407
 30
0.0
 40
0.98493568
100
AcDbArc
 50
226.48876515
 51
313.51125489
  0
ARC
  5
FD
100
AcDbEntity
  8
MST_1_1
 62
   137
  6
CONTINUOUS
100
AcDbCircle
 10
-92.62587093
 20
-19.83161815
 30
0.0
 40
0.37600002
100
AcDbArc
 50
46.48877271
 51
193.51124436
  0
ARC
  5
FE
100
AcDbEntity
  8
MST_1_1
 62
   137
  6
CONTINUOUS
100
AcDbCircle
 10
-93.94914175
 20
-20.14958178
 30
0.0
 40
0.98493588
100
AcDbArc
 50
286.48876935
 51
13.51123319
  0
LWPOLYLINE
  5
FF
100
AcDbEntity
  8
MST_1_1
 62
   137
  6
CONTINUOUS
100
AcDbPolyline
 90
        9
 70
     0
 43
0.0
 10
-93.3859272
 20
-24.42439821
 10
-93.37384201
 20
-24.4123129
 10
-93.36174739
 20
-24.40021828
 10
-93.34964357
 20
-24.38811458
 10
-93.33753056
 20
-24.37600156
 10
-93.32540846
 20
-24.36387947
 10
-93.31327729
 20
-24.35174829
 10
-93.30113703
 20
-24.33960804
 10
-93.2889877
 20
-24.3274587
  0
ARC
  5
100
100
AcDbEntity
  8
MST_1_1
 62
   137
  6
CONTINUOUS
100
AcDbCircle
 10
-93.08611398
 20
-24.15852609
 30
0.0
 40
0.26399994
100
AcDbArc
 50
50.21590624
 51
219.78410378
  0
LWPOLYLINE
  5
101
100
AcDbEntity
  8
MST_1_1
 62
   137
  6
CONTINUOUS
100
AcDbPolyline
 90
        9
 70
     0
 43
0.0
 10
-92.91718137
 20
-23.95565238
 10
-92.90508826
 20
-23.94355915
 10
-92.89298806
 20
-23.93145895
 10
-92.88088086
 20
-23.91935198
 10
-92.8687668
 20
-23.90723781
 10
-92.85664575
 20
-23.89511688
 10
-92.84451795
 20
-23.88298896
 10
-92.83238329
 20
-23.87085429
 10
-92.82024187
 20
-23.85871287
  0
LWPOLYLINE
  5
102
100
AcDbEntity
  8
MST_1_1
 62
   137
  6
CONTINUOUS
100
AcDbPolyline
 90
        9
 70
     0
 43
0.0
 10
-92.82024187
 20
-23.85871287
 10
-92.89269061
 20
-23.78626389
 10
-92.96521561
 20
-23.71373901
 10
-93.03780709
 20
-23.64114754
 10
-93.11045502
 20
-23.56849949
 10
-93.18314975
 20
-23.49580487
 10
-93.25588151
 20
-23.42307324
 10
-93.32864038
 20
-23.35031424
 10
-93.40141649
 20
-23.27753813
  0
LWPOLYLINE
  5
103
100
AcDbEntity
  8
MST_1_1
 62
   137
  6
CONTINUOUS
100
AcDbPolyline
 90
        9
 70
     0
 43
0.0
 10
-93.40141649
 20
-23.27753813
 10
-93.40571268
 20
-23.28183433
 10
-93.41000794
 20
-23.2861297
 10
-93.4143025
 20
-23.29042426
 10
-93.41859625
 20
-23.29471789
 10
-93.42288906
 20
-23.29901082
 10
-93.42718106
 20
-23.30330282
 10
-93.43147225
 20
-23.30759389
 10
-93.4357625
 20
-23.31188426
  0
LWPOLYLINE
  5
104
100
AcDbEntity
  8
MST_1_1
 62
   137
  6
CONTINUOUS
100
AcDbPolyline
 90
       25
 70
     0
 43
0.0
 10
-93.4357625
 20
-23.31188424
 10
-93.43935201
 20
-23.30635534
 10
-93.44303688
 20
-23.30089969
 10
-93.44681614
 20
-23.29551829
 10
-93.45068876
 20
-23.29021216
 10
-93.45465375
 20
-23.28498228
 10
-93.4587101
 20
-23.27982968
 10
-93.46285682
 20
-23.27475535
 10
-93.4670929
 20
-23.2697603
 10
-93.47141734
 20
-23.26484553
 10
-93.47582914
 20
-23.26001204
 10
-93.48032729
 20
-23.25526085
 10
-93.48491079
 20
-23.25059296
 10
-93.48957864
 20
-23.24600938
 10
-93.49432984
 20
-23.24151109
 10
-93.49916339
 20
-23.23709913
 10
-93.50407828
 20
-23.23277448
 10
-93.50907351
 20
-23.22853815
 10
-93.51414807
 20
-23.22439114
 10
-93.51930098
 20
-23.22033448
 10
-93.52453121
 20
-23.21636914
 10
-93.52983778
 20
-23.21249615
 10
-93.53521968
 20
-23.20871651
 10
-93.54067591
 20
-23.20503121
 10
-93.54620546
 20
-23.20144128
  0
LWPOLYLINE
  5
105
100
AcDbEntity
  8
MST_1_1
 62
   137
  6
CONTINUOUS
100
AcDbPolyline
 90
        9
 70
     0
 43
0.0
 10
-93.54620549
 20
-23.20144128
 10
-93.54191512
 20
-23.19715103
 10
-93.53762405
 20
-23.19285984
 10
-93.53333205
 20
-23.18856784
 10
-93.52903912
 20
-23.18427503
 10
-93.52474549
 20
-23.17998128
 10
-93.52045092
 20
-23.17568672
 10
-93.51615555
 20
-23.17139146
 10
-93.51185936
 20
-23.16709527
  0
LWPOLYLINE
  5
106
100
AcDbEntity
  8
MST_1_1
 62
   137
  6
CONTINUOUS
100
AcDbPolyline
 90
        9
 70
     0
 43
0.0
 10
-93.51185936
 20
-23.16709527
 10
-93.58463546
 20
-23.09431916
 10
-93.65739446
 20
-23.02156028
 10
-93.7301261
 20
-22.94882853
 10
-93.80282071
 20
-22.8761338
 10
-93.87546876
 20
-22.80348586
 10
-93.94806023
 20
-22.73089439
 10
-94.02058512
 20
-22.65836939
 10
-94.0930341
 20
-22.58592064
  0
LWPOLYLINE
  5
107
100
AcDbEntity
  8
MST_1_1
 62
   137
  6
CONTINUOUS
100
AcDbPolyline
 90
        9
 70
     0
 43
0.0
 10
-94.0930341
 20
-22.58592064
 10
-94.10517552
 20
-22.59806206
 10
-94.11731018
 20
-22.61019673
 10
-94.1294381
 20
-22.62232453
 10
-94.14155903
 20
-22.63444558
 10
-94.15367321
 20
-22.64655964
 10
-94.16578017
 20
-22.65866683
 10
-94.17788038
 20
-22.67076704
 10
-94.1899736
 20
-22.68286015
  0
ARC
  5
108
100
AcDbEntity
  8
MST_1_1
 62
   137
  6
CONTINUOUS
100
AcDbCircle
 10
-94.39284719
 20
-22.85179288
 30
0.0
 40
0.26399993
100
AcDbArc
 50
230.21587884
 51
39.78413117
  0
LWPOLYLINE
  5
109
100
AcDbEntity
  8
MST_1_1
 62
   137
  6
CONTINUOUS
100
AcDbPolyline
 90
        9
 70
     0
 43
0.0
 10
-94.56177992
 20
-23.05466647
 10
-94.57392926
 20
-23.06681581
 10
-94.58606952
 20
-23.07895606
 10
-94.59820069
 20
-23.09108724
 10
-94.61032279
 20
-23.10320933
 10
-94.6224358
 20
-23.11532235
 10
-94.6345395
 20
-23.12742616
 10
-94.64663412
 20
-23.13952079
 10
-94.65871943
 20
-23.15160598
  0
LWPOLYLINE
  5
10A
100
AcDbEntity
  8
MST_1_1
 62
   137
  6
CONTINUOUS
100
AcDbPolyline
 90
        9
 70
     0
 43
0.0
 10
-94.65871943
 20
-23.15160598
 10
-94.58628325
 20
-23.22404238
 10
-94.51376582
 20
-23.2965597
 10
-94.44117784
 20
-23.36914756
 10
-94.36852979
 20
-23.44179561
 10
-94.29583215
 20
-23.51449349
 10
-94.22309492
 20
-23.58723048
 10
-94.15032906
 20
-23.65999634
 10
-94.07754481
 20
-23.7327806
  0
LWPOLYLINE
  5
10B
100
AcDbEntity
  8
MST_1_1
 62
   137
  6
CONTINUOUS
100
AcDbPolyline
 90
        9
 70
     0
 43
0.0
 10
-94.07754481
 20
-23.7327806
 10
-94.0732556
 20
-23.72849139
 10
-94.06896523
 20
-23.72420102
 10
-94.06467369
 20
-23.71990949
 10
-94.060381
 20
-23.71561679
 10
-94.05608713
 20
-23.71132293
 10
-94.05179211
 20
-23.70702813
 10
-94.04749615
 20
-23.70273194
 10
-94.04319879
 20
-23.69843459
  0
LWPOLYLINE
  5
10C
100
AcDbEntity
  8
MST_1_1
 62
   137
  6
CONTINUOUS
100
AcDbPolyline
 90
       25
 70
     0
 43
0.0
 10
-94.04319877
 20
-23.69843459
 10
-94.03960958
 20
-23.70396297
 10
-94.03592492
 20
-23.70941822
 10
-94.0321458
 20
-23.71479933
 10
-94.02827322
 20
-23.72010527
 10
-94.02430822
 20
-23.72533503
 10
-94.02025178
 20
-23.7304876
 10
-94.01610494
 20
-23.73556197
 10
-94.01186869
 20
-23.74055711
 10
-94.00754405
 20
-23.74547202
 10
-94.00313203
 20
-23.75030568
 10
-93.99863365
 20
-23.75505708
 10
-93.99404992
 20
-23.75972519
 10
-93.98938184
 20
-23.76430902
 10
-93.98463043
 20
-23.76880753
 10
-93.97979671
 20
-23.77321973
 10
-93.97488168
 20
-23.77754458
 10
-93.96988635
 20
-23.78178109
 10
-93.96481174
 20
-23.78592822
 10
-93.95965886
 20
-23.78998498
 10
-93.95442872
 20
-23.79395034
 10
-93.94912234
 20
-23.7978233
 10
-93.94374072
 20
-23.80160282
 10
-93.93828487
 20
-23.80528791
 10
-93.93275581
 20
-23.80887755
  0
LWPOLYLINE
  5
10D
100
AcDbEntity
  8
MST_1_1
 62
   137
  6
CONTINUOUS
100
AcDbPolyline
 90
        9
 70
     0
 43
0.0
 10
-93.93275581
 20
-23.80887757
 10
-93.93705317
 20
-23.81317493
 10
-93.94134936
 20
-23.81747088
 10
-93.94564415
 20
-23.82176591
 10
-93.94993801
 20
-23.82605977
 10
-93.95423071
 20
-23.83035247
 10
-93.95852225
 20
-23.83464401
 10
-93.96281262
 20
-23.83893438
 10
-93.96710182
 20
-23.84322358
  0
LWPOLYLINE
  5
10E
100
AcDbEntity
  8
MST_1_1
 62
   137
  6
CONTINUOUS
100
AcDbPolyline
 90
        9
 70
     0
 43
0.0
 10
-93.96710182
 20
-23.84322358
 10
-93.89431757
 20
-23.91600784
 10
-93.8215517
 20
-23.9887737
 10
-93.74881471
 20
-24.06151093
 10
-93.67611684
 20
-24.13420857
 10
-93.60346879
 20
-24.20685662
 10
-93.53088092
 20
-24.2794446
 10
-93.45836361
 20
-24.35196203
 10
-93.3859272
 20
-24.42439821
  0
CIRCLE
  5
10F
100
AcDbEntity
  8
MST_1_1
 62
   137
  6
CONTINUOUS
100
AcDbCircle
 10
-91.68887097
 20
-21.45454975
 30
0.0
 40
4.57662018
  0
LWPOLYLINE
  5
110
100
AcDbEntity
  8
MST_1_1
 62
   137
  6
CONTINUOUS
100
AcDbPolyline
 90
        9
 70
     0
 43
0.0
 10
-93.66087272
 20
-23.15384651
 10
-93.70851243
 20
-23.10620679
 10
-93.75614119
 20
-23.05857791
 10
-93.80375669
 20
-23.01096241
 10
-93.85135589
 20
-22.96336322
 10
-93.898936
 20
-22.91578311
 10
-93.94649422
 20
-22.86822477
 10
-93.99402799
 20
-22.82069112
 10
-94.04153429
 20
-22.77318482
  0
ARC
  5
111
100
AcDbEntity
  8
MST_1_1
 62
   137
  6
CONTINUOUS
100
AcDbCircle
 10
-93.73948089
 20
-23.50515905
 30
0.0
 40
0.35999965
100
AcDbArc
 50
77.38749365
 51
127.33775307
  0
LWPOLYLINE
  5
112
100
AcDbEntity
  8
MST_1_1
 62
   137
  6
CONTINUOUS
100
AcDbPolyline
 90
        9
 70
     0
 43
0.0
 10
-93.45325391
 20
-23.72350393
 10
-93.51630235
 20
-23.66045549
 10
-93.57937047
 20
-23.59738725
 10
-93.64245162
 20
-23.53430598
 10
-93.70553941
 20
-23.47121819
 10
-93.7686272
 20
-23.4081304
 10
-93.83170848
 20
-23.34504924
 10
-93.89477671
 20
-23.28198112
 10
-93.95782515
 20
-23.21893268
  0
ARC
  5
113
100
AcDbEntity
  8
MST_1_1
 62
   137
  6
CONTINUOUS
100
AcDbCircle
 10
-93.739481
 20
-23.50515951
 30
0.0
 40
0.36000032
100
AcDbArc
 50
322.66230677
 51
12.61245653
  0
LWPOLYLINE
  5
114
100
AcDbEntity
  8
MST_1_1
 62
   137
  6
CONTINUOUS
100
AcDbPolyline
 90
        9
 70
     0
 43
0.0
 10
-93.00750604
 20
-23.80721306
 10
-93.05501234
 20
-23.75970676
 10
-93.102546
 20
-23.71217299
 10
-93.15010433
 20
-23.66461477
 10
-93.19768444
 20
-23.61703467
 10
-93.24528364
 20
-23.56943547
 10
-93.29289913
 20
-23.52181997
 10
-93.34052802
 20
-23.4741912
 10
-93.38816773
 20
-23.42655149
  0
ARC
  5
115
100
AcDbEntity
  8
MST_1_1
 62
   137
  6
CONTINUOUS
100
AcDbCircle
 10
-93.08611381
 20
-24.15852619
 30
0.0
 40
0.36000013
100
AcDbArc
 50
77.38757789
 51
192.61246315
  0
LWPOLYLINE
  5
116
100
AcDbEntity
  8
MST_1_1
 62
   137
  6
CONTINUOUS
100
AcDbPolyline
 90
        9
 70
     0
 43
0.0
 10
-93.81808858
 20
-23.85647234
 10
-93.77044631
 20
-23.90411485
 10
-93.72281498
 20
-23.95174595
 10
-93.67519809
 20
-23.99936284
 10
-93.62759819
 20
-24.04696274
 10
-93.5800182
 20
-24.09454284
 10
-93.53246103
 20
-24.1420999
 10
-93.48492958
 20
-24.18963134
 10
-93.43742689
 20
-24.23713415
  0
ARC
  5
117
100
AcDbEntity
  8
MST_1_1
 62
   137
  6
CONTINUOUS
100
AcDbCircle
 10
-93.7394808
 20
-23.5051584
 30
0.0
 40
0.36000093
100
AcDbArc
 50
257.38761324
 51
307.3376629
  0
LWPOLYLINE
  5
118
100
AcDbEntity
  8
MST_1_1
 62
   137
  6
CONTINUOUS
100
AcDbPolyline
 90
        9
 70
     0
 43
0.0
 10
-94.02570739
 20
-23.28681504
 10
-93.96265895
 20
-23.34986325
 10
-93.89959095
 20
-23.41293137
 10
-93.83650968
 20
-23.47601264
 10
-93.77342165
 20
-23.53910043
 10
-93.71033386
 20
-23.60218845
 10
-93.64725259
 20
-23.66526972
 10
-93.58418447
 20
-23.72833772
 10
-93.52113626
 20
-23.79138617
  0
ARC
  5
119
100
AcDbEntity
  8
MST_1_1
 62
   137
  6
CONTINUOUS
100
AcDbCircle
 10
-93.73948063
 20
-23.50515935
 30
0.0
 40
0.36
100
AcDbArc
 50
142.66227791
 51
192.61247599
  0
LWPOLYLINE
  5
11A
100
AcDbEntity
  8
MST_1_1
 62
   137
  6
CONTINUOUS
100
AcDbPolyline
 90
        9
 70
     0
 43
0.0
 10
-94.47145537
 20
-23.20310567
 10
-94.42395257
 20
-23.25060836
 10
-94.37642112
 20
-23.2981398
 10
-94.32886407
 20
-23.34569698
 10
-94.28128396
 20
-23.39327697
 10
-94.23368406
 20
-23.44087686
 10
-94.18606717
 20
-23.48849376
 10
-94.13843607
 20
-23.53612509
 10
-94.09079357
 20
-23.58376736
  0
ARC
  5
11B
100
AcDbEntity
  8
MST_1_1
 62
   137
  6
CONTINUOUS
100
AcDbCircle
 10
-94.39284731
 20
-22.85179269
 30
0.0
 40
0.36000006
100
AcDbArc
 50
257.38753734
 51
12.61244165
  0
LWPOLYLINE
  5
11C
100
AcDbEntity
  8
MST_1_1
 62
   137
  6
CONTINUOUS
100
AcDbPolyline
 90
        9
 70
     0
 43
0.0
 10
-93.84549484
 20
-23.26338063
 10
-93.80202816
 20
-23.30684732
 10
-93.75855518
 20
-23.35032029
 10
-93.71507779
 20
-23.39379769
 10
-93.67159829
 20
-23.43727707
 10
-93.62811892
 20
-23.48075656
 10
-93.58464152
 20
-23.52423396
 10
-93.54116854
 20
-23.56770693
 10
-93.49770186
 20
-23.61117362
  0
ARC
  5
11D
100
AcDbEntity
  8
MST_1_1
 62
   137
  6
CONTINUOUS
100
AcDbCircle
 10
-93.7394806
 20
-23.50515937
 30
0.0
 40
0.26399996
100
AcDbArc
 50
336.32369791
 51
113.67631211
  0
LWPOLYLINE
  5
11E
100
AcDbEntity
  8
MST_1_1
 62
   137
  6
CONTINUOUS
100
AcDbPolyline
 90
        9
 70
     0
 43
0.0
 10
-93.63346634
 20
-23.7469381
 10
-93.67693291
 20
-23.70347165
 10
-93.72040588
 20
-23.65999867
 10
-93.76388328
 20
-23.61652127
 10
-93.80736277
 20
-23.57304155
 10
-93.8508425
 20
-23.52956206
 10
-93.89431989
 20
-23.48608466
 10
-93.93779287
 20
-23.44261168
 10
-93.98125932
 20
-23.39914511
  0
ARC
  5
11F
100
AcDbEntity
  8
MST_1_1
 62
   137
  6
CONTINUOUS
100
AcDbCircle
 10
-93.73948067
 20
-23.50515945
 30
0.0
 40
0.26399992
100
AcDbArc
 50
156.32366302
 51
293.676347
  0
MTEXT
  5
120
100
AcDbEntity
  8
MST_1_1
 62
     4
100
AcDbMText
 10
-148.88747138
 20
175.92926231
 30
2500.0
 11
1.0
 21
0.0
 31
0.0
 40
20.0
 41
377.85535624
 71
     1
 72
     1
  1
\fTahoma|b0|i0|c0|p18;\H20;\W0.80000001;\C7;Spanplattenschrauben Linsensenkkopf\PHECO-FIX-plus 5.0mm\P35.001
  0
LWPOLYLINE
  5
121
102
{ACAD_REACTORS
330
122
102
}
100
AcDbEntity
  8
MST_1_1
 62
    12
100
AcDbPolyline
 90
       46
 70
     1
 43
0.0
 10
312.23629148
 20
186.49501231
 10
312.10547015
 20
186.50565064
 10
311.98132081
 20
186.53643898
 10
311.86551548
 20
186.58568731
 10
311.75972615
 20
186.65170564
 10
311.66562481
 20
186.73280398
 10
311.58488348
 20
186.82729231
 10
311.51917415
 20
186.93348064
 10
311.47016881
 20
187.04967898
 10
311.43953948
 20
187.17419731
 10
311.42895815
 20
187.30534564
 10
311.42895815
 20
187.30534564
 10
311.43953948
 20
187.43655781
 10
311.47016881
 20
187.56116298
 10
311.51917415
 20
187.67746414
 10
311.58488348
 20
187.78376431
 10
311.66562481
 20
187.87836648
 10
311.75972615
 20
187.95957364
 10
311.86551548
 20
188.02568881
 10
311.98132081
 20
188.07501498
 10
312.10547015
 20
188.10585514
 10
312.23629148
 20
188.11651231
 10
312.23629148
 20
188.11651231
 10
312.36694615
 20
188.10585514
 10
312.49098881
 20
188.07501498
 10
312.60673748
 20
188.02568881
 10
312.71251015
 20
187.95957364
 10
312.80662481
 20
187.87836648
 10
312.88739948
 20
187.78376431
 10
312.95315215
 20
187.67746414
 10
313.00220081
 20
187.56116298
 10
313.03286348
 20
187.43655781
 10
313.04345815
 20
187.30534564
 10
313.04345815
 20
187.30534564
 10
313.03286348
 20
187.17419731
 10
313.00220081
 20
187.04967898
 10
312.95315215
 20
186.93348064
 10
312.88739948
 20
186.82729231
 10
312.80662481
 20
186.73280398
 10
312.71251015
 20
186.65170564
 10
312.60673748
 20
186.58568731
 10
312.49098881
 20
186.53643898
 10
312.36694615
 20
186.50565064
 10
312.23629148
 20
186.49501231
 10
312.23629148
 20
186.49501231
 10
312.23629148
 20
186.49501231
  0
HATCH
  5
122
100
AcDbEntity
  8
MST_1_1
 62
    12
100
AcDbHatch
 10
0.0
 20
0.0
 30
0.0
210
0.0
220
0.0
230
1.0
  2
SOLID
 70
     1
 71
     1
 91
        1
 92
        7
 72
     0
 73
     1
 93
       40
 10
312.23629148
 20
186.49501231
 10
312.10547015
 20
186.50565064
 10
311.98132081
 20
186.53643898
 10
311.86551548
 20
186.58568731
 10
311.75972615
 20
186.65170564
 10
311.66562481
 20
186.73280398
 10
311.58488348
 20
186.82729231
 10
311.51917415
 20
186.93348064
 10
311.47016881
 20
187.04967898
 10
311.43953948
 20
187.17419731
 10
311.42895815
 20
187.30534564
 10
311.43953948
 20
187.43655781
 10
311.47016881
 20
187.56116298
 10
311.51917415
 20
187.67746414
 10
311.58488348
 20
187.78376431
 10
311.66562481
 20
187.87836648
 10
311.75972615
 20
187.95957364
 10
311.86551548
 20
188.02568881
 10
311.98132081
 20
188.07501498
 10
312.10547015
 20
188.10585514
 10
312.23629148
 20
188.11651231
 10
312.36694615
 20
188.10585514
 10
312.49098881
 20
188.07501498
 10
312.60673748
 20
188.02568881
 10
312.71251015
 20
187.95957364
 10
312.80662481
 20
187.87836648
 10
312.88739948
 20
187.78376431
 10
312.95315215
 20
187.67746414
 10
313.00220081
 20
187.56116298
 10
313.03286348
 20
187.43655781
 10
313.04345815
 20
187.30534564
 10
313.03286348
 20
187.17419731
 10
313.00220081
 20
187.04967898
 10
312.95315215
 20
186.93348064
 10
312.88739948
 20
186.82729231
 10
312.80662481
 20
186.73280398
 10
312.71251015
 20
186.65170564
 10
312.60673748
 20
186.58568731
 10
312.49098881
 20
186.53643898
 10
312.36694615
 20
186.50565064
 97
        1
330
121
 75
     0
 76
     2
 47
0.775229
 98
        1
 10
0.0
 20
0.0
  0
LWPOLYLINE
  5
123
102
{ACAD_REACTORS
330
124
102
}
100
AcDbEntity
  8
MST_1_1
 62
    12
100
AcDbPolyline
 90
        8
 70
     1
 43
0.0
 10
244.77129148
 20
185.92926231
 10
310.73912481
 20
185.92926231
 10
310.73912481
 20
185.92926231
 10
310.73912481
 20
169.34801231
 10
310.73912481
 20
169.34801231
 10
244.77129148
 20
169.34801231
 10
244.77129148
 20
169.34801231
 10
244.77129148
 20
185.92926231
  0
HATCH
  5
124
100
AcDbEntity
  8
MST_1_1
 62
    12
100
AcDbHatch
 10
0.0
 20
0.0
 30
0.0
210
0.0
220
0.0
230
1.0
  2
SOLID
 70
     1
 71
     1
 91
        1
 92
        7
 72
     0
 73
     1
 93
        4
 10
244.77129148
 20
185.92926231
 10
310.73912481
 20
185.92926231
 10
310.73912481
 20
169.34801231
 10
244.77129148
 20
169.34801231
 97
        1
330
123
 75
     0
 76
     2
 47
0.775229
 98
        1
 10
0.0
 20
0.0
  0
LINE
  5
125
100
AcDbEntity
  8
MST_1_1
100
AcDbLine
 10
244.77129148
 20
169.34801231
 30
0.0
 11
244.77129148
 21
169.34801231
 31
0.0
  0
LINE
  5
126
100
AcDbEntity
  8
MST_1_1
100
AcDbLine
 10
244.77129148
 20
169.34801231
 30
0.0
 11
244.77129148
 21
169.34801231
 31
0.0
  0
LINE
  5
127
100
AcDbEntity
  8
MST_1_1
100
AcDbLine
 10
244.77129148
 20
169.34801231
 30
0.0
 11
244.77129148
 21
169.34801231
 31
0.0
  0
LINE
  5
128
100
AcDbEntity
  8
MST_1_1
100
AcDbLine
 10
244.77129148
 20
169.34801231
 30
0.0
 11
244.77129148
 21
169.34801231
 31
0.0
  0
LINE
  5
129
100
AcDbEntity
  8
MST_1_1
100
AcDbLine
 10
244.77129148
 20
169.34801231
 30
0.0
 11
244.77129148
 21
169.34801231
 31
0.0
  0
LINE
  5
12A
100
AcDbEntity
  8
MST_1_1
100
AcDbLine
 10
244.77129148
 20
169.34801231
 30
0.0
 11
244.77129148
 21
169.34801231
 31
0.0
  0
LINE
  5
12B
100
AcDbEntity
  8
MST_1_1
100
AcDbLine
 10
244.77129148
 20
169.34801231
 30
0.0
 11
244.77129148
 21
169.34801231
 31
0.0
  0
LINE
  5
12C
100
AcDbEntity
  8
MST_1_1
100
AcDbLine
 10
244.77129148
 20
169.34801231
 30
0.0
 11
244.77129148
 21
169.34801231
 31
0.0
  0
LINE
  5
12D
100
AcDbEntity
  8
MST_1_1
100
AcDbLine
 10
244.77129148
 20
169.34801231
 30
0.0
 11
244.77129148
 21
169.34801231
 31
0.0
  0
LINE
  5
12E
100
AcDbEntity
  8
MST_1_1
100
AcDbLine
 10
244.77129148
 20
169.34801231
 30
0.0
 11
244.77129148
 21
169.34801231
 31
0.0
  0
LINE
  5
12F
100
AcDbEntity
  8
MST_1_1
100
AcDbLine
 10
244.77129148
 20
169.34801231
 30
0.0
 11
244.77129148
 21
169.34801231
 31
0.0
  0
LWPOLYLINE
  5
130
102
{ACAD_REACTORS
330
131
102
}
100
AcDbEntity
  8
MST_1_1
 62
   190
100
AcDbPolyline
 90
        8
 70
     1
 43
0.0
 10
277.57779148
 20
184.77959564
 10
309.59262481
 20
184.77959564
 10
309.59262481
 20
184.77959564
 10
309.59262481
 20
170.49584398
 10
309.59262481
 20
170.49584398
 10
277.57779148
 20
170.49584398
 10
277.57779148
 20
170.49584398
 10
277.57779148
 20
184.77959564
  0
HATCH
  5
131
100
AcDbEntity
  8
MST_1_1
 62
   190
100
AcDbHatch
 10
0.0
 20
0.0
 30
0.0
210
0.0
220
0.0
230
1.0
  2
SOLID
 70
     1
 71
     1
 91
        1
 92
        7
 72
     0
 73
     1
 93
        4
 10
277.57779148
 20
184.77959564
 10
309.59262481
 20
184.77959564
 10
309.59262481
 20
170.49584398
 10
277.57779148
 20
170.49584398
 97
        1
330
130
 75
     0
 76
     2
 47
0.775229
 98
        1
 10
0.0
 20
0.0
  0
LWPOLYLINE
  5
132
102
{ACAD_REACTORS
330
133
102
}
100
AcDbEntity
  8
MST_1_1
 62
    12
100
AcDbPolyline
 90
       22
 70
     1
 43
0.0
 10
279.49562481
 20
172.78911231
 10
279.49562481
 20
181.87562898
 10
279.49562481
 20
181.87562898
 10
287.67495815
 20
181.87562898
 10
287.67495815
 20
181.87562898
 10
287.67495815
 20
179.41127898
 10
287.67495815
 20
179.41127898
 10
283.89895815
 20
179.41127898
 10
283.89895815
 20
179.41127898
 10
283.89895815
 20
178.35666231
 10
283.89895815
 20
178.35666231
 10
287.31662481
 20
178.35666231
 10
287.31662481
 20
178.35666231
 10
287.31662481
 20
176.02886231
 10
287.31662481
 20
176.02886231
 10
283.89895815
 20
176.02886231
 10
283.89895815
 20
176.02886231
 10
283.89895815
 20
172.78911231
 10
283.89895815
 20
172.78911231
 10
279.49562481
 20
172.78911231
 10
279.49562481
 20
172.78911231
 10
279.49562481
 20
172.78911231
  0
HATCH
  5
133
100
AcDbEntity
  8
MST_1_1
 62
    12
100
AcDbHatch
 10
0.0
 20
0.0
 30
0.0
210
0.0
220
0.0
230
1.0
  2
SOLID
 70
     1
 71
     1
 91
        1
 92
        7
 72
     0
 73
     1
 93
       10
 10
279.49562481
 20
172.78911231
 10
279.49562481
 20
181.87562898
 10
287.67495815
 20
181.87562898
 10
287.67495815
 20
179.41127898
 10
283.89895815
 20
179.41127898
 10
283.89895815
 20
178.35666231
 10
287.31662481
 20
178.35666231
 10
287.31662481
 20
176.02886231
 10
283.89895815
 20
176.02886231
 10
283.89895815
 20
172.78911231
 97
        1
330
132
 75
     0
 76
     2
 47
0.775229
 98
        1
 10
0.0
 20
0.0
  0
LWPOLYLINE
  5
134
102
{ACAD_REACTORS
330
135
102
}
100
AcDbEntity
  8
MST_1_1
 62
   190
100
AcDbPolyline
 90
      178
 70
     1
 43
0.0
 10
275.72029148
 20
177.31426231
 10
275.71671948
 20
177.11609559
 10
275.70601548
 20
176.92062858
 10
275.68819748
 20
176.72788096
 10
275.66328348
 20
176.53787244
 10
275.63129148
 20
176.35062273
 10
275.59223948
 20
176.16615151
 10
275.54614548
 20
175.98447849
 10
275.49302748
 20
175.80562338
 10
275.43290348
 20
175.62960586
 10
275.36579148
 20
175.45644564
 10
275.36579148
 20
175.45644564
 10
275.29205848
 20
175.28597178
 10
275.21166748
 20
175.11922471
 10
275.12463048
 20
174.95619624
 10
275.03095948
 20
174.79687818
 10
274.93066648
 20
174.64126231
 10
274.82376348
 20
174.48934044
 10
274.71026248
 20
174.34110438
 10
274.59017548
 20
174.19654591
 10
274.46351448
 20
174.05565684
 10
274.33029148
 20
173.91842898
 10
274.33029148
 20
173.91842898
 10
274.19155281
 20
173.78864819
 10
274.04864215
 20
173.66508071
 10
273.90156748
 20
173.54773383
 10
273.75033681
 20
173.43661484
 10
273.59495815
 20
173.33173106
 10
273.43543948
 20
173.23308978
 10
273.27178881
 20
173.14069829
 10
273.10401415
 20
173.05456391
 10
272.93212348
 20
172.97469393
 10
272.75612481
 20
172.90109564
 10
272.75612481
 20
172.90109564
 10
272.57707681
 20
172.83409751
 10
272.39556081
 20
172.77404058
 10
272.21161881
 20
172.72095104
 10
272.02529281
 20
172.67485511
 10
271.83662481
 20
172.63577898
 10
271.64565681
 20
172.60374884
 10
271.45243081
 20
172.57879091
 10
271.25698881
 20
172.56093138
 10
271.05937281
 20
172.55019644
 10
270.85962481
 20
172.54661231
 10
270.85962481
 20
172.54661231
 10
270.65770448
 20
172.55019644
 10
270.45826215
 20
172.56093138
 10
270.26132581
 20
172.57879091
 10
270.06692348
 20
172.60374884
 10
269.87508315
 20
172.63577898
 10
269.68583281
 20
172.67485511
 10
269.49920048
 20
172.72095104
 10
269.31521415
 20
172.77404058
 10
269.13390181
 20
172.83409751
 10
268.95529148
 20
172.90109564
 10
268.95529148
 20
172.90109564
 10
268.77936498
 20
172.97481128
 10
268.60747948
 20
173.05503471
 10
268.43962598
 20
173.14176074
 10
268.27579548
 20
173.23498418
 10
268.11597898
 20
173.33469981
 10
267.96016748
 20
173.44090244
 10
267.80835198
 20
173.55358688
 10
267.66052348
 20
173.67274791
 10
267.51667298
 20
173.79838034
 10
267.37679148
 20
173.93047898
 10
267.37679148
 20
173.93047898
 10
267.24523265
 20
174.06425386
 10
267.12008081
 20
174.20199804
 10
267.00137298
 20
174.34369583
 10
266.88914615
 20
174.48933151
 10
266.78343731
 20
174.63888939
 10
266.68428348
 20
174.79235378
 10
266.59172165
 20
174.94970896
 10
266.50578881
 20
175.11093924
 10
266.42652198
 20
175.27602893
 10
266.35395815
 20
175.44496231
 10
266.35395815
 20
175.44496231
 10
266.28814031
 20
175.61808496
 10
266.22919548
 20
175.79428951
 10
266.17713665
 20
175.97357086
 10
266.13197681
 20
176.15592391
 10
266.09372898
 20
176.34134356
 10
266.06240615
 20
176.52982471
 10
266.03802131
 20
176.72136226
 10
266.02058748
 20
176.91595111
 10
266.01011765
 20
177.11358616
 10
266.00662481
 20
177.31426231
 10
266.00662481
 20
177.31426231
 10
266.01011765
 20
177.51493434
 10
266.02058748
 20
177.71265658
 10
266.03802131
 20
177.90743821
 10
266.06240615
 20
178.09928844
 10
266.09372898
 20
178.28821648
 10
266.13197681
 20
178.47423151
 10
266.17713665
 20
178.65734274
 10
266.22919548
 20
178.83755938
 10
266.28814031
 20
179.01489061
 10
266.35395815
 20
179.18934564
 10
266.35395815
 20
179.18934564
 10
266.42652198
 20
179.35941209
 10
266.50578881
 20
179.52558524
 10
266.59172165
 20
179.68782579
 10
266.68428348
 20
179.84609444
 10
266.78343731
 20
180.00035189
 10
266.88914615
 20
180.15055884
 10
267.00137298
 20
180.29667599
 10
267.12008081
 20
180.43866404
 10
267.24523265
 20
180.57648369
 10
267.37679148
 20
180.71009564
 10
267.37679148
 20
180.71009564
 10
267.51559531
 20
180.84048748
 10
267.65842215
 20
180.96461031
 10
267.80529498
 20
181.08244514
 10
267.95623681
 20
181.19397298
 10
268.11127065
 20
181.29917481
 10
268.27041948
 20
181.39803164
 10
268.43370631
 20
181.49052448
 10
268.60115415
 20
181.57663431
 10
268.77278598
 20
181.65634214
 10
268.94862481
 20
181.72962898
 10
268.94862481
 20
181.72962898
 10
269.12753881
 20
181.79666056
 10
269.30917681
 20
181.85655764
 10
269.49353281
 20
181.90933873
 10
269.68060081
 20
181.95502231
 10
269.87037481
 20
181.99362689
 10
270.06284881
 20
182.02517098
 10
270.25801681
 20
182.04967306
 10
270.45587281
 20
182.06715164
 10
270.65641081
 20
182.07762523
 10
270.85962481
 20
182.08111231
 10
270.85962481
 20
182.08111231
 10
271.06299648
 20
182.07762523
 10
271.26369815
 20
182.06715164
 10
271.46170981
 20
182.04967306
 10
271.65701148
 20
182.02517098
 10
271.84958315
 20
181.99362689
 10
272.03940481
 20
181.95502231
 10
272.22645648
 20
181.90933873
 10
272.41071815
 20
181.85655764
 10
272.59216981
 20
181.79666056
 10
272.77079148
 20
181.72962898
 10
272.77079148
 20
181.72962898
 10
272.94679415
 20
181.65634214
 10
273.11871281
 20
181.57663431
 10
273.28656348
 20
181.49052448
 10
273.45036215
 20
181.39803164
 10
273.61012481
 20
181.29917481
 10
273.76586748
 20
181.19397298
 10
273.91760615
 20
181.08244514
 10
274.06535681
 20
180.96461031
 10
274.20913548
 20
180.84048748
 10
274.34895815
 20
180.71009564
 10
274.34895815
 20
180.71009564
 10
274.47930298
 20
180.57532113
 10
274.60341681
 20
180.43649351
 10
274.72126865
 20
180.29363669
 10
274.83282748
 20
180.14677458
 10
274.93806231
 20
179.99593106
 10
275.03694215
 20
179.84113004
 10
275.12943598
 20
179.68239543
 10
275.21551281
 20
179.51975111
 10
275.29514165
 20
179.35322099
 10
275.36829148
 20
179.18282898
 10
275.36829148
 20
179.18282898
 10
275.43533348
 20
179.00853706
 10
275.49526748
 20
178.83145964
 10
275.54810548
 20
178.65159423
 10
275.59385948
 20
178.46893831
 10
275.63254148
 20
178.28348939
 10
275.66416348
 20
178.09524498
 10
275.68873748
 20
177.90420256
 10
275.70627548
 20
177.71035964
 10
275.71678948
 20
177.51371373
 10
275.72029148
 20
177.31426231
 10
275.72029148
 20
177.31426231
 10
275.72029148
 20
177.31426231
  0
HATCH
  5
135
100
AcDbEntity
  8
MST_1_1
 62
   190
100
AcDbHatch
 10
0.0
 20
0.0
 30
0.0
210
0.0
220
0.0
230
1.0
  2
SOLID
 70
     1
 71
     1
 91
        1
 92
        7
 72
     0
 73
     1
 93
      160
 10
275.72029148
 20
177.31426231
 10
275.71671948
 20
177.11609559
 10
275.70601548
 20
176.92062858
 10
275.68819748
 20
176.72788096
 10
275.66328348
 20
176.53787244
 10
275.63129148
 20
176.35062273
 10
275.59223948
 20
176.16615151
 10
275.54614548
 20
175.98447849
 10
275.49302748
 20
175.80562338
 10
275.43290348
 20
175.62960586
 10
275.36579148
 20
175.45644564
 10
275.29205848
 20
175.28597178
 10
275.21166748
 20
175.11922471
 10
275.12463048
 20
174.95619624
 10
275.03095948
 20
174.79687818
 10
274.93066648
 20
174.64126231
 10
274.82376348
 20
174.48934044
 10
274.71026248
 20
174.34110438
 10
274.59017548
 20
174.19654591
 10
274.46351448
 20
174.05565684
 10
274.33029148
 20
173.91842898
 10
274.19155281
 20
173.78864819
 10
274.04864215
 20
173.66508071
 10
273.90156748
 20
173.54773383
 10
273.75033681
 20
173.43661484
 10
273.59495815
 20
173.33173106
 10
273.43543948
 20
173.23308978
 10
273.27178881
 20
173.14069829
 10
273.10401415
 20
173.05456391
 10
272.93212348
 20
172.97469393
 10
272.75612481
 20
172.90109564
 10
272.57707681
 20
172.83409751
 10
272.39556081
 20
172.77404058
 10
272.21161881
 20
172.72095104
 10
272.02529281
 20
172.67485511
 10
271.83662481
 20
172.63577898
 10
271.64565681
 20
172.60374884
 10
271.45243081
 20
172.57879091
 10
271.25698881
 20
172.56093138
 10
271.05937281
 20
172.55019644
 10
270.85962481
 20
172.54661231
 10
270.65770448
 20
172.55019644
 10
270.45826215
 20
172.56093138
 10
270.26132581
 20
172.57879091
 10
270.06692348
 20
172.60374884
 10
269.87508315
 20
172.63577898
 10
269.68583281
 20
172.67485511
 10
269.49920048
 20
172.72095104
 10
269.31521415
 20
172.77404058
 10
269.13390181
 20
172.83409751
 10
268.95529148
 20
172.90109564
 10
268.77936498
 20
172.97481128
 10
268.60747948
 20
173.05503471
 10
268.43962598
 20
173.14176074
 10
268.27579548
 20
173.23498418
 10
268.11597898
 20
173.33469981
 10
267.96016748
 20
173.44090244
 10
267.80835198
 20
173.55358688
 10
267.66052348
 20
173.67274791
 10
267.51667298
 20
173.79838034
 10
267.37679148
 20
173.93047898
 10
267.24523265
 20
174.06425386
 10
267.12008081
 20
174.20199804
 10
267.00137298
 20
174.34369583
 10
266.88914615
 20
174.48933151
 10
266.78343731
 20
174.63888939
 10
266.68428348
 20
174.79235378
 10
266.59172165
 20
174.94970896
 10
266.50578881
 20
175.11093924
 10
266.42652198
 20
175.27602893
 10
266.35395815
 20
175.44496231
 10
266.28814031
 20
175.61808496
 10
266.22919548
 20
175.79428951
 10
266.17713665
 20
175.97357086
 10
266.13197681
 20
176.15592391
 10
266.09372898
 20
176.34134356
 10
266.06240615
 20
176.52982471
 10
266.03802131
 20
176.72136226
 10
266.02058748
 20
176.91595111
 10
266.01011765
 20
177.11358616
 10
266.00662481
 20
177.31426231
 10
266.01011765
 20
177.51493434
 10
266.02058748
 20
177.71265658
 10
266.03802131
 20
177.90743821
 10
266.06240615
 20
178.09928844
 10
266.09372898
 20
178.28821648
 10
266.13197681
 20
178.47423151
 10
266.17713665
 20
178.65734274
 10
266.22919548
 20
178.83755938
 10
266.28814031
 20
179.01489061
 10
266.35395815
 20
179.18934564
 10
266.42652198
 20
179.35941209
 10
266.50578881
 20
179.52558524
 10
266.59172165
 20
179.68782579
 10
266.68428348
 20
179.84609444
 10
266.78343731
 20
180.00035189
 10
266.88914615
 20
180.15055884
 10
267.00137298
 20
180.29667599
 10
267.12008081
 20
180.43866404
 10
267.24523265
 20
180.57648369
 10
267.37679148
 20
180.71009564
 10
267.51559531
 20
180.84048748
 10
267.65842215
 20
180.96461031
 10
267.80529498
 20
181.08244514
 10
267.95623681
 20
181.19397298
 10
268.11127065
 20
181.29917481
 10
268.27041948
 20
181.39803164
 10
268.43370631
 20
181.49052448
 10
268.60115415
 20
181.57663431
 10
268.77278598
 20
181.65634214
 10
268.94862481
 20
181.72962898
 10
269.12753881
 20
181.79666056
 10
269.30917681
 20
181.85655764
 10
269.49353281
 20
181.90933873
 10
269.68060081
 20
181.95502231
 10
269.87037481
 20
181.99362689
 10
270.06284881
 20
182.02517098
 10
270.25801681
 20
182.04967306
 10
270.45587281
 20
182.06715164
 10
270.65641081
 20
182.07762523
 10
270.85962481
 20
182.08111231
 10
271.06299648
 20
182.07762523
 10
271.26369815
 20
182.06715164
 10
271.46170981
 20
182.04967306
 10
271.65701148
 20
182.02517098
 10
271.84958315
 20
181.99362689
 10
272.03940481
 20
181.95502231
 10
272.22645648
 20
181.90933873
 10
272.41071815
 20
181.85655764
 10
272.59216981
 20
181.79666056
 10
272.77079148
 20
181.72962898
 10
272.94679415
 20
181.65634214
 10
273.11871281
 20
181.57663431
 10
273.28656348
 20
181.49052448
 10
273.45036215
 20
181.39803164
 10
273.61012481
 20
181.29917481
 10
273.76586748
 20
181.19397298
 10
273.91760615
 20
181.08244514
 10
274.06535681
 20
180.96461031
 10
274.20913548
 20
180.84048748
 10
274.34895815
 20
180.71009564
 10
274.47930298
 20
180.57532113
 10
274.60341681
 20
180.43649351
 10
274.72126865
 20
180.29363669
 10
274.83282748
 20
180.14677458
 10
274.93806231
 20
179.99593106
 10
275.03694215
 20
179.84113004
 10
275.12943598
 20
179.68239543
 10
275.21551281
 20
179.51975111
 10
275.29514165
 20
179.35322099
 10
275.36829148
 20
179.18282898
 10
275.43533348
 20
179.00853706
 10
275.49526748
 20
178.83145964
 10
275.54810548
 20
178.65159423
 10
275.59385948
 20
178.46893831
 10
275.63254148
 20
178.28348939
 10
275.66416348
 20
178.09524498
 10
275.68873748
 20
177.90420256
 10
275.70627548
 20
177.71035964
 10
275.71678948
 20
177.51371373
 97
        1
330
134
 75
     0
 76
     2
 47
0.775229
 98
        1
 10
0.0
 20
0.0
  0
LWPOLYLINE
  5
136
102
{ACAD_REACTORS
330
137
102
}
100
AcDbEntity
  8
MST_1_1
 62
    12
100
AcDbPolyline
 90
       90
 70
     1
 43
0.0
 10
270.85962481
 20
175.60007898
 10
270.99484198
 20
175.60481429
 10
271.12460215
 20
175.61899751
 10
271.24891831
 20
175.64259453
 10
271.36780348
 20
175.67557124
 10
271.48127065
 20
175.71789356
 10
271.58933281
 20
175.76952738
 10
271.69200298
 20
175.83043859
 10
271.78929415
 20
175.90059311
 10
271.88121931
 20
175.97995683
 10
271.96779148
 20
176.06849564
 10
271.96779148
 20
176.06849564
 10
272.04748398
 20
176.16562066
 10
272.11885148
 20
176.26874178
 10
272.18187898
 20
176.37789809
 10
272.23655148
 20
176.49312871
 10
272.28285398
 20
176.61447273
 10
272.32077148
 20
176.74196924
 10
272.35028898
 20
176.87565736
 10
272.37139148
 20
177.01557618
 10
272.38406398
 20
177.16176479
 10
272.38829148
 20
177.31426231
 10
272.38829148
 20
177.31426231
 10
272.38406398
 20
177.46750784
 10
272.37139148
 20
177.61451658
 10
272.35028898
 20
177.75532171
 10
272.32077148
 20
177.88995644
 10
272.28285398
 20
178.01845398
 10
272.23655148
 20
178.14084751
 10
272.18187898
 20
178.25717024
 10
272.11885148
 20
178.36745538
 10
272.04748398
 20
178.47173611
 10
271.96779148
 20
178.57004564
 10
271.96779148
 20
178.57004564
 10
271.88121931
 20
178.66007103
 10
271.78929415
 20
178.74068671
 10
271.69200298
 20
178.81187699
 10
271.58933281
 20
178.87362618
 10
271.48127065
 20
178.92591856
 10
271.36780348
 20
178.96873844
 10
271.24891831
 20
179.00207013
 10
271.12460215
 20
179.02589791
 10
270.99484198
 20
179.04020609
 10
270.85962481
 20
179.04497898
 10
270.85962481
 20
179.04497898
 10
270.72447181
 20
179.04020203
 10
270.59462081
 20
179.02586538
 10
270.47008381
 20
179.00196033
 10
270.35087281
 20
178.96847818
 10
270.23699981
 20
178.92541023
 10
270.12847681
 20
178.87274778
 10
270.02531581
 20
178.81048213
 10
269.92752881
 20
178.73860458
 10
269.83512781
 20
178.65710643
 10
269.74812481
 20
178.56597898
 10
269.74812481
 20
178.56597898
 10
269.66777815
 20
178.46761501
 10
269.59593148
 20
178.36329324
 10
269.53257481
 20
178.25301388
 10
269.47769815
 20
178.13677711
 10
269.43129148
 20
178.01458314
 10
269.39334481
 20
177.88643218
 10
269.36384815
 20
177.75232441
 10
269.34279148
 20
177.61226004
 10
269.33016481
 20
177.46623928
 10
269.32595815
 20
177.31426231
 10
269.32595815
 20
177.31426231
 10
269.33016481
 20
177.16176479
 10
269.34279148
 20
177.01557618
 10
269.36384815
 20
176.87565736
 10
269.39334481
 20
176.74196924
 10
269.43129148
 20
176.61447273
 10
269.47769815
 20
176.49312871
 10
269.53257481
 20
176.37789809
 10
269.59593148
 20
176.26874178
 10
269.66777815
 20
176.16562066
 10
269.74812481
 20
176.06849564
 10
269.74812481
 20
176.06849564
 10
269.83512781
 20
175.97995683
 10
269.92752881
 20
175.90059311
 10
270.02531581
 20
175.83043859
 10
270.12847681
 20
175.76952738
 10
270.23699981
 20
175.71789356
 10
270.35087281
 20
175.67557124
 10
270.47008381
 20
175.64259453
 10
270.59462081
 20
175.61899751
 10
270.72447181
 20
175.60481429
 10
270.85962481
 20
175.60007898
 10
270.85962481
 20
175.60007898
 10
270.85962481
 20
175.60007898
  0
HATCH
  5
137
100
AcDbEntity
  8
MST_1_1
 62
    12
100
AcDbHatch
 10
0.0
 20
0.0
 30
0.0
210
0.0
220
0.0
230
1.0
  2
SOLID
 70
     1
 71
     1
 91
        1
 92
        7
 72
     0
 73
     1
 93
       80
 10
270.85962481
 20
175.60007898
 10
270.99484198
 20
175.60481429
 10
271.12460215
 20
175.61899751
 10
271.24891831
 20
175.64259453
 10
271.36780348
 20
175.67557124
 10
271.48127065
 20
175.71789356
 10
271.58933281
 20
175.76952738
 10
271.69200298
 20
175.83043859
 10
271.78929415
 20
175.90059311
 10
271.88121931
 20
175.97995683
 10
271.96779148
 20
176.06849564
 10
272.04748398
 20
176.16562066
 10
272.11885148
 20
176.26874178
 10
272.18187898
 20
176.37789809
 10
272.23655148
 20
176.49312871
 10
272.28285398
 20
176.61447273
 10
272.32077148
 20
176.74196924
 10
272.35028898
 20
176.87565736
 10
272.37139148
 20
177.01557618
 10
272.38406398
 20
177.16176479
 10
272.38829148
 20
177.31426231
 10
272.38406398
 20
177.46750784
 10
272.37139148
 20
177.61451658
 10
272.35028898
 20
177.75532171
 10
272.32077148
 20
177.88995644
 10
272.28285398
 20
178.01845398
 10
272.23655148
 20
178.14084751
 10
272.18187898
 20
178.25717024
 10
272.11885148
 20
178.36745538
 10
272.04748398
 20
178.47173611
 10
271.96779148
 20
178.57004564
 10
271.88121931
 20
178.66007103
 10
271.78929415
 20
178.74068671
 10
271.69200298
 20
178.81187699
 10
271.58933281
 20
178.87362618
 10
271.48127065
 20
178.92591856
 10
271.36780348
 20
178.96873844
 10
271.24891831
 20
179.00207013
 10
271.12460215
 20
179.02589791
 10
270.99484198
 20
179.04020609
 10
270.85962481
 20
179.04497898
 10
270.72447181
 20
179.04020203
 10
270.59462081
 20
179.02586538
 10
270.47008381
 20
179.00196033
 10
270.35087281
 20
178.96847818
 10
270.23699981
 20
178.92541023
 10
270.12847681
 20
178.87274778
 10
270.02531581
 20
178.81048213
 10
269.92752881
 20
178.73860458
 10
269.83512781
 20
178.65710643
 10
269.74812481
 20
178.56597898
 10
269.66777815
 20
178.46761501
 10
269.59593148
 20
178.36329324
 10
269.53257481
 20
178.25301388
 10
269.47769815
 20
178.13677711
 10
269.43129148
 20
178.01458314
 10
269.39334481
 20
177.88643218
 10
269.36384815
 20
177.75232441
 10
269.34279148
 20
177.61226004
 10
269.33016481
 20
177.46623928
 10
269.32595815
 20
177.31426231
 10
269.33016481
 20
177.16176479
 10
269.34279148
 20
177.01557618
 10
269.36384815
 20
176.87565736
 10
269.39334481
 20
176.74196924
 10
269.43129148
 20
176.61447273
 10
269.47769815
 20
176.49312871
 10
269.53257481
 20
176.37789809
 10
269.59593148
 20
176.26874178
 10
269.66777815
 20
176.16562066
 10
269.74812481
 20
176.06849564
 10
269.83512781
 20
175.97995683
 10
269.92752881
 20
175.90059311
 10
270.02531581
 20
175.83043859
 10
270.12847681
 20
175.76952738
 10
270.23699981
 20
175.71789356
 10
270.35087281
 20
175.67557124
 10
270.47008381
 20
175.64259453
 10
270.59462081
 20
175.61899751
 10
270.72447181
 20
175.60481429
 97
        1
330
136
 75
     0
 76
     2
 47
0.775229
 98
        1
 10
0.0
 20
0.0
  0
LWPOLYLINE
  5
138
102
{ACAD_REACTORS
330
139
102
}
100
AcDbEntity
  8
MST_1_1
 62
   190
100
AcDbPolyline
 90
       60
 70
     1
 43
0.0
 10
257.22059148
 20
172.78911231
 10
257.22059148
 20
181.87562898
 10
257.22059148
 20
181.87562898
 10
261.33085815
 20
181.87562898
 10
261.33085815
 20
181.87562898
 10
261.67959391
 20
181.86772834
 10
262.01153628
 20
181.84403591
 10
262.32667785
 20
181.80456588
 10
262.62501121
 20
181.74933244
 10
262.90652898
 20
181.67834981
 10
263.17122375
 20
181.59163218
 10
263.41908811
 20
181.48919374
 10
263.65011468
 20
181.37104871
 10
263.86429605
 20
181.23721128
 10
264.06162481
 20
181.08769564
 10
264.06162481
 20
181.08769564
 10
264.24083065
 20
180.92310659
 10
264.40115148
 20
180.74454124
 10
264.54259231
 20
180.55203229
 10
264.66515815
 20
180.34561244
 10
264.76885398
 20
180.12531439
 10
264.85368481
 20
179.89117084
 10
264.91965565
 20
179.64321449
 10
264.96677148
 20
179.38147804
 10
264.99503731
 20
179.10599419
 10
265.00445815
 20
178.81679564
 10
265.00445815
 20
178.81679564
 10
264.99967648
 20
178.62631108
 10
264.98534481
 20
178.44266511
 10
264.96148315
 20
178.26586934
 10
264.92811148
 20
178.09593538
 10
264.88524981
 20
177.93287481
 10
264.83291815
 20
177.77669924
 10
264.77113648
 20
177.62742028
 10
264.69992481
 20
177.48504951
 10
264.61930315
 20
177.34959854
 10
264.52929148
 20
177.22107898
 10
264.52929148
 20
177.22107898
 10
264.43085048
 20
177.10048673
 10
264.32590348
 20
176.99045098
 10
264.21441448
 20
176.89095823
 10
264.09634748
 20
176.80199498
 10
263.97166648
 20
176.72354773
 10
263.84033548
 20
176.65560298
 10
263.70231848
 20
176.59814723
 10
263.55757948
 20
176.55116698
 10
263.40608248
 20
176.51464873
 10
263.24779148
 20
176.48857898
 10
263.24779148
 20
176.48857898
 10
265.67412481
 20
172.78911231
 10
265.67412481
 20
172.78911231
 10
262.01362481
 20
172.78911231
 10
262.01362481
 20
172.78911231
 10
260.42364148
 20
175.78642898
 10
260.42364148
 20
175.78642898
 10
260.42364148
 20
172.78911231
 10
260.42364148
 20
172.78911231
 10
257.22059148
 20
172.78911231
 10
257.22059148
 20
172.78911231
 10
257.22059148
 20
172.78911231
  0
HATCH
  5
139
100
AcDbEntity
  8
MST_1_1
 62
   190
100
AcDbHatch
 10
0.0
 20
0.0
 30
0.0
210
0.0
220
0.0
230
1.0
  2
SOLID
 70
     1
 71
     1
 91
        1
 92
        7
 72
     0
 73
     1
 93
       47
 10
257.22059148
 20
172.78911231
 10
257.22059148
 20
181.87562898
 10
261.33085815
 20
181.87562898
 10
261.67959391
 20
181.86772834
 10
262.01153628
 20
181.84403591
 10
262.32667785
 20
181.80456588
 10
262.62501121
 20
181.74933244
 10
262.90652898
 20
181.67834981
 10
263.17122375
 20
181.59163218
 10
263.41908811
 20
181.48919374
 10
263.65011468
 20
181.37104871
 10
263.86429605
 20
181.23721128
 10
264.06162481
 20
181.08769564
 10
264.24083065
 20
180.92310659
 10
264.40115148
 20
180.74454124
 10
264.54259231
 20
180.55203229
 10
264.66515815
 20
180.34561244
 10
264.76885398
 20
180.12531439
 10
264.85368481
 20
179.89117084
 10
264.91965565
 20
179.64321449
 10
264.96677148
 20
179.38147804
 10
264.99503731
 20
179.10599419
 10
265.00445815
 20
178.81679564
 10
264.99967648
 20
178.62631108
 10
264.98534481
 20
178.44266511
 10
264.96148315
 20
178.26586934
 10
264.92811148
 20
178.09593538
 10
264.88524981
 20
177.93287481
 10
264.83291815
 20
177.77669924
 10
264.77113648
 20
177.62742028
 10
264.69992481
 20
177.48504951
 10
264.61930315
 20
177.34959854
 10
264.52929148
 20
177.22107898
 10
264.43085048
 20
177.10048673
 10
264.32590348
 20
176.99045098
 10
264.21441448
 20
176.89095823
 10
264.09634748
 20
176.80199498
 10
263.97166648
 20
176.72354773
 10
263.84033548
 20
176.65560298
 10
263.70231848
 20
176.59814723
 10
263.55757948
 20
176.55116698
 10
263.40608248
 20
176.51464873
 10
263.24779148
 20
176.48857898
 10
265.67412481
 20
172.78911231
 10
262.01362481
 20
172.78911231
 10
260.42364148
 20
175.78642898
 10
260.42364148
 20
172.78911231
 97
        1
330
138
 75
     0
 76
     2
 47
0.775229
 98
        1
 10
0.0
 20
0.0
  0
LWPOLYLINE
  5
13A
102
{ACAD_REACTORS
330
13B
102
}
100
AcDbEntity
  8
MST_1_1
 62
    12
100
AcDbPolyline
 90
       52
 70
     1
 43
0.0
 10
260.42364148
 20
179.53699564
 10
260.42364148
 20
177.76194564
 10
260.42364148
 20
177.76194564
 10
260.93275815
 20
177.76194564
 10
260.93275815
 20
177.76194564
 10
261.0238046
 20
177.76421704
 10
261.11048375
 20
177.77102684
 10
261.1928103
 20
177.78236844
 10
261.27079895
 20
177.79823524
 10
261.3444644
 20
177.81862064
 10
261.41382135
 20
177.84351804
 10
261.4788845
 20
177.87292084
 10
261.53966855
 20
177.90682244
 10
261.5961882
 20
177.94521624
 10
261.64845815
 20
177.98809564
 10
261.64845815
 20
177.98809564
 10
261.69630231
 20
178.03517913
 10
261.73913148
 20
178.08620151
 10
261.77694065
 20
178.14116569
 10
261.80972481
 20
178.20007458
 10
261.83747898
 20
178.26293106
 10
261.86019815
 20
178.32973804
 10
261.87787731
 20
178.40049843
 10
261.89051148
 20
178.47521511
 10
261.89809565
 20
178.55389099
 10
261.90062481
 20
178.63652898
 10
261.90062481
 20
178.63652898
 10
261.89809565
 20
178.72136778
 10
261.89051148
 20
178.80219738
 10
261.87787731
 20
178.87900758
 10
261.86019815
 20
178.95178818
 10
261.83747898
 20
179.02052898
 10
261.80972481
 20
179.08521978
 10
261.77694065
 20
179.14585038
 10
261.73913148
 20
179.20241058
 10
261.69630231
 20
179.25489018
 10
261.64845815
 20
179.30327898
 10
261.64845815
 20
179.30327898
 10
261.5961882
 20
179.34741514
 10
261.53966855
 20
179.38699031
 10
261.4788845
 20
179.42198448
 10
261.41382135
 20
179.45237764
 10
261.3444644
 20
179.47814981
 10
261.27079895
 20
179.49928098
 10
261.1928103
 20
179.51575114
 10
261.11048375
 20
179.52754031
 10
261.0238046
 20
179.53462848
 10
260.93275815
 20
179.53699564
 10
260.93275815
 20
179.53699564
 10
260.42364148
 20
179.53699564
 10
260.42364148
 20
179.53699564
 10
260.42364148
 20
179.53699564
  0
HATCH
  5
13B
100
AcDbEntity
  8
MST_1_1
 62
    12
100
AcDbHatch
 10
0.0
 20
0.0
 30
0.0
210
0.0
220
0.0
230
1.0
  2
SOLID
 70
     1
 71
     1
 91
        1
 92
        7
 72
     0
 73
     1
 93
       43
 10
260.42364148
 20
179.53699564
 10
260.42364148
 20
177.76194564
 10
260.93275815
 20
177.76194564
 10
261.0238046
 20
177.76421704
 10
261.11048375
 20
177.77102684
 10
261.1928103
 20
177.78236844
 10
261.27079895
 20
177.79823524
 10
261.3444644
 20
177.81862064
 10
261.41382135
 20
177.84351804
 10
261.4788845
 20
177.87292084
 10
261.53966855
 20
177.90682244
 10
261.5961882
 20
177.94521624
 10
261.64845815
 20
177.98809564
 10
261.69630231
 20
178.03517913
 10
261.73913148
 20
178.08620151
 10
261.77694065
 20
178.14116569
 10
261.80972481
 20
178.20007458
 10
261.83747898
 20
178.26293106
 10
261.86019815
 20
178.32973804
 10
261.87787731
 20
178.40049843
 10
261.89051148
 20
178.47521511
 10
261.89809565
 20
178.55389099
 10
261.90062481
 20
178.63652898
 10
261.89809565
 20
178.72136778
 10
261.89051148
 20
178.80219738
 10
261.87787731
 20
178.87900758
 10
261.86019815
 20
178.95178818
 10
261.83747898
 20
179.02052898
 10
261.80972481
 20
179.08521978
 10
261.77694065
 20
179.14585038
 10
261.73913148
 20
179.20241058
 10
261.69630231
 20
179.25489018
 10
261.64845815
 20
179.30327898
 10
261.5961882
 20
179.34741514
 10
261.53966855
 20
179.38699031
 10
261.4788845
 20
179.42198448
 10
261.41382135
 20
179.45237764
 10
261.3444644
 20
179.47814981
 10
261.27079895
 20
179.49928098
 10
261.1928103
 20
179.51575114
 10
261.11048375
 20
179.52754031
 10
261.0238046
 20
179.53462848
 10
260.93275815
 20
179.53699564
 97
        1
330
13A
 75
     0
 76
     2
 47
0.775229
 98
        1
 10
0.0
 20
0.0
  0
LWPOLYLINE
  5
13C
102
{ACAD_REACTORS
330
13D
102
}
100
AcDbEntity
  8
MST_1_1
 62
   190
100
AcDbPolyline
 90
       56
 70
     1
 43
0.0
 10
248.22099148
 20
172.78911231
 10
248.22099148
 20
181.87562898
 10
248.22099148
 20
181.87562898
 10
252.12570815
 20
181.87562898
 10
252.12570815
 20
181.87562898
 10
252.5264843
 20
181.86768031
 10
252.90513535
 20
181.84383764
 10
253.2616652
 20
181.80410598
 10
253.59607775
 20
181.74849031
 10
253.9083769
 20
181.67699564
 10
254.19856655
 20
181.58962698
 10
254.4666506
 20
181.48638931
 10
254.71263295
 20
181.36728764
 10
254.9365175
 20
181.23232698
 10
255.13830815
 20
181.08151231
 10
255.13830815
 20
181.08151231
 10
255.31936335
 20
180.91315098
 10
255.48136775
 20
180.72626364
 10
255.62431955
 20
180.52083031
 10
255.74821695
 20
180.29683098
 10
255.85305815
 20
180.05424564
 10
255.93884135
 20
179.79305431
 10
256.00556475
 20
179.51323698
 10
256.05322655
 20
179.21477364
 10
256.08182495
 20
178.89764431
 10
256.09135815
 20
178.56182898
 10
256.09135815
 20
178.56182898
 10
256.08278825
 20
178.24883696
 10
256.05708495
 20
177.95317484
 10
256.01425785
 20
177.67484853
 10
255.95431655
 20
177.41386391
 10
255.87727065
 20
177.17022689
 10
255.78312975
 20
176.94394338
 10
255.67190345
 20
176.73501926
 10
255.54360135
 20
176.54346044
 10
255.39823305
 20
176.36927283
 10
255.23580815
 20
176.21246231
 10
255.23580815
 20
176.21246231
 10
255.05405548
 20
176.07190486
 10
254.85225281
 20
175.94609071
 10
254.63039315
 20
175.83503216
 10
254.38846948
 20
175.73874151
 10
254.12647481
 20
175.65723106
 10
253.84440215
 20
175.59051311
 10
253.54224448
 20
175.53859996
 10
253.21999481
 20
175.50150391
 10
252.87764615
 20
175.47923726
 10
252.51519148
 20
175.47181231
 10
252.51519148
 20
175.47181231
 10
251.49224148
 20
175.47181231
 10
251.49224148
 20
175.47181231
 10
251.49224148
 20
172.78911231
 10
251.49224148
 20
172.78911231
 10
248.22099148
 20
172.78911231
 10
248.22099148
 20
172.78911231
 10
248.22099148
 20
172.78911231
  0
HATCH
  5
13D
100
AcDbEntity
  8
MST_1_1
 62
   190
100
AcDbHatch
 10
0.0
 20
0.0
 30
0.0
210
0.0
220
0.0
230
1.0
  2
SOLID
 70
     1
 71
     1
 91
        1
 92
        7
 72
     0
 73
     1
 93
       45
 10
248.22099148
 20
172.78911231
 10
248.22099148
 20
181.87562898
 10
252.12570815
 20
181.87562898
 10
252.5264843
 20
181.86768031
 10
252.90513535
 20
181.84383764
 10
253.2616652
 20
181.80410598
 10
253.59607775
 20
181.74849031
 10
253.9083769
 20
181.67699564
 10
254.19856655
 20
181.58962698
 10
254.4666506
 20
181.48638931
 10
254.71263295
 20
181.36728764
 10
254.9365175
 20
181.23232698
 10
255.13830815
 20
181.08151231
 10
255.31936335
 20
180.91315098
 10
255.48136775
 20
180.72626364
 10
255.62431955
 20
180.52083031
 10
255.74821695
 20
180.29683098
 10
255.85305815
 20
180.05424564
 10
255.93884135
 20
179.79305431
 10
256.00556475
 20
179.51323698
 10
256.05322655
 20
179.21477364
 10
256.08182495
 20
178.89764431
 10
256.09135815
 20
178.56182898
 10
256.08278825
 20
178.24883696
 10
256.05708495
 20
177.95317484
 10
256.01425785
 20
177.67484853
 10
255.95431655
 20
177.41386391
 10
255.87727065
 20
177.17022689
 10
255.78312975
 20
176.94394338
 10
255.67190345
 20
176.73501926
 10
255.54360135
 20
176.54346044
 10
255.39823305
 20
176.36927283
 10
255.23580815
 20
176.21246231
 10
255.05405548
 20
176.07190486
 10
254.85225281
 20
175.94609071
 10
254.63039315
 20
175.83503216
 10
254.38846948
 20
175.73874151
 10
254.12647481
 20
175.65723106
 10
253.84440215
 20
175.59051311
 10
253.54224448
 20
175.53859996
 10
253.21999481
 20
175.50150391
 10
252.87764615
 20
175.47923726
 10
252.51519148
 20
175.47181231
 10
251.49224148
 20
175.47181231
 10
251.49224148
 20
172.78911231
 97
        1
330
13C
 75
     0
 76
     2
 47
0.775229
 98
        1
 10
0.0
 20
0.0
  0
LWPOLYLINE
  5
13E
102
{ACAD_REACTORS
330
13F
102
}
100
AcDbEntity
  8
MST_1_1
 62
    12
100
AcDbPolyline
 90
       52
 70
     1
 43
0.0
 10
251.50500815
 20
179.35007898
 10
251.50500815
 20
177.83551231
 10
251.50500815
 20
177.83551231
 10
252.01265815
 20
177.83551231
 10
252.01265815
 20
177.83551231
 10
252.10349626
 20
177.83748061
 10
252.19010108
 20
177.84337871
 10
252.2724433
 20
177.85319641
 10
252.35049361
 20
177.86692351
 10
252.42422273
 20
177.88454981
 10
252.49360135
 20
177.90606511
 10
252.55860016
 20
177.93145921
 10
252.61918988
 20
177.96072191
 10
252.6753412
 20
177.99384301
 10
252.72702481
 20
178.03081231
 10
252.72702481
 20
178.03081231
 10
252.77409356
 20
178.07162968
 10
252.81622681
 20
178.11571724
 10
252.85342006
 20
178.16308321
 10
252.88566881
 20
178.21373578
 10
252.91296856
 20
178.26768314
 10
252.93531481
 20
178.32493351
 10
252.95270306
 20
178.38549508
 10
252.96512881
 20
178.44937604
 10
252.97258756
 20
178.51658461
 10
252.97507481
 20
178.58712898
 10
252.97507481
 20
178.58712898
 10
252.97254105
 20
178.65738666
 10
252.96493268
 20
178.72450244
 10
252.95223911
 20
178.78848043
 10
252.93444975
 20
178.84932471
 10
252.91155398
 20
178.90703939
 10
252.88354121
 20
178.96162858
 10
252.85040085
 20
179.01309636
 10
252.81212228
 20
179.06144684
 10
252.76869491
 20
179.10668413
 10
252.72010815
 20
179.14881231
 10
252.72010815
 20
179.14881231
 10
252.66736225
 20
179.18684373
 10
252.61063895
 20
179.22093764
 10
252.54992985
 20
179.25107856
 10
252.48522655
 20
179.27725098
 10
252.41652065
 20
179.29943939
 10
252.34380375
 20
179.31762831
 10
252.26706745
 20
179.33180223
 10
252.18630335
 20
179.34194564
 10
252.10150305
 20
179.34804306
 10
252.01265815
 20
179.35007898
 10
252.01265815
 20
179.35007898
 10
251.50500815
 20
179.35007898
 10
251.50500815
 20
179.35007898
 10
251.50500815
 20
179.35007898
  0
HATCH
  5
13F
100
AcDbEntity
  8
MST_1_1
 62
    12
100
AcDbHatch
 10
0.0
 20
0.0
 30
0.0
210
0.0
220
0.0
230
1.0
  2
SOLID
 70
     1
 71
     1
 91
        1
 92
        7
 72
     0
 73
     1
 93
       43
 10
251.50500815
 20
179.35007898
 10
251.50500815
 20
177.83551231
 10
252.01265815
 20
177.83551231
 10
252.10349626
 20
177.83748061
 10
252.19010108
 20
177.84337871
 10
252.2724433
 20
177.85319641
 10
252.35049361
 20
177.86692351
 10
252.42422273
 20
177.88454981
 10
252.49360135
 20
177.90606511
 10
252.55860016
 20
177.93145921
 10
252.61918988
 20
177.96072191
 10
252.6753412
 20
177.99384301
 10
252.72702481
 20
178.03081231
 10
252.77409356
 20
178.07162968
 10
252.81622681
 20
178.11571724
 10
252.85342006
 20
178.16308321
 10
252.88566881
 20
178.21373578
 10
252.91296856
 20
178.26768314
 10
252.93531481
 20
178.32493351
 10
252.95270306
 20
178.38549508
 10
252.96512881
 20
178.44937604
 10
252.97258756
 20
178.51658461
 10
252.97507481
 20
178.58712898
 10
252.97254105
 20
178.65738666
 10
252.96493268
 20
178.72450244
 10
252.95223911
 20
178.78848043
 10
252.93444975
 20
178.84932471
 10
252.91155398
 20
178.90703939
 10
252.88354121
 20
178.96162858
 10
252.85040085
 20
179.01309636
 10
252.81212228
 20
179.06144684
 10
252.76869491
 20
179.10668413
 10
252.72010815
 20
179.14881231
 10
252.66736225
 20
179.18684373
 10
252.61063895
 20
179.22093764
 10
252.54992985
 20
179.25107856
 10
252.48522655
 20
179.27725098
 10
252.41652065
 20
179.29943939
 10
252.34380375
 20
179.31762831
 10
252.26706745
 20
179.33180223
 10
252.18630335
 20
179.34194564
 10
252.10150305
 20
179.34804306
 10
252.01265815
 20
179.35007898
 97
        1
330
13E
 75
     0
 76
     2
 47
0.775229
 98
        1
 10
0.0
 20
0.0
  0
LWPOLYLINE
  5
140
102
{ACAD_REACTORS
330
141
102
}
100
AcDbEntity
  8
MST_1_1
 62
    12
100
AcDbPolyline
 90
       10
 70
     1
 43
0.0
 10
289.26745815
 20
172.78911231
 10
289.26745815
 20
181.87562898
 10
289.26745815
 20
181.87562898
 10
293.73529148
 20
181.87562898
 10
293.73529148
 20
181.87562898
 10
293.73529148
 20
172.78911231
 10
293.73529148
 20
172.78911231
 10
289.26745815
 20
172.78911231
 10
289.26745815
 20
172.78911231
 10
289.26745815
 20
172.78911231
  0
HATCH
  5
141
100
AcDbEntity
  8
MST_1_1
 62
    12
100
AcDbHatch
 10
0.0
 20
0.0
 30
0.0
210
0.0
220
0.0
230
1.0
  2
SOLID
 70
     1
 71
     1
 91
        1
 92
        7
 72
     0
 73
     1
 93
        4
 10
289.26745815
 20
172.78911231
 10
289.26745815
 20
181.87562898
 10
293.73529148
 20
181.87562898
 10
293.73529148
 20
172.78911231
 97
        1
330
140
 75
     0
 76
     2
 47
0.775229
 98
        1
 10
0.0
 20
0.0
  0
LWPOLYLINE
  5
142
102
{ACAD_REACTORS
330
143
102
}
100
AcDbEntity
  8
MST_1_1
 62
    12
100
AcDbPolyline
 90
      114
 70
     1
 43
0.0
 10
301.48462481
 20
174.85022898
 10
301.45027081
 20
174.90504733
 10
301.41771281
 20
174.95759778
 10
301.38695681
 20
175.00790343
 10
301.35800881
 20
175.05598738
 10
301.33087481
 20
175.10187273
 10
301.30556081
 20
175.14558258
 10
301.28207281
 20
175.18714003
 10
301.26041681
 20
175.22656818
 10
301.24059881
 20
175.26389013
 10
301.22262481
 20
175.29912898
 10
301.22262481
 20
175.29912898
 10
301.20532215
 20
175.33308014
 10
301.18900348
 20
175.36629031
 10
301.17365281
 20
175.39876948
 10
301.15925415
 20
175.43052764
 10
301.14579148
 20
175.46157481
 10
301.13324881
 20
175.49192098
 10
301.12161015
 20
175.52157614
 10
301.11085948
 20
175.55055031
 10
301.10098081
 20
175.57885348
 10
301.09195815
 20
175.60649564
 10
301.09195815
 20
175.60649564
 10
301.08429381
 20
175.58029166
 10
301.07586348
 20
175.55352778
 10
301.06661115
 20
175.52620109
 10
301.05648081
 20
175.49830871
 10
301.04541648
 20
175.46984773
 10
301.03336215
 20
175.44081524
 10
301.02026181
 20
175.41120836
 10
301.00605948
 20
175.38102418
 10
300.99069915
 20
175.35025979
 10
300.97412481
 20
175.31891231
 10
300.97412481
 20
175.31891231
 10
300.95678848
 20
175.28550633
 10
300.93679415
 20
175.24906844
 10
300.91416381
 20
175.20961376
 10
300.88891948
 20
175.16715738
 10
300.86108315
 20
175.12171439
 10
300.83067681
 20
175.07329991
 10
300.79772248
 20
175.02192903
 10
300.76224215
 20
174.96761684
 10
300.72425781
 20
174.91037846
 10
300.68379148
 20
174.85022898
 10
300.68379148
 20
174.85022898
 10
299.29412481
 20
172.78911231
 10
299.29412481
 20
172.78911231
 10
294.26645815
 20
172.78911231
 10
294.26645815
 20
172.78911231
 10
298.60929148
 20
177.62912898
 10
298.60929148
 20
177.62912898
 10
294.77729148
 20
181.87562898
 10
294.77729148
 20
181.87562898
 10
299.79679148
 20
181.87562898
 10
299.79679148
 20
181.87562898
 10
300.70012481
 20
180.39254564
 10
300.70012481
 20
180.39254564
 10
300.70295081
 20
180.38703256
 10
300.70631281
 20
180.38093498
 10
300.71018681
 20
180.37425539
 10
300.71454881
 20
180.36699631
 10
300.71937481
 20
180.35916023
 10
300.72464081
 20
180.35074964
 10
300.73032281
 20
180.34176706
 10
300.73639681
 20
180.33221498
 10
300.74283881
 20
180.32209589
 10
300.74962481
 20
180.31141231
 10
300.74962481
 20
180.31141231
 10
300.79836015
 20
180.22875939
 10
300.84386748
 20
180.14951098
 10
300.88614881
 20
180.07368256
 10
300.92520615
 20
180.00128964
 10
300.96104148
 20
179.93234773
 10
300.99365681
 20
179.86687231
 10
301.02305415
 20
179.80487889
 10
301.04923548
 20
179.74638298
 10
301.07220281
 20
179.69140006
 10
301.09195815
 20
179.63994564
 10
301.09195815
 20
179.63994564
 10
301.10407181
 20
179.67258894
 10
301.11672748
 20
179.70533804
 10
301.12994715
 20
179.73820674
 10
301.14375281
 20
179.77120884
 10
301.15816648
 20
179.80435814
 10
301.17321015
 20
179.83766844
 10
301.18890581
 20
179.87115354
 10
301.20527548
 20
179.90482724
 10
301.22234115
 20
179.93870334
 10
301.24012481
 20
179.97279564
 10
301.24012481
 20
179.97279564
 10
301.25741115
 20
180.00787799
 10
301.27603548
 20
180.04451844
 10
301.29594581
 20
180.08270709
 10
301.31709015
 20
180.12243404
 10
301.33941648
 20
180.16368939
 10
301.36287281
 20
180.20646324
 10
301.38740715
 20
180.25074569
 10
301.41296748
 20
180.29652684
 10
301.43950181
 20
180.34379679
 10
301.46695815
 20
180.39254564
 10
301.46695815
 20
180.39254564
 10
302.39445815
 20
181.87562898
 10
302.39445815
 20
181.87562898
 10
307.39112481
 20
181.87562898
 10
307.39112481
 20
181.87562898
 10
303.57179148
 20
177.62912898
 10
303.57179148
 20
177.62912898
 10
307.91945815
 20
172.78911231
 10
307.91945815
 20
172.78911231
 10
302.88729148
 20
172.78911231
 10
302.88729148
 20
172.78911231
 10
301.48462481
 20
174.85022898
 10
301.48462481
 20
174.85022898
 10
301.48462481
 20
174.85022898
  0
HATCH
  5
143
100
AcDbEntity
  8
MST_1_1
 62
    12
100
AcDbHatch
 10
0.0
 20
0.0
 30
0.0
210
0.0
220
0.0
230
1.0
  2
SOLID
 70
     1
 71
     1
 91
        1
 92
        7
 72
     0
 73
     1
 93
       92
 10
301.48462481
 20
174.85022898
 10
301.45027081
 20
174.90504733
 10
301.41771281
 20
174.95759778
 10
301.38695681
 20
175.00790343
 10
301.35800881
 20
175.05598738
 10
301.33087481
 20
175.10187273
 10
301.30556081
 20
175.14558258
 10
301.28207281
 20
175.18714003
 10
301.26041681
 20
175.22656818
 10
301.24059881
 20
175.26389013
 10
301.22262481
 20
175.29912898
 10
301.20532215
 20
175.33308014
 10
301.18900348
 20
175.36629031
 10
301.17365281
 20
175.39876948
 10
301.15925415
 20
175.43052764
 10
301.14579148
 20
175.46157481
 10
301.13324881
 20
175.49192098
 10
301.12161015
 20
175.52157614
 10
301.11085948
 20
175.55055031
 10
301.10098081
 20
175.57885348
 10
301.09195815
 20
175.60649564
 10
301.08429381
 20
175.58029166
 10
301.07586348
 20
175.55352778
 10
301.06661115
 20
175.52620109
 10
301.05648081
 20
175.49830871
 10
301.04541648
 20
175.46984773
 10
301.03336215
 20
175.44081524
 10
301.02026181
 20
175.41120836
 10
301.00605948
 20
175.38102418
 10
300.99069915
 20
175.35025979
 10
300.97412481
 20
175.31891231
 10
300.95678848
 20
175.28550633
 10
300.93679415
 20
175.24906844
 10
300.91416381
 20
175.20961376
 10
300.88891948
 20
175.16715738
 10
300.86108315
 20
175.12171439
 10
300.83067681
 20
175.07329991
 10
300.79772248
 20
175.02192903
 10
300.76224215
 20
174.96761684
 10
300.72425781
 20
174.91037846
 10
300.68379148
 20
174.85022898
 10
299.29412481
 20
172.78911231
 10
294.26645815
 20
172.78911231
 10
298.60929148
 20
177.62912898
 10
294.77729148
 20
181.87562898
 10
299.79679148
 20
181.87562898
 10
300.70012481
 20
180.39254564
 10
300.70295081
 20
180.38703256
 10
300.70631281
 20
180.38093498
 10
300.71018681
 20
180.37425539
 10
300.71454881
 20
180.36699631
 10
300.71937481
 20
180.35916023
 10
300.72464081
 20
180.35074964
 10
300.73032281
 20
180.34176706
 10
300.73639681
 20
180.33221498
 10
300.74283881
 20
180.32209589
 10
300.74962481
 20
180.31141231
 10
300.79836015
 20
180.22875939
 10
300.84386748
 20
180.14951098
 10
300.88614881
 20
180.07368256
 10
300.92520615
 20
180.00128964
 10
300.96104148
 20
179.93234773
 10
300.99365681
 20
179.86687231
 10
301.02305415
 20
179.80487889
 10
301.04923548
 20
179.74638298
 10
301.07220281
 20
179.69140006
 10
301.09195815
 20
179.63994564
 10
301.10407181
 20
179.67258894
 10
301.11672748
 20
179.70533804
 10
301.12994715
 20
179.73820674
 10
301.14375281
 20
179.77120884
 10
301.15816648
 20
179.80435814
 10
301.17321015
 20
179.83766844
 10
301.18890581
 20
179.87115354
 10
301.20527548
 20
179.90482724
 10
301.22234115
 20
179.93870334
 10
301.24012481
 20
179.97279564
 10
301.25741115
 20
180.00787799
 10
301.27603548
 20
180.04451844
 10
301.29594581
 20
180.08270709
 10
301.31709015
 20
180.12243404
 10
301.33941648
 20
180.16368939
 10
301.36287281
 20
180.20646324
 10
301.38740715
 20
180.25074569
 10
301.41296748
 20
180.29652684
 10
301.43950181
 20
180.34379679
 10
301.46695815
 20
180.39254564
 10
302.39445815
 20
181.87562898
 10
307.39112481
 20
181.87562898
 10
303.57179148
 20
177.62912898
 10
307.91945815
 20
172.78911231
 10
302.88729148
 20
172.78911231
 97
        1
330
142
 75
     0
 76
     2
 47
0.775229
 98
        1
 10
0.0
 20
0.0
  0
LWPOLYLINE
  5
144
102
{ACAD_REACTORS
330
145
102
}
100
AcDbEntity
  8
MST_1_1
 62
     7
100
AcDbPolyline
 90
       46
 70
     1
 43
0.0
 10
312.23462481
 20
188.00167898
 10
312.34715531
 20
187.99256548
 10
312.45406881
 20
187.96619098
 10
312.55389831
 20
187.92400448
 10
312.64517681
 20
187.86745498
 10
312.72643731
 20
187.79799148
 10
312.79621281
 20
187.71706298
 10
312.85303631
 20
187.62611848
 10
312.89544081
 20
187.52660698
 10
312.92195931
 20
187.41997748
 10
312.93112481
 20
187.30767898
 10
312.93112481
 20
187.30767898
 10
312.92195931
 20
187.19552531
 10
312.89544081
 20
187.08902964
 10
312.85303631
 20
186.98963998
 10
312.79621281
 20
186.89880431
 10
312.72643731
 20
186.81797064
 10
312.64517681
 20
186.74858698
 10
312.55389831
 20
186.69210131
 10
312.45406881
 20
186.64996164
 10
312.34715531
 20
186.62361598
 10
312.23462481
 20
186.61451231
 10
312.23462481
 20
186.61451231
 10
312.12150398
 20
186.62361598
 10
312.01419815
 20
186.64996164
 10
311.91414231
 20
186.69210131
 10
311.82277148
 20
186.74858698
 10
311.74152065
 20
186.81797064
 10
311.67182481
 20
186.89880431
 10
311.61511898
 20
186.98963998
 10
311.57283815
 20
187.08902964
 10
311.54641731
 20
187.19552531
 10
311.53729148
 20
187.30767898
 10
311.53729148
 20
187.30767898
 10
311.54641731
 20
187.41997748
 10
311.57283815
 20
187.52660698
 10
311.61511898
 20
187.62611848
 10
311.67182481
 20
187.71706298
 10
311.74152065
 20
187.79799148
 10
311.82277148
 20
187.86745498
 10
311.91414231
 20
187.92400448
 10
312.01419815
 20
187.96619098
 10
312.12150398
 20
187.99256548
 10
312.23462481
 20
188.00167898
 10
312.23462481
 20
188.00167898
 10
312.23462481
 20
188.00167898
  0
HATCH
  5
145
100
AcDbEntity
  8
MST_1_1
 62
     7
100
AcDbHatch
 10
0.0
 20
0.0
 30
0.0
210
0.0
220
0.0
230
1.0
  2
SOLID
 70
     1
 71
     1
 91
        1
 92
        7
 72
     0
 73
     1
 93
       40
 10
312.23462481
 20
188.00167898
 10
312.34715531
 20
187.99256548
 10
312.45406881
 20
187.96619098
 10
312.55389831
 20
187.92400448
 10
312.64517681
 20
187.86745498
 10
312.72643731
 20
187.79799148
 10
312.79621281
 20
187.71706298
 10
312.85303631
 20
187.62611848
 10
312.89544081
 20
187.52660698
 10
312.92195931
 20
187.41997748
 10
312.93112481
 20
187.30767898
 10
312.92195931
 20
187.19552531
 10
312.89544081
 20
187.08902964
 10
312.85303631
 20
186.98963998
 10
312.79621281
 20
186.89880431
 10
312.72643731
 20
186.81797064
 10
312.64517681
 20
186.74858698
 10
312.55389831
 20
186.69210131
 10
312.45406881
 20
186.64996164
 10
312.34715531
 20
186.62361598
 10
312.23462481
 20
186.61451231
 10
312.12150398
 20
186.62361598
 10
312.01419815
 20
186.64996164
 10
311.91414231
 20
186.69210131
 10
311.82277148
 20
186.74858698
 10
311.74152065
 20
186.81797064
 10
311.67182481
 20
186.89880431
 10
311.61511898
 20
186.98963998
 10
311.57283815
 20
187.08902964
 10
311.54641731
 20
187.19552531
 10
311.53729148
 20
187.30767898
 10
311.54641731
 20
187.41997748
 10
311.57283815
 20
187.52660698
 10
311.61511898
 20
187.62611848
 10
311.67182481
 20
187.71706298
 10
311.74152065
 20
187.79799148
 10
311.82277148
 20
187.86745498
 10
311.91414231
 20
187.92400448
 10
312.01419815
 20
187.96619098
 10
312.12150398
 20
187.99256548
 97
        1
330
144
 75
     0
 76
     2
 47
0.775229
 98
        1
 10
0.0
 20
0.0
  0
LWPOLYLINE
  5
146
102
{ACAD_REACTORS
330
147
102
}
100
AcDbEntity
  8
MST_1_1
 62
    12
100
AcDbPolyline
 90
       29
 70
     1
 43
0.0
 10
311.91495815
 20
187.78967898
 10
311.91495815
 20
186.88301231
 10
311.91495815
 20
186.88301231
 10
312.04912481
 20
186.88301231
 10
312.04912481
 20
186.88301231
 10
312.04912481
 20
187.29001231
 10
312.04912481
 20
187.29001231
 10
312.22745815
 20
187.29001231
 10
312.22745815
 20
187.29001231
 10
312.48679148
 20
186.88901231
 10
312.48679148
 20
186.88901231
 10
312.62295815
 20
186.88901231
 10
312.62295815
 20
186.88901231
 10
312.36412481
 20
187.29734564
 10
312.36412481
 20
187.29734564
 10
312.45271181
 20
187.31576731
 10
312.52238081
 20
187.35591898
 10
312.57284381
 20
187.41223064
 10
312.60381281
 20
187.47913231
 10
312.61499981
 20
187.55105398
 10
312.60611681
 20
187.62242564
 10
312.57687581
 20
187.68767731
 10
312.52698881
 20
187.74123898
 10
312.45616781
 20
187.77754064
 10
312.36412481
 20
187.79101231
 10
312.36412481
 20
187.79101231
 10
311.91495815
 20
187.78967898
 10
311.91495815
 20
187.78967898
 10
311.91495815
 20
187.78967898
  0
HATCH
  5
147
100
AcDbEntity
  8
MST_1_1
 62
    12
100
AcDbHatch
 10
0.0
 20
0.0
 30
0.0
210
0.0
220
0.0
230
1.0
  2
SOLID
 70
     1
 71
     1
 91
        1
 92
        7
 72
     0
 73
     1
 93
       18
 10
311.91495815
 20
187.78967898
 10
311.91495815
 20
186.88301231
 10
312.04912481
 20
186.88301231
 10
312.04912481
 20
187.29001231
 10
312.22745815
 20
187.29001231
 10
312.48679148
 20
186.88901231
 10
312.62295815
 20
186.88901231
 10
312.36412481
 20
187.29734564
 10
312.45271181
 20
187.31576731
 10
312.52238081
 20
187.35591898
 10
312.57284381
 20
187.41223064
 10
312.60381281
 20
187.47913231
 10
312.61499981
 20
187.55105398
 10
312.60611681
 20
187.62242564
 10
312.57687581
 20
187.68767731
 10
312.52698881
 20
187.74123898
 10
312.45616781
 20
187.77754064
 10
312.36412481
 20
187.79101231
 97
        1
330
146
 75
     0
 76
     2
 47
0.775229
 98
        1
 10
0.0
 20
0.0
  0
LWPOLYLINE
  5
148
102
{ACAD_REACTORS
330
149
102
}
100
AcDbEntity
  8
MST_1_1
 62
     7
100
AcDbPolyline
 90
       19
 70
     1
 43
0.0
 10
312.04912481
 20
187.68651231
 10
312.04912481
 20
187.39584564
 10
312.04912481
 20
187.39584564
 10
312.35045815
 20
187.39667898
 10
312.35045815
 20
187.39667898
 10
312.40343665
 20
187.40852931
 10
312.44490615
 20
187.43290164
 10
312.47476765
 20
187.46652798
 10
312.49292215
 20
187.50614031
 10
312.49927065
 20
187.54847064
 10
312.49371415
 20
187.59025098
 10
312.47615365
 20
187.62821331
 10
312.44649015
 20
187.65908964
 10
312.40462465
 20
187.67961198
 10
312.35045815
 20
187.68651231
 10
312.35045815
 20
187.68651231
 10
312.04912481
 20
187.68651231
 10
312.04912481
 20
187.68651231
 10
312.04912481
 20
187.68651231
  0
HATCH
  5
149
100
AcDbEntity
  8
MST_1_1
 62
     7
100
AcDbHatch
 10
0.0
 20
0.0
 30
0.0
210
0.0
220
0.0
230
1.0
  2
SOLID
 70
     1
 71
     1
 91
        1
 92
        7
 72
     0
 73
     1
 93
       13
 10
312.04912481
 20
187.68651231
 10
312.04912481
 20
187.39584564
 10
312.35045815
 20
187.39667898
 10
312.40343665
 20
187.40852931
 10
312.44490615
 20
187.43290164
 10
312.47476765
 20
187.46652798
 10
312.49292215
 20
187.50614031
 10
312.49927065
 20
187.54847064
 10
312.49371415
 20
187.59025098
 10
312.47615365
 20
187.62821331
 10
312.44649015
 20
187.65908964
 10
312.40462465
 20
187.67961198
 10
312.35045815
 20
187.68651231
 97
        1
330
148
 75
     0
 76
     2
 47
0.775229
 98
        1
 10
0.0
 20
0.0
  0
TEXT
  5
14A
100
AcDbEntity
  8
MST_1_1
 62
     7
100
AcDbText
 10
42.93749597
 20
28.54545025
 30
0.0
 40
5.0
  1
40
  7
ARIAL
 50
89.9999975
 41
0.8
 51
0.0
100
AcDbText
  0
TEXT
  5
14B
100
AcDbEntity
  8
MST_1_1
 62
     7
100
AcDbText
 10
37.93749597
 20
18.54545025
 30
0.0
 40
5.0
  1
35
  7
ARIAL
 50
89.9999975
 41
0.8
 51
0.0
100
AcDbText
  0
TEXT
  5
14C
100
AcDbEntity
  8
MST_1_1
 62
     7
100
AcDbText
 10
-81.80099345
 20
6.04545025
 30
0.0
 40
5.0
  1
HECO-FIX-plus LSK 5.0x35
  7
ARIAL
 50
0.0
 41
0.8
 51
0.0
100
AcDbText
  0
TEXT
  5
14D
100
AcDbEntity
  8
MST_1_1
 62
     7
100
AcDbText
 10
-81.80099345
 20
-23.95454975
 30
0.0
 40
5.0
  1
HECO-FIX-plus LSK 5.0x40
  7
ARIAL
 50
0.0
 41
0.8
 51
0.0
100
AcDbText
  0
TEXT
  5
14E
100
AcDbEntity
  8
MST_1_1
 62
     7
100
AcDbText
 10
-131.52158977
 20
6.04545025
 30
0.0
 40
5.0
  1
T-Drive T25
  7
ARIAL
 50
0.0
 41
0.8
 51
0.0
100
AcDbText
  0
TEXT
  5
14F
100
AcDbEntity
  8
MST_1_1
 62
     7
100
AcDbText
 10
-131.52158977
 20
-23.95454975
 30
0.0
 40
5.0
  1
T-Drive T25
  7
ARIAL
 50
0.0
 41
0.8
 51
0.0
100
AcDbText
  0
ENDSEC
  0
SECTION
  2
OBJECTS
  0
DICTIONARY
  5
1
100
AcDbDictionary
  3
ACAD_GROUP
350
2
  3
ACAD_MLINESTYLE
350
3
  0
DICTIONARY
  5
2
102
{CDWK_REACTORS
330
1
102
}
100
AcDbDictionary
  0
DICTIONARY
  5
3
102
{CDWK_REACTORS
330
1
102
}
100
AcDbDictionary
  3
STANDARD
350
4
  0
MLINESTYLE
  5
4
102
{CDWK_REACTORS
330
3
102
}
100
AcDbMlineStyle
  2
STANDARD
 70
     0
  3

 62
     0
 51
90.0
 52
90.0
 71
     2
 49
0.5
 62
   256
  6
BYLAYER
 49
-0.5
 62
   256
  6
BYLAYER
  0
ENDSEC
  0
EOF
