  0
SECTION
  2
HEADER
  9
$ACADVER
  1
AC1012
  9
$DWGCODEPAGE
  3
ANSI_1252
  9
$INSBASE
 10
0.0
 20
0.0
 30
0.0
  9
$EXTMIN
 10
-147.79877002
 20
-278.53771192
  9
$EXTMAX
 10
497.57663891
 20
190.60972557
  9
$LIMMIN
 10
-147.79877002
 20
-278.53771192
  9
$LIMMAX
 10
497.57663891
 20
190.60972557
  9
$ORTHOMODE
 70
     0
  9
$REGENMODE
 70
     1
  9
$FILLMODE
 70
     1
  9
$QTEXTMODE
 70
     0
  9
$MIRRTEXT
 70
     1
  9
$DRAGMODE
 70
     2
  9
$LTSCALE
 40
1.0
  9
$OSMODE
 70
     0
  9
$ATTMODE
 70
     1
  9
$TEXTSIZE
 40
3.5
  9
$TRACEWID
 40
1.0
  9
$TEXTSTYLE
  7
STANDARD
  9
$CLAYER
  8
0
  9
$CELTYPE
  6
BYLAYER
  9
$CECOLOR
 62
   256
  9
$DIMSCALE
 40
1.0
  9
$DIMASZ
 40
2.0
  9
$DIMEXO
 40
5.0
  9
$DIMDLI
 40
10.0
  9
$DIMRND
 40
0.0
  9
$DIMDLE
 40
2.0
  9
$DIMEXE
 40
2.0
  9
$DIMTP
 40
0.0
  9
$DIMTM
 40
0.0
  9
$DIMTXT
 40
2.5
  9
$DIMCEN
 40
1.5
  9
$DIMTSZ
 40
0.0
  9
$DIMTOL
 70
     0
  9
$DIMLIM
 70
     0
  9
$DIMTIH
 70
     1
  9
$DIMTOH
 70
     0
  9
$DIMSE1
 70
     0
  9
$DIMSE2
 70
     0
  9
$DIMTAD
 70
     1
  9
$DIMZIN
 70
     8
  9
$DIMBLK
  1

  9
$DIMASO
 70
     1
  9
$DIMSHO
 70
     1
  9
$DIMPOST
  1

  9
$DIMAPOST
  1

  9
$DIMALT
 70
     0
  9
$DIMALTD
 70
     2
  9
$DIMALTF
 40
25.4
  9
$DIMLFAC
 40
1.0
  9
$DIMTOFL
 70
     0
  9
$DIMTVP
 40
0.0
  9
$DIMTIX
 70
     0
  9
$DIMSOXD
 70
     0
  9
$DIMSAH
 70
     0
  9
$DIMBLK1
  1

  9
$DIMBLK2
  1

  9
$DIMSTYLE
  2
*UNNAMED
  9
$DIMCLRD
 70
     9
  9
$DIMCLRE
 70
     9
  9
$DIMCLRT
 70
     7
  9
$DIMTFAC
 40
1.0
  9
$DIMGAP
 40
0.09
  9
$DIMUNIT
 70
     2
  9
$LUNITS
 70
     2
  9
$LUPREC
 70
     6
  9
$AXISMODE
 70
     0
  9
$AXISUNIT
 10
0.0
 20
0.0
  9
$SKETCHINC
 40
0.1
  9
$FILLETRAD
 40
0.0
  9
$AUNITS
 70
     0
  9
$AUPREC
 70
     0
  9
$MENU
  1
ACAD
  9
$ELEVATION
 40
0.0
  9
$PELEVATION
 40
0.0
  9
$THICKNESS
 40
0.0
  9
$LIMCHECK
 70
     0
  9
$BLIPMODE
 70
     1
  9
$CHAMFERA
 40
0.0
  9
$CHAMFERB
 40
0.0
  9
$SKPOLY
 70
     1
  9
$TDCREATE
 40
2456119.0000000000
  9
$TDUPDATE
 40
2456119.0000000000
  9
$TDINDWG
 40
0.0
  9
$TDUSRTIMER
 40
0.0
  9
$USRTIMER
 70
     1
  9
$ANGBASE
 50
0.0
  9
$ANGDIR
 70
     0
  9
$PDMODE
 70
     0
  9
$PDSIZE
 40
0.0
  9
$PLINEWID
 40
0.0
  9
$COORDS
 70
     2
  9
$SPLFRAME
 70
     0
  9
$SPLINETYPE
 70
     6
  9
$SPLINESEGS
 70
     8
  9
$ATTDIA
 70
     1
  9
$ATTREQ
 70
     1
  9
$HANDLING
 70
     1
  9
$HANDSEED
  5
     4DA
  9
$SURFTAB1
 70
     6
  9
$SURFTAB2
 70
     6
  9
$SURFTYPE
 70
     6
  9
$SURFU
 70
     6
  9
$SURFV
 70
     6
  9
$UCSNAME
  2

  9
$UCSORG
 10
0.0
 20
0.0
 30
0.0
  9
$UCSXDIR
 10
1.0
 20
0.0
 30
0.0
  9
$UCSYDIR
 10
0.0
 20
1.0
 30
0.0
  9
$PUCSNAME
  2

  9
$PUCSORG
 10
0.0
 20
0.0
 30
0.0
  9
$PUCSXDIR
 10
1.0
 20
0.0
 30
0.0
  9
$PUCSYDIR
 10
0.0
 20
1.0
 30
0.0
  9
$USERI1
 70
     0
  9
$USERI2
 70
     0
  9
$USERI3
 70
     0
  9
$USERI4
 70
     0
  9
$USERI5
 70
     0
  9
$USERR1
 40
0.0
  9
$USERR2
 40
0.0
  9
$USERR3
 40
0.0
  9
$USERR4
 40
0.0
  9
$USERR5
 40
0.0
  9
$WORLDVIEW
 70
     1
  9
$SHADEDGE
 70
     3
  9
$SHADEDIF
 70
    70
  9
$TILEMODE
 70
     1
  9
$MAXACTVP
 70
    16
  9
$PINSBASE
 10
0.0
 20
0.0
 30
0.0
  9
$PLIMCHECK
 70
     0
  9
$PEXTMIN
 10
1.0000000000000E+20
 20
1.0000000000000E+20
 30
1.0000000000000E+20
  9
$PEXTMAX
 10
-1.0000000000000E+20
 20
-1.0000000000000E+20
 30
-1.0000000000000E+20
  9
$PLIMMIN
 10
0.0
 20
0.0
  9
$UNITMODE
 70
     0
  9
$VISRETAIN
 70
     0
  9
$MEASUREMENT
 70
     1
  0
ENDSEC
  0
SECTION
  2
TABLES
  0
TABLE
  2
VPORT
  5
53
100
AcDbSymbolTable
 70
     1
  0
ENDTAB
  0
TABLE
  2
STYLE
  5
54
100
AcDbSymbolTable
 70
     4
  0
STYLE
  5
55
100
AcDbSymbolTableRecord
100
AcDbTextStyleTableRecord
  2
STANDARD
 70
     0
 40
0.0
 41
1.0
 50
0.0
 71
     0
 42
3.5
  3
MONOTXT
  4

  0
STYLE
  5
56
100
AcDbSymbolTableRecord
100
AcDbTextStyleTableRecord
  2
CADWORK1
 70
     0
 40
0.0
 41
1.0
 50
0.0
 71
     0
 42
3.5
  3
MONOTXT
  4

  0
STYLE
  5
57
100
AcDbSymbolTableRecord
100
AcDbTextStyleTableRecord
  2
MONOTXT
 70
     0
 40
0.0
 41
1.0
 50
0.0
 71
     0
 42
3.5
  3
MONOTXT
  4

  0
STYLE
  5
58
100
AcDbSymbolTableRecord
100
AcDbTextStyleTableRecord
  2
TAHOMA
 70
     0
 40
0.0
 41
1.0
 50
0.0
 71
     0
 42
3.5
  3

  4

1001
ACAD
1000
Tahoma
1071
        0
  0
STYLE
  5
59
100
AcDbSymbolTableRecord
100
AcDbTextStyleTableRecord
  2
ARIAL
 70
     0
 40
0.0
 41
1.0
 50
0.0
 71
     0
 42
3.5
  3

  4

1001
ACAD
1000
Arial
1071
        0
  0
ENDTAB
  0
TABLE
  2
LTYPE
  5
5A
100
AcDbSymbolTable
 70
    12
  0
LTYPE
  5
5B
100
AcDbSymbolTableRecord
100
AcDbLinetypeTableRecord
  2
BYBLOCK
 70
    64
  3

 72
    65
 73
     0
 40
0.0
  0
LTYPE
  5
5C
100
AcDbSymbolTableRecord
100
AcDbLinetypeTableRecord
  2
BYLAYER
 70
    64
  3

 72
    65
 73
     0
 40
0.0
  0
LTYPE
  5
5D
100
AcDbSymbolTableRecord
100
AcDbLinetypeTableRecord
  2
CONTINUOUS
 70
    64
  3
Solid line
 72
    65
 73
     0
 40
0.0
  0
LTYPE
  5
5E
100
AcDbSymbolTableRecord
100
AcDbLinetypeTableRecord
  2
DOT
 70
    64
  3
. . . . . . . . . . . . . . . . . . . . . . . .
 72
    65
 73
     2
 40
2.5
 49
0.0
 74
     0
 49
-2.5
 74
     0
  0
LTYPE
  5
5F
100
AcDbSymbolTableRecord
100
AcDbLinetypeTableRecord
  2
DASHED
 70
    64
  3
__ __ __ __ __ __ __ __ __ __ __ __ __ __ __ __
 72
    65
 73
     2
 40
7.5
 49
5.0
 74
     0
 49
-2.5
 74
     0
  0
LTYPE
  5
60
100
AcDbSymbolTableRecord
100
AcDbLinetypeTableRecord
  2
BORDER
 70
    64
  3
 __ __ . __ __ . __ __ . __ __ . __ __ . __ __ .
 72
    65
 73
     6
 40
17.0
 49
5.0
 74
     0
 49
-2.0
 74
     0
 49
5.0
 74
     0
 49
-2.0
 74
     0
 49
1.0
 74
     0
 49
-2.0
 74
     0
  0
LTYPE
  5
61
100
AcDbSymbolTableRecord
100
AcDbLinetypeTableRecord
  2
DAL
 70
    64
  3
Solid line (for MAPS)
 72
    65
 73
     0
 40
0.0
  0
LTYPE
  5
62
100
AcDbSymbolTableRecord
100
AcDbLinetypeTableRecord
  2
MUR
 70
    64
  3
Solid line (for MAPS)
 72
    65
 73
     0
 40
0.0
  0
LTYPE
  5
63
100
AcDbSymbolTableRecord
100
AcDbLinetypeTableRecord
  2
SOM
 70
    64
  3
Solid line (for MAPS)
 72
    65
 73
     0
 40
0.0
  0
LTYPE
  5
64
100
AcDbSymbolTableRecord
100
AcDbLinetypeTableRecord
  2
COL
 70
    64
  3
Solid line (for MAPS)
 72
    65
 73
     0
 40
0.0
  0
LTYPE
  5
65
100
AcDbSymbolTableRecord
100
AcDbLinetypeTableRecord
  2
LGN
 70
    64
  3
Solid line (for MAPS)
 72
    65
 73
     0
 40
0.0
  0
LTYPE
  5
66
100
AcDbSymbolTableRecord
100
AcDbLinetypeTableRecord
  2
PNT
 70
    64
  3
Solid line (for MAPS)
 72
    65
 73
     0
 40
0.0
  0
ENDTAB
  0
TABLE
  2
LAYER
  5
67
100
AcDbSymbolTable
 70
     1
  0
LAYER
  5
68
100
AcDbSymbolTableRecord
100
AcDbLayerTableRecord
  2
0
 70
     0
 62
     1
  6
CONTINUOUS
  0
LAYER
  5
69
100
AcDbSymbolTableRecord
100
AcDbLayerTableRecord
  2
MST_1_1
 70
     0
 62
     7
  6
CONTINUOUS
  0
ENDTAB
  0
TABLE
  2
VIEW
  5
6A
100
AcDbSymbolTable
 70
     0
  0
ENDTAB
  0
TABLE
  2
UCS
  5
6B
100
AcDbSymbolTable
 70
     0
  0
ENDTAB
  0
TABLE
  2
APPID
  5
6C
100
AcDbSymbolTable
 70
     1
  0
APPID
  5
6D
100
AcDbSymbolTableRecord
100
AcDbRegAppTableRecord
  2
ACAD
 70
     0
  0
ENDTAB
  0
TABLE
  2
DIMSTYLE
  5
6E
100
AcDbSymbolTable
 70
     0
  0
ENDTAB
  0
TABLE
  2
BLOCK_RECORD
  5
6F
100
AcDbSymbolTable
 70
     0
  0
BLOCK_RECORD
  5
70
100
AcDbSymbolTableRecord
100
AcDbBlockTableRecord
  2
*MODEL_SPACE
  0
BLOCK_RECORD
  5
71
100
AcDbSymbolTableRecord
100
AcDbBlockTableRecord
  2
*PAPER_SPACE
  0
BLOCK_RECORD
  5
72
100
AcDbSymbolTableRecord
100
AcDbBlockTableRecord
  2
CDWK_EXTR_0
  0
BLOCK_RECORD
  5
73
100
AcDbSymbolTableRecord
100
AcDbBlockTableRecord
  2
CDWK_EXTR_1D
  0
BLOCK_RECORD
  5
74
100
AcDbSymbolTableRecord
100
AcDbBlockTableRecord
  2
CDWK_EXTR_1G
  0
BLOCK_RECORD
  5
75
100
AcDbSymbolTableRecord
100
AcDbBlockTableRecord
  2
CDWK_EXTR_2
  0
BLOCK_RECORD
  5
76
100
AcDbSymbolTableRecord
100
AcDbBlockTableRecord
  2
CDWK_EXTR_3
  0
BLOCK_RECORD
  5
77
100
AcDbSymbolTableRecord
100
AcDbBlockTableRecord
  2
CDWK_EXTR_4
  0
BLOCK_RECORD
  5
78
100
AcDbSymbolTableRecord
100
AcDbBlockTableRecord
  2
CDWK_PTTYP0
  0
ENDTAB
  0
ENDSEC
  0
SECTION
  2
BLOCKS
  0
BLOCK
  5
79
100
AcDbEntity
  8
0
100
AcDbBlockBegin
  2
*MODEL_SPACE
 70
     0
 10
0.0
 20
0.0
 30
0.0
  3
*MODEL_SPACE
  1

  0
ENDBLK
  5
7A
100
AcDbEntity
100
AcDbBlockEnd
  0
BLOCK
  5
7B
100
AcDbEntity
  8
0
100
AcDbBlockBegin
  2
*PAPER_SPACE
 70
     0
 10
0.0
 20
0.0
 30
0.0
  3
*PAPER_SPACE
  1

  0
ENDBLK
  5
7C
100
AcDbEntity
100
AcDbBlockEnd
  0
BLOCK
  5
7D
100
AcDbEntity
  8
0
100
AcDbBlockBegin
  2
CDWK_EXTR_0
 70
     0
 10
0.0
 20
0.0
 30
0.0
  3
CDWK_EXTR_0
  1

  4
Cadwork line-extremity
  0
LINE
  5
7E
100
AcDbEntity
  8
0
 62
     0
100
AcDbLine
 10
0.0
 20
0.0
 30
0.0
 11
2.0
 21
0.5
 31
0.0
  0
LINE
  5
7F
100
AcDbEntity
  8
0
 62
     0
100
AcDbLine
 10
0.0
 20
0.0
 30
0.0
 11
2.0
 21
-0.5
 31
0.0
  0
LINE
  5
80
100
AcDbEntity
  8
0
 62
     0
100
AcDbLine
 10
2.0
 20
0.5
 30
0.0
 11
2.0
 21
-0.5
 31
0.0
  0
ENDBLK
  5
81
100
AcDbEntity
100
AcDbBlockEnd
  0
BLOCK
  5
82
100
AcDbEntity
  8
0
100
AcDbBlockBegin
  2
CDWK_EXTR_1D
 70
     0
 10
0.0
 20
0.0
 30
0.0
  3
CDWK_EXTR_1D
  1

  4
Cadwork line-extremity
  0
LINE
  5
83
100
AcDbEntity
  8
0
 62
     0
100
AcDbLine
 10
0.0
 20
0.0
 30
0.0
 11
0.0
 21
1.0
 31
0.0
  0
LINE
  5
84
100
AcDbEntity
  8
0
 62
     0
100
AcDbLine
 10
0.0
 20
1.0
 30
0.0
 11
0.5
 21
1.5
 31
0.0
  0
LINE
  5
85
100
AcDbEntity
  8
0
 62
     0
100
AcDbLine
 10
0.5
 20
1.5
 30
0.0
 11
1.5
 21
1.5
 31
0.0
  0
ENDBLK
  5
86
100
AcDbEntity
100
AcDbBlockEnd
  0
BLOCK
  5
87
100
AcDbEntity
  8
0
100
AcDbBlockBegin
  2
CDWK_EXTR_1G
 70
     0
 10
0.0
 20
0.0
 30
0.0
  3
CDWK_EXTR_1G
  1

  4
Cadwork line-extremity
  0
LINE
  5
88
100
AcDbEntity
  8
0
 62
     0
100
AcDbLine
 10
0.0
 20
0.0
 30
0.0
 11
0.0
 21
-1.0
 31
0.0
  0
LINE
  5
89
100
AcDbEntity
  8
0
 62
     0
100
AcDbLine
 10
0.0
 20
-1.0
 30
0.0
 11
0.5
 21
-1.5
 31
0.0
  0
LINE
  5
8A
100
AcDbEntity
  8
0
 62
     0
100
AcDbLine
 10
0.5
 20
-1.5
 30
0.0
 11
1.5
 21
-1.5
 31
0.0
  0
ENDBLK
  5
8B
100
AcDbEntity
100
AcDbBlockEnd
  0
BLOCK
  5
8C
100
AcDbEntity
  8
0
100
AcDbBlockBegin
  2
CDWK_EXTR_2
 70
     0
 10
0.0
 20
0.0
 30
0.0
  3
CDWK_EXTR_2
  1

  4
Cadwork line-extremity
  0
SOLID
  5
8D
100
AcDbEntity
  8
0
 62
     0
100
AcDbTrace
 10
0.0
 20
0.0
 11
2.0
 21
0.5
 12
2.0
 22
-0.5
 13
2.0
 23
-0.5
  0
ENDBLK
  5
8E
100
AcDbEntity
100
AcDbBlockEnd
  0
BLOCK
  5
8F
100
AcDbEntity
  8
0
100
AcDbBlockBegin
  2
CDWK_EXTR_3
 70
     0
 10
0.0
 20
0.0
 30
0.0
  3
CDWK_EXTR_3
  1

  4
Cadwork line-extremity
  0
SOLID
  5
90
100
AcDbEntity
  8
0
 62
     0
100
AcDbTrace
 10
0.0
 20
0.0
 11
2.0
 21
0.5
 12
2.0
 22
-0.5
 13
2.0
 23
-0.5
  0
LINE
  5
91
100
AcDbEntity
  8
0
 62
     0
100
AcDbLine
 10
0.0
 20
1.0
 30
0.0
 11
0.0
 21
-1.0
 31
0.0
  0
ENDBLK
  5
92
100
AcDbEntity
100
AcDbBlockEnd
  0
BLOCK
  5
93
100
AcDbEntity
  8
0
100
AcDbBlockBegin
  2
CDWK_EXTR_4
 70
     0
 10
0.0
 20
0.0
 30
0.0
  3
CDWK_EXTR_4
  1

  4
Cadwork line-extremity
  0
POLYLINE
  5
94
100
AcDbEntity
  8
0
 62
     0
100
AcDb2dPolyline
 70
     1
 66
     1
 10
0.0
 20
0.0
 30
0.0
 40
0.5
 41
0.5
  0
VERTEX
  5
95
100
AcDbEntity
  8
0
100
AcDbVertex
100
AcDb2dVertex
 10
-0.25
 20
0.0
 30
0.0
 42
1.0
  0
VERTEX
  5
96
100
AcDbEntity
  8
0
100
AcDbVertex
100
AcDb2dVertex
 10
0.25
 20
0.0
 30
0.0
 42
1.0
  0
SEQEND
  5
97
100
AcDbEntity
  0
ENDBLK
  5
98
100
AcDbEntity
100
AcDbBlockEnd
  0
BLOCK
  5
99
100
AcDbEntity
  8
0
100
AcDbBlockBegin
  2
CDWK_PTTYP0
 70
     0
 10
0.0
 20
0.0
 30
0.0
  3
CDWK_PTTYP0
  1

  4
Cadwork point
  0
POINT
  5
9A
100
AcDbEntity
  8
0
 62
     0
100
AcDbPoint
 10
0.0
 20
0.0
 30
0.0
  0
ENDBLK
  5
9B
100
AcDbEntity
100
AcDbBlockEnd
  0
ENDSEC
  0
SECTION
  2
ENTITIES
  0
LINE
  5
9C
100
AcDbEntity
  8
MST_1_1
 62
     7
  6
DASHED
100
AcDbLine
 10
-2.06250403
 20
28.54545025
 30
0.0
 11
-2.06250403
 21
-276.45454975
 31
0.0
  0
LINE
  5
9D
100
AcDbEntity
  8
MST_1_1
 62
     7
  6
DASHED
100
AcDbLine
 10
47.93749597
 20
28.54545025
 30
0.0
 11
47.93749597
 21
-216.45454975
 31
0.0
  0
LINE
  5
9E
100
AcDbEntity
  8
MST_1_1
 62
     7
  6
DASHED
100
AcDbLine
 10
37.93749597
 20
28.54545025
 30
0.0
 11
37.93749597
 21
-156.45454975
 31
0.0
  0
LINE
  5
9F
100
AcDbEntity
  8
MST_1_1
 62
     7
  6
DASHED
100
AcDbLine
 10
32.93749597
 20
18.54545025
 30
0.0
 11
32.93749597
 21
-126.45454975
 31
0.0
  0
LINE
  5
A0
100
AcDbEntity
  8
MST_1_1
 62
     7
  6
DASHED
100
AcDbLine
 10
27.93749597
 20
28.54545025
 30
0.0
 11
27.93749597
 21
-96.45454975
 31
0.0
  0
LWPOLYLINE
  5
A1
100
AcDbEntity
  8
MST_1_1
 62
     1
  6
BORDER
100
AcDbPolyline
 90
        3
 70
     0
 43
0.0
 10
22.93749597
 20
-51.45454975
 10
-2.06250403
 20
-51.45454975
 10
-7.06250403
 20
-51.45454975
  0
LINE
  5
A2
100
AcDbEntity
  8
MST_1_1
 62
     7
  6
DASHED
100
AcDbLine
 10
22.93749597
 20
18.54545025
 30
0.0
 11
22.93749597
 21
-66.45454975
 31
0.0
  0
LINE
  5
A3
100
AcDbEntity
  8
MST_1_1
 62
     7
  6
DASHED
100
AcDbLine
 10
17.93749597
 20
28.54545025
 30
0.0
 11
17.93749597
 21
-36.45454975
 31
0.0
  0
LINE
  5
A4
100
AcDbEntity
  8
MST_1_1
 62
     7
  6
DASHED
100
AcDbLine
 10
13.93749597
 20
18.54545025
 30
0.0
 11
13.93749597
 21
-6.45454975
 31
0.0
  0
LWPOLYLINE
  5
A5
100
AcDbEntity
  8
MST_1_1
 62
     1
  6
BORDER
100
AcDbPolyline
 90
        3
 70
     0
 43
0.0
 10
17.93749597
 20
-21.45454975
 10
-2.06250403
 20
-21.45454975
 10
-7.06250403
 20
-21.45454975
  0
LWPOLYLINE
  5
A6
100
AcDbEntity
  8
MST_1_1
 62
     1
  6
BORDER
100
AcDbPolyline
 90
        3
 70
     0
 43
0.0
 10
13.93749597
 20
8.54545025
 10
-2.06250403
 20
8.54545025
 10
-7.06250403
 20
8.54545025
  0
LWPOLYLINE
  5
A7
100
AcDbEntity
  8
MST_1_1
 62
     1
  6
BORDER
100
AcDbPolyline
 90
        3
 70
     0
 43
0.0
 10
27.93749597
 20
-81.45454975
 10
-2.06250403
 20
-81.45454975
 10
-7.06250403
 20
-81.45454975
  0
LWPOLYLINE
  5
A8
100
AcDbEntity
  8
MST_1_1
 62
     1
  6
BORDER
100
AcDbPolyline
 90
        3
 70
     0
 43
0.0
 10
32.93749597
 20
-111.45454975
 10
-2.06250403
 20
-111.45454975
 10
-7.06250403
 20
-111.45454975
  0
LWPOLYLINE
  5
A9
100
AcDbEntity
  8
MST_1_1
 62
     1
  6
BORDER
100
AcDbPolyline
 90
        3
 70
     0
 43
0.0
 10
37.93749597
 20
-141.45454975
 10
-2.06250403
 20
-141.45454975
 10
-7.06250403
 20
-141.45454975
  0
LWPOLYLINE
  5
AA
100
AcDbEntity
  8
MST_1_1
 62
     1
  6
BORDER
100
AcDbPolyline
 90
        3
 70
     0
 43
0.0
 10
42.93749597
 20
-171.45454975
 10
-2.06250403
 20
-171.45454975
 10
-7.06250403
 20
-171.45454975
  0
LINE
  5
AB
100
AcDbEntity
  8
MST_1_1
 62
     7
  6
DASHED
100
AcDbLine
 10
42.93749597
 20
18.54545025
 30
0.0
 11
42.93749597
 21
-186.45454975
 31
0.0
  0
LINE
  5
AC
100
AcDbEntity
  8
MST_1_1
 62
   137
  6
CONTINUOUS
100
AcDbLine
 10
-2.06250403
 20
-81.45454975
 30
0.0
 11
-2.06250403
 21
-76.95454975
 31
0.0
  0
LINE
  5
AD
100
AcDbEntity
  8
MST_1_1
 62
   137
  6
CONTINUOUS
100
AcDbLine
 10
-2.06250403
 20
-76.95454975
 30
0.0
 11
-1.96250406
 21
-76.95454975
 31
0.0
  0
LWPOLYLINE
  5
AE
100
AcDbEntity
  8
MST_1_1
 62
   137
  6
CONTINUOUS
100
AcDbPolyline
 90
        6
 70
     0
 43
0.0
 38
2500.0
 10
3.19406305
 20
-79.20454959
 10
2.99463883
 20
-80.06597832
 10
4.68070932
 20
-83.70454975
 10
4.88013362
 20
-82.84312118
 10
3.19406305
 20
-79.20454959
 10
4.68070932
 20
-83.70454975
  0
LINE
  5
AF
100
AcDbEntity
  8
MST_1_1
 62
   137
  6
CONTINUOUS
100
AcDbLine
 10
0.63749597
 20
-80.06597832
 30
2500.0
 11
2.99463883
 21
-80.06597832
 31
2500.0
  0
LWPOLYLINE
  5
B0
100
AcDbEntity
  8
MST_1_1
 62
   137
  6
CONTINUOUS
100
AcDbPolyline
 90
        4
 70
     0
 43
0.0
 38
2500.0
 10
1.71010505
 20
-82.84312118
 10
2.10928075
 20
-83.70454975
 10
2.30870505
 20
-82.84312118
 10
2.00958296
 20
-82.19761015
  0
LINE
  5
B1
100
AcDbEntity
  8
MST_1_1
 62
   137
  6
CONTINUOUS
100
AcDbLine
 10
1.7770345
 20
-82.69885779
 30
2500.0
 11
2.10928075
 21
-83.70454975
 31
2500.0
  0
LINE
  5
B2
100
AcDbEntity
  8
MST_1_1
 62
   137
  6
CONTINUOUS
100
AcDbLine
 10
1.71010505
 20
-82.84312118
 30
2500.0
 11
2.00958296
 21
-82.19761015
 31
2500.0
  0
LINE
  5
B3
100
AcDbEntity
  8
MST_1_1
 62
   137
  6
CONTINUOUS
100
AcDbLine
 10
4.28153362
 20
-82.84312118
 30
2500.0
 11
2.30870505
 21
-82.84312118
 31
2500.0
  0
LINE
  5
B4
100
AcDbEntity
  8
MST_1_1
 62
   137
  6
CONTINUOUS
100
AcDbLine
 10
1.71010505
 20
-82.84312118
 30
2500.0
 11
0.63749597
 21
-82.84312118
 31
2500.0
  0
LINE
  5
B5
100
AcDbEntity
  8
MST_1_1
 62
   137
  6
CONTINUOUS
100
AcDbLine
 10
-1.96250406
 20
-76.95454975
 30
0.0
 11
0.63749597
 21
-80.06597832
 31
0.0
  0
LINE
  5
B6
100
AcDbEntity
  8
MST_1_1
 62
   137
  6
CONTINUOUS
100
AcDbLine
 10
0.63749597
 20
-82.84312118
 30
0.0
 11
-1.96250406
 21
-85.95454975
 31
0.0
  0
LINE
  5
B7
100
AcDbEntity
  8
MST_1_1
 62
   137
  6
CONTINUOUS
100
AcDbLine
 10
-1.96250406
 20
-85.95454975
 30
0.0
 11
-2.06250403
 21
-85.95454975
 31
0.0
  0
LINE
  5
B8
100
AcDbEntity
  8
MST_1_1
 62
   137
  6
CONTINUOUS
100
AcDbLine
 10
-2.06250403
 20
-85.95454975
 30
0.0
 11
-2.06250403
 21
-81.45454975
 31
0.0
  0
LWPOLYLINE
  5
B9
100
AcDbEntity
  8
MST_1_1
 62
   137
  6
CONTINUOUS
100
AcDbPolyline
 90
        6
 70
     0
 43
0.0
 38
2500.0
 10
5.76549162
 20
-79.20454959
 10
5.5660674
 20
-80.06597832
 10
7.25213789
 20
-83.70454975
 10
7.45156219
 20
-82.84312118
 10
5.76549162
 20
-79.20454959
 10
7.25213789
 20
-83.70454975
  0
LWPOLYLINE
  5
BA
100
AcDbEntity
  8
MST_1_1
 62
   137
  6
CONTINUOUS
100
AcDbPolyline
 90
        6
 70
     0
 43
0.0
 38
2500.0
 10
8.3369202
 20
-79.20454959
 10
8.13749597
 20
-80.06597832
 10
9.82356646
 20
-83.70454975
 10
10.02299076
 20
-82.84312118
 10
8.3369202
 20
-79.20454959
 10
9.82356646
 20
-83.70454975
  0
LWPOLYLINE
  5
BB
100
AcDbEntity
  8
MST_1_1
 62
   137
  6
CONTINUOUS
100
AcDbPolyline
 90
        6
 70
     0
 43
0.0
 38
2500.0
 10
18.62263448
 20
-79.20454959
 10
18.42321025
 20
-80.06597832
 10
20.10928075
 20
-83.70454975
 10
20.27832031
 20
-82.77755034
 10
18.62263448
 20
-79.20454959
 10
20.10928075
 20
-83.70454975
  0
LWPOLYLINE
  5
BC
100
AcDbEntity
  8
MST_1_1
 62
   137
  6
CONTINUOUS
100
AcDbPolyline
 90
        6
 70
     0
 43
0.0
 38
2500.0
 10
21.15617245
 20
-79.49729301
 10
20.99463883
 20
-80.19505028
 10
22.38702553
 20
-83.19984664
 10
22.54855916
 20
-82.50208937
 10
21.15617245
 20
-79.49729301
 10
22.36035593
 20
-83.14229314
  0
LINE
  5
BD
100
AcDbEntity
  8
MST_1_1
 62
   137
  6
CONTINUOUS
100
AcDbLine
 10
4.88013362
 20
-82.84312118
 30
2500.0
 11
6.85296219
 21
-82.84312118
 31
2500.0
  0
LINE
  5
BE
100
AcDbEntity
  8
MST_1_1
 62
   137
  6
CONTINUOUS
100
AcDbLine
 10
7.45156219
 20
-82.84312118
 30
2500.0
 11
9.42439076
 21
-82.84312118
 31
2500.0
  0
LINE
  5
BF
100
AcDbEntity
  8
MST_1_1
 62
   137
  6
CONTINUOUS
100
AcDbLine
 10
17.73727648
 20
-82.84312118
 30
2500.0
 11
19.02444527
 21
-82.83743476
 31
2500.0
  0
LINE
  5
C0
100
AcDbEntity
  8
MST_1_1
 62
   137
  6
CONTINUOUS
100
AcDbLine
 10
5.5660674
 20
-80.06597832
 30
2500.0
 11
3.59323882
 21
-80.06597832
 31
2500.0
  0
LINE
  5
C1
100
AcDbEntity
  8
MST_1_1
 62
   137
  6
CONTINUOUS
100
AcDbLine
 10
8.13749597
 20
-80.06597832
 30
2500.0
 11
6.1646674
 21
-80.06597832
 31
2500.0
  0
LINE
  5
C2
100
AcDbEntity
  8
MST_1_1
 62
   137
  6
CONTINUOUS
100
AcDbLine
 10
18.42321025
 20
-80.06597832
 30
2500.0
 11
16.45038168
 21
-80.06597832
 31
2500.0
  0
ARC
  5
C3
100
AcDbEntity
  8
MST_1_1
 62
   137
  6
CONTINUOUS
100
AcDbCircle
 10
18.49439771
 20
-104.32685365
 30
2500.0
 40
24.26097977
100
AcDbArc
 50
84.08482032
 51
88.74811714
  0
LWPOLYLINE
  5
C4
100
AcDbEntity
  8
MST_1_1
 62
   137
  6
CONTINUOUS
100
AcDbPolyline
 90
        3
 70
     0
 43
0.0
 38
2500.0
 10
27.93749597
 20
-81.45454975
 10
23.15808505
 20
-80.51834341
 42
0.01723995
 10
21.50663588
 20
-80.2535996
  0
ARC
  5
C5
100
AcDbEntity
  8
MST_1_1
 62
   137
  6
CONTINUOUS
100
AcDbCircle
 10
18.49439771
 20
-58.58224585
 30
2500.0
 40
24.26097977
100
AcDbArc
 50
271.25189287
 51
272.83975061
  0
LWPOLYLINE
  5
C6
100
AcDbEntity
  8
MST_1_1
 62
   137
  6
CONTINUOUS
100
AcDbPolyline
 90
        3
 70
     0
 43
0.0
 38
2500.0
 10
27.93749597
 20
-81.45454975
 10
23.15808505
 20
-82.39075609
 42
-0.0063851
 10
22.54855916
 20
-82.50208937
  0
ARC
  5
C7
100
AcDbEntity
  8
MST_1_1
 62
   137
  6
CONTINUOUS
100
AcDbCircle
 10
18.49439771
 20
-58.58224585
 30
2500.0
 40
24.26097977
100
AcDbArc
 50
274.21680449
 51
278.53995004
  0
LWPOLYLINE
  5
C8
100
AcDbEntity
  8
MST_1_1
 62
   137
  6
CONTINUOUS
100
AcDbPolyline
 90
        6
 70
     0
 43
0.0
 38
2500.0
 10
23.67267959
 20
-80.1377405
 10
23.5660674
 20
-80.5982603
 10
24.48504262
 20
-82.5814259
 10
24.58699776
 20
-82.11085608
 10
23.67267959
 20
-80.1377405
 10
24.46744068
 20
-82.54344059
  0
LWPOLYLINE
  5
C9
100
AcDbEntity
  8
MST_1_1
 62
     1
  6
BORDER
100
AcDbPolyline
 90
        3
 70
     0
 43
0.0
 10
47.93749597
 20
-201.45454975
 10
-2.06250403
 20
-201.45454975
 10
-7.06250403
 20
-201.45454975
  0
LWPOLYLINE
  5
CA
100
AcDbEntity
  8
MST_1_1
 62
   137
  6
CONTINUOUS
100
AcDbPolyline
 90
        6
 70
     0
 43
0.0
 38
2500.0
 10
13.47977734
 20
-79.20454959
 10
13.28035311
 20
-80.06597832
 10
14.96642361
 20
-83.70454975
 10
15.1658479
 20
-82.84312118
 10
13.47977734
 20
-79.20454959
 10
14.96642361
 20
-83.70454975
  0
LWPOLYLINE
  5
CB
100
AcDbEntity
  8
MST_1_1
 62
   137
  6
CONTINUOUS
100
AcDbPolyline
 90
        6
 70
     0
 43
0.0
 38
2500.0
 10
16.05120591
 20
-79.20454959
 10
15.85178168
 20
-80.06597832
 10
17.53785218
 20
-83.70454975
 10
17.73727648
 20
-82.84312118
 10
16.05120591
 20
-79.20454959
 10
17.53785218
 20
-83.70454975
  0
LINE
  5
CC
100
AcDbEntity
  8
MST_1_1
 62
   137
  6
CONTINUOUS
100
AcDbLine
 10
12.59441933
 20
-82.84312118
 30
2500.0
 11
14.56724791
 21
-82.84312118
 31
2500.0
  0
LINE
  5
CD
100
AcDbEntity
  8
MST_1_1
 62
   137
  6
CONTINUOUS
100
AcDbLine
 10
15.1658479
 20
-82.84312118
 30
2500.0
 11
17.13867648
 21
-82.84312118
 31
2500.0
  0
LINE
  5
CE
100
AcDbEntity
  8
MST_1_1
 62
   137
  6
CONTINUOUS
100
AcDbLine
 10
13.28035311
 20
-80.06597832
 30
2500.0
 11
11.30752454
 21
-80.06597832
 31
2500.0
  0
LINE
  5
CF
100
AcDbEntity
  8
MST_1_1
 62
   137
  6
CONTINUOUS
100
AcDbLine
 10
15.85178168
 20
-80.06597832
 30
2500.0
 11
13.87895311
 21
-80.06597832
 31
2500.0
  0
LWPOLYLINE
  5
D0
100
AcDbEntity
  8
MST_1_1
 62
   137
  6
CONTINUOUS
100
AcDbPolyline
 90
        6
 70
     0
 43
0.0
 38
2500.0
 10
10.90834877
 20
-79.20454959
 10
10.70892454
 20
-80.06597832
 10
12.39499503
 20
-83.70454975
 10
12.59441933
 20
-82.84312118
 10
10.90834877
 20
-79.20454959
 10
12.39499503
 20
-83.70454975
  0
LINE
  5
D1
100
AcDbEntity
  8
MST_1_1
 62
   137
  6
CONTINUOUS
100
AcDbLine
 10
10.02299076
 20
-82.84312118
 30
2500.0
 11
11.99581933
 21
-82.84312118
 31
2500.0
  0
LINE
  5
D2
100
AcDbEntity
  8
MST_1_1
 62
   137
  6
CONTINUOUS
100
AcDbLine
 10
10.70892454
 20
-80.06597832
 30
2500.0
 11
8.73609597
 21
-80.06597832
 31
2500.0
  0
LINE
  5
D3
100
AcDbEntity
  8
MST_1_1
 62
     7
  6
DASHED
100
AcDbLine
 10
57.93749597
 20
28.54545025
 30
0.0
 11
57.93749597
 21
-276.45454975
 31
0.0
  0
LINE
  5
D4
100
AcDbEntity
  8
MST_1_1
 62
     7
  6
DASHED
100
AcDbLine
 10
52.93749597
 20
18.54545025
 30
0.0
 11
52.93749597
 21
-246.45454975
 31
0.0
  0
LINE
  5
D5
100
AcDbEntity
  8
MST_1_1
 62
   137
  6
CONTINUOUS
100
AcDbLine
 10
-2.06250403
 20
-51.45454975
 30
0.0
 11
-2.06250403
 21
-46.95454975
 31
0.0
  0
LINE
  5
D6
100
AcDbEntity
  8
MST_1_1
 62
   137
  6
CONTINUOUS
100
AcDbLine
 10
-2.06250403
 20
-46.95454975
 30
0.0
 11
-1.96250406
 21
-46.95454975
 31
0.0
  0
LWPOLYLINE
  5
D7
100
AcDbEntity
  8
MST_1_1
 62
   137
  6
CONTINUOUS
100
AcDbPolyline
 90
        6
 70
     0
 43
0.0
 38
2500.0
 10
3.3369202
 20
-49.20454959
 10
3.13749597
 20
-50.06597832
 10
4.82356646
 20
-53.70454975
 10
5.02299076
 20
-52.84312118
 10
3.3369202
 20
-49.20454959
 10
4.82356646
 20
-53.70454975
  0
LINE
  5
D8
100
AcDbEntity
  8
MST_1_1
 62
   137
  6
CONTINUOUS
100
AcDbLine
 10
0.63749597
 20
-50.06597832
 30
2500.0
 11
3.13749597
 21
-50.06597832
 31
2500.0
  0
LWPOLYLINE
  5
D9
100
AcDbEntity
  8
MST_1_1
 62
   137
  6
CONTINUOUS
100
AcDbPolyline
 90
        4
 70
     0
 43
0.0
 38
2500.0
 10
1.85296219
 20
-52.84312118
 10
2.25213789
 20
-53.70454975
 10
2.45156219
 20
-52.84312118
 10
2.1524401
 20
-52.19761015
  0
LINE
  5
DA
100
AcDbEntity
  8
MST_1_1
 62
   137
  6
CONTINUOUS
100
AcDbLine
 10
1.91989164
 20
-52.69885779
 30
2500.0
 11
2.25213789
 21
-53.70454975
 31
2500.0
  0
LINE
  5
DB
100
AcDbEntity
  8
MST_1_1
 62
   137
  6
CONTINUOUS
100
AcDbLine
 10
1.85296219
 20
-52.84312118
 30
2500.0
 11
2.1524401
 21
-52.19761015
 31
2500.0
  0
LINE
  5
DC
100
AcDbEntity
  8
MST_1_1
 62
   137
  6
CONTINUOUS
100
AcDbLine
 10
4.42439076
 20
-52.84312118
 30
2500.0
 11
2.45156219
 21
-52.84312118
 31
2500.0
  0
LINE
  5
DD
100
AcDbEntity
  8
MST_1_1
 62
   137
  6
CONTINUOUS
100
AcDbLine
 10
1.85296219
 20
-52.84312118
 30
2500.0
 11
0.63749597
 21
-52.84312118
 31
2500.0
  0
LINE
  5
DE
100
AcDbEntity
  8
MST_1_1
 62
   137
  6
CONTINUOUS
100
AcDbLine
 10
-1.96250406
 20
-46.95454975
 30
0.0
 11
0.63749597
 21
-50.06597832
 31
0.0
  0
LINE
  5
DF
100
AcDbEntity
  8
MST_1_1
 62
   137
  6
CONTINUOUS
100
AcDbLine
 10
0.63749597
 20
-52.84312118
 30
0.0
 11
-1.96250406
 21
-55.95454975
 31
0.0
  0
LINE
  5
E0
100
AcDbEntity
  8
MST_1_1
 62
   137
  6
CONTINUOUS
100
AcDbLine
 10
-1.96250406
 20
-55.95454975
 30
0.0
 11
-2.06250403
 21
-55.95454975
 31
0.0
  0
LINE
  5
E1
100
AcDbEntity
  8
MST_1_1
 62
   137
  6
CONTINUOUS
100
AcDbLine
 10
-2.06250403
 20
-55.95454975
 30
0.0
 11
-2.06250403
 21
-51.45454975
 31
0.0
  0
LWPOLYLINE
  5
E2
100
AcDbEntity
  8
MST_1_1
 62
   137
  6
CONTINUOUS
100
AcDbPolyline
 90
        6
 70
     0
 43
0.0
 38
2500.0
 10
13.62263448
 20
-49.20454959
 10
13.42321025
 20
-50.06597832
 10
15.10928075
 20
-53.70454975
 10
15.27832031
 20
-52.77755034
 10
13.62263448
 20
-49.20454959
 10
15.10928075
 20
-53.70454975
  0
LWPOLYLINE
  5
E3
100
AcDbEntity
  8
MST_1_1
 62
   137
  6
CONTINUOUS
100
AcDbPolyline
 90
        6
 70
     0
 43
0.0
 38
2500.0
 10
16.15617245
 20
-49.49729301
 10
15.99463883
 20
-50.19505028
 10
17.38702553
 20
-53.19984664
 10
17.54855916
 20
-52.50208937
 10
16.15617245
 20
-49.49729301
 10
17.36035593
 20
-53.14229314
  0
LINE
  5
E4
100
AcDbEntity
  8
MST_1_1
 62
   137
  6
CONTINUOUS
100
AcDbLine
 10
12.73727648
 20
-52.84312118
 30
2500.0
 11
14.02444527
 21
-52.83743476
 31
2500.0
  0
LINE
  5
E5
100
AcDbEntity
  8
MST_1_1
 62
   137
  6
CONTINUOUS
100
AcDbLine
 10
13.42321025
 20
-50.06597832
 30
2500.0
 11
11.45038168
 21
-50.06597832
 31
2500.0
  0
ARC
  5
E6
100
AcDbEntity
  8
MST_1_1
 62
   137
  6
CONTINUOUS
100
AcDbCircle
 10
13.49439771
 20
-74.32685365
 30
2500.0
 40
24.26097977
100
AcDbArc
 50
84.08482032
 51
88.74811714
  0
LWPOLYLINE
  5
E7
100
AcDbEntity
  8
MST_1_1
 62
   137
  6
CONTINUOUS
100
AcDbPolyline
 90
        3
 70
     0
 43
0.0
 38
2500.0
 10
22.93749597
 20
-51.45454975
 10
18.15808505
 20
-50.51834341
 42
0.01723995
 10
16.50663588
 20
-50.2535996
  0
ARC
  5
E8
100
AcDbEntity
  8
MST_1_1
 62
   137
  6
CONTINUOUS
100
AcDbCircle
 10
13.49439771
 20
-28.58224585
 30
2500.0
 40
24.26097977
100
AcDbArc
 50
271.25189287
 51
272.83975061
  0
LWPOLYLINE
  5
E9
100
AcDbEntity
  8
MST_1_1
 62
   137
  6
CONTINUOUS
100
AcDbPolyline
 90
        3
 70
     0
 43
0.0
 38
2500.0
 10
22.93749597
 20
-51.45454975
 10
18.15808505
 20
-52.39075609
 42
-0.0063851
 10
17.54855916
 20
-52.50208937
  0
ARC
  5
EA
100
AcDbEntity
  8
MST_1_1
 62
   137
  6
CONTINUOUS
100
AcDbCircle
 10
13.49439771
 20
-28.58224585
 30
2500.0
 40
24.26097977
100
AcDbArc
 50
274.21680449
 51
278.53995004
  0
LWPOLYLINE
  5
EB
100
AcDbEntity
  8
MST_1_1
 62
   137
  6
CONTINUOUS
100
AcDbPolyline
 90
        6
 70
     0
 43
0.0
 38
2500.0
 10
18.67267959
 20
-50.1377405
 10
18.5660674
 20
-50.5982603
 10
19.48504262
 20
-52.5814259
 10
19.58699776
 20
-52.11085608
 10
18.67267959
 20
-50.1377405
 10
19.46744068
 20
-52.54344059
  0
LWPOLYLINE
  5
EC
100
AcDbEntity
  8
MST_1_1
 62
   137
  6
CONTINUOUS
100
AcDbPolyline
 90
        6
 70
     0
 43
0.0
 38
2500.0
 10
8.47977734
 20
-49.20454959
 10
8.28035311
 20
-50.06597832
 10
9.96642361
 20
-53.70454975
 10
10.1658479
 20
-52.84312118
 10
8.47977734
 20
-49.20454959
 10
9.96642361
 20
-53.70454975
  0
LWPOLYLINE
  5
ED
100
AcDbEntity
  8
MST_1_1
 62
   137
  6
CONTINUOUS
100
AcDbPolyline
 90
        6
 70
     0
 43
0.0
 38
2500.0
 10
11.05120591
 20
-49.20454959
 10
10.85178168
 20
-50.06597832
 10
12.53785218
 20
-53.70454975
 10
12.73727648
 20
-52.84312118
 10
11.05120591
 20
-49.20454959
 10
12.53785218
 20
-53.70454975
  0
LINE
  5
EE
100
AcDbEntity
  8
MST_1_1
 62
   137
  6
CONTINUOUS
100
AcDbLine
 10
7.59441933
 20
-52.84312118
 30
2500.0
 11
9.56724791
 21
-52.84312118
 31
2500.0
  0
LINE
  5
EF
100
AcDbEntity
  8
MST_1_1
 62
   137
  6
CONTINUOUS
100
AcDbLine
 10
10.1658479
 20
-52.84312118
 30
2500.0
 11
12.13867648
 21
-52.84312118
 31
2500.0
  0
LINE
  5
F0
100
AcDbEntity
  8
MST_1_1
 62
   137
  6
CONTINUOUS
100
AcDbLine
 10
8.28035311
 20
-50.06597832
 30
2500.0
 11
6.30752454
 21
-50.06597832
 31
2500.0
  0
LINE
  5
F1
100
AcDbEntity
  8
MST_1_1
 62
   137
  6
CONTINUOUS
100
AcDbLine
 10
10.85178168
 20
-50.06597832
 30
2500.0
 11
8.87895311
 21
-50.06597832
 31
2500.0
  0
LWPOLYLINE
  5
F2
100
AcDbEntity
  8
MST_1_1
 62
   137
  6
CONTINUOUS
100
AcDbPolyline
 90
        6
 70
     0
 43
0.0
 38
2500.0
 10
5.90834877
 20
-49.20454959
 10
5.70892454
 20
-50.06597832
 10
7.39499503
 20
-53.70454975
 10
7.59441933
 20
-52.84312118
 10
5.90834877
 20
-49.20454959
 10
7.39499503
 20
-53.70454975
  0
LINE
  5
F3
100
AcDbEntity
  8
MST_1_1
 62
   137
  6
CONTINUOUS
100
AcDbLine
 10
5.02299076
 20
-52.84312118
 30
2500.0
 11
6.99581933
 21
-52.84312118
 31
2500.0
  0
LINE
  5
F4
100
AcDbEntity
  8
MST_1_1
 62
   137
  6
CONTINUOUS
100
AcDbLine
 10
5.70892454
 20
-50.06597832
 30
2500.0
 11
3.73609597
 21
-50.06597832
 31
2500.0
  0
LINE
  5
F5
100
AcDbEntity
  8
MST_1_1
 62
   137
  6
CONTINUOUS
100
AcDbLine
 10
-2.06250403
 20
-21.45454975
 30
0.0
 11
-2.06250403
 21
-16.95454975
 31
0.0
  0
LINE
  5
F6
100
AcDbEntity
  8
MST_1_1
 62
   137
  6
CONTINUOUS
100
AcDbLine
 10
-2.06250403
 20
-16.95454975
 30
0.0
 11
-1.96250406
 21
-16.95454975
 31
0.0
  0
LWPOLYLINE
  5
F7
100
AcDbEntity
  8
MST_1_1
 62
   137
  6
CONTINUOUS
100
AcDbPolyline
 90
        6
 70
     0
 43
0.0
 38
2500.0
 10
3.47977734
 20
-19.20454959
 10
3.28035311
 20
-20.06597832
 10
4.96642361
 20
-23.70454975
 10
5.1658479
 20
-22.84312118
 10
3.47977734
 20
-19.20454959
 10
4.96642361
 20
-23.70454975
  0
LINE
  5
F8
100
AcDbEntity
  8
MST_1_1
 62
   137
  6
CONTINUOUS
100
AcDbLine
 10
0.63749597
 20
-20.06597832
 30
2500.0
 11
3.28035311
 21
-20.06597832
 31
2500.0
  0
LWPOLYLINE
  5
F9
100
AcDbEntity
  8
MST_1_1
 62
   137
  6
CONTINUOUS
100
AcDbPolyline
 90
        4
 70
     0
 43
0.0
 38
2500.0
 10
1.99581933
 20
-22.84312118
 10
2.39499503
 20
-23.70454975
 10
2.59441933
 20
-22.84312118
 10
2.29529724
 20
-22.19761015
  0
LINE
  5
FA
100
AcDbEntity
  8
MST_1_1
 62
   137
  6
CONTINUOUS
100
AcDbLine
 10
2.06274878
 20
-22.69885779
 30
2500.0
 11
2.39499503
 21
-23.70454975
 31
2500.0
  0
LINE
  5
FB
100
AcDbEntity
  8
MST_1_1
 62
   137
  6
CONTINUOUS
100
AcDbLine
 10
1.99581933
 20
-22.84312118
 30
2500.0
 11
2.29529724
 21
-22.19761015
 31
2500.0
  0
LINE
  5
FC
100
AcDbEntity
  8
MST_1_1
 62
   137
  6
CONTINUOUS
100
AcDbLine
 10
4.56724791
 20
-22.84312118
 30
2500.0
 11
2.59441933
 21
-22.84312118
 31
2500.0
  0
LINE
  5
FD
100
AcDbEntity
  8
MST_1_1
 62
   137
  6
CONTINUOUS
100
AcDbLine
 10
1.99581933
 20
-22.84312118
 30
2500.0
 11
0.63749597
 21
-22.84312118
 31
2500.0
  0
LINE
  5
FE
100
AcDbEntity
  8
MST_1_1
 62
   137
  6
CONTINUOUS
100
AcDbLine
 10
-1.96250406
 20
-16.95454975
 30
0.0
 11
0.63749597
 21
-20.06597832
 31
0.0
  0
LINE
  5
FF
100
AcDbEntity
  8
MST_1_1
 62
   137
  6
CONTINUOUS
100
AcDbLine
 10
0.63749597
 20
-22.84312118
 30
0.0
 11
-1.96250406
 21
-25.95454975
 31
0.0
  0
LINE
  5
100
100
AcDbEntity
  8
MST_1_1
 62
   137
  6
CONTINUOUS
100
AcDbLine
 10
-1.96250406
 20
-25.95454975
 30
0.0
 11
-2.06250403
 21
-25.95454975
 31
0.0
  0
LINE
  5
101
100
AcDbEntity
  8
MST_1_1
 62
   137
  6
CONTINUOUS
100
AcDbLine
 10
-2.06250403
 20
-25.95454975
 30
0.0
 11
-2.06250403
 21
-21.45454975
 31
0.0
  0
LWPOLYLINE
  5
102
100
AcDbEntity
  8
MST_1_1
 62
   137
  6
CONTINUOUS
100
AcDbPolyline
 90
        6
 70
     0
 43
0.0
 38
2500.0
 10
8.62263448
 20
-19.20454959
 10
8.42321025
 20
-20.06597832
 10
10.10928075
 20
-23.70454975
 10
10.27832031
 20
-22.77755034
 10
8.62263448
 20
-19.20454959
 10
10.10928075
 20
-23.70454975
  0
LWPOLYLINE
  5
103
100
AcDbEntity
  8
MST_1_1
 62
   137
  6
CONTINUOUS
100
AcDbPolyline
 90
        6
 70
     0
 43
0.0
 38
2500.0
 10
11.15617245
 20
-19.49729301
 10
10.99463883
 20
-20.19505028
 10
12.38702553
 20
-23.19984664
 10
12.54855916
 20
-22.50208937
 10
11.15617245
 20
-19.49729301
 10
12.36035593
 20
-23.14229314
  0
LINE
  5
104
100
AcDbEntity
  8
MST_1_1
 62
   137
  6
CONTINUOUS
100
AcDbLine
 10
7.73727648
 20
-22.84312118
 30
2500.0
 11
9.02444527
 21
-22.83743476
 31
2500.0
  0
LINE
  5
105
100
AcDbEntity
  8
MST_1_1
 62
   137
  6
CONTINUOUS
100
AcDbLine
 10
8.42321025
 20
-20.06597832
 30
2500.0
 11
6.45038168
 21
-20.06597832
 31
2500.0
  0
ARC
  5
106
100
AcDbEntity
  8
MST_1_1
 62
   137
  6
CONTINUOUS
100
AcDbCircle
 10
8.49439771
 20
-44.32685365
 30
2500.0
 40
24.26097977
100
AcDbArc
 50
84.08482032
 51
88.74811714
  0
LWPOLYLINE
  5
107
100
AcDbEntity
  8
MST_1_1
 62
   137
  6
CONTINUOUS
100
AcDbPolyline
 90
        3
 70
     0
 43
0.0
 38
2500.0
 10
17.93749597
 20
-21.45454975
 10
13.15808505
 20
-20.51834341
 42
0.01723995
 10
11.50663588
 20
-20.2535996
  0
ARC
  5
108
100
AcDbEntity
  8
MST_1_1
 62
   137
  6
CONTINUOUS
100
AcDbCircle
 10
8.49439771
 20
1.41775415
 30
2500.0
 40
24.26097977
100
AcDbArc
 50
271.25189287
 51
272.83975061
  0
LWPOLYLINE
  5
109
100
AcDbEntity
  8
MST_1_1
 62
   137
  6
CONTINUOUS
100
AcDbPolyline
 90
        3
 70
     0
 43
0.0
 38
2500.0
 10
17.93749597
 20
-21.45454975
 10
13.15808505
 20
-22.39075609
 42
-0.0063851
 10
12.54855916
 20
-22.50208937
  0
ARC
  5
10A
100
AcDbEntity
  8
MST_1_1
 62
   137
  6
CONTINUOUS
100
AcDbCircle
 10
8.49439771
 20
1.41775415
 30
2500.0
 40
24.26097977
100
AcDbArc
 50
274.21680449
 51
278.53995004
  0
LWPOLYLINE
  5
10B
100
AcDbEntity
  8
MST_1_1
 62
   137
  6
CONTINUOUS
100
AcDbPolyline
 90
        6
 70
     0
 43
0.0
 38
2500.0
 10
13.67267959
 20
-20.1377405
 10
13.5660674
 20
-20.5982603
 10
14.48504262
 20
-22.5814259
 10
14.58699776
 20
-22.11085608
 10
13.67267959
 20
-20.1377405
 10
14.46744068
 20
-22.54344059
  0
LINE
  5
10C
100
AcDbEntity
  8
MST_1_1
 62
   137
  6
CONTINUOUS
100
AcDbLine
 10
-2.06250403
 20
8.54545025
 30
0.0
 11
-2.06250403
 21
13.04545025
 31
0.0
  0
LINE
  5
10D
100
AcDbEntity
  8
MST_1_1
 62
   137
  6
CONTINUOUS
100
AcDbLine
 10
-2.06250403
 20
13.04545025
 30
0.0
 11
-1.96250406
 21
13.04545025
 31
0.0
  0
LINE
  5
10E
100
AcDbEntity
  8
MST_1_1
 62
   137
  6
CONTINUOUS
100
AcDbLine
 10
0.63749597
 20
9.93402168
 30
2500.0
 11
1.85178168
 21
9.93402168
 31
2500.0
  0
LINE
  5
10F
100
AcDbEntity
  8
MST_1_1
 62
   137
  6
CONTINUOUS
100
AcDbLine
 10
3.13867648
 20
7.15687882
 30
2500.0
 11
0.63749597
 21
7.15687882
 31
2500.0
  0
LINE
  5
110
100
AcDbEntity
  8
MST_1_1
 62
   137
  6
CONTINUOUS
100
AcDbLine
 10
-1.96250406
 20
13.04545025
 30
0.0
 11
0.63749597
 21
9.93402168
 31
0.0
  0
LINE
  5
111
100
AcDbEntity
  8
MST_1_1
 62
   137
  6
CONTINUOUS
100
AcDbLine
 10
0.63749597
 20
7.15687882
 30
0.0
 11
-1.96250406
 21
4.04545025
 31
0.0
  0
LINE
  5
112
100
AcDbEntity
  8
MST_1_1
 62
   137
  6
CONTINUOUS
100
AcDbLine
 10
-1.96250406
 20
4.04545025
 30
0.0
 11
-2.06250403
 21
4.04545025
 31
0.0
  0
LINE
  5
113
100
AcDbEntity
  8
MST_1_1
 62
   137
  6
CONTINUOUS
100
AcDbLine
 10
-2.06250403
 20
4.04545025
 30
0.0
 11
-2.06250403
 21
8.54545025
 31
0.0
  0
LWPOLYLINE
  5
114
100
AcDbEntity
  8
MST_1_1
 62
   137
  6
CONTINUOUS
100
AcDbPolyline
 90
        6
 70
     0
 43
0.0
 38
2500.0
 10
4.62263448
 20
10.79545041
 10
4.42321025
 20
9.93402168
 10
6.10928075
 20
6.29545025
 10
6.27832031
 20
7.22244966
 10
4.62263448
 20
10.79545041
 10
6.10928075
 20
6.29545025
  0
LWPOLYLINE
  5
115
100
AcDbEntity
  8
MST_1_1
 62
   137
  6
CONTINUOUS
100
AcDbPolyline
 90
        6
 70
     0
 43
0.0
 38
2500.0
 10
7.15617245
 20
10.50270699
 10
6.99463883
 20
9.80494972
 10
8.38702553
 20
6.80015336
 10
8.54855916
 20
7.49791063
 10
7.15617245
 20
10.50270699
 10
8.36035593
 20
6.85770686
  0
LINE
  5
116
100
AcDbEntity
  8
MST_1_1
 62
   137
  6
CONTINUOUS
100
AcDbLine
 10
3.73727648
 20
7.15687882
 30
2500.0
 11
5.02444527
 21
7.16256524
 31
2500.0
  0
ARC
  5
117
100
AcDbEntity
  8
MST_1_1
 62
   137
  6
CONTINUOUS
100
AcDbCircle
 10
4.49439771
 20
-14.32685365
 30
2500.0
 40
24.26097977
100
AcDbArc
 50
84.08482032
 51
88.74811714
  0
LWPOLYLINE
  5
118
100
AcDbEntity
  8
MST_1_1
 62
   137
  6
CONTINUOUS
100
AcDbPolyline
 90
        3
 70
     0
 43
0.0
 38
2500.0
 10
13.93749597
 20
8.54545025
 10
9.15808505
 20
9.48165659
 42
0.01723995
 10
7.50663588
 20
9.7464004
  0
ARC
  5
119
100
AcDbEntity
  8
MST_1_1
 62
   137
  6
CONTINUOUS
100
AcDbCircle
 10
4.49439771
 20
31.41775415
 30
2500.0
 40
24.26097977
100
AcDbArc
 50
271.25189287
 51
272.83975061
  0
LWPOLYLINE
  5
11A
100
AcDbEntity
  8
MST_1_1
 62
   137
  6
CONTINUOUS
100
AcDbPolyline
 90
        3
 70
     0
 43
0.0
 38
2500.0
 10
13.93749597
 20
8.54545025
 10
9.15808505
 20
7.60924391
 42
-0.0063851
 10
8.54855916
 20
7.49791063
  0
ARC
  5
11B
100
AcDbEntity
  8
MST_1_1
 62
   137
  6
CONTINUOUS
100
AcDbCircle
 10
4.49439771
 20
31.41775415
 30
2500.0
 40
24.26097977
100
AcDbArc
 50
274.21680449
 51
278.53995004
  0
LWPOLYLINE
  5
11C
100
AcDbEntity
  8
MST_1_1
 62
   137
  6
CONTINUOUS
100
AcDbPolyline
 90
        6
 70
     0
 43
0.0
 38
2500.0
 10
9.67267959
 20
9.8622595
 10
9.5660674
 20
9.4017397
 10
10.48504262
 20
7.4185741
 10
10.58699776
 20
7.88914392
 10
9.67267959
 20
9.8622595
 10
10.46744068
 20
7.45655941
  0
LINE
  5
11D
100
AcDbEntity
  8
MST_1_1
 62
   137
  6
CONTINUOUS
100
AcDbLine
 10
-2.06250403
 20
-111.45454975
 30
0.0
 11
-2.06250403
 21
-106.95454975
 31
0.0
  0
LINE
  5
11E
100
AcDbEntity
  8
MST_1_1
 62
   137
  6
CONTINUOUS
100
AcDbLine
 10
-2.06250403
 20
-106.95454975
 30
0.0
 11
-1.96250406
 21
-106.95454975
 31
0.0
  0
LWPOLYLINE
  5
11F
100
AcDbEntity
  8
MST_1_1
 62
   137
  6
CONTINUOUS
100
AcDbPolyline
 90
        6
 70
     0
 43
0.0
 38
2500.0
 10
3.05120591
 20
-109.20454959
 10
2.85178168
 20
-110.06597832
 10
4.53785218
 20
-113.70454975
 10
4.73727648
 20
-112.84312118
 10
3.05120591
 20
-109.20454959
 10
4.53785218
 20
-113.70454975
  0
LINE
  5
120
100
AcDbEntity
  8
MST_1_1
 62
   137
  6
CONTINUOUS
100
AcDbLine
 10
0.63749597
 20
-110.06597832
 30
2500.0
 11
2.85178168
 21
-110.06597832
 31
2500.0
  0
LWPOLYLINE
  5
121
100
AcDbEntity
  8
MST_1_1
 62
   137
  6
CONTINUOUS
100
AcDbPolyline
 90
        4
 70
     0
 43
0.0
 38
2500.0
 10
1.56724791
 20
-112.84312118
 10
1.96642361
 20
-113.70454975
 10
2.1658479
 20
-112.84312118
 10
1.86672581
 20
-112.19761015
  0
LINE
  5
122
100
AcDbEntity
  8
MST_1_1
 62
   137
  6
CONTINUOUS
100
AcDbLine
 10
1.63417735
 20
-112.69885779
 30
2500.0
 11
1.96642361
 21
-113.70454975
 31
2500.0
  0
LINE
  5
123
100
AcDbEntity
  8
MST_1_1
 62
   137
  6
CONTINUOUS
100
AcDbLine
 10
1.56724791
 20
-112.84312118
 30
2500.0
 11
1.86672581
 21
-112.19761015
 31
2500.0
  0
LINE
  5
124
100
AcDbEntity
  8
MST_1_1
 62
   137
  6
CONTINUOUS
100
AcDbLine
 10
4.13867648
 20
-112.84312118
 30
2500.0
 11
2.1658479
 21
-112.84312118
 31
2500.0
  0
LINE
  5
125
100
AcDbEntity
  8
MST_1_1
 62
   137
  6
CONTINUOUS
100
AcDbLine
 10
1.56724791
 20
-112.84312118
 30
2500.0
 11
0.63749597
 21
-112.84312118
 31
2500.0
  0
LINE
  5
126
100
AcDbEntity
  8
MST_1_1
 62
   137
  6
CONTINUOUS
100
AcDbLine
 10
-1.96250406
 20
-106.95454975
 30
0.0
 11
0.63749597
 21
-110.06597832
 31
0.0
  0
LINE
  5
127
100
AcDbEntity
  8
MST_1_1
 62
   137
  6
CONTINUOUS
100
AcDbLine
 10
0.63749597
 20
-112.84312118
 30
0.0
 11
-1.96250406
 21
-115.95454975
 31
0.0
  0
LINE
  5
128
100
AcDbEntity
  8
MST_1_1
 62
   137
  6
CONTINUOUS
100
AcDbLine
 10
-1.96250406
 20
-115.95454975
 30
0.0
 11
-2.06250403
 21
-115.95454975
 31
0.0
  0
LINE
  5
129
100
AcDbEntity
  8
MST_1_1
 62
   137
  6
CONTINUOUS
100
AcDbLine
 10
-2.06250403
 20
-115.95454975
 30
0.0
 11
-2.06250403
 21
-111.45454975
 31
0.0
  0
LWPOLYLINE
  5
12A
100
AcDbEntity
  8
MST_1_1
 62
   137
  6
CONTINUOUS
100
AcDbPolyline
 90
        6
 70
     0
 43
0.0
 38
2500.0
 10
5.62263448
 20
-109.20454959
 10
5.42321025
 20
-110.06597832
 10
7.10928075
 20
-113.70454975
 10
7.30870505
 20
-112.84312118
 10
5.62263448
 20
-109.20454959
 10
7.10928075
 20
-113.70454975
  0
LWPOLYLINE
  5
12B
100
AcDbEntity
  8
MST_1_1
 62
   137
  6
CONTINUOUS
100
AcDbPolyline
 90
        6
 70
     0
 43
0.0
 38
2500.0
 10
8.19406305
 20
-109.20454959
 10
7.99463883
 20
-110.06597832
 10
9.68070932
 20
-113.70454975
 10
9.88013362
 20
-112.84312118
 10
8.19406305
 20
-109.20454959
 10
9.68070932
 20
-113.70454975
  0
LWPOLYLINE
  5
12C
100
AcDbEntity
  8
MST_1_1
 62
   137
  6
CONTINUOUS
100
AcDbPolyline
 90
        6
 70
     0
 43
0.0
 38
2500.0
 10
23.62263448
 20
-109.20454959
 10
23.42321025
 20
-110.06597832
 10
25.10928075
 20
-113.70454975
 10
25.27832031
 20
-112.77755034
 10
23.62263448
 20
-109.20454959
 10
25.10928075
 20
-113.70454975
  0
LWPOLYLINE
  5
12D
100
AcDbEntity
  8
MST_1_1
 62
   137
  6
CONTINUOUS
100
AcDbPolyline
 90
        6
 70
     0
 43
0.0
 38
2500.0
 10
26.15617245
 20
-109.49729301
 10
25.99463883
 20
-110.19505028
 10
27.38702553
 20
-113.19984664
 10
27.54855916
 20
-112.50208937
 10
26.15617245
 20
-109.49729301
 10
27.36035593
 20
-113.14229314
  0
LINE
  5
12E
100
AcDbEntity
  8
MST_1_1
 62
   137
  6
CONTINUOUS
100
AcDbLine
 10
4.73727648
 20
-112.84312118
 30
2500.0
 11
6.71010505
 21
-112.84312118
 31
2500.0
  0
LINE
  5
12F
100
AcDbEntity
  8
MST_1_1
 62
   137
  6
CONTINUOUS
100
AcDbLine
 10
7.30870505
 20
-112.84312118
 30
2500.0
 11
9.28153362
 21
-112.84312118
 31
2500.0
  0
LINE
  5
130
100
AcDbEntity
  8
MST_1_1
 62
   137
  6
CONTINUOUS
100
AcDbLine
 10
22.73727648
 20
-112.84312118
 30
2500.0
 11
24.02444527
 21
-112.83743476
 31
2500.0
  0
LINE
  5
131
100
AcDbEntity
  8
MST_1_1
 62
   137
  6
CONTINUOUS
100
AcDbLine
 10
5.42321025
 20
-110.06597832
 30
2500.0
 11
3.45038168
 21
-110.06597832
 31
2500.0
  0
LINE
  5
132
100
AcDbEntity
  8
MST_1_1
 62
   137
  6
CONTINUOUS
100
AcDbLine
 10
7.99463883
 20
-110.06597832
 30
2500.0
 11
6.02181025
 21
-110.06597832
 31
2500.0
  0
LINE
  5
133
100
AcDbEntity
  8
MST_1_1
 62
   137
  6
CONTINUOUS
100
AcDbLine
 10
23.42321025
 20
-110.06597832
 30
2500.0
 11
21.45038168
 21
-110.06597832
 31
2500.0
  0
ARC
  5
134
100
AcDbEntity
  8
MST_1_1
 62
   137
  6
CONTINUOUS
100
AcDbCircle
 10
23.49439771
 20
-134.32685365
 30
2500.0
 40
24.26097977
100
AcDbArc
 50
84.08482032
 51
88.74811714
  0
LWPOLYLINE
  5
135
100
AcDbEntity
  8
MST_1_1
 62
   137
  6
CONTINUOUS
100
AcDbPolyline
 90
        3
 70
     0
 43
0.0
 38
2500.0
 10
32.93749597
 20
-111.45454975
 10
28.15808505
 20
-110.51834341
 42
0.01723995
 10
26.50663588
 20
-110.2535996
  0
ARC
  5
136
100
AcDbEntity
  8
MST_1_1
 62
   137
  6
CONTINUOUS
100
AcDbCircle
 10
23.49439771
 20
-88.58224585
 30
2500.0
 40
24.26097977
100
AcDbArc
 50
271.25189287
 51
272.83975061
  0
LWPOLYLINE
  5
137
100
AcDbEntity
  8
MST_1_1
 62
   137
  6
CONTINUOUS
100
AcDbPolyline
 90
        3
 70
     0
 43
0.0
 38
2500.0
 10
32.93749597
 20
-111.45454975
 10
28.15808505
 20
-112.39075609
 42
-0.0063851
 10
27.54855916
 20
-112.50208937
  0
ARC
  5
138
100
AcDbEntity
  8
MST_1_1
 62
   137
  6
CONTINUOUS
100
AcDbCircle
 10
23.49439771
 20
-88.58224585
 30
2500.0
 40
24.26097977
100
AcDbArc
 50
274.21680449
 51
278.53995004
  0
LWPOLYLINE
  5
139
100
AcDbEntity
  8
MST_1_1
 62
   137
  6
CONTINUOUS
100
AcDbPolyline
 90
        6
 70
     0
 43
0.0
 38
2500.0
 10
28.67267959
 20
-110.1377405
 10
28.5660674
 20
-110.5982603
 10
29.48504262
 20
-112.5814259
 10
29.58699776
 20
-112.11085608
 10
28.67267959
 20
-110.1377405
 10
29.46744068
 20
-112.54344059
  0
LWPOLYLINE
  5
13A
100
AcDbEntity
  8
MST_1_1
 62
   137
  6
CONTINUOUS
100
AcDbPolyline
 90
        6
 70
     0
 43
0.0
 38
2500.0
 10
13.3369202
 20
-109.20454959
 10
13.13749597
 20
-110.06597832
 10
14.82356646
 20
-113.70454975
 10
15.02299076
 20
-112.84312118
 10
13.3369202
 20
-109.20454959
 10
14.82356646
 20
-113.70454975
  0
LWPOLYLINE
  5
13B
100
AcDbEntity
  8
MST_1_1
 62
   137
  6
CONTINUOUS
100
AcDbPolyline
 90
        6
 70
     0
 43
0.0
 38
2500.0
 10
21.05120591
 20
-109.20454959
 10
20.85178168
 20
-110.06597832
 10
22.53785218
 20
-113.70454975
 10
22.73727648
 20
-112.84312118
 10
21.05120591
 20
-109.20454959
 10
22.53785218
 20
-113.70454975
  0
LINE
  5
13C
100
AcDbEntity
  8
MST_1_1
 62
   137
  6
CONTINUOUS
100
AcDbLine
 10
12.45156219
 20
-112.84312118
 30
2500.0
 11
14.42439076
 21
-112.84312118
 31
2500.0
  0
LINE
  5
13D
100
AcDbEntity
  8
MST_1_1
 62
   137
  6
CONTINUOUS
100
AcDbLine
 10
20.1658479
 20
-112.84312118
 30
2500.0
 11
22.13867648
 21
-112.84312118
 31
2500.0
  0
LINE
  5
13E
100
AcDbEntity
  8
MST_1_1
 62
   137
  6
CONTINUOUS
100
AcDbLine
 10
13.13749597
 20
-110.06597832
 30
2500.0
 11
11.1646674
 21
-110.06597832
 31
2500.0
  0
LINE
  5
13F
100
AcDbEntity
  8
MST_1_1
 62
   137
  6
CONTINUOUS
100
AcDbLine
 10
20.85178168
 20
-110.06597832
 30
2500.0
 11
18.87895311
 21
-110.06597832
 31
2500.0
  0
LWPOLYLINE
  5
140
100
AcDbEntity
  8
MST_1_1
 62
   137
  6
CONTINUOUS
100
AcDbPolyline
 90
        6
 70
     0
 43
0.0
 38
2500.0
 10
10.76549162
 20
-109.20454959
 10
10.5660674
 20
-110.06597832
 10
12.25213789
 20
-113.70454975
 10
12.45156219
 20
-112.84312118
 10
10.76549162
 20
-109.20454959
 10
12.25213789
 20
-113.70454975
  0
LINE
  5
141
100
AcDbEntity
  8
MST_1_1
 62
   137
  6
CONTINUOUS
100
AcDbLine
 10
9.88013362
 20
-112.84312118
 30
2500.0
 11
11.85296219
 21
-112.84312118
 31
2500.0
  0
LINE
  5
142
100
AcDbEntity
  8
MST_1_1
 62
   137
  6
CONTINUOUS
100
AcDbLine
 10
10.5660674
 20
-110.06597832
 30
2500.0
 11
8.59323882
 21
-110.06597832
 31
2500.0
  0
LINE
  5
143
100
AcDbEntity
  8
MST_1_1
 62
   137
  6
CONTINUOUS
100
AcDbLine
 10
-2.06250403
 20
-141.45454975
 30
0.0
 11
-2.06250403
 21
-136.95454975
 31
0.0
  0
LINE
  5
144
100
AcDbEntity
  8
MST_1_1
 62
   137
  6
CONTINUOUS
100
AcDbLine
 10
-2.06250403
 20
-136.95454975
 30
0.0
 11
-1.96250406
 21
-136.95454975
 31
0.0
  0
LWPOLYLINE
  5
145
100
AcDbEntity
  8
MST_1_1
 62
   137
  6
CONTINUOUS
100
AcDbPolyline
 90
        6
 70
     0
 43
0.0
 38
2500.0
 10
2.90834877
 20
-139.20454959
 10
2.70892454
 20
-140.06597832
 10
4.39499503
 20
-143.70454975
 10
4.59441933
 20
-142.84312118
 10
2.90834877
 20
-139.20454959
 10
4.39499503
 20
-143.70454975
  0
LINE
  5
146
100
AcDbEntity
  8
MST_1_1
 62
   137
  6
CONTINUOUS
100
AcDbLine
 10
0.63749597
 20
-140.06597832
 30
2500.0
 11
2.70892454
 21
-140.06597832
 31
2500.0
  0
LWPOLYLINE
  5
147
100
AcDbEntity
  8
MST_1_1
 62
   137
  6
CONTINUOUS
100
AcDbPolyline
 90
        4
 70
     0
 43
0.0
 38
2500.0
 10
1.42439076
 20
-142.84312118
 10
1.82356646
 20
-143.70454975
 10
2.02299076
 20
-142.84312118
 10
1.72386867
 20
-142.19761015
  0
LINE
  5
148
100
AcDbEntity
  8
MST_1_1
 62
   137
  6
CONTINUOUS
100
AcDbLine
 10
1.49132021
 20
-142.69885779
 30
2500.0
 11
1.82356646
 21
-143.70454975
 31
2500.0
  0
LINE
  5
149
100
AcDbEntity
  8
MST_1_1
 62
   137
  6
CONTINUOUS
100
AcDbLine
 10
1.42439076
 20
-142.84312118
 30
2500.0
 11
1.72386867
 21
-142.19761015
 31
2500.0
  0
LINE
  5
14A
100
AcDbEntity
  8
MST_1_1
 62
   137
  6
CONTINUOUS
100
AcDbLine
 10
3.99581933
 20
-142.84312118
 30
2500.0
 11
2.02299076
 21
-142.84312118
 31
2500.0
  0
LINE
  5
14B
100
AcDbEntity
  8
MST_1_1
 62
   137
  6
CONTINUOUS
100
AcDbLine
 10
1.42439076
 20
-142.84312118
 30
2500.0
 11
0.63749597
 21
-142.84312118
 31
2500.0
  0
LINE
  5
14C
100
AcDbEntity
  8
MST_1_1
 62
   137
  6
CONTINUOUS
100
AcDbLine
 10
-1.96250406
 20
-136.95454975
 30
0.0
 11
0.63749597
 21
-140.06597832
 31
0.0
  0
LINE
  5
14D
100
AcDbEntity
  8
MST_1_1
 62
   137
  6
CONTINUOUS
100
AcDbLine
 10
0.63749597
 20
-142.84312118
 30
0.0
 11
-1.96250406
 21
-145.95454975
 31
0.0
  0
LINE
  5
14E
100
AcDbEntity
  8
MST_1_1
 62
   137
  6
CONTINUOUS
100
AcDbLine
 10
-1.96250406
 20
-145.95454975
 30
0.0
 11
-2.06250403
 21
-145.95454975
 31
0.0
  0
LINE
  5
14F
100
AcDbEntity
  8
MST_1_1
 62
   137
  6
CONTINUOUS
100
AcDbLine
 10
-2.06250403
 20
-145.95454975
 30
0.0
 11
-2.06250403
 21
-141.45454975
 31
0.0
  0
LWPOLYLINE
  5
150
100
AcDbEntity
  8
MST_1_1
 62
   137
  6
CONTINUOUS
100
AcDbPolyline
 90
        6
 70
     0
 43
0.0
 38
2500.0
 10
5.47977734
 20
-139.20454959
 10
5.28035311
 20
-140.06597832
 10
6.96642361
 20
-143.70454975
 10
7.1658479
 20
-142.84312118
 10
5.47977734
 20
-139.20454959
 10
6.96642361
 20
-143.70454975
  0
LWPOLYLINE
  5
151
100
AcDbEntity
  8
MST_1_1
 62
   137
  6
CONTINUOUS
100
AcDbPolyline
 90
        6
 70
     0
 43
0.0
 38
2500.0
 10
8.05120591
 20
-139.20454959
 10
7.85178168
 20
-140.06597832
 10
9.53785218
 20
-143.70454975
 10
9.73727648
 20
-142.84312118
 10
8.05120591
 20
-139.20454959
 10
9.53785218
 20
-143.70454975
  0
LWPOLYLINE
  5
152
100
AcDbEntity
  8
MST_1_1
 62
   137
  6
CONTINUOUS
100
AcDbPolyline
 90
        6
 70
     0
 43
0.0
 38
2500.0
 10
28.62263448
 20
-139.20454959
 10
28.42321025
 20
-140.06597832
 10
30.10928075
 20
-143.70454975
 10
30.27832031
 20
-142.77755034
 10
28.62263448
 20
-139.20454959
 10
30.10928075
 20
-143.70454975
  0
LWPOLYLINE
  5
153
100
AcDbEntity
  8
MST_1_1
 62
   137
  6
CONTINUOUS
100
AcDbPolyline
 90
        6
 70
     0
 43
0.0
 38
2500.0
 10
31.15617245
 20
-139.49729301
 10
30.99463883
 20
-140.19505028
 10
32.38702553
 20
-143.19984664
 10
32.54855916
 20
-142.50208937
 10
31.15617245
 20
-139.49729301
 10
32.36035593
 20
-143.14229314
  0
LINE
  5
154
100
AcDbEntity
  8
MST_1_1
 62
   137
  6
CONTINUOUS
100
AcDbLine
 10
4.59441933
 20
-142.84312118
 30
2500.0
 11
6.56724791
 21
-142.84312118
 31
2500.0
  0
LINE
  5
155
100
AcDbEntity
  8
MST_1_1
 62
   137
  6
CONTINUOUS
100
AcDbLine
 10
7.1658479
 20
-142.84312118
 30
2500.0
 11
9.13867648
 21
-142.84312118
 31
2500.0
  0
LINE
  5
156
100
AcDbEntity
  8
MST_1_1
 62
   137
  6
CONTINUOUS
100
AcDbLine
 10
27.73727648
 20
-142.84312118
 30
2500.0
 11
29.02444527
 21
-142.83743476
 31
2500.0
  0
LINE
  5
157
100
AcDbEntity
  8
MST_1_1
 62
   137
  6
CONTINUOUS
100
AcDbLine
 10
5.28035311
 20
-140.06597832
 30
2500.0
 11
3.30752454
 21
-140.06597832
 31
2500.0
  0
LINE
  5
158
100
AcDbEntity
  8
MST_1_1
 62
   137
  6
CONTINUOUS
100
AcDbLine
 10
7.85178168
 20
-140.06597832
 30
2500.0
 11
5.87895311
 21
-140.06597832
 31
2500.0
  0
LINE
  5
159
100
AcDbEntity
  8
MST_1_1
 62
   137
  6
CONTINUOUS
100
AcDbLine
 10
28.42321025
 20
-140.06597832
 30
2500.0
 11
26.45038168
 21
-140.06597832
 31
2500.0
  0
ARC
  5
15A
100
AcDbEntity
  8
MST_1_1
 62
   137
  6
CONTINUOUS
100
AcDbCircle
 10
28.49439771
 20
-164.32685365
 30
2500.0
 40
24.26097977
100
AcDbArc
 50
84.08482032
 51
88.74811714
  0
LWPOLYLINE
  5
15B
100
AcDbEntity
  8
MST_1_1
 62
   137
  6
CONTINUOUS
100
AcDbPolyline
 90
        3
 70
     0
 43
0.0
 38
2500.0
 10
37.93749597
 20
-141.45454975
 10
33.15808505
 20
-140.51834341
 42
0.01723995
 10
31.50663588
 20
-140.2535996
  0
ARC
  5
15C
100
AcDbEntity
  8
MST_1_1
 62
   137
  6
CONTINUOUS
100
AcDbCircle
 10
28.49439771
 20
-118.58224585
 30
2500.0
 40
24.26097977
100
AcDbArc
 50
271.25189287
 51
272.83975061
  0
LWPOLYLINE
  5
15D
100
AcDbEntity
  8
MST_1_1
 62
   137
  6
CONTINUOUS
100
AcDbPolyline
 90
        3
 70
     0
 43
0.0
 38
2500.0
 10
37.93749597
 20
-141.45454975
 10
33.15808505
 20
-142.39075609
 42
-0.0063851
 10
32.54855916
 20
-142.50208937
  0
ARC
  5
15E
100
AcDbEntity
  8
MST_1_1
 62
   137
  6
CONTINUOUS
100
AcDbCircle
 10
28.49439771
 20
-118.58224585
 30
2500.0
 40
24.26097977
100
AcDbArc
 50
274.21680449
 51
278.53995004
  0
LWPOLYLINE
  5
15F
100
AcDbEntity
  8
MST_1_1
 62
   137
  6
CONTINUOUS
100
AcDbPolyline
 90
        6
 70
     0
 43
0.0
 38
2500.0
 10
33.67267959
 20
-140.1377405
 10
33.5660674
 20
-140.5982603
 10
34.48504262
 20
-142.5814259
 10
34.58699776
 20
-142.11085608
 10
33.67267959
 20
-140.1377405
 10
34.46744068
 20
-142.54344059
  0
LWPOLYLINE
  5
160
100
AcDbEntity
  8
MST_1_1
 62
   137
  6
CONTINUOUS
100
AcDbPolyline
 90
        6
 70
     0
 43
0.0
 38
2500.0
 10
13.19406305
 20
-139.20454959
 10
12.99463883
 20
-140.06597832
 10
14.68070932
 20
-143.70454975
 10
14.88013362
 20
-142.84312118
 10
13.19406305
 20
-139.20454959
 10
14.68070932
 20
-143.70454975
  0
LWPOLYLINE
  5
161
100
AcDbEntity
  8
MST_1_1
 62
   137
  6
CONTINUOUS
100
AcDbPolyline
 90
        6
 70
     0
 43
0.0
 38
2500.0
 10
26.05120591
 20
-139.20454959
 10
25.85178168
 20
-140.06597832
 10
27.53785218
 20
-143.70454975
 10
27.73727648
 20
-142.84312118
 10
26.05120591
 20
-139.20454959
 10
27.53785218
 20
-143.70454975
  0
LINE
  5
162
100
AcDbEntity
  8
MST_1_1
 62
   137
  6
CONTINUOUS
100
AcDbLine
 10
12.30870505
 20
-142.84312118
 30
2500.0
 11
14.28153362
 21
-142.84312118
 31
2500.0
  0
LINE
  5
163
100
AcDbEntity
  8
MST_1_1
 62
   137
  6
CONTINUOUS
100
AcDbLine
 10
25.1658479
 20
-142.84312118
 30
2500.0
 11
27.13867648
 21
-142.84312118
 31
2500.0
  0
LINE
  5
164
100
AcDbEntity
  8
MST_1_1
 62
   137
  6
CONTINUOUS
100
AcDbLine
 10
12.99463883
 20
-140.06597832
 30
2500.0
 11
11.02181025
 21
-140.06597832
 31
2500.0
  0
LINE
  5
165
100
AcDbEntity
  8
MST_1_1
 62
   137
  6
CONTINUOUS
100
AcDbLine
 10
25.85178168
 20
-140.06597832
 30
2500.0
 11
23.87895311
 21
-140.06597832
 31
2500.0
  0
LWPOLYLINE
  5
166
100
AcDbEntity
  8
MST_1_1
 62
   137
  6
CONTINUOUS
100
AcDbPolyline
 90
        6
 70
     0
 43
0.0
 38
2500.0
 10
10.62263448
 20
-139.20454959
 10
10.42321025
 20
-140.06597832
 10
12.10928075
 20
-143.70454975
 10
12.30870505
 20
-142.84312118
 10
10.62263448
 20
-139.20454959
 10
12.10928075
 20
-143.70454975
  0
LINE
  5
167
100
AcDbEntity
  8
MST_1_1
 62
   137
  6
CONTINUOUS
100
AcDbLine
 10
9.73727648
 20
-142.84312118
 30
2500.0
 11
11.71010505
 21
-142.84312118
 31
2500.0
  0
LINE
  5
168
100
AcDbEntity
  8
MST_1_1
 62
   137
  6
CONTINUOUS
100
AcDbLine
 10
10.42321025
 20
-140.06597832
 30
2500.0
 11
8.45038168
 21
-140.06597832
 31
2500.0
  0
LINE
  5
169
100
AcDbEntity
  8
MST_1_1
 62
   137
  6
CONTINUOUS
100
AcDbLine
 10
-2.06250403
 20
-171.45454975
 30
0.0
 11
-2.06250403
 21
-166.95454975
 31
0.0
  0
LINE
  5
16A
100
AcDbEntity
  8
MST_1_1
 62
   137
  6
CONTINUOUS
100
AcDbLine
 10
-2.06250403
 20
-166.95454975
 30
0.0
 11
-1.96250406
 21
-166.95454975
 31
0.0
  0
LWPOLYLINE
  5
16B
100
AcDbEntity
  8
MST_1_1
 62
   137
  6
CONTINUOUS
100
AcDbPolyline
 90
        6
 70
     0
 43
0.0
 38
2500.0
 10
2.76549162
 20
-169.20454959
 10
2.5660674
 20
-170.06597832
 10
4.25213789
 20
-173.70454975
 10
4.45156219
 20
-172.84312118
 10
2.76549162
 20
-169.20454959
 10
4.25213789
 20
-173.70454975
  0
LINE
  5
16C
100
AcDbEntity
  8
MST_1_1
 62
   137
  6
CONTINUOUS
100
AcDbLine
 10
0.63749597
 20
-170.06597832
 30
2500.0
 11
2.5660674
 21
-170.06597832
 31
2500.0
  0
LWPOLYLINE
  5
16D
100
AcDbEntity
  8
MST_1_1
 62
   137
  6
CONTINUOUS
100
AcDbPolyline
 90
        4
 70
     0
 43
0.0
 38
2500.0
 10
1.28153362
 20
-172.84312118
 10
1.68070932
 20
-173.70454975
 10
1.88013362
 20
-172.84312118
 10
1.58101153
 20
-172.19761015
  0
LINE
  5
16E
100
AcDbEntity
  8
MST_1_1
 62
   137
  6
CONTINUOUS
100
AcDbLine
 10
1.34846307
 20
-172.69885779
 30
2500.0
 11
1.68070932
 21
-173.70454975
 31
2500.0
  0
LINE
  5
16F
100
AcDbEntity
  8
MST_1_1
 62
   137
  6
CONTINUOUS
100
AcDbLine
 10
1.28153362
 20
-172.84312118
 30
2500.0
 11
1.58101153
 21
-172.19761015
 31
2500.0
  0
LINE
  5
170
100
AcDbEntity
  8
MST_1_1
 62
   137
  6
CONTINUOUS
100
AcDbLine
 10
3.85296219
 20
-172.84312118
 30
2500.0
 11
1.88013362
 21
-172.84312118
 31
2500.0
  0
LINE
  5
171
100
AcDbEntity
  8
MST_1_1
 62
   137
  6
CONTINUOUS
100
AcDbLine
 10
1.28153362
 20
-172.84312118
 30
2500.0
 11
0.63749597
 21
-172.84312118
 31
2500.0
  0
LINE
  5
172
100
AcDbEntity
  8
MST_1_1
 62
   137
  6
CONTINUOUS
100
AcDbLine
 10
-1.96250406
 20
-166.95454975
 30
0.0
 11
0.63749597
 21
-170.06597832
 31
0.0
  0
LINE
  5
173
100
AcDbEntity
  8
MST_1_1
 62
   137
  6
CONTINUOUS
100
AcDbLine
 10
0.63749597
 20
-172.84312118
 30
0.0
 11
-1.96250406
 21
-175.95454975
 31
0.0
  0
LINE
  5
174
100
AcDbEntity
  8
MST_1_1
 62
   137
  6
CONTINUOUS
100
AcDbLine
 10
-1.96250406
 20
-175.95454975
 30
0.0
 11
-2.06250403
 21
-175.95454975
 31
0.0
  0
LINE
  5
175
100
AcDbEntity
  8
MST_1_1
 62
   137
  6
CONTINUOUS
100
AcDbLine
 10
-2.06250403
 20
-175.95454975
 30
0.0
 11
-2.06250403
 21
-171.45454975
 31
0.0
  0
LWPOLYLINE
  5
176
100
AcDbEntity
  8
MST_1_1
 62
   137
  6
CONTINUOUS
100
AcDbPolyline
 90
        6
 70
     0
 43
0.0
 38
2500.0
 10
5.3369202
 20
-169.20454959
 10
5.13749597
 20
-170.06597832
 10
6.82356646
 20
-173.70454975
 10
7.02299076
 20
-172.84312118
 10
5.3369202
 20
-169.20454959
 10
6.82356646
 20
-173.70454975
  0
LWPOLYLINE
  5
177
100
AcDbEntity
  8
MST_1_1
 62
   137
  6
CONTINUOUS
100
AcDbPolyline
 90
        6
 70
     0
 43
0.0
 38
2500.0
 10
7.90834877
 20
-169.20454959
 10
7.70892454
 20
-170.06597832
 10
9.39499503
 20
-173.70454975
 10
9.59441933
 20
-172.84312118
 10
7.90834877
 20
-169.20454959
 10
9.39499503
 20
-173.70454975
  0
LWPOLYLINE
  5
178
100
AcDbEntity
  8
MST_1_1
 62
   137
  6
CONTINUOUS
100
AcDbPolyline
 90
        6
 70
     0
 43
0.0
 38
2500.0
 10
33.62263448
 20
-169.20454959
 10
33.42321025
 20
-170.06597832
 10
35.10928075
 20
-173.70454975
 10
35.27832031
 20
-172.77755034
 10
33.62263448
 20
-169.20454959
 10
35.10928075
 20
-173.70454975
  0
LWPOLYLINE
  5
179
100
AcDbEntity
  8
MST_1_1
 62
   137
  6
CONTINUOUS
100
AcDbPolyline
 90
        6
 70
     0
 43
0.0
 38
2500.0
 10
36.15617245
 20
-169.49729301
 10
35.99463883
 20
-170.19505028
 10
37.38702553
 20
-173.19984664
 10
37.54855916
 20
-172.50208937
 10
36.15617245
 20
-169.49729301
 10
37.36035593
 20
-173.14229314
  0
LINE
  5
17A
100
AcDbEntity
  8
MST_1_1
 62
   137
  6
CONTINUOUS
100
AcDbLine
 10
4.45156219
 20
-172.84312118
 30
2500.0
 11
6.42439076
 21
-172.84312118
 31
2500.0
  0
LINE
  5
17B
100
AcDbEntity
  8
MST_1_1
 62
   137
  6
CONTINUOUS
100
AcDbLine
 10
7.02299076
 20
-172.84312118
 30
2500.0
 11
8.99581933
 21
-172.84312118
 31
2500.0
  0
LINE
  5
17C
100
AcDbEntity
  8
MST_1_1
 62
   137
  6
CONTINUOUS
100
AcDbLine
 10
32.73727648
 20
-172.84312118
 30
2500.0
 11
34.02444527
 21
-172.83743476
 31
2500.0
  0
LINE
  5
17D
100
AcDbEntity
  8
MST_1_1
 62
   137
  6
CONTINUOUS
100
AcDbLine
 10
5.13749597
 20
-170.06597832
 30
2500.0
 11
3.1646674
 21
-170.06597832
 31
2500.0
  0
LINE
  5
17E
100
AcDbEntity
  8
MST_1_1
 62
   137
  6
CONTINUOUS
100
AcDbLine
 10
7.70892454
 20
-170.06597832
 30
2500.0
 11
5.73609597
 21
-170.06597832
 31
2500.0
  0
LINE
  5
17F
100
AcDbEntity
  8
MST_1_1
 62
   137
  6
CONTINUOUS
100
AcDbLine
 10
33.42321025
 20
-170.06597832
 30
2500.0
 11
31.45038168
 21
-170.06597832
 31
2500.0
  0
ARC
  5
180
100
AcDbEntity
  8
MST_1_1
 62
   137
  6
CONTINUOUS
100
AcDbCircle
 10
33.49439771
 20
-194.32685365
 30
2500.0
 40
24.26097977
100
AcDbArc
 50
84.08482032
 51
88.74811714
  0
LWPOLYLINE
  5
181
100
AcDbEntity
  8
MST_1_1
 62
   137
  6
CONTINUOUS
100
AcDbPolyline
 90
        3
 70
     0
 43
0.0
 38
2500.0
 10
42.93749597
 20
-171.45454975
 10
38.15808505
 20
-170.51834341
 42
0.01723995
 10
36.50663588
 20
-170.2535996
  0
ARC
  5
182
100
AcDbEntity
  8
MST_1_1
 62
   137
  6
CONTINUOUS
100
AcDbCircle
 10
33.49439771
 20
-148.58224585
 30
2500.0
 40
24.26097977
100
AcDbArc
 50
271.25189287
 51
272.83975061
  0
LWPOLYLINE
  5
183
100
AcDbEntity
  8
MST_1_1
 62
   137
  6
CONTINUOUS
100
AcDbPolyline
 90
        3
 70
     0
 43
0.0
 38
2500.0
 10
42.93749597
 20
-171.45454975
 10
38.15808505
 20
-172.39075609
 42
-0.0063851
 10
37.54855916
 20
-172.50208937
  0
ARC
  5
184
100
AcDbEntity
  8
MST_1_1
 62
   137
  6
CONTINUOUS
100
AcDbCircle
 10
33.49439771
 20
-148.58224585
 30
2500.0
 40
24.26097977
100
AcDbArc
 50
274.21680449
 51
278.53995004
  0
LWPOLYLINE
  5
185
100
AcDbEntity
  8
MST_1_1
 62
   137
  6
CONTINUOUS
100
AcDbPolyline
 90
        6
 70
     0
 43
0.0
 38
2500.0
 10
38.67267959
 20
-170.1377405
 10
38.5660674
 20
-170.5982603
 10
39.48504262
 20
-172.5814259
 10
39.58699776
 20
-172.11085608
 10
38.67267959
 20
-170.1377405
 10
39.46744068
 20
-172.54344059
  0
LWPOLYLINE
  5
186
100
AcDbEntity
  8
MST_1_1
 62
   137
  6
CONTINUOUS
100
AcDbPolyline
 90
        6
 70
     0
 43
0.0
 38
2500.0
 10
13.05120591
 20
-169.20454959
 10
12.85178168
 20
-170.06597832
 10
14.53785218
 20
-173.70454975
 10
14.73727648
 20
-172.84312118
 10
13.05120591
 20
-169.20454959
 10
14.53785218
 20
-173.70454975
  0
LWPOLYLINE
  5
187
100
AcDbEntity
  8
MST_1_1
 62
   137
  6
CONTINUOUS
100
AcDbPolyline
 90
        6
 70
     0
 43
0.0
 38
2500.0
 10
31.05120591
 20
-169.20454959
 10
30.85178168
 20
-170.06597832
 10
32.53785218
 20
-173.70454975
 10
32.73727648
 20
-172.84312118
 10
31.05120591
 20
-169.20454959
 10
32.53785218
 20
-173.70454975
  0
LINE
  5
188
100
AcDbEntity
  8
MST_1_1
 62
   137
  6
CONTINUOUS
100
AcDbLine
 10
12.1658479
 20
-172.84312118
 30
2500.0
 11
14.13867648
 21
-172.84312118
 31
2500.0
  0
LINE
  5
189
100
AcDbEntity
  8
MST_1_1
 62
   137
  6
CONTINUOUS
100
AcDbLine
 10
30.1658479
 20
-172.84312118
 30
2500.0
 11
32.13867648
 21
-172.84312118
 31
2500.0
  0
LINE
  5
18A
100
AcDbEntity
  8
MST_1_1
 62
   137
  6
CONTINUOUS
100
AcDbLine
 10
12.85178168
 20
-170.06597832
 30
2500.0
 11
10.87895311
 21
-170.06597832
 31
2500.0
  0
LINE
  5
18B
100
AcDbEntity
  8
MST_1_1
 62
   137
  6
CONTINUOUS
100
AcDbLine
 10
30.85178168
 20
-170.06597832
 30
2500.0
 11
28.87895311
 21
-170.06597832
 31
2500.0
  0
LWPOLYLINE
  5
18C
100
AcDbEntity
  8
MST_1_1
 62
   137
  6
CONTINUOUS
100
AcDbPolyline
 90
        6
 70
     0
 43
0.0
 38
2500.0
 10
10.47977734
 20
-169.20454959
 10
10.28035311
 20
-170.06597832
 10
11.96642361
 20
-173.70454975
 10
12.1658479
 20
-172.84312118
 10
10.47977734
 20
-169.20454959
 10
11.96642361
 20
-173.70454975
  0
LINE
  5
18D
100
AcDbEntity
  8
MST_1_1
 62
   137
  6
CONTINUOUS
100
AcDbLine
 10
9.59441933
 20
-172.84312118
 30
2500.0
 11
11.56724791
 21
-172.84312118
 31
2500.0
  0
LINE
  5
18E
100
AcDbEntity
  8
MST_1_1
 62
   137
  6
CONTINUOUS
100
AcDbLine
 10
10.28035311
 20
-170.06597832
 30
2500.0
 11
8.30752454
 21
-170.06597832
 31
2500.0
  0
LINE
  5
18F
100
AcDbEntity
  8
MST_1_1
 62
   137
  6
CONTINUOUS
100
AcDbLine
 10
-2.06250403
 20
-201.45454975
 30
0.0
 11
-2.06250403
 21
-196.95454975
 31
0.0
  0
LINE
  5
190
100
AcDbEntity
  8
MST_1_1
 62
   137
  6
CONTINUOUS
100
AcDbLine
 10
-2.06250403
 20
-196.95454975
 30
0.0
 11
-1.96250406
 21
-196.95454975
 31
0.0
  0
LWPOLYLINE
  5
191
100
AcDbEntity
  8
MST_1_1
 62
   137
  6
CONTINUOUS
100
AcDbPolyline
 90
        6
 70
     0
 43
0.0
 38
2500.0
 10
5.19406305
 20
-199.20454959
 10
4.99463883
 20
-200.06597832
 10
6.68070932
 20
-203.70454975
 10
6.88013362
 20
-202.84312118
 10
5.19406305
 20
-199.20454959
 10
6.68070932
 20
-203.70454975
  0
LINE
  5
192
100
AcDbEntity
  8
MST_1_1
 62
   137
  6
CONTINUOUS
100
AcDbLine
 10
0.63749597
 20
-200.06597832
 30
2500.0
 11
4.99463883
 21
-200.06597832
 31
2500.0
  0
LWPOLYLINE
  5
193
100
AcDbEntity
  8
MST_1_1
 62
   137
  6
CONTINUOUS
100
AcDbPolyline
 90
        4
 70
     0
 43
0.0
 38
2500.0
 10
3.71010505
 20
-202.84312118
 10
4.10928075
 20
-203.70454975
 10
4.30870505
 20
-202.84312118
 10
4.00958296
 20
-202.19761015
  0
LINE
  5
194
100
AcDbEntity
  8
MST_1_1
 62
   137
  6
CONTINUOUS
100
AcDbLine
 10
3.7770345
 20
-202.69885779
 30
2500.0
 11
4.10928075
 21
-203.70454975
 31
2500.0
  0
LINE
  5
195
100
AcDbEntity
  8
MST_1_1
 62
   137
  6
CONTINUOUS
100
AcDbLine
 10
3.71010505
 20
-202.84312118
 30
2500.0
 11
4.00958296
 21
-202.19761015
 31
2500.0
  0
LINE
  5
196
100
AcDbEntity
  8
MST_1_1
 62
   137
  6
CONTINUOUS
100
AcDbLine
 10
6.28153362
 20
-202.84312118
 30
2500.0
 11
4.30870505
 21
-202.84312118
 31
2500.0
  0
LINE
  5
197
100
AcDbEntity
  8
MST_1_1
 62
   137
  6
CONTINUOUS
100
AcDbLine
 10
3.71010505
 20
-202.84312118
 30
2500.0
 11
0.63749597
 21
-202.84312118
 31
2500.0
  0
LINE
  5
198
100
AcDbEntity
  8
MST_1_1
 62
   137
  6
CONTINUOUS
100
AcDbLine
 10
-1.96250406
 20
-196.95454975
 30
0.0
 11
0.63749597
 21
-200.06597832
 31
0.0
  0
LINE
  5
199
100
AcDbEntity
  8
MST_1_1
 62
   137
  6
CONTINUOUS
100
AcDbLine
 10
0.63749597
 20
-202.84312118
 30
0.0
 11
-1.96250406
 21
-205.95454975
 31
0.0
  0
LINE
  5
19A
100
AcDbEntity
  8
MST_1_1
 62
   137
  6
CONTINUOUS
100
AcDbLine
 10
-1.96250406
 20
-205.95454975
 30
0.0
 11
-2.06250403
 21
-205.95454975
 31
0.0
  0
LINE
  5
19B
100
AcDbEntity
  8
MST_1_1
 62
   137
  6
CONTINUOUS
100
AcDbLine
 10
-2.06250403
 20
-205.95454975
 30
0.0
 11
-2.06250403
 21
-201.45454975
 31
0.0
  0
LWPOLYLINE
  5
19C
100
AcDbEntity
  8
MST_1_1
 62
   137
  6
CONTINUOUS
100
AcDbPolyline
 90
        6
 70
     0
 43
0.0
 38
2500.0
 10
7.76549162
 20
-199.20454959
 10
7.5660674
 20
-200.06597832
 10
9.25213789
 20
-203.70454975
 10
9.45156219
 20
-202.84312118
 10
7.76549162
 20
-199.20454959
 10
9.25213789
 20
-203.70454975
  0
LWPOLYLINE
  5
19D
100
AcDbEntity
  8
MST_1_1
 62
   137
  6
CONTINUOUS
100
AcDbPolyline
 90
        6
 70
     0
 43
0.0
 38
2500.0
 10
10.3369202
 20
-199.20454959
 10
10.13749597
 20
-200.06597832
 10
11.82356646
 20
-203.70454975
 10
12.02299076
 20
-202.84312118
 10
10.3369202
 20
-199.20454959
 10
11.82356646
 20
-203.70454975
  0
LWPOLYLINE
  5
19E
100
AcDbEntity
  8
MST_1_1
 62
   137
  6
CONTINUOUS
100
AcDbPolyline
 90
        6
 70
     0
 43
0.0
 38
2500.0
 10
38.62263448
 20
-199.20454959
 10
38.42321025
 20
-200.06597832
 10
40.10928075
 20
-203.70454975
 10
40.27832031
 20
-202.77755034
 10
38.62263448
 20
-199.20454959
 10
40.10928075
 20
-203.70454975
  0
LWPOLYLINE
  5
19F
100
AcDbEntity
  8
MST_1_1
 62
   137
  6
CONTINUOUS
100
AcDbPolyline
 90
        6
 70
     0
 43
0.0
 38
2500.0
 10
41.15617245
 20
-199.49729301
 10
40.99463883
 20
-200.19505028
 10
42.38702553
 20
-203.19984664
 10
42.54855916
 20
-202.50208937
 10
41.15617245
 20
-199.49729301
 10
42.36035593
 20
-203.14229314
  0
LINE
  5
1A0
100
AcDbEntity
  8
MST_1_1
 62
   137
  6
CONTINUOUS
100
AcDbLine
 10
6.88013362
 20
-202.84312118
 30
2500.0
 11
8.85296219
 21
-202.84312118
 31
2500.0
  0
LINE
  5
1A1
100
AcDbEntity
  8
MST_1_1
 62
   137
  6
CONTINUOUS
100
AcDbLine
 10
9.45156219
 20
-202.84312118
 30
2500.0
 11
11.42439076
 21
-202.84312118
 31
2500.0
  0
LINE
  5
1A2
100
AcDbEntity
  8
MST_1_1
 62
   137
  6
CONTINUOUS
100
AcDbLine
 10
37.73727648
 20
-202.84312118
 30
2500.0
 11
39.02444527
 21
-202.83743476
 31
2500.0
  0
LINE
  5
1A3
100
AcDbEntity
  8
MST_1_1
 62
   137
  6
CONTINUOUS
100
AcDbLine
 10
7.5660674
 20
-200.06597832
 30
2500.0
 11
5.59323882
 21
-200.06597832
 31
2500.0
  0
LINE
  5
1A4
100
AcDbEntity
  8
MST_1_1
 62
   137
  6
CONTINUOUS
100
AcDbLine
 10
10.13749597
 20
-200.06597832
 30
2500.0
 11
8.1646674
 21
-200.06597832
 31
2500.0
  0
LINE
  5
1A5
100
AcDbEntity
  8
MST_1_1
 62
   137
  6
CONTINUOUS
100
AcDbLine
 10
38.42321025
 20
-200.06597832
 30
2500.0
 11
36.45038168
 21
-200.06597832
 31
2500.0
  0
ARC
  5
1A6
100
AcDbEntity
  8
MST_1_1
 62
   137
  6
CONTINUOUS
100
AcDbCircle
 10
38.49439771
 20
-224.32685365
 30
2500.0
 40
24.26097977
100
AcDbArc
 50
84.08482032
 51
88.74811714
  0
LWPOLYLINE
  5
1A7
100
AcDbEntity
  8
MST_1_1
 62
   137
  6
CONTINUOUS
100
AcDbPolyline
 90
        3
 70
     0
 43
0.0
 38
2500.0
 10
47.93749597
 20
-201.45454975
 10
43.15808505
 20
-200.51834341
 42
0.01723995
 10
41.50663588
 20
-200.2535996
  0
ARC
  5
1A8
100
AcDbEntity
  8
MST_1_1
 62
   137
  6
CONTINUOUS
100
AcDbCircle
 10
38.49439771
 20
-178.58224585
 30
2500.0
 40
24.26097977
100
AcDbArc
 50
271.25189287
 51
272.83975061
  0
LWPOLYLINE
  5
1A9
100
AcDbEntity
  8
MST_1_1
 62
   137
  6
CONTINUOUS
100
AcDbPolyline
 90
        3
 70
     0
 43
0.0
 38
2500.0
 10
47.93749597
 20
-201.45454975
 10
43.15808505
 20
-202.39075609
 42
-0.0063851
 10
42.54855916
 20
-202.50208937
  0
ARC
  5
1AA
100
AcDbEntity
  8
MST_1_1
 62
   137
  6
CONTINUOUS
100
AcDbCircle
 10
38.49439771
 20
-178.58224585
 30
2500.0
 40
24.26097977
100
AcDbArc
 50
274.21680449
 51
278.53995004
  0
LWPOLYLINE
  5
1AB
100
AcDbEntity
  8
MST_1_1
 62
   137
  6
CONTINUOUS
100
AcDbPolyline
 90
        6
 70
     0
 43
0.0
 38
2500.0
 10
43.67267959
 20
-200.1377405
 10
43.5660674
 20
-200.5982603
 10
44.48504262
 20
-202.5814259
 10
44.58699776
 20
-202.11085608
 10
43.67267959
 20
-200.1377405
 10
44.46744068
 20
-202.54344059
  0
LWPOLYLINE
  5
1AC
100
AcDbEntity
  8
MST_1_1
 62
   137
  6
CONTINUOUS
100
AcDbPolyline
 90
        6
 70
     0
 43
0.0
 38
2500.0
 10
15.47977734
 20
-199.20454959
 10
15.28035311
 20
-200.06597832
 10
16.96642361
 20
-203.70454975
 10
17.1658479
 20
-202.84312118
 10
15.47977734
 20
-199.20454959
 10
16.96642361
 20
-203.70454975
  0
LWPOLYLINE
  5
1AD
100
AcDbEntity
  8
MST_1_1
 62
   137
  6
CONTINUOUS
100
AcDbPolyline
 90
        6
 70
     0
 43
0.0
 38
2500.0
 10
36.05120591
 20
-199.20454959
 10
35.85178168
 20
-200.06597832
 10
37.53785218
 20
-203.70454975
 10
37.73727648
 20
-202.84312118
 10
36.05120591
 20
-199.20454959
 10
37.53785218
 20
-203.70454975
  0
LINE
  5
1AE
100
AcDbEntity
  8
MST_1_1
 62
   137
  6
CONTINUOUS
100
AcDbLine
 10
14.59441933
 20
-202.84312118
 30
2500.0
 11
16.56724791
 21
-202.84312118
 31
2500.0
  0
LINE
  5
1AF
100
AcDbEntity
  8
MST_1_1
 62
   137
  6
CONTINUOUS
100
AcDbLine
 10
35.1658479
 20
-202.84312118
 30
2500.0
 11
37.13867648
 21
-202.84312118
 31
2500.0
  0
LINE
  5
1B0
100
AcDbEntity
  8
MST_1_1
 62
   137
  6
CONTINUOUS
100
AcDbLine
 10
15.28035311
 20
-200.06597832
 30
2500.0
 11
13.30752454
 21
-200.06597832
 31
2500.0
  0
LINE
  5
1B1
100
AcDbEntity
  8
MST_1_1
 62
   137
  6
CONTINUOUS
100
AcDbLine
 10
35.85178168
 20
-200.06597832
 30
2500.0
 11
33.87895311
 21
-200.06597832
 31
2500.0
  0
LWPOLYLINE
  5
1B2
100
AcDbEntity
  8
MST_1_1
 62
   137
  6
CONTINUOUS
100
AcDbPolyline
 90
        6
 70
     0
 43
0.0
 38
2500.0
 10
12.90834877
 20
-199.20454959
 10
12.70892454
 20
-200.06597832
 10
14.39499503
 20
-203.70454975
 10
14.59441933
 20
-202.84312118
 10
12.90834877
 20
-199.20454959
 10
14.39499503
 20
-203.70454975
  0
LINE
  5
1B3
100
AcDbEntity
  8
MST_1_1
 62
   137
  6
CONTINUOUS
100
AcDbLine
 10
12.02299076
 20
-202.84312118
 30
2500.0
 11
13.99581933
 21
-202.84312118
 31
2500.0
  0
LINE
  5
1B4
100
AcDbEntity
  8
MST_1_1
 62
   137
  6
CONTINUOUS
100
AcDbLine
 10
12.70892454
 20
-200.06597832
 30
2500.0
 11
10.73609597
 21
-200.06597832
 31
2500.0
  0
LINE
  5
1B5
100
AcDbEntity
  8
MST_1_1
 62
   137
  6
CONTINUOUS
100
AcDbLine
 10
-2.06250403
 20
-231.45454975
 30
0.0
 11
-2.06250403
 21
-226.95454975
 31
0.0
  0
LINE
  5
1B6
100
AcDbEntity
  8
MST_1_1
 62
   137
  6
CONTINUOUS
100
AcDbLine
 10
-2.06250403
 20
-226.95454975
 30
0.0
 11
-1.96250406
 21
-226.95454975
 31
0.0
  0
LWPOLYLINE
  5
1B7
100
AcDbEntity
  8
MST_1_1
 62
   137
  6
CONTINUOUS
100
AcDbPolyline
 90
        6
 70
     0
 43
0.0
 38
2500.0
 10
5.05120591
 20
-229.20454959
 10
4.85178168
 20
-230.06597832
 10
6.53785218
 20
-233.70454975
 10
6.73727648
 20
-232.84312118
 10
5.05120591
 20
-229.20454959
 10
6.53785218
 20
-233.70454975
  0
LINE
  5
1B8
100
AcDbEntity
  8
MST_1_1
 62
   137
  6
CONTINUOUS
100
AcDbLine
 10
0.63749597
 20
-230.06597832
 30
2500.0
 11
4.85178168
 21
-230.06597832
 31
2500.0
  0
LWPOLYLINE
  5
1B9
100
AcDbEntity
  8
MST_1_1
 62
   137
  6
CONTINUOUS
100
AcDbPolyline
 90
        4
 70
     0
 43
0.0
 38
2500.0
 10
3.56724791
 20
-232.84312118
 10
3.96642361
 20
-233.70454975
 10
4.1658479
 20
-232.84312118
 10
3.86672581
 20
-232.19761015
  0
LINE
  5
1BA
100
AcDbEntity
  8
MST_1_1
 62
   137
  6
CONTINUOUS
100
AcDbLine
 10
3.63417735
 20
-232.69885779
 30
2500.0
 11
3.96642361
 21
-233.70454975
 31
2500.0
  0
LINE
  5
1BB
100
AcDbEntity
  8
MST_1_1
 62
   137
  6
CONTINUOUS
100
AcDbLine
 10
3.56724791
 20
-232.84312118
 30
2500.0
 11
3.86672581
 21
-232.19761015
 31
2500.0
  0
LINE
  5
1BC
100
AcDbEntity
  8
MST_1_1
 62
   137
  6
CONTINUOUS
100
AcDbLine
 10
6.13867648
 20
-232.84312118
 30
2500.0
 11
4.1658479
 21
-232.84312118
 31
2500.0
  0
LINE
  5
1BD
100
AcDbEntity
  8
MST_1_1
 62
   137
  6
CONTINUOUS
100
AcDbLine
 10
3.63417735
 20
-232.69885779
 30
2500.0
 11
0.63749597
 21
-232.84312118
 31
2500.0
  0
LINE
  5
1BE
100
AcDbEntity
  8
MST_1_1
 62
   137
  6
CONTINUOUS
100
AcDbLine
 10
-1.96250406
 20
-226.95454975
 30
0.0
 11
0.63749597
 21
-230.06597832
 31
0.0
  0
LINE
  5
1BF
100
AcDbEntity
  8
MST_1_1
 62
   137
  6
CONTINUOUS
100
AcDbLine
 10
0.63749597
 20
-232.84312118
 30
0.0
 11
-1.96250406
 21
-235.95454975
 31
0.0
  0
LINE
  5
1C0
100
AcDbEntity
  8
MST_1_1
 62
   137
  6
CONTINUOUS
100
AcDbLine
 10
-1.96250406
 20
-235.95454975
 30
0.0
 11
-2.06250403
 21
-235.95454975
 31
0.0
  0
LINE
  5
1C1
100
AcDbEntity
  8
MST_1_1
 62
   137
  6
CONTINUOUS
100
AcDbLine
 10
-2.06250403
 20
-235.95454975
 30
0.0
 11
-2.06250403
 21
-231.45454975
 31
0.0
  0
LWPOLYLINE
  5
1C2
100
AcDbEntity
  8
MST_1_1
 62
   137
  6
CONTINUOUS
100
AcDbPolyline
 90
        6
 70
     0
 43
0.0
 38
2500.0
 10
7.62263448
 20
-229.20454959
 10
7.42321025
 20
-230.06597832
 10
9.10928075
 20
-233.70454975
 10
9.30870505
 20
-232.84312118
 10
7.62263448
 20
-229.20454959
 10
9.10928075
 20
-233.70454975
  0
LWPOLYLINE
  5
1C3
100
AcDbEntity
  8
MST_1_1
 62
   137
  6
CONTINUOUS
100
AcDbPolyline
 90
        6
 70
     0
 43
0.0
 38
2500.0
 10
10.19406305
 20
-229.20454959
 10
9.99463883
 20
-230.06597832
 10
11.68070932
 20
-233.70454975
 10
11.88013362
 20
-232.84312118
 10
10.19406305
 20
-229.20454959
 10
11.68070932
 20
-233.70454975
  0
LWPOLYLINE
  5
1C4
100
AcDbEntity
  8
MST_1_1
 62
   137
  6
CONTINUOUS
100
AcDbPolyline
 90
        6
 70
     0
 43
0.0
 38
2500.0
 10
43.62263448
 20
-229.20454959
 10
43.42321025
 20
-230.06597832
 10
45.10928075
 20
-233.70454975
 10
45.27832031
 20
-232.77755034
 10
43.62263448
 20
-229.20454959
 10
45.10928075
 20
-233.70454975
  0
LWPOLYLINE
  5
1C5
100
AcDbEntity
  8
MST_1_1
 62
   137
  6
CONTINUOUS
100
AcDbPolyline
 90
        6
 70
     0
 43
0.0
 38
2500.0
 10
46.15617245
 20
-229.49729301
 10
45.99463883
 20
-230.19505028
 10
47.38702553
 20
-233.19984664
 10
47.54855916
 20
-232.50208937
 10
46.15617245
 20
-229.49729301
 10
47.36035593
 20
-233.14229314
  0
LINE
  5
1C6
100
AcDbEntity
  8
MST_1_1
 62
   137
  6
CONTINUOUS
100
AcDbLine
 10
6.73727648
 20
-232.84312118
 30
2500.0
 11
8.71010505
 21
-232.84312118
 31
2500.0
  0
LINE
  5
1C7
100
AcDbEntity
  8
MST_1_1
 62
   137
  6
CONTINUOUS
100
AcDbLine
 10
9.30870505
 20
-232.84312118
 30
2500.0
 11
11.28153362
 21
-232.84312118
 31
2500.0
  0
LINE
  5
1C8
100
AcDbEntity
  8
MST_1_1
 62
   137
  6
CONTINUOUS
100
AcDbLine
 10
42.73727648
 20
-232.84312118
 30
2500.0
 11
44.02444527
 21
-232.83743476
 31
2500.0
  0
LINE
  5
1C9
100
AcDbEntity
  8
MST_1_1
 62
   137
  6
CONTINUOUS
100
AcDbLine
 10
7.42321025
 20
-230.06597832
 30
2500.0
 11
5.45038168
 21
-230.06597832
 31
2500.0
  0
LINE
  5
1CA
100
AcDbEntity
  8
MST_1_1
 62
   137
  6
CONTINUOUS
100
AcDbLine
 10
9.99463883
 20
-230.06597832
 30
2500.0
 11
8.02181025
 21
-230.06597832
 31
2500.0
  0
LINE
  5
1CB
100
AcDbEntity
  8
MST_1_1
 62
   137
  6
CONTINUOUS
100
AcDbLine
 10
43.42321025
 20
-230.06597832
 30
2500.0
 11
41.45038168
 21
-230.06597832
 31
2500.0
  0
ARC
  5
1CC
100
AcDbEntity
  8
MST_1_1
 62
   137
  6
CONTINUOUS
100
AcDbCircle
 10
43.49439771
 20
-254.32685365
 30
2500.0
 40
24.26097977
100
AcDbArc
 50
84.08482032
 51
88.74811714
  0
LWPOLYLINE
  5
1CD
100
AcDbEntity
  8
MST_1_1
 62
   137
  6
CONTINUOUS
100
AcDbPolyline
 90
        3
 70
     0
 43
0.0
 38
2500.0
 10
52.93749597
 20
-231.45454975
 10
48.15808505
 20
-230.51834341
 42
0.01723995
 10
46.50663588
 20
-230.2535996
  0
ARC
  5
1CE
100
AcDbEntity
  8
MST_1_1
 62
   137
  6
CONTINUOUS
100
AcDbCircle
 10
43.49439771
 20
-208.58224585
 30
2500.0
 40
24.26097977
100
AcDbArc
 50
271.25189287
 51
272.83975061
  0
LWPOLYLINE
  5
1CF
100
AcDbEntity
  8
MST_1_1
 62
   137
  6
CONTINUOUS
100
AcDbPolyline
 90
        3
 70
     0
 43
0.0
 38
2500.0
 10
52.93749597
 20
-231.45454975
 10
48.15808505
 20
-232.39075609
 42
-0.0063851
 10
47.54855916
 20
-232.50208937
  0
ARC
  5
1D0
100
AcDbEntity
  8
MST_1_1
 62
   137
  6
CONTINUOUS
100
AcDbCircle
 10
43.49439771
 20
-208.58224585
 30
2500.0
 40
24.26097977
100
AcDbArc
 50
274.21680449
 51
278.53995004
  0
LWPOLYLINE
  5
1D1
100
AcDbEntity
  8
MST_1_1
 62
   137
  6
CONTINUOUS
100
AcDbPolyline
 90
        6
 70
     0
 43
0.0
 38
2500.0
 10
48.67267959
 20
-230.1377405
 10
48.5660674
 20
-230.5982603
 10
49.48504262
 20
-232.5814259
 10
49.58699776
 20
-232.11085608
 10
48.67267959
 20
-230.1377405
 10
49.46744068
 20
-232.54344059
  0
LWPOLYLINE
  5
1D2
100
AcDbEntity
  8
MST_1_1
 62
   137
  6
CONTINUOUS
100
AcDbPolyline
 90
        6
 70
     0
 43
0.0
 38
2500.0
 10
15.3369202
 20
-229.20454959
 10
15.13749597
 20
-230.06597832
 10
16.82356646
 20
-233.70454975
 10
17.02299076
 20
-232.84312118
 10
15.3369202
 20
-229.20454959
 10
16.82356646
 20
-233.70454975
  0
LWPOLYLINE
  5
1D3
100
AcDbEntity
  8
MST_1_1
 62
   137
  6
CONTINUOUS
100
AcDbPolyline
 90
        6
 70
     0
 43
0.0
 38
2500.0
 10
41.05120591
 20
-229.20454959
 10
40.85178168
 20
-230.06597832
 10
42.53785218
 20
-233.70454975
 10
42.73727648
 20
-232.84312118
 10
41.05120591
 20
-229.20454959
 10
42.53785218
 20
-233.70454975
  0
LINE
  5
1D4
100
AcDbEntity
  8
MST_1_1
 62
   137
  6
CONTINUOUS
100
AcDbLine
 10
14.45156219
 20
-232.84312118
 30
2500.0
 11
16.42439076
 21
-232.84312118
 31
2500.0
  0
LINE
  5
1D5
100
AcDbEntity
  8
MST_1_1
 62
   137
  6
CONTINUOUS
100
AcDbLine
 10
40.1658479
 20
-232.84312118
 30
2500.0
 11
42.13867648
 21
-232.84312118
 31
2500.0
  0
LINE
  5
1D6
100
AcDbEntity
  8
MST_1_1
 62
   137
  6
CONTINUOUS
100
AcDbLine
 10
15.13749597
 20
-230.06597832
 30
2500.0
 11
13.1646674
 21
-230.06597832
 31
2500.0
  0
LINE
  5
1D7
100
AcDbEntity
  8
MST_1_1
 62
   137
  6
CONTINUOUS
100
AcDbLine
 10
40.85178168
 20
-230.06597832
 30
2500.0
 11
38.87895311
 21
-230.06597832
 31
2500.0
  0
LWPOLYLINE
  5
1D8
100
AcDbEntity
  8
MST_1_1
 62
   137
  6
CONTINUOUS
100
AcDbPolyline
 90
        6
 70
     0
 43
0.0
 38
2500.0
 10
12.76549162
 20
-229.20454959
 10
12.5660674
 20
-230.06597832
 10
14.25213789
 20
-233.70454975
 10
14.45156219
 20
-232.84312118
 10
12.76549162
 20
-229.20454959
 10
14.25213789
 20
-233.70454975
  0
LINE
  5
1D9
100
AcDbEntity
  8
MST_1_1
 62
   137
  6
CONTINUOUS
100
AcDbLine
 10
11.88013362
 20
-232.84312118
 30
2500.0
 11
13.85296219
 21
-232.84312118
 31
2500.0
  0
LINE
  5
1DA
100
AcDbEntity
  8
MST_1_1
 62
   137
  6
CONTINUOUS
100
AcDbLine
 10
12.5660674
 20
-230.06597832
 30
2500.0
 11
10.59323882
 21
-230.06597832
 31
2500.0
  0
LINE
  5
1DB
100
AcDbEntity
  8
MST_1_1
 62
   137
  6
CONTINUOUS
100
AcDbLine
 10
-2.06250403
 20
-261.45454975
 30
0.0
 11
-2.06250403
 21
-256.95454975
 31
0.0
  0
LINE
  5
1DC
100
AcDbEntity
  8
MST_1_1
 62
   137
  6
CONTINUOUS
100
AcDbLine
 10
-2.06250403
 20
-256.95454975
 30
0.0
 11
-1.96250406
 21
-256.95454975
 31
0.0
  0
LWPOLYLINE
  5
1DD
100
AcDbEntity
  8
MST_1_1
 62
   137
  6
CONTINUOUS
100
AcDbPolyline
 90
        6
 70
     0
 43
0.0
 38
2500.0
 10
2.3369202
 20
-259.20454959
 10
2.13749597
 20
-260.06597832
 10
3.82356646
 20
-263.70454975
 10
4.02299076
 20
-262.84312118
 10
2.3369202
 20
-259.20454959
 10
3.82356646
 20
-263.70454975
  0
LINE
  5
1DE
100
AcDbEntity
  8
MST_1_1
 62
   137
  6
CONTINUOUS
100
AcDbLine
 10
0.63749597
 20
-260.06597832
 30
2500.0
 11
2.13749597
 21
-260.06597832
 31
2500.0
  0
LWPOLYLINE
  5
1DF
100
AcDbEntity
  8
MST_1_1
 62
   137
  6
CONTINUOUS
100
AcDbPolyline
 90
        4
 70
     0
 43
0.0
 38
2500.0
 10
0.85296219
 20
-262.84312118
 10
1.25213789
 20
-263.70454975
 10
1.45156219
 20
-262.84312118
 10
1.1524401
 20
-262.19761015
  0
LINE
  5
1E0
100
AcDbEntity
  8
MST_1_1
 62
   137
  6
CONTINUOUS
100
AcDbLine
 10
0.91989164
 20
-262.69885779
 30
2500.0
 11
1.25213789
 21
-263.70454975
 31
2500.0
  0
LINE
  5
1E1
100
AcDbEntity
  8
MST_1_1
 62
   137
  6
CONTINUOUS
100
AcDbLine
 10
0.85296219
 20
-262.84312118
 30
2500.0
 11
1.1524401
 21
-262.19761015
 31
2500.0
  0
LINE
  5
1E2
100
AcDbEntity
  8
MST_1_1
 62
   137
  6
CONTINUOUS
100
AcDbLine
 10
3.42439076
 20
-262.84312118
 30
2500.0
 11
1.45156219
 21
-262.84312118
 31
2500.0
  0
LINE
  5
1E3
100
AcDbEntity
  8
MST_1_1
 62
   137
  6
CONTINUOUS
100
AcDbLine
 10
0.85296219
 20
-262.84312118
 30
2500.0
 11
0.63749597
 21
-262.84312118
 31
2500.0
  0
LINE
  5
1E4
100
AcDbEntity
  8
MST_1_1
 62
   137
  6
CONTINUOUS
100
AcDbLine
 10
-1.96250406
 20
-256.95454975
 30
0.0
 11
0.63749597
 21
-260.06597832
 31
0.0
  0
LINE
  5
1E5
100
AcDbEntity
  8
MST_1_1
 62
   137
  6
CONTINUOUS
100
AcDbLine
 10
0.63749597
 20
-262.84312118
 30
0.0
 11
-1.96250406
 21
-265.95454975
 31
0.0
  0
LINE
  5
1E6
100
AcDbEntity
  8
MST_1_1
 62
   137
  6
CONTINUOUS
100
AcDbLine
 10
-1.96250406
 20
-265.95454975
 30
0.0
 11
-2.06250403
 21
-265.95454975
 31
0.0
  0
LINE
  5
1E7
100
AcDbEntity
  8
MST_1_1
 62
   137
  6
CONTINUOUS
100
AcDbLine
 10
-2.06250403
 20
-265.95454975
 30
0.0
 11
-2.06250403
 21
-261.45454975
 31
0.0
  0
LWPOLYLINE
  5
1E8
100
AcDbEntity
  8
MST_1_1
 62
   137
  6
CONTINUOUS
100
AcDbPolyline
 90
        6
 70
     0
 43
0.0
 38
2500.0
 10
4.90834877
 20
-259.20454959
 10
4.70892454
 20
-260.06597832
 10
6.39499503
 20
-263.70454975
 10
6.59441933
 20
-262.84312118
 10
4.90834877
 20
-259.20454959
 10
6.39499503
 20
-263.70454975
  0
LWPOLYLINE
  5
1E9
100
AcDbEntity
  8
MST_1_1
 62
   137
  6
CONTINUOUS
100
AcDbPolyline
 90
        6
 70
     0
 43
0.0
 38
2500.0
 10
7.47977734
 20
-259.20454959
 10
7.28035311
 20
-260.06597832
 10
8.96642361
 20
-263.70454975
 10
9.1658479
 20
-262.84312118
 10
7.47977734
 20
-259.20454959
 10
8.96642361
 20
-263.70454975
  0
LWPOLYLINE
  5
1EA
100
AcDbEntity
  8
MST_1_1
 62
   137
  6
CONTINUOUS
100
AcDbPolyline
 90
        6
 70
     0
 43
0.0
 38
2500.0
 10
48.62263448
 20
-259.20454959
 10
48.42321025
 20
-260.06597832
 10
50.10928075
 20
-263.70454975
 10
50.27832031
 20
-262.77755034
 10
48.62263448
 20
-259.20454959
 10
50.10928075
 20
-263.70454975
  0
LWPOLYLINE
  5
1EB
100
AcDbEntity
  8
MST_1_1
 62
   137
  6
CONTINUOUS
100
AcDbPolyline
 90
        6
 70
     0
 43
0.0
 38
2500.0
 10
51.15617245
 20
-259.49729301
 10
50.99463883
 20
-260.19505028
 10
52.38702553
 20
-263.19984664
 10
52.54855916
 20
-262.50208937
 10
51.15617245
 20
-259.49729301
 10
52.36035593
 20
-263.14229314
  0
LINE
  5
1EC
100
AcDbEntity
  8
MST_1_1
 62
   137
  6
CONTINUOUS
100
AcDbLine
 10
4.02299076
 20
-262.84312118
 30
2500.0
 11
5.99581933
 21
-262.84312118
 31
2500.0
  0
LINE
  5
1ED
100
AcDbEntity
  8
MST_1_1
 62
   137
  6
CONTINUOUS
100
AcDbLine
 10
6.59441933
 20
-262.84312118
 30
2500.0
 11
8.56724791
 21
-262.84312118
 31
2500.0
  0
LINE
  5
1EE
100
AcDbEntity
  8
MST_1_1
 62
   137
  6
CONTINUOUS
100
AcDbLine
 10
47.73727648
 20
-262.84312118
 30
2500.0
 11
49.02444527
 21
-262.83743476
 31
2500.0
  0
LINE
  5
1EF
100
AcDbEntity
  8
MST_1_1
 62
   137
  6
CONTINUOUS
100
AcDbLine
 10
4.70892454
 20
-260.06597832
 30
2500.0
 11
2.73609597
 21
-260.06597832
 31
2500.0
  0
LINE
  5
1F0
100
AcDbEntity
  8
MST_1_1
 62
   137
  6
CONTINUOUS
100
AcDbLine
 10
7.28035311
 20
-260.06597832
 30
2500.0
 11
5.30752454
 21
-260.06597832
 31
2500.0
  0
LINE
  5
1F1
100
AcDbEntity
  8
MST_1_1
 62
   137
  6
CONTINUOUS
100
AcDbLine
 10
48.42321025
 20
-260.06597832
 30
2500.0
 11
46.45038168
 21
-260.06597832
 31
2500.0
  0
ARC
  5
1F2
100
AcDbEntity
  8
MST_1_1
 62
   137
  6
CONTINUOUS
100
AcDbCircle
 10
48.49439771
 20
-284.32685365
 30
2500.0
 40
24.26097977
100
AcDbArc
 50
84.08482032
 51
88.74811714
  0
LWPOLYLINE
  5
1F3
100
AcDbEntity
  8
MST_1_1
 62
   137
  6
CONTINUOUS
100
AcDbPolyline
 90
        3
 70
     0
 43
0.0
 38
2500.0
 10
57.93749597
 20
-261.45454975
 10
53.15808505
 20
-260.51834341
 42
0.01723995
 10
51.50663588
 20
-260.2535996
  0
ARC
  5
1F4
100
AcDbEntity
  8
MST_1_1
 62
   137
  6
CONTINUOUS
100
AcDbCircle
 10
48.49439771
 20
-238.58224585
 30
2500.0
 40
24.26097977
100
AcDbArc
 50
271.25189287
 51
272.83975061
  0
LWPOLYLINE
  5
1F5
100
AcDbEntity
  8
MST_1_1
 62
   137
  6
CONTINUOUS
100
AcDbPolyline
 90
        3
 70
     0
 43
0.0
 38
2500.0
 10
57.93749597
 20
-261.45454975
 10
53.15808505
 20
-262.39075609
 42
-0.0063851
 10
52.54855916
 20
-262.50208937
  0
ARC
  5
1F6
100
AcDbEntity
  8
MST_1_1
 62
   137
  6
CONTINUOUS
100
AcDbCircle
 10
48.49439771
 20
-238.58224585
 30
2500.0
 40
24.26097977
100
AcDbArc
 50
274.21680449
 51
278.53995004
  0
LWPOLYLINE
  5
1F7
100
AcDbEntity
  8
MST_1_1
 62
   137
  6
CONTINUOUS
100
AcDbPolyline
 90
        6
 70
     0
 43
0.0
 38
2500.0
 10
53.67267959
 20
-260.1377405
 10
53.5660674
 20
-260.5982603
 10
54.48504262
 20
-262.5814259
 10
54.58699776
 20
-262.11085608
 10
53.67267959
 20
-260.1377405
 10
54.46744068
 20
-262.54344059
  0
LWPOLYLINE
  5
1F8
100
AcDbEntity
  8
MST_1_1
 62
   137
  6
CONTINUOUS
100
AcDbPolyline
 90
        6
 70
     0
 43
0.0
 38
2500.0
 10
12.62263448
 20
-259.20454959
 10
12.42321025
 20
-260.06597832
 10
14.10928075
 20
-263.70454975
 10
14.30870505
 20
-262.84312118
 10
12.62263448
 20
-259.20454959
 10
14.10928075
 20
-263.70454975
  0
LWPOLYLINE
  5
1F9
100
AcDbEntity
  8
MST_1_1
 62
   137
  6
CONTINUOUS
100
AcDbPolyline
 90
        6
 70
     0
 43
0.0
 38
2500.0
 10
46.05120591
 20
-259.20454959
 10
45.85178168
 20
-260.06597832
 10
47.53785218
 20
-263.70454975
 10
47.73727648
 20
-262.84312118
 10
46.05120591
 20
-259.20454959
 10
47.53785218
 20
-263.70454975
  0
LINE
  5
1FA
100
AcDbEntity
  8
MST_1_1
 62
   137
  6
CONTINUOUS
100
AcDbLine
 10
11.73727648
 20
-262.84312118
 30
2500.0
 11
13.71010505
 21
-262.84312118
 31
2500.0
  0
LINE
  5
1FB
100
AcDbEntity
  8
MST_1_1
 62
   137
  6
CONTINUOUS
100
AcDbLine
 10
45.1658479
 20
-262.84312118
 30
2500.0
 11
47.13867648
 21
-262.84312118
 31
2500.0
  0
LINE
  5
1FC
100
AcDbEntity
  8
MST_1_1
 62
   137
  6
CONTINUOUS
100
AcDbLine
 10
12.42321025
 20
-260.06597832
 30
2500.0
 11
10.45038168
 21
-260.06597832
 31
2500.0
  0
LINE
  5
1FD
100
AcDbEntity
  8
MST_1_1
 62
   137
  6
CONTINUOUS
100
AcDbLine
 10
45.85178168
 20
-260.06597832
 30
2500.0
 11
43.87895311
 21
-260.06597832
 31
2500.0
  0
LWPOLYLINE
  5
1FE
100
AcDbEntity
  8
MST_1_1
 62
   137
  6
CONTINUOUS
100
AcDbPolyline
 90
        6
 70
     0
 43
0.0
 38
2500.0
 10
10.05120591
 20
-259.20454959
 10
9.85178168
 20
-260.06597832
 10
11.53785218
 20
-263.70454975
 10
11.73727648
 20
-262.84312118
 10
10.05120591
 20
-259.20454959
 10
11.53785218
 20
-263.70454975
  0
LINE
  5
1FF
100
AcDbEntity
  8
MST_1_1
 62
   137
  6
CONTINUOUS
100
AcDbLine
 10
9.1658479
 20
-262.84312118
 30
2500.0
 11
11.13867648
 21
-262.84312118
 31
2500.0
  0
LINE
  5
200
100
AcDbEntity
  8
MST_1_1
 62
   137
  6
CONTINUOUS
100
AcDbLine
 10
9.85178168
 20
-260.06597832
 30
2500.0
 11
7.87895311
 21
-260.06597832
 31
2500.0
  0
LWPOLYLINE
  5
201
100
AcDbEntity
  8
MST_1_1
 62
   137
  6
CONTINUOUS
100
AcDbPolyline
 90
        6
 70
     0
 43
0.0
 38
2500.0
 10
2.05120591
 20
10.79545041
 10
1.85178168
 20
9.93402168
 10
3.53785218
 20
6.29545025
 10
3.73727648
 20
7.15687882
 10
2.05120591
 20
10.79545041
 10
3.53785218
 20
6.29545025
  0
LINE
  5
202
100
AcDbEntity
  8
MST_1_1
 62
   137
  6
CONTINUOUS
100
AcDbLine
 10
2.45038168
 20
9.93402168
 30
2500.0
 11
4.42321025
 21
9.93402168
 31
2500.0
  0
LWPOLYLINE
  5
203
100
AcDbEntity
  8
MST_1_1
 62
   137
  6
CONTINUOUS
100
AcDbPolyline
 90
        6
 70
     0
 43
0.0
 38
2500.0
 10
6.05120591
 20
-19.20454959
 10
5.85178168
 20
-20.06597832
 10
7.53785218
 20
-23.70454975
 10
7.73727648
 20
-22.84312118
 10
6.05120591
 20
-19.20454959
 10
7.53785218
 20
-23.70454975
  0
LINE
  5
204
100
AcDbEntity
  8
MST_1_1
 62
   137
  6
CONTINUOUS
100
AcDbLine
 10
5.1658479
 20
-22.84312118
 30
2500.0
 11
7.13867648
 21
-22.84312118
 31
2500.0
  0
LINE
  5
205
100
AcDbEntity
  8
MST_1_1
 62
   137
  6
CONTINUOUS
100
AcDbLine
 10
5.85178168
 20
-20.06597832
 30
2500.0
 11
3.87895311
 21
-20.06597832
 31
2500.0
  0
LWPOLYLINE
  5
206
100
AcDbEntity
  8
MST_1_1
 62
   137
  6
CONTINUOUS
100
AcDbPolyline
 90
        6
 70
     0
 43
0.0
 38
2500.0
 10
18.47977734
 20
-109.20454959
 10
18.28035311
 20
-110.06597832
 10
19.96642361
 20
-113.70454975
 10
20.1658479
 20
-112.84312118
 10
18.47977734
 20
-109.20454959
 10
19.96642361
 20
-113.70454975
  0
LINE
  5
207
100
AcDbEntity
  8
MST_1_1
 62
   137
  6
CONTINUOUS
100
AcDbLine
 10
17.59441933
 20
-112.84312118
 30
2500.0
 11
19.56724791
 21
-112.84312118
 31
2500.0
  0
LINE
  5
208
100
AcDbEntity
  8
MST_1_1
 62
   137
  6
CONTINUOUS
100
AcDbLine
 10
18.28035311
 20
-110.06597832
 30
2500.0
 11
16.30752454
 21
-110.06597832
 31
2500.0
  0
LWPOLYLINE
  5
209
100
AcDbEntity
  8
MST_1_1
 62
   137
  6
CONTINUOUS
100
AcDbPolyline
 90
        6
 70
     0
 43
0.0
 38
2500.0
 10
15.90834877
 20
-109.20454959
 10
15.70892454
 20
-110.06597832
 10
17.39499503
 20
-113.70454975
 10
17.59441933
 20
-112.84312118
 10
15.90834877
 20
-109.20454959
 10
17.39499503
 20
-113.70454975
  0
LINE
  5
20A
100
AcDbEntity
  8
MST_1_1
 62
   137
  6
CONTINUOUS
100
AcDbLine
 10
15.02299076
 20
-112.84312118
 30
2500.0
 11
16.99581933
 21
-112.84312118
 31
2500.0
  0
LINE
  5
20B
100
AcDbEntity
  8
MST_1_1
 62
   137
  6
CONTINUOUS
100
AcDbLine
 10
15.70892454
 20
-110.06597832
 30
2500.0
 11
13.73609597
 21
-110.06597832
 31
2500.0
  0
LWPOLYLINE
  5
20C
100
AcDbEntity
  8
MST_1_1
 62
   137
  6
CONTINUOUS
100
AcDbPolyline
 90
        6
 70
     0
 43
0.0
 38
2500.0
 10
18.3369202
 20
-139.20454959
 10
18.13749597
 20
-140.06597832
 10
19.82356646
 20
-143.70454975
 10
20.02299076
 20
-142.84312118
 10
18.3369202
 20
-139.20454959
 10
19.82356646
 20
-143.70454975
  0
LINE
  5
20D
100
AcDbEntity
  8
MST_1_1
 62
   137
  6
CONTINUOUS
100
AcDbLine
 10
17.45156219
 20
-142.84312118
 30
2500.0
 11
19.42439076
 21
-142.84312118
 31
2500.0
  0
LINE
  5
20E
100
AcDbEntity
  8
MST_1_1
 62
   137
  6
CONTINUOUS
100
AcDbLine
 10
18.13749597
 20
-140.06597832
 30
2500.0
 11
16.1646674
 21
-140.06597832
 31
2500.0
  0
LWPOLYLINE
  5
20F
100
AcDbEntity
  8
MST_1_1
 62
   137
  6
CONTINUOUS
100
AcDbPolyline
 90
        6
 70
     0
 43
0.0
 38
2500.0
 10
23.47977734
 20
-139.20454959
 10
23.28035311
 20
-140.06597832
 10
24.96642361
 20
-143.70454975
 10
25.1658479
 20
-142.84312118
 10
23.47977734
 20
-139.20454959
 10
24.96642361
 20
-143.70454975
  0
LINE
  5
210
100
AcDbEntity
  8
MST_1_1
 62
   137
  6
CONTINUOUS
100
AcDbLine
 10
22.59441933
 20
-142.84312118
 30
2500.0
 11
24.56724791
 21
-142.84312118
 31
2500.0
  0
LINE
  5
211
100
AcDbEntity
  8
MST_1_1
 62
   137
  6
CONTINUOUS
100
AcDbLine
 10
23.28035311
 20
-140.06597832
 30
2500.0
 11
21.30752454
 21
-140.06597832
 31
2500.0
  0
LWPOLYLINE
  5
212
100
AcDbEntity
  8
MST_1_1
 62
   137
  6
CONTINUOUS
100
AcDbPolyline
 90
        6
 70
     0
 43
0.0
 38
2500.0
 10
20.90834877
 20
-139.20454959
 10
20.70892454
 20
-140.06597832
 10
22.39499503
 20
-143.70454975
 10
22.59441933
 20
-142.84312118
 10
20.90834877
 20
-139.20454959
 10
22.39499503
 20
-143.70454975
  0
LINE
  5
213
100
AcDbEntity
  8
MST_1_1
 62
   137
  6
CONTINUOUS
100
AcDbLine
 10
20.02299076
 20
-142.84312118
 30
2500.0
 11
21.99581933
 21
-142.84312118
 31
2500.0
  0
LINE
  5
214
100
AcDbEntity
  8
MST_1_1
 62
   137
  6
CONTINUOUS
100
AcDbLine
 10
20.70892454
 20
-140.06597832
 30
2500.0
 11
18.73609597
 21
-140.06597832
 31
2500.0
  0
LWPOLYLINE
  5
215
100
AcDbEntity
  8
MST_1_1
 62
   137
  6
CONTINUOUS
100
AcDbPolyline
 90
        6
 70
     0
 43
0.0
 38
2500.0
 10
15.76549162
 20
-139.20454959
 10
15.5660674
 20
-140.06597832
 10
17.25213789
 20
-143.70454975
 10
17.45156219
 20
-142.84312118
 10
15.76549162
 20
-139.20454959
 10
17.25213789
 20
-143.70454975
  0
LINE
  5
216
100
AcDbEntity
  8
MST_1_1
 62
   137
  6
CONTINUOUS
100
AcDbLine
 10
14.88013362
 20
-142.84312118
 30
2500.0
 11
16.85296219
 21
-142.84312118
 31
2500.0
  0
LINE
  5
217
100
AcDbEntity
  8
MST_1_1
 62
   137
  6
CONTINUOUS
100
AcDbLine
 10
15.5660674
 20
-140.06597832
 30
2500.0
 11
13.59323882
 21
-140.06597832
 31
2500.0
  0
LWPOLYLINE
  5
218
100
AcDbEntity
  8
MST_1_1
 62
   137
  6
CONTINUOUS
100
AcDbPolyline
 90
        6
 70
     0
 43
0.0
 38
2500.0
 10
20.76549162
 20
-169.20454959
 10
20.5660674
 20
-170.06597832
 10
22.25213789
 20
-173.70454975
 10
22.45156219
 20
-172.84312118
 10
20.76549162
 20
-169.20454959
 10
22.25213789
 20
-173.70454975
  0
LWPOLYLINE
  5
219
100
AcDbEntity
  8
MST_1_1
 62
   137
  6
CONTINUOUS
100
AcDbPolyline
 90
        6
 70
     0
 43
0.0
 38
2500.0
 10
23.3369202
 20
-169.20454959
 10
23.13749597
 20
-170.06597832
 10
24.82356646
 20
-173.70454975
 10
25.02299076
 20
-172.84312118
 10
23.3369202
 20
-169.20454959
 10
24.82356646
 20
-173.70454975
  0
LINE
  5
21A
100
AcDbEntity
  8
MST_1_1
 62
   137
  6
CONTINUOUS
100
AcDbLine
 10
19.88013362
 20
-172.84312118
 30
2500.0
 11
21.85296219
 21
-172.84312118
 31
2500.0
  0
LINE
  5
21B
100
AcDbEntity
  8
MST_1_1
 62
   137
  6
CONTINUOUS
100
AcDbLine
 10
22.45156219
 20
-172.84312118
 30
2500.0
 11
24.42439076
 21
-172.84312118
 31
2500.0
  0
LINE
  5
21C
100
AcDbEntity
  8
MST_1_1
 62
   137
  6
CONTINUOUS
100
AcDbLine
 10
20.5660674
 20
-170.06597832
 30
2500.0
 11
18.59323882
 21
-170.06597832
 31
2500.0
  0
LINE
  5
21D
100
AcDbEntity
  8
MST_1_1
 62
   137
  6
CONTINUOUS
100
AcDbLine
 10
23.13749597
 20
-170.06597832
 30
2500.0
 11
21.1646674
 21
-170.06597832
 31
2500.0
  0
LWPOLYLINE
  5
21E
100
AcDbEntity
  8
MST_1_1
 62
   137
  6
CONTINUOUS
100
AcDbPolyline
 90
        6
 70
     0
 43
0.0
 38
2500.0
 10
28.47977734
 20
-169.20454959
 10
28.28035311
 20
-170.06597832
 10
29.96642361
 20
-173.70454975
 10
30.1658479
 20
-172.84312118
 10
28.47977734
 20
-169.20454959
 10
29.96642361
 20
-173.70454975
  0
LINE
  5
21F
100
AcDbEntity
  8
MST_1_1
 62
   137
  6
CONTINUOUS
100
AcDbLine
 10
27.59441933
 20
-172.84312118
 30
2500.0
 11
29.56724791
 21
-172.84312118
 31
2500.0
  0
LINE
  5
220
100
AcDbEntity
  8
MST_1_1
 62
   137
  6
CONTINUOUS
100
AcDbLine
 10
28.28035311
 20
-170.06597832
 30
2500.0
 11
26.30752454
 21
-170.06597832
 31
2500.0
  0
LWPOLYLINE
  5
221
100
AcDbEntity
  8
MST_1_1
 62
   137
  6
CONTINUOUS
100
AcDbPolyline
 90
        6
 70
     0
 43
0.0
 38
2500.0
 10
25.90834877
 20
-169.20454959
 10
25.70892454
 20
-170.06597832
 10
27.39499503
 20
-173.70454975
 10
27.59441933
 20
-172.84312118
 10
25.90834877
 20
-169.20454959
 10
27.39499503
 20
-173.70454975
  0
LINE
  5
222
100
AcDbEntity
  8
MST_1_1
 62
   137
  6
CONTINUOUS
100
AcDbLine
 10
25.02299076
 20
-172.84312118
 30
2500.0
 11
26.99581933
 21
-172.84312118
 31
2500.0
  0
LINE
  5
223
100
AcDbEntity
  8
MST_1_1
 62
   137
  6
CONTINUOUS
100
AcDbLine
 10
25.70892454
 20
-170.06597832
 30
2500.0
 11
23.73609597
 21
-170.06597832
 31
2500.0
  0
LWPOLYLINE
  5
224
100
AcDbEntity
  8
MST_1_1
 62
   137
  6
CONTINUOUS
100
AcDbPolyline
 90
        6
 70
     0
 43
0.0
 38
2500.0
 10
15.62263448
 20
-169.20454959
 10
15.42321025
 20
-170.06597832
 10
17.10928075
 20
-173.70454975
 10
17.30870505
 20
-172.84312118
 10
15.62263448
 20
-169.20454959
 10
17.10928075
 20
-173.70454975
  0
LWPOLYLINE
  5
225
100
AcDbEntity
  8
MST_1_1
 62
   137
  6
CONTINUOUS
100
AcDbPolyline
 90
        6
 70
     0
 43
0.0
 38
2500.0
 10
18.19406305
 20
-169.20454959
 10
17.99463883
 20
-170.06597832
 10
19.68070932
 20
-173.70454975
 10
19.88013362
 20
-172.84312118
 10
18.19406305
 20
-169.20454959
 10
19.68070932
 20
-173.70454975
  0
LINE
  5
226
100
AcDbEntity
  8
MST_1_1
 62
   137
  6
CONTINUOUS
100
AcDbLine
 10
14.73727648
 20
-172.84312118
 30
2500.0
 11
16.71010505
 21
-172.84312118
 31
2500.0
  0
LINE
  5
227
100
AcDbEntity
  8
MST_1_1
 62
   137
  6
CONTINUOUS
100
AcDbLine
 10
17.30870505
 20
-172.84312118
 30
2500.0
 11
19.28153362
 21
-172.84312118
 31
2500.0
  0
LINE
  5
228
100
AcDbEntity
  8
MST_1_1
 62
   137
  6
CONTINUOUS
100
AcDbLine
 10
15.42321025
 20
-170.06597832
 30
2500.0
 11
13.45038168
 21
-170.06597832
 31
2500.0
  0
LINE
  5
229
100
AcDbEntity
  8
MST_1_1
 62
   137
  6
CONTINUOUS
100
AcDbLine
 10
17.99463883
 20
-170.06597832
 30
2500.0
 11
16.02181025
 21
-170.06597832
 31
2500.0
  0
LWPOLYLINE
  5
22A
100
AcDbEntity
  8
MST_1_1
 62
   137
  6
CONTINUOUS
100
AcDbPolyline
 90
        6
 70
     0
 43
0.0
 38
2500.0
 10
25.76549162
 20
-199.20454959
 10
25.5660674
 20
-200.06597832
 10
27.25213789
 20
-203.70454975
 10
27.45156219
 20
-202.84312118
 10
25.76549162
 20
-199.20454959
 10
27.25213789
 20
-203.70454975
  0
LWPOLYLINE
  5
22B
100
AcDbEntity
  8
MST_1_1
 62
   137
  6
CONTINUOUS
100
AcDbPolyline
 90
        6
 70
     0
 43
0.0
 38
2500.0
 10
28.3369202
 20
-199.20454959
 10
28.13749597
 20
-200.06597832
 10
29.82356646
 20
-203.70454975
 10
30.02299076
 20
-202.84312118
 10
28.3369202
 20
-199.20454959
 10
29.82356646
 20
-203.70454975
  0
LINE
  5
22C
100
AcDbEntity
  8
MST_1_1
 62
   137
  6
CONTINUOUS
100
AcDbLine
 10
24.88013362
 20
-202.84312118
 30
2500.0
 11
26.85296219
 21
-202.84312118
 31
2500.0
  0
LINE
  5
22D
100
AcDbEntity
  8
MST_1_1
 62
   137
  6
CONTINUOUS
100
AcDbLine
 10
27.45156219
 20
-202.84312118
 30
2500.0
 11
29.42439076
 21
-202.84312118
 31
2500.0
  0
LINE
  5
22E
100
AcDbEntity
  8
MST_1_1
 62
   137
  6
CONTINUOUS
100
AcDbLine
 10
25.5660674
 20
-200.06597832
 30
2500.0
 11
23.59323882
 21
-200.06597832
 31
2500.0
  0
LINE
  5
22F
100
AcDbEntity
  8
MST_1_1
 62
   137
  6
CONTINUOUS
100
AcDbLine
 10
28.13749597
 20
-200.06597832
 30
2500.0
 11
26.1646674
 21
-200.06597832
 31
2500.0
  0
LWPOLYLINE
  5
230
100
AcDbEntity
  8
MST_1_1
 62
   137
  6
CONTINUOUS
100
AcDbPolyline
 90
        6
 70
     0
 43
0.0
 38
2500.0
 10
33.47977734
 20
-199.20454959
 10
33.28035311
 20
-200.06597832
 10
34.96642361
 20
-203.70454975
 10
35.1658479
 20
-202.84312118
 10
33.47977734
 20
-199.20454959
 10
34.96642361
 20
-203.70454975
  0
LINE
  5
231
100
AcDbEntity
  8
MST_1_1
 62
   137
  6
CONTINUOUS
100
AcDbLine
 10
32.59441933
 20
-202.84312118
 30
2500.0
 11
34.56724791
 21
-202.84312118
 31
2500.0
  0
LINE
  5
232
100
AcDbEntity
  8
MST_1_1
 62
   137
  6
CONTINUOUS
100
AcDbLine
 10
33.28035311
 20
-200.06597832
 30
2500.0
 11
31.30752454
 21
-200.06597832
 31
2500.0
  0
LWPOLYLINE
  5
233
100
AcDbEntity
  8
MST_1_1
 62
   137
  6
CONTINUOUS
100
AcDbPolyline
 90
        6
 70
     0
 43
0.0
 38
2500.0
 10
30.90834877
 20
-199.20454959
 10
30.70892454
 20
-200.06597832
 10
32.39499503
 20
-203.70454975
 10
32.59441933
 20
-202.84312118
 10
30.90834877
 20
-199.20454959
 10
32.39499503
 20
-203.70454975
  0
LINE
  5
234
100
AcDbEntity
  8
MST_1_1
 62
   137
  6
CONTINUOUS
100
AcDbLine
 10
30.02299076
 20
-202.84312118
 30
2500.0
 11
31.99581933
 21
-202.84312118
 31
2500.0
  0
LINE
  5
235
100
AcDbEntity
  8
MST_1_1
 62
   137
  6
CONTINUOUS
100
AcDbLine
 10
30.70892454
 20
-200.06597832
 30
2500.0
 11
28.73609597
 21
-200.06597832
 31
2500.0
  0
LWPOLYLINE
  5
236
100
AcDbEntity
  8
MST_1_1
 62
   137
  6
CONTINUOUS
100
AcDbPolyline
 90
        6
 70
     0
 43
0.0
 38
2500.0
 10
18.05120591
 20
-199.20454959
 10
17.85178168
 20
-200.06597832
 10
19.53785218
 20
-203.70454975
 10
19.73727648
 20
-202.84312118
 10
18.05120591
 20
-199.20454959
 10
19.53785218
 20
-203.70454975
  0
LWPOLYLINE
  5
237
100
AcDbEntity
  8
MST_1_1
 62
   137
  6
CONTINUOUS
100
AcDbPolyline
 90
        6
 70
     0
 43
0.0
 38
2500.0
 10
20.62263448
 20
-199.20454959
 10
20.42321025
 20
-200.06597832
 10
22.10928075
 20
-203.70454975
 10
22.30870505
 20
-202.84312118
 10
20.62263448
 20
-199.20454959
 10
22.10928075
 20
-203.70454975
  0
LINE
  5
238
100
AcDbEntity
  8
MST_1_1
 62
   137
  6
CONTINUOUS
100
AcDbLine
 10
17.1658479
 20
-202.84312118
 30
2500.0
 11
19.13867648
 21
-202.84312118
 31
2500.0
  0
LINE
  5
239
100
AcDbEntity
  8
MST_1_1
 62
   137
  6
CONTINUOUS
100
AcDbLine
 10
19.73727648
 20
-202.84312118
 30
2500.0
 11
21.71010505
 21
-202.84312118
 31
2500.0
  0
LINE
  5
23A
100
AcDbEntity
  8
MST_1_1
 62
   137
  6
CONTINUOUS
100
AcDbLine
 10
17.85178168
 20
-200.06597832
 30
2500.0
 11
15.87895311
 21
-200.06597832
 31
2500.0
  0
LINE
  5
23B
100
AcDbEntity
  8
MST_1_1
 62
   137
  6
CONTINUOUS
100
AcDbLine
 10
20.42321025
 20
-200.06597832
 30
2500.0
 11
18.45038168
 21
-200.06597832
 31
2500.0
  0
LWPOLYLINE
  5
23C
100
AcDbEntity
  8
MST_1_1
 62
   137
  6
CONTINUOUS
100
AcDbPolyline
 90
        6
 70
     0
 43
0.0
 38
2500.0
 10
23.19406305
 20
-199.20454959
 10
22.99463883
 20
-200.06597832
 10
24.68070932
 20
-203.70454975
 10
24.88013362
 20
-202.84312118
 10
23.19406305
 20
-199.20454959
 10
24.68070932
 20
-203.70454975
  0
LINE
  5
23D
100
AcDbEntity
  8
MST_1_1
 62
   137
  6
CONTINUOUS
100
AcDbLine
 10
22.30870505
 20
-202.84312118
 30
2500.0
 11
24.28153362
 21
-202.84312118
 31
2500.0
  0
LINE
  5
23E
100
AcDbEntity
  8
MST_1_1
 62
   137
  6
CONTINUOUS
100
AcDbLine
 10
22.99463883
 20
-200.06597832
 30
2500.0
 11
21.02181025
 21
-200.06597832
 31
2500.0
  0
LWPOLYLINE
  5
23F
100
AcDbEntity
  8
MST_1_1
 62
     1
  6
BORDER
100
AcDbPolyline
 90
        3
 70
     0
 43
0.0
 10
52.93749597
 20
-231.45454975
 10
-2.06250403
 20
-231.45454975
 10
-7.06250403
 20
-231.45454975
  0
LWPOLYLINE
  5
240
100
AcDbEntity
  8
MST_1_1
 62
     1
  6
BORDER
100
AcDbPolyline
 90
        3
 70
     0
 43
0.0
 10
57.93749597
 20
-261.45454975
 10
-2.06250403
 20
-261.45454975
 10
-7.06250403
 20
-261.45454975
  0
LWPOLYLINE
  5
241
100
AcDbEntity
  8
MST_1_1
 62
   137
  6
CONTINUOUS
100
AcDbPolyline
 90
        6
 70
     0
 43
0.0
 38
2500.0
 10
30.76549162
 20
-229.20454959
 10
30.5660674
 20
-230.06597832
 10
32.25213789
 20
-233.70454975
 10
32.45156219
 20
-232.84312118
 10
30.76549162
 20
-229.20454959
 10
32.25213789
 20
-233.70454975
  0
LWPOLYLINE
  5
242
100
AcDbEntity
  8
MST_1_1
 62
   137
  6
CONTINUOUS
100
AcDbPolyline
 90
        6
 70
     0
 43
0.0
 38
2500.0
 10
33.3369202
 20
-229.20454959
 10
33.13749597
 20
-230.06597832
 10
34.82356646
 20
-233.70454975
 10
35.02299076
 20
-232.84312118
 10
33.3369202
 20
-229.20454959
 10
34.82356646
 20
-233.70454975
  0
LINE
  5
243
100
AcDbEntity
  8
MST_1_1
 62
   137
  6
CONTINUOUS
100
AcDbLine
 10
29.88013362
 20
-232.84312118
 30
2500.0
 11
31.85296219
 21
-232.84312118
 31
2500.0
  0
LINE
  5
244
100
AcDbEntity
  8
MST_1_1
 62
   137
  6
CONTINUOUS
100
AcDbLine
 10
32.45156219
 20
-232.84312118
 30
2500.0
 11
34.42439076
 21
-232.84312118
 31
2500.0
  0
LINE
  5
245
100
AcDbEntity
  8
MST_1_1
 62
   137
  6
CONTINUOUS
100
AcDbLine
 10
30.5660674
 20
-230.06597832
 30
2500.0
 11
28.59323882
 21
-230.06597832
 31
2500.0
  0
LINE
  5
246
100
AcDbEntity
  8
MST_1_1
 62
   137
  6
CONTINUOUS
100
AcDbLine
 10
33.13749597
 20
-230.06597832
 30
2500.0
 11
31.1646674
 21
-230.06597832
 31
2500.0
  0
LWPOLYLINE
  5
247
100
AcDbEntity
  8
MST_1_1
 62
   137
  6
CONTINUOUS
100
AcDbPolyline
 90
        6
 70
     0
 43
0.0
 38
2500.0
 10
38.47977734
 20
-229.20454959
 10
38.28035311
 20
-230.06597832
 10
39.96642361
 20
-233.70454975
 10
40.1658479
 20
-232.84312118
 10
38.47977734
 20
-229.20454959
 10
39.96642361
 20
-233.70454975
  0
LINE
  5
248
100
AcDbEntity
  8
MST_1_1
 62
   137
  6
CONTINUOUS
100
AcDbLine
 10
37.59441933
 20
-232.84312118
 30
2500.0
 11
39.56724791
 21
-232.84312118
 31
2500.0
  0
LINE
  5
249
100
AcDbEntity
  8
MST_1_1
 62
   137
  6
CONTINUOUS
100
AcDbLine
 10
38.28035311
 20
-230.06597832
 30
2500.0
 11
36.30752454
 21
-230.06597832
 31
2500.0
  0
LWPOLYLINE
  5
24A
100
AcDbEntity
  8
MST_1_1
 62
   137
  6
CONTINUOUS
100
AcDbPolyline
 90
        6
 70
     0
 43
0.0
 38
2500.0
 10
35.90834877
 20
-229.20454959
 10
35.70892454
 20
-230.06597832
 10
37.39499503
 20
-233.70454975
 10
37.59441933
 20
-232.84312118
 10
35.90834877
 20
-229.20454959
 10
37.39499503
 20
-233.70454975
  0
LINE
  5
24B
100
AcDbEntity
  8
MST_1_1
 62
   137
  6
CONTINUOUS
100
AcDbLine
 10
35.02299076
 20
-232.84312118
 30
2500.0
 11
36.99581933
 21
-232.84312118
 31
2500.0
  0
LINE
  5
24C
100
AcDbEntity
  8
MST_1_1
 62
   137
  6
CONTINUOUS
100
AcDbLine
 10
35.70892454
 20
-230.06597832
 30
2500.0
 11
33.73609597
 21
-230.06597832
 31
2500.0
  0
LWPOLYLINE
  5
24D
100
AcDbEntity
  8
MST_1_1
 62
   137
  6
CONTINUOUS
100
AcDbPolyline
 90
        6
 70
     0
 43
0.0
 38
2500.0
 10
20.47977734
 20
-229.20454959
 10
20.28035311
 20
-230.06597832
 10
21.96642361
 20
-233.70454975
 10
22.1658479
 20
-232.84312118
 10
20.47977734
 20
-229.20454959
 10
21.96642361
 20
-233.70454975
  0
LWPOLYLINE
  5
24E
100
AcDbEntity
  8
MST_1_1
 62
   137
  6
CONTINUOUS
100
AcDbPolyline
 90
        6
 70
     0
 43
0.0
 38
2500.0
 10
23.05120591
 20
-229.20454959
 10
22.85178168
 20
-230.06597832
 10
24.53785218
 20
-233.70454975
 10
24.73727648
 20
-232.84312118
 10
23.05120591
 20
-229.20454959
 10
24.53785218
 20
-233.70454975
  0
LINE
  5
24F
100
AcDbEntity
  8
MST_1_1
 62
   137
  6
CONTINUOUS
100
AcDbLine
 10
19.59441933
 20
-232.84312118
 30
2500.0
 11
21.56724791
 21
-232.84312118
 31
2500.0
  0
LINE
  5
250
100
AcDbEntity
  8
MST_1_1
 62
   137
  6
CONTINUOUS
100
AcDbLine
 10
22.1658479
 20
-232.84312118
 30
2500.0
 11
24.13867648
 21
-232.84312118
 31
2500.0
  0
LINE
  5
251
100
AcDbEntity
  8
MST_1_1
 62
   137
  6
CONTINUOUS
100
AcDbLine
 10
20.28035311
 20
-230.06597832
 30
2500.0
 11
18.30752454
 21
-230.06597832
 31
2500.0
  0
LINE
  5
252
100
AcDbEntity
  8
MST_1_1
 62
   137
  6
CONTINUOUS
100
AcDbLine
 10
22.85178168
 20
-230.06597832
 30
2500.0
 11
20.87895311
 21
-230.06597832
 31
2500.0
  0
LWPOLYLINE
  5
253
100
AcDbEntity
  8
MST_1_1
 62
   137
  6
CONTINUOUS
100
AcDbPolyline
 90
        6
 70
     0
 43
0.0
 38
2500.0
 10
28.19406305
 20
-229.20454959
 10
27.99463883
 20
-230.06597832
 10
29.68070932
 20
-233.70454975
 10
29.88013362
 20
-232.84312118
 10
28.19406305
 20
-229.20454959
 10
29.68070932
 20
-233.70454975
  0
LINE
  5
254
100
AcDbEntity
  8
MST_1_1
 62
   137
  6
CONTINUOUS
100
AcDbLine
 10
27.30870505
 20
-232.84312118
 30
2500.0
 11
29.28153362
 21
-232.84312118
 31
2500.0
  0
LINE
  5
255
100
AcDbEntity
  8
MST_1_1
 62
   137
  6
CONTINUOUS
100
AcDbLine
 10
27.99463883
 20
-230.06597832
 30
2500.0
 11
26.02181025
 21
-230.06597832
 31
2500.0
  0
LWPOLYLINE
  5
256
100
AcDbEntity
  8
MST_1_1
 62
   137
  6
CONTINUOUS
100
AcDbPolyline
 90
        6
 70
     0
 43
0.0
 38
2500.0
 10
25.62263448
 20
-229.20454959
 10
25.42321025
 20
-230.06597832
 10
27.10928075
 20
-233.70454975
 10
27.30870505
 20
-232.84312118
 10
25.62263448
 20
-229.20454959
 10
27.10928075
 20
-233.70454975
  0
LINE
  5
257
100
AcDbEntity
  8
MST_1_1
 62
   137
  6
CONTINUOUS
100
AcDbLine
 10
24.73727648
 20
-232.84312118
 30
2500.0
 11
26.71010505
 21
-232.84312118
 31
2500.0
  0
LINE
  5
258
100
AcDbEntity
  8
MST_1_1
 62
   137
  6
CONTINUOUS
100
AcDbLine
 10
25.42321025
 20
-230.06597832
 30
2500.0
 11
23.45038168
 21
-230.06597832
 31
2500.0
  0
LWPOLYLINE
  5
259
100
AcDbEntity
  8
MST_1_1
 62
   137
  6
CONTINUOUS
100
AcDbPolyline
 90
        6
 70
     0
 43
0.0
 38
2500.0
 10
17.90834877
 20
-229.20454959
 10
17.70892454
 20
-230.06597832
 10
19.39499503
 20
-233.70454975
 10
19.59441933
 20
-232.84312118
 10
17.90834877
 20
-229.20454959
 10
19.39499503
 20
-233.70454975
  0
LINE
  5
25A
100
AcDbEntity
  8
MST_1_1
 62
   137
  6
CONTINUOUS
100
AcDbLine
 10
17.02299076
 20
-232.84312118
 30
2500.0
 11
18.99581933
 21
-232.84312118
 31
2500.0
  0
LINE
  5
25B
100
AcDbEntity
  8
MST_1_1
 62
   137
  6
CONTINUOUS
100
AcDbLine
 10
17.70892454
 20
-230.06597832
 30
2500.0
 11
15.73609597
 21
-230.06597832
 31
2500.0
  0
LWPOLYLINE
  5
25C
100
AcDbEntity
  8
MST_1_1
 62
   137
  6
CONTINUOUS
100
AcDbPolyline
 90
        6
 70
     0
 43
0.0
 38
2500.0
 10
35.76549162
 20
-259.20454959
 10
35.5660674
 20
-260.06597832
 10
37.25213789
 20
-263.70454975
 10
37.45156219
 20
-262.84312118
 10
35.76549162
 20
-259.20454959
 10
37.25213789
 20
-263.70454975
  0
LWPOLYLINE
  5
25D
100
AcDbEntity
  8
MST_1_1
 62
   137
  6
CONTINUOUS
100
AcDbPolyline
 90
        6
 70
     0
 43
0.0
 38
2500.0
 10
38.3369202
 20
-259.20454959
 10
38.13749597
 20
-260.06597832
 10
39.82356646
 20
-263.70454975
 10
40.02299076
 20
-262.84312118
 10
38.3369202
 20
-259.20454959
 10
39.82356646
 20
-263.70454975
  0
LINE
  5
25E
100
AcDbEntity
  8
MST_1_1
 62
   137
  6
CONTINUOUS
100
AcDbLine
 10
34.88013362
 20
-262.84312118
 30
2500.0
 11
36.85296219
 21
-262.84312118
 31
2500.0
  0
LINE
  5
25F
100
AcDbEntity
  8
MST_1_1
 62
   137
  6
CONTINUOUS
100
AcDbLine
 10
37.45156219
 20
-262.84312118
 30
2500.0
 11
39.42439076
 21
-262.84312118
 31
2500.0
  0
LINE
  5
260
100
AcDbEntity
  8
MST_1_1
 62
   137
  6
CONTINUOUS
100
AcDbLine
 10
35.5660674
 20
-260.06597832
 30
2500.0
 11
33.59323882
 21
-260.06597832
 31
2500.0
  0
LINE
  5
261
100
AcDbEntity
  8
MST_1_1
 62
   137
  6
CONTINUOUS
100
AcDbLine
 10
38.13749597
 20
-260.06597832
 30
2500.0
 11
36.1646674
 21
-260.06597832
 31
2500.0
  0
LWPOLYLINE
  5
262
100
AcDbEntity
  8
MST_1_1
 62
   137
  6
CONTINUOUS
100
AcDbPolyline
 90
        6
 70
     0
 43
0.0
 38
2500.0
 10
43.47977734
 20
-259.20454959
 10
43.28035311
 20
-260.06597832
 10
44.96642361
 20
-263.70454975
 10
45.1658479
 20
-262.84312118
 10
43.47977734
 20
-259.20454959
 10
44.96642361
 20
-263.70454975
  0
LINE
  5
263
100
AcDbEntity
  8
MST_1_1
 62
   137
  6
CONTINUOUS
100
AcDbLine
 10
42.59441933
 20
-262.84312118
 30
2500.0
 11
44.56724791
 21
-262.84312118
 31
2500.0
  0
LINE
  5
264
100
AcDbEntity
  8
MST_1_1
 62
   137
  6
CONTINUOUS
100
AcDbLine
 10
43.28035311
 20
-260.06597832
 30
2500.0
 11
41.30752454
 21
-260.06597832
 31
2500.0
  0
LWPOLYLINE
  5
265
100
AcDbEntity
  8
MST_1_1
 62
   137
  6
CONTINUOUS
100
AcDbPolyline
 90
        6
 70
     0
 43
0.0
 38
2500.0
 10
40.90834877
 20
-259.20454959
 10
40.70892454
 20
-260.06597832
 10
42.39499503
 20
-263.70454975
 10
42.59441933
 20
-262.84312118
 10
40.90834877
 20
-259.20454959
 10
42.39499503
 20
-263.70454975
  0
LINE
  5
266
100
AcDbEntity
  8
MST_1_1
 62
   137
  6
CONTINUOUS
100
AcDbLine
 10
40.02299076
 20
-262.84312118
 30
2500.0
 11
41.99581933
 21
-262.84312118
 31
2500.0
  0
LINE
  5
267
100
AcDbEntity
  8
MST_1_1
 62
   137
  6
CONTINUOUS
100
AcDbLine
 10
40.70892454
 20
-260.06597832
 30
2500.0
 11
38.73609597
 21
-260.06597832
 31
2500.0
  0
LWPOLYLINE
  5
268
100
AcDbEntity
  8
MST_1_1
 62
   137
  6
CONTINUOUS
100
AcDbPolyline
 90
        6
 70
     0
 43
0.0
 38
2500.0
 10
25.47977734
 20
-259.20454959
 10
25.28035311
 20
-260.06597832
 10
26.96642361
 20
-263.70454975
 10
27.1658479
 20
-262.84312118
 10
25.47977734
 20
-259.20454959
 10
26.96642361
 20
-263.70454975
  0
LWPOLYLINE
  5
269
100
AcDbEntity
  8
MST_1_1
 62
   137
  6
CONTINUOUS
100
AcDbPolyline
 90
        6
 70
     0
 43
0.0
 38
2500.0
 10
28.05120591
 20
-259.20454959
 10
27.85178168
 20
-260.06597832
 10
29.53785218
 20
-263.70454975
 10
29.73727648
 20
-262.84312118
 10
28.05120591
 20
-259.20454959
 10
29.53785218
 20
-263.70454975
  0
LINE
  5
26A
100
AcDbEntity
  8
MST_1_1
 62
   137
  6
CONTINUOUS
100
AcDbLine
 10
24.59441933
 20
-262.84312118
 30
2500.0
 11
26.56724791
 21
-262.84312118
 31
2500.0
  0
LINE
  5
26B
100
AcDbEntity
  8
MST_1_1
 62
   137
  6
CONTINUOUS
100
AcDbLine
 10
27.1658479
 20
-262.84312118
 30
2500.0
 11
29.13867648
 21
-262.84312118
 31
2500.0
  0
LINE
  5
26C
100
AcDbEntity
  8
MST_1_1
 62
   137
  6
CONTINUOUS
100
AcDbLine
 10
25.28035311
 20
-260.06597832
 30
2500.0
 11
23.30752454
 21
-260.06597832
 31
2500.0
  0
LINE
  5
26D
100
AcDbEntity
  8
MST_1_1
 62
   137
  6
CONTINUOUS
100
AcDbLine
 10
27.85178168
 20
-260.06597832
 30
2500.0
 11
25.87895311
 21
-260.06597832
 31
2500.0
  0
LWPOLYLINE
  5
26E
100
AcDbEntity
  8
MST_1_1
 62
   137
  6
CONTINUOUS
100
AcDbPolyline
 90
        6
 70
     0
 43
0.0
 38
2500.0
 10
33.19406305
 20
-259.20454959
 10
32.99463883
 20
-260.06597832
 10
34.68070932
 20
-263.70454975
 10
34.88013362
 20
-262.84312118
 10
33.19406305
 20
-259.20454959
 10
34.68070932
 20
-263.70454975
  0
LINE
  5
26F
100
AcDbEntity
  8
MST_1_1
 62
   137
  6
CONTINUOUS
100
AcDbLine
 10
32.30870505
 20
-262.84312118
 30
2500.0
 11
34.28153362
 21
-262.84312118
 31
2500.0
  0
LINE
  5
270
100
AcDbEntity
  8
MST_1_1
 62
   137
  6
CONTINUOUS
100
AcDbLine
 10
32.99463883
 20
-260.06597832
 30
2500.0
 11
31.02181025
 21
-260.06597832
 31
2500.0
  0
LWPOLYLINE
  5
271
100
AcDbEntity
  8
MST_1_1
 62
   137
  6
CONTINUOUS
100
AcDbPolyline
 90
        6
 70
     0
 43
0.0
 38
2500.0
 10
30.62263448
 20
-259.20454959
 10
30.42321025
 20
-260.06597832
 10
32.10928075
 20
-263.70454975
 10
32.30870505
 20
-262.84312118
 10
30.62263448
 20
-259.20454959
 10
32.10928075
 20
-263.70454975
  0
LINE
  5
272
100
AcDbEntity
  8
MST_1_1
 62
   137
  6
CONTINUOUS
100
AcDbLine
 10
29.73727648
 20
-262.84312118
 30
2500.0
 11
31.71010505
 21
-262.84312118
 31
2500.0
  0
LINE
  5
273
100
AcDbEntity
  8
MST_1_1
 62
   137
  6
CONTINUOUS
100
AcDbLine
 10
30.42321025
 20
-260.06597832
 30
2500.0
 11
28.45038168
 21
-260.06597832
 31
2500.0
  0
LWPOLYLINE
  5
274
100
AcDbEntity
  8
MST_1_1
 62
   137
  6
CONTINUOUS
100
AcDbPolyline
 90
        6
 70
     0
 43
0.0
 38
2500.0
 10
15.19406305
 20
-259.20454959
 10
14.99463883
 20
-260.06597832
 10
16.68070932
 20
-263.70454975
 10
16.88013362
 20
-262.84312118
 10
15.19406305
 20
-259.20454959
 10
16.68070932
 20
-263.70454975
  0
LWPOLYLINE
  5
275
100
AcDbEntity
  8
MST_1_1
 62
   137
  6
CONTINUOUS
100
AcDbPolyline
 90
        6
 70
     0
 43
0.0
 38
2500.0
 10
17.76549162
 20
-259.20454959
 10
17.5660674
 20
-260.06597832
 10
19.25213789
 20
-263.70454975
 10
19.45156219
 20
-262.84312118
 10
17.76549162
 20
-259.20454959
 10
19.25213789
 20
-263.70454975
  0
LINE
  5
276
100
AcDbEntity
  8
MST_1_1
 62
   137
  6
CONTINUOUS
100
AcDbLine
 10
14.30870505
 20
-262.84312118
 30
2500.0
 11
16.28153362
 21
-262.84312118
 31
2500.0
  0
LINE
  5
277
100
AcDbEntity
  8
MST_1_1
 62
   137
  6
CONTINUOUS
100
AcDbLine
 10
16.88013362
 20
-262.84312118
 30
2500.0
 11
18.85296219
 21
-262.84312118
 31
2500.0
  0
LINE
  5
278
100
AcDbEntity
  8
MST_1_1
 62
   137
  6
CONTINUOUS
100
AcDbLine
 10
14.99463883
 20
-260.06597832
 30
2500.0
 11
13.02181025
 21
-260.06597832
 31
2500.0
  0
LINE
  5
279
100
AcDbEntity
  8
MST_1_1
 62
   137
  6
CONTINUOUS
100
AcDbLine
 10
17.5660674
 20
-260.06597832
 30
2500.0
 11
15.59323882
 21
-260.06597832
 31
2500.0
  0
LWPOLYLINE
  5
27A
100
AcDbEntity
  8
MST_1_1
 62
   137
  6
CONTINUOUS
100
AcDbPolyline
 90
        6
 70
     0
 43
0.0
 38
2500.0
 10
22.90834877
 20
-259.20454959
 10
22.70892454
 20
-260.06597832
 10
24.39499503
 20
-263.70454975
 10
24.59441933
 20
-262.84312118
 10
22.90834877
 20
-259.20454959
 10
24.39499503
 20
-263.70454975
  0
LINE
  5
27B
100
AcDbEntity
  8
MST_1_1
 62
   137
  6
CONTINUOUS
100
AcDbLine
 10
22.02299076
 20
-262.84312118
 30
2500.0
 11
23.99581933
 21
-262.84312118
 31
2500.0
  0
LINE
  5
27C
100
AcDbEntity
  8
MST_1_1
 62
   137
  6
CONTINUOUS
100
AcDbLine
 10
22.70892454
 20
-260.06597832
 30
2500.0
 11
20.73609597
 21
-260.06597832
 31
2500.0
  0
LWPOLYLINE
  5
27D
100
AcDbEntity
  8
MST_1_1
 62
   137
  6
CONTINUOUS
100
AcDbPolyline
 90
        6
 70
     0
 43
0.0
 38
2500.0
 10
20.3369202
 20
-259.20454959
 10
20.13749597
 20
-260.06597832
 10
21.82356646
 20
-263.70454975
 10
22.02299076
 20
-262.84312118
 10
20.3369202
 20
-259.20454959
 10
21.82356646
 20
-263.70454975
  0
LINE
  5
27E
100
AcDbEntity
  8
MST_1_1
 62
   137
  6
CONTINUOUS
100
AcDbLine
 10
19.45156219
 20
-262.84312118
 30
2500.0
 11
21.42439076
 21
-262.84312118
 31
2500.0
  0
LINE
  5
27F
100
AcDbEntity
  8
MST_1_1
 62
   137
  6
CONTINUOUS
100
AcDbLine
 10
20.13749597
 20
-260.06597832
 30
2500.0
 11
18.1646674
 21
-260.06597832
 31
2500.0
  0
CIRCLE
  5
280
100
AcDbEntity
  8
MST_1_1
 62
   137
  6
CONTINUOUS
100
AcDbCircle
 10
-93.27649136
 20
8.54545025
 30
0.0
 40
2.32981333
  0
CIRCLE
  5
281
100
AcDbEntity
  8
MST_1_1
 62
   137
  6
CONTINUOUS
100
AcDbCircle
 10
-93.27649136
 20
8.54545025
 30
0.0
 40
1.32203389
  0
CIRCLE
  5
282
100
AcDbEntity
  8
MST_1_1
 62
   137
  6
CONTINUOUS
100
AcDbCircle
 10
-93.27649136
 20
8.54545025
 30
0.0
 40
2.32981333
  0
CIRCLE
  5
283
100
AcDbEntity
  8
MST_1_1
 62
   137
  6
CONTINUOUS
100
AcDbCircle
 10
-93.27649136
 20
8.54545025
 30
0.0
 40
2.32981333
  0
CIRCLE
  5
284
100
AcDbEntity
  8
MST_1_1
 62
   137
  6
CONTINUOUS
100
AcDbCircle
 10
-93.27649136
 20
8.54545025
 30
0.0
 40
4.5
  0
ARC
  5
285
100
AcDbEntity
  8
MST_1_1
 62
   137
  6
CONTINUOUS
100
AcDbCircle
 10
-95.15049131
 20
8.54545025
 30
0.0
 40
0.37600003
100
AcDbArc
 50
106.48878485
 51
253.51122516
  0
ARC
  5
286
100
AcDbEntity
  8
MST_1_1
 62
   137
  6
CONTINUOUS
100
AcDbCircle
 10
-95.5367621
 20
7.2404823
 30
0.0
 40
0.98493585
100
AcDbArc
 50
346.4887751
 51
73.5112424
  0
ARC
  5
287
100
AcDbEntity
  8
MST_1_1
 62
   137
  6
CONTINUOUS
100
AcDbCircle
 10
-94.2134913
 20
6.9225187
 30
0.0
 40
0.37600004
100
AcDbArc
 50
166.48877314
 51
313.51122983
  0
ARC
  5
288
100
AcDbEntity
  8
MST_1_1
 62
   137
  6
CONTINUOUS
100
AcDbCircle
 10
-93.27649136
 20
5.93551458
 30
0.0
 40
0.98493568
100
AcDbArc
 50
46.48875513
 51
133.51124487
  0
ARC
  5
289
100
AcDbEntity
  8
MST_1_1
 62
   137
  6
CONTINUOUS
100
AcDbCircle
 10
-92.3394914
 20
6.92251866
 30
0.0
 40
0.37600002
100
AcDbArc
 50
226.48878273
 51
13.51123435
  0
ARC
  5
28A
100
AcDbEntity
  8
MST_1_1
 62
   137
  6
CONTINUOUS
100
AcDbCircle
 10
-91.01622058
 20
7.24048228
 30
0.0
 40
0.98493588
100
AcDbArc
 50
106.48875933
 51
193.51124321
  0
ARC
  5
28B
100
AcDbEntity
  8
MST_1_1
 62
   137
  6
CONTINUOUS
100
AcDbCircle
 10
-91.40249141
 20
8.54545025
 30
0.0
 40
0.37600003
100
AcDbArc
 50
286.48879487
 51
73.51121515
  0
ARC
  5
28C
100
AcDbEntity
  8
MST_1_1
 62
   137
  6
CONTINUOUS
100
AcDbCircle
 10
-91.01622062
 20
9.8504182
 30
0.0
 40
0.98493585
100
AcDbArc
 50
166.48876508
 51
253.51125242
  0
ARC
  5
28D
100
AcDbEntity
  8
MST_1_1
 62
   137
  6
CONTINUOUS
100
AcDbCircle
 10
-92.33949142
 20
10.1683818
 30
0.0
 40
0.37600004
100
AcDbArc
 50
346.48878316
 51
133.51121981
  0
ARC
  5
28E
100
AcDbEntity
  8
MST_1_1
 62
   137
  6
CONTINUOUS
100
AcDbCircle
 10
-93.27649136
 20
11.15538593
 30
0.0
 40
0.98493568
100
AcDbArc
 50
226.48876515
 51
313.51125489
  0
ARC
  5
28F
100
AcDbEntity
  8
MST_1_1
 62
   137
  6
CONTINUOUS
100
AcDbCircle
 10
-94.21349132
 20
10.16838185
 30
0.0
 40
0.37600002
100
AcDbArc
 50
46.48877271
 51
193.51124436
  0
ARC
  5
290
100
AcDbEntity
  8
MST_1_1
 62
   137
  6
CONTINUOUS
100
AcDbCircle
 10
-95.53676214
 20
9.85041822
 30
0.0
 40
0.98493588
100
AcDbArc
 50
286.48876935
 51
13.51123319
  0
LWPOLYLINE
  5
291
100
AcDbEntity
  8
MST_1_1
 62
   137
  6
CONTINUOUS
100
AcDbPolyline
 90
        9
 70
     0
 43
0.0
 10
-94.97354759
 20
5.57560179
 10
-94.9614624
 20
5.5876871
 10
-94.94936778
 20
5.59978172
 10
-94.93726396
 20
5.61188542
 10
-94.92515094
 20
5.62399844
 10
-94.91302885
 20
5.63612053
 10
-94.90089768
 20
5.64825171
 10
-94.88875742
 20
5.66039196
 10
-94.87660808
 20
5.6725413
  0
ARC
  5
292
100
AcDbEntity
  8
MST_1_1
 62
   137
  6
CONTINUOUS
100
AcDbCircle
 10
-94.67373437
 20
5.84147391
 30
0.0
 40
0.26399994
100
AcDbArc
 50
50.21590624
 51
219.78410378
  0
LWPOLYLINE
  5
293
100
AcDbEntity
  8
MST_1_1
 62
   137
  6
CONTINUOUS
100
AcDbPolyline
 90
        9
 70
     0
 43
0.0
 10
-94.50480176
 20
6.04434762
 10
-94.49270865
 20
6.05644085
 10
-94.48060844
 20
6.06854105
 10
-94.46850125
 20
6.08064802
 10
-94.45638719
 20
6.09276219
 10
-94.44426614
 20
6.10488312
 10
-94.43213834
 20
6.11701104
 10
-94.42000368
 20
6.12914571
 10
-94.40786226
 20
6.14128713
  0
LWPOLYLINE
  5
294
100
AcDbEntity
  8
MST_1_1
 62
   137
  6
CONTINUOUS
100
AcDbPolyline
 90
        9
 70
     0
 43
0.0
 10
-94.40786226
 20
6.14128713
 10
-94.480311
 20
6.21373611
 10
-94.552836
 20
6.28626099
 10
-94.62542748
 20
6.35885246
 10
-94.69807541
 20
6.43150051
 10
-94.77077014
 20
6.50419513
 10
-94.84350189
 20
6.57692676
 10
-94.91626077
 20
6.64968576
 10
-94.98903688
 20
6.72246187
  0
LWPOLYLINE
  5
295
100
AcDbEntity
  8
MST_1_1
 62
   137
  6
CONTINUOUS
100
AcDbPolyline
 90
        9
 70
     0
 43
0.0
 10
-94.98903688
 20
6.72246187
 10
-94.99333307
 20
6.71816567
 10
-94.99762833
 20
6.7138703
 10
-95.00192289
 20
6.70957574
 10
-95.00621664
 20
6.70528211
 10
-95.01050945
 20
6.70098918
 10
-95.01480145
 20
6.69669718
 10
-95.01909264
 20
6.69240611
 10
-95.02338289
 20
6.68811574
  0
LWPOLYLINE
  5
296
100
AcDbEntity
  8
MST_1_1
 62
   137
  6
CONTINUOUS
100
AcDbPolyline
 90
       25
 70
     0
 43
0.0
 10
-95.02338289
 20
6.68811576
 10
-95.02697239
 20
6.69364466
 10
-95.03065727
 20
6.69910031
 10
-95.03443653
 20
6.70448171
 10
-95.03830915
 20
6.70978784
 10
-95.04227414
 20
6.71501772
 10
-95.04633049
 20
6.72017032
 10
-95.05047721
 20
6.72524465
 10
-95.05471329
 20
6.7302397
 10
-95.05903773
 20
6.73515447
 10
-95.06344953
 20
6.73998796
 10
-95.06794768
 20
6.74473915
 10
-95.07253118
 20
6.74940704
 10
-95.07719903
 20
6.75399062
 10
-95.08195023
 20
6.75848891
 10
-95.08678378
 20
6.76290087
 10
-95.09169866
 20
6.76722552
 10
-95.09669389
 20
6.77146185
 10
-95.10176846
 20
6.77560886
 10
-95.10692137
 20
6.77966552
 10
-95.1121516
 20
6.78363086
 10
-95.11745817
 20
6.78750385
 10
-95.12284007
 20
6.79128349
 10
-95.1282963
 20
6.79496879
 10
-95.13382585
 20
6.79855872
  0
LWPOLYLINE
  5
297
100
AcDbEntity
  8
MST_1_1
 62
   137
  6
CONTINUOUS
100
AcDbPolyline
 90
        9
 70
     0
 43
0.0
 10
-95.13382588
 20
6.79855872
 10
-95.1295355
 20
6.80284897
 10
-95.12524444
 20
6.80714016
 10
-95.12095244
 20
6.81143216
 10
-95.1166595
 20
6.81572497
 10
-95.11236587
 20
6.82001872
 10
-95.10807131
 20
6.82431328
 10
-95.10377594
 20
6.82860854
 10
-95.09947975
 20
6.83290473
  0
LWPOLYLINE
  5
298
100
AcDbEntity
  8
MST_1_1
 62
   137
  6
CONTINUOUS
100
AcDbPolyline
 90
        9
 70
     0
 43
0.0
 10
-95.09947975
 20
6.83290473
 10
-95.17225585
 20
6.90568084
 10
-95.24501485
 20
6.97843972
 10
-95.31774648
 20
7.05117147
 10
-95.3904411
 20
7.1238662
 10
-95.46308915
 20
7.19651414
 10
-95.53568062
 20
7.26910561
 10
-95.60820551
 20
7.34163061
 10
-95.68065449
 20
7.41407936
  0
LWPOLYLINE
  5
299
100
AcDbEntity
  8
MST_1_1
 62
   137
  6
CONTINUOUS
100
AcDbPolyline
 90
        9
 70
     0
 43
0.0
 10
-95.68065449
 20
7.41407936
 10
-95.69279591
 20
7.40193794
 10
-95.70493057
 20
7.38980327
 10
-95.71705849
 20
7.37767547
 10
-95.72917942
 20
7.36555442
 10
-95.7412936
 20
7.35344036
 10
-95.75340056
 20
7.34133317
 10
-95.76550077
 20
7.32923296
 10
-95.77759399
 20
7.31713985
  0
ARC
  5
29A
100
AcDbEntity
  8
MST_1_1
 62
   137
  6
CONTINUOUS
100
AcDbCircle
 10
-95.98046758
 20
7.14820712
 30
0.0
 40
0.26399993
100
AcDbArc
 50
230.21587884
 51
39.78413117
  0
LWPOLYLINE
  5
29B
100
AcDbEntity
  8
MST_1_1
 62
   137
  6
CONTINUOUS
100
AcDbPolyline
 90
        9
 70
     0
 43
0.0
 10
-96.14940031
 20
6.94533353
 10
-96.16154965
 20
6.93318419
 10
-96.1736899
 20
6.92104394
 10
-96.18582108
 20
6.90891276
 10
-96.19794317
 20
6.89679067
 10
-96.21005619
 20
6.88467765
 10
-96.22215989
 20
6.87257384
 10
-96.23425451
 20
6.86047921
 10
-96.24633982
 20
6.84839402
  0
LWPOLYLINE
  5
29C
100
AcDbEntity
  8
MST_1_1
 62
   137
  6
CONTINUOUS
100
AcDbPolyline
 90
        9
 70
     0
 43
0.0
 10
-96.24633982
 20
6.84839402
 10
-96.17390364
 20
6.77595762
 10
-96.10138621
 20
6.7034403
 10
-96.02879823
 20
6.63085244
 10
-95.95615018
 20
6.55820439
 10
-95.88345254
 20
6.48550651
 10
-95.81071531
 20
6.41276952
 10
-95.73794945
 20
6.34000366
 10
-95.66516519
 20
6.2672194
  0
LWPOLYLINE
  5
29D
100
AcDbEntity
  8
MST_1_1
 62
   137
  6
CONTINUOUS
100
AcDbPolyline
 90
        9
 70
     0
 43
0.0
 10
-95.66516519
 20
6.2672194
 10
-95.66087599
 20
6.27150861
 10
-95.65658562
 20
6.27579898
 10
-95.65229408
 20
6.28009051
 10
-95.64800139
 20
6.28438321
 10
-95.64370752
 20
6.28867707
 10
-95.6394125
 20
6.29297187
 10
-95.63511654
 20
6.29726806
 10
-95.63081918
 20
6.30156541
  0
LWPOLYLINE
  5
29E
100
AcDbEntity
  8
MST_1_1
 62
   137
  6
CONTINUOUS
100
AcDbPolyline
 90
       25
 70
     0
 43
0.0
 10
-95.63081916
 20
6.30156541
 10
-95.62722997
 20
6.29603703
 10
-95.62354531
 20
6.29058178
 10
-95.61976619
 20
6.28520067
 10
-95.61589361
 20
6.27989473
 10
-95.6119286
 20
6.27466497
 10
-95.60787217
 20
6.2695124
 10
-95.60372532
 20
6.26443803
 10
-95.59948908
 20
6.25944289
 10
-95.59516444
 20
6.25452798
 10
-95.59075242
 20
6.24969432
 10
-95.58625404
 20
6.24494292
 10
-95.58167031
 20
6.24027481
 10
-95.57700223
 20
6.23569098
 10
-95.57225082
 20
6.23119247
 10
-95.5674171
 20
6.22678027
 10
-95.56250207
 20
6.22245542
 10
-95.55750674
 20
6.21821891
 10
-95.55243213
 20
6.21407178
 10
-95.54727925
 20
6.21001502
 10
-95.54204911
 20
6.20604966
 10
-95.53674273
 20
6.2021767
 10
-95.5313611
 20
6.19839718
 10
-95.52590526
 20
6.19471209
 10
-95.5203762
 20
6.19112245
  0
LWPOLYLINE
  5
29F
100
AcDbEntity
  8
MST_1_1
 62
   137
  6
CONTINUOUS
100
AcDbPolyline
 90
        9
 70
     0
 43
0.0
 10
-95.5203762
 20
6.19112243
 10
-95.52467355
 20
6.18682507
 10
-95.52896975
 20
6.18252912
 10
-95.53326454
 20
6.17823409
 10
-95.5375584
 20
6.17394023
 10
-95.5418511
 20
6.16964753
 10
-95.54614264
 20
6.16535599
 10
-95.55043301
 20
6.16106562
 10
-95.55472221
 20
6.15677642
  0
LWPOLYLINE
  5
2A0
100
AcDbEntity
  8
MST_1_1
 62
   137
  6
CONTINUOUS
100
AcDbPolyline
 90
        9
 70
     0
 43
0.0
 10
-95.55472221
 20
6.15677642
 10
-95.48193796
 20
6.08399216
 10
-95.40917209
 20
6.0112263
 10
-95.3364351
 20
5.93848907
 10
-95.26373723
 20
5.86579143
 10
-95.19108917
 20
5.79314338
 10
-95.11850131
 20
5.7205554
 10
-95.045984
 20
5.64803797
 10
-94.97354759
 20
5.57560179
  0
CIRCLE
  5
2A1
100
AcDbEntity
  8
MST_1_1
 62
   137
  6
CONTINUOUS
100
AcDbCircle
 10
-93.27649136
 20
8.54545025
 30
0.0
 40
4.28859654
  0
LWPOLYLINE
  5
2A2
100
AcDbEntity
  8
MST_1_1
 62
   137
  6
CONTINUOUS
100
AcDbPolyline
 90
        9
 70
     0
 43
0.0
 10
-95.2484931
 20
6.84615349
 10
-95.29613282
 20
6.89379321
 10
-95.34376158
 20
6.94142209
 10
-95.39137708
 20
6.98903759
 10
-95.43897628
 20
7.03663678
 10
-95.48655638
 20
7.08421689
 10
-95.5341146
 20
7.13177523
 10
-95.58164838
 20
7.17930888
 10
-95.62915468
 20
7.22681518
  0
ARC
  5
2A3
100
AcDbEntity
  8
MST_1_1
 62
   137
  6
CONTINUOUS
100
AcDbCircle
 10
-95.32710128
 20
6.49484095
 30
0.0
 40
0.35999965
100
AcDbArc
 50
77.38749365
 51
127.33775307
  0
LWPOLYLINE
  5
2A4
100
AcDbEntity
  8
MST_1_1
 62
   137
  6
CONTINUOUS
100
AcDbPolyline
 90
        9
 70
     0
 43
0.0
 10
-95.04087429
 20
6.27649607
 10
-95.10392274
 20
6.33954451
 10
-95.16699085
 20
6.40261275
 10
-95.23007201
 20
6.46569402
 10
-95.2931598
 20
6.52878181
 10
-95.35624759
 20
6.5918696
 10
-95.41932886
 20
6.65495076
 10
-95.4823971
 20
6.71801888
 10
-95.54544554
 20
6.78106732
  0
ARC
  5
2A5
100
AcDbEntity
  8
MST_1_1
 62
   137
  6
CONTINUOUS
100
AcDbCircle
 10
-95.32710139
 20
6.49484049
 30
0.0
 40
0.36000032
100
AcDbArc
 50
322.66230677
 51
12.61245653
  0
LWPOLYLINE
  5
2A6
100
AcDbEntity
  8
MST_1_1
 62
   137
  6
CONTINUOUS
100
AcDbPolyline
 90
        9
 70
     0
 43
0.0
 10
-94.59512643
 20
6.19278694
 10
-94.64263273
 20
6.24029324
 10
-94.69016639
 20
6.28782701
 10
-94.73772472
 20
6.33538523
 10
-94.78530483
 20
6.38296533
 10
-94.83290403
 20
6.43056453
 10
-94.88051952
 20
6.47818003
 10
-94.92814841
 20
6.5258088
 10
-94.97578812
 20
6.57344851
  0
ARC
  5
2A7
100
AcDbEntity
  8
MST_1_1
 62
   137
  6
CONTINUOUS
100
AcDbCircle
 10
-94.67373419
 20
5.84147381
 30
0.0
 40
0.36000013
100
AcDbArc
 50
77.38757789
 51
192.61246315
  0
LWPOLYLINE
  5
2A8
100
AcDbEntity
  8
MST_1_1
 62
   137
  6
CONTINUOUS
100
AcDbPolyline
 90
        9
 70
     0
 43
0.0
 10
-95.40570897
 20
6.14352766
 10
-95.3580667
 20
6.09588515
 10
-95.31043537
 20
6.04825405
 10
-95.26281848
 20
6.00063716
 10
-95.21521858
 20
5.95303726
 10
-95.16763859
 20
5.90545716
 10
-95.12008142
 20
5.8579001
 10
-95.07254997
 20
5.81036866
 10
-95.02504728
 20
5.76286585
  0
ARC
  5
2A9
100
AcDbEntity
  8
MST_1_1
 62
   137
  6
CONTINUOUS
100
AcDbCircle
 10
-95.32710119
 20
6.4948416
 30
0.0
 40
0.36000093
100
AcDbArc
 50
257.38761324
 51
307.3376629
  0
LWPOLYLINE
  5
2AA
100
AcDbEntity
  8
MST_1_1
 62
   137
  6
CONTINUOUS
100
AcDbPolyline
 90
        9
 70
     0
 43
0.0
 10
-95.61332778
 20
6.71318496
 10
-95.55027934
 20
6.65013675
 10
-95.48721134
 20
6.58706863
 10
-95.42413006
 20
6.52398736
 10
-95.36104204
 20
6.46089957
 10
-95.29795425
 20
6.39781155
 10
-95.23487298
 20
6.33473028
 10
-95.17180486
 20
6.27166228
 10
-95.10875665
 20
6.20861383
  0
ARC
  5
2AB
100
AcDbEntity
  8
MST_1_1
 62
   137
  6
CONTINUOUS
100
AcDbCircle
 10
-95.32710102
 20
6.49484065
 30
0.0
 40
0.36
100
AcDbArc
 50
142.66227791
 51
192.61247599
  0
LWPOLYLINE
  5
2AC
100
AcDbEntity
  8
MST_1_1
 62
   137
  6
CONTINUOUS
100
AcDbPolyline
 90
        9
 70
     0
 43
0.0
 10
-96.05907576
 20
6.79689433
 10
-96.01157295
 20
6.74939164
 10
-95.96404151
 20
6.7018602
 10
-95.91648445
 20
6.65430302
 10
-95.86890435
 20
6.60672303
 10
-95.82130445
 20
6.55912314
 10
-95.77368756
 20
6.51150624
 10
-95.72605646
 20
6.46387491
 10
-95.67841396
 20
6.41623264
  0
ARC
  5
2AD
100
AcDbEntity
  8
MST_1_1
 62
   137
  6
CONTINUOUS
100
AcDbCircle
 10
-95.9804677
 20
7.14820731
 30
0.0
 40
0.36000006
100
AcDbArc
 50
257.38753734
 51
12.61244165
  0
LWPOLYLINE
  5
2AE
100
AcDbEntity
  8
MST_1_1
 62
   137
  6
CONTINUOUS
100
AcDbPolyline
 90
        9
 70
     0
 43
0.0
 10
-95.43311523
 20
6.73661937
 10
-95.38964854
 20
6.69315268
 10
-95.34617557
 20
6.64967971
 10
-95.30269817
 20
6.60620231
 10
-95.25921868
 20
6.56272293
 10
-95.2157393
 20
6.51924344
 10
-95.17226191
 20
6.47576604
 10
-95.12878893
 20
6.43229307
 10
-95.08532225
 20
6.38882638
  0
ARC
  5
2AF
100
AcDbEntity
  8
MST_1_1
 62
   137
  6
CONTINUOUS
100
AcDbCircle
 10
-95.32710098
 20
6.49484063
 30
0.0
 40
0.26399996
100
AcDbArc
 50
336.32369791
 51
113.67631211
  0
LWPOLYLINE
  5
2B0
100
AcDbEntity
  8
MST_1_1
 62
   137
  6
CONTINUOUS
100
AcDbPolyline
 90
        9
 70
     0
 43
0.0
 10
-95.22108673
 20
6.2530619
 10
-95.2645533
 20
6.29652835
 10
-95.30802627
 20
6.34000133
 10
-95.35150367
 20
6.38347873
 10
-95.39498316
 20
6.42695845
 10
-95.43846289
 20
6.47043794
 10
-95.48194028
 20
6.51391534
 10
-95.52541326
 20
6.55738832
 10
-95.56887971
 20
6.60085489
  0
ARC
  5
2B1
100
AcDbEntity
  8
MST_1_1
 62
   137
  6
CONTINUOUS
100
AcDbCircle
 10
-95.32710106
 20
6.49484055
 30
0.0
 40
0.26399992
100
AcDbArc
 50
156.32366302
 51
293.676347
  0
LINE
  5
2B2
100
AcDbEntity
  8
MST_1_1
 62
   147
  6
CONTINUOUS
100
AcDbLine
 10
-3.25485984
 20
11.15721496
 30
2500.0
 11
-3.25485984
 21
5.93368555
 31
2500.0
  0
LWPOLYLINE
  5
2B3
100
AcDbEntity
  8
MST_1_1
 62
   147
  6
CONTINUOUS
100
AcDbPolyline
 90
       13
 70
     0
 43
0.0
 38
2500.0
 10
-3.25485984
 20
11.15721496
 10
-3.25268396
 20
11.33867095
 10
-3.23151453
 20
11.51941545
 10
-3.19148669
 20
11.69829485
 10
-3.1328559
 20
11.87416746
 10
-3.05599638
 20
12.04591076
 10
-2.96139869
 20
12.21242859
 10
-2.8496666
 20
12.37265817
 10
-2.72151324
 20
12.52557681
 10
-2.57775655
 20
12.67020851
 10
-2.41931407
 20
12.80563015
 10
-2.24719705
 20
12.93097741
 10
-2.06250403
 20
13.04545025
  0
LWPOLYLINE
  5
2B4
100
AcDbEntity
  8
MST_1_1
 62
   147
  6
CONTINUOUS
100
AcDbPolyline
 90
       13
 70
     0
 43
0.0
 38
2500.0
 10
-3.25485984
 20
5.93368555
 10
-3.25268396
 20
5.75222956
 10
-3.23151453
 20
5.57148506
 10
-3.19148669
 20
5.39260566
 10
-3.1328559
 20
5.21673305
 10
-3.05599638
 20
5.04498975
 10
-2.96139869
 20
4.87847191
 10
-2.8496666
 20
4.71824234
 10
-2.72151324
 20
4.5653237
 10
-2.57775655
 20
4.420692
 10
-2.41931407
 20
4.28527035
 10
-2.24719705
 20
4.15992309
 10
-2.06250403
 20
4.04545025
  0
LINE
  5
2B5
100
AcDbEntity
  8
MST_1_1
 62
   147
  6
CONTINUOUS
100
AcDbLine
 10
-3.25485984
 20
-18.84278504
 30
2500.0
 11
-3.25485984
 21
-24.06631445
 31
2500.0
  0
LWPOLYLINE
  5
2B6
100
AcDbEntity
  8
MST_1_1
 62
   147
  6
CONTINUOUS
100
AcDbPolyline
 90
       13
 70
     0
 43
0.0
 38
2500.0
 10
-3.25485984
 20
-18.84278504
 10
-3.25268396
 20
-18.66132905
 10
-3.23151453
 20
-18.48058455
 10
-3.19148669
 20
-18.30170515
 10
-3.1328559
 20
-18.12583254
 10
-3.05599638
 20
-17.95408924
 10
-2.96139869
 20
-17.78757141
 10
-2.8496666
 20
-17.62734183
 10
-2.72151324
 20
-17.47442319
 10
-2.57775655
 20
-17.32979149
 10
-2.41931407
 20
-17.19436985
 10
-2.24719705
 20
-17.06902259
 10
-2.06250403
 20
-16.95454975
  0
LWPOLYLINE
  5
2B7
100
AcDbEntity
  8
MST_1_1
 62
   147
  6
CONTINUOUS
100
AcDbPolyline
 90
       13
 70
     0
 43
0.0
 38
2500.0
 10
-3.25485984
 20
-24.06631445
 10
-3.25268396
 20
-24.24777044
 10
-3.23151453
 20
-24.42851494
 10
-3.19148669
 20
-24.60739434
 10
-3.1328559
 20
-24.78326695
 10
-3.05599638
 20
-24.95501025
 10
-2.96139869
 20
-25.12152809
 10
-2.8496666
 20
-25.28175766
 10
-2.72151324
 20
-25.4346763
 10
-2.57775655
 20
-25.579308
 10
-2.41931407
 20
-25.71472965
 10
-2.24719705
 20
-25.84007691
 10
-2.06250403
 20
-25.95454975
  0
LINE
  5
2B8
100
AcDbEntity
  8
MST_1_1
 62
   147
  6
CONTINUOUS
100
AcDbLine
 10
-3.25485984
 20
-48.84278504
 30
2500.0
 11
-3.25485984
 21
-54.06631445
 31
2500.0
  0
LWPOLYLINE
  5
2B9
100
AcDbEntity
  8
MST_1_1
 62
   147
  6
CONTINUOUS
100
AcDbPolyline
 90
       13
 70
     0
 43
0.0
 38
2500.0
 10
-3.25485984
 20
-48.84278504
 10
-3.25268396
 20
-48.66132905
 10
-3.23151453
 20
-48.48058455
 10
-3.19148669
 20
-48.30170515
 10
-3.1328559
 20
-48.12583254
 10
-3.05599638
 20
-47.95408924
 10
-2.96139869
 20
-47.78757141
 10
-2.8496666
 20
-47.62734183
 10
-2.72151324
 20
-47.47442319
 10
-2.57775655
 20
-47.32979149
 10
-2.41931407
 20
-47.19436985
 10
-2.24719705
 20
-47.06902259
 10
-2.06250403
 20
-46.95454975
  0
LWPOLYLINE
  5
2BA
100
AcDbEntity
  8
MST_1_1
 62
   147
  6
CONTINUOUS
100
AcDbPolyline
 90
       13
 70
     0
 43
0.0
 38
2500.0
 10
-3.25485984
 20
-54.06631445
 10
-3.25268396
 20
-54.24777044
 10
-3.23151453
 20
-54.42851494
 10
-3.19148669
 20
-54.60739434
 10
-3.1328559
 20
-54.78326695
 10
-3.05599638
 20
-54.95501025
 10
-2.96139869
 20
-55.12152809
 10
-2.8496666
 20
-55.28175766
 10
-2.72151324
 20
-55.4346763
 10
-2.57775655
 20
-55.579308
 10
-2.41931407
 20
-55.71472965
 10
-2.24719705
 20
-55.84007691
 10
-2.06250403
 20
-55.95454975
  0
LINE
  5
2BB
100
AcDbEntity
  8
MST_1_1
 62
   147
  6
CONTINUOUS
100
AcDbLine
 10
-3.25485984
 20
-78.84278504
 30
2500.0
 11
-3.25485984
 21
-84.06631445
 31
2500.0
  0
LWPOLYLINE
  5
2BC
100
AcDbEntity
  8
MST_1_1
 62
   147
  6
CONTINUOUS
100
AcDbPolyline
 90
       13
 70
     0
 43
0.0
 38
2500.0
 10
-3.25485984
 20
-78.84278504
 10
-3.25268396
 20
-78.66132905
 10
-3.23151453
 20
-78.48058455
 10
-3.19148669
 20
-78.30170515
 10
-3.1328559
 20
-78.12583254
 10
-3.05599638
 20
-77.95408924
 10
-2.96139869
 20
-77.78757141
 10
-2.8496666
 20
-77.62734183
 10
-2.72151324
 20
-77.47442319
 10
-2.57775655
 20
-77.32979149
 10
-2.41931407
 20
-77.19436985
 10
-2.24719705
 20
-77.06902259
 10
-2.06250403
 20
-76.95454975
  0
LWPOLYLINE
  5
2BD
100
AcDbEntity
  8
MST_1_1
 62
   147
  6
CONTINUOUS
100
AcDbPolyline
 90
       13
 70
     0
 43
0.0
 38
2500.0
 10
-3.25485984
 20
-84.06631445
 10
-3.25268396
 20
-84.24777044
 10
-3.23151453
 20
-84.42851494
 10
-3.19148669
 20
-84.60739434
 10
-3.1328559
 20
-84.78326695
 10
-3.05599638
 20
-84.95501025
 10
-2.96139869
 20
-85.12152809
 10
-2.8496666
 20
-85.28175766
 10
-2.72151324
 20
-85.4346763
 10
-2.57775655
 20
-85.579308
 10
-2.41931407
 20
-85.71472965
 10
-2.24719705
 20
-85.84007691
 10
-2.06250403
 20
-85.95454975
  0
LINE
  5
2BE
100
AcDbEntity
  8
MST_1_1
 62
   147
  6
CONTINUOUS
100
AcDbLine
 10
-3.25485984
 20
-108.84278504
 30
2500.0
 11
-3.25485984
 21
-114.06631445
 31
2500.0
  0
LWPOLYLINE
  5
2BF
100
AcDbEntity
  8
MST_1_1
 62
   147
  6
CONTINUOUS
100
AcDbPolyline
 90
       13
 70
     0
 43
0.0
 38
2500.0
 10
-3.25485984
 20
-108.84278504
 10
-3.25268396
 20
-108.66132905
 10
-3.23151453
 20
-108.48058455
 10
-3.19148669
 20
-108.30170515
 10
-3.1328559
 20
-108.12583254
 10
-3.05599638
 20
-107.95408924
 10
-2.96139869
 20
-107.78757141
 10
-2.8496666
 20
-107.62734183
 10
-2.72151324
 20
-107.47442319
 10
-2.57775655
 20
-107.32979149
 10
-2.41931407
 20
-107.19436985
 10
-2.24719705
 20
-107.06902259
 10
-2.06250403
 20
-106.95454975
  0
LWPOLYLINE
  5
2C0
100
AcDbEntity
  8
MST_1_1
 62
   147
  6
CONTINUOUS
100
AcDbPolyline
 90
       13
 70
     0
 43
0.0
 38
2500.0
 10
-3.25485984
 20
-114.06631445
 10
-3.25268396
 20
-114.24777044
 10
-3.23151453
 20
-114.42851494
 10
-3.19148669
 20
-114.60739434
 10
-3.1328559
 20
-114.78326695
 10
-3.05599638
 20
-114.95501025
 10
-2.96139869
 20
-115.12152809
 10
-2.8496666
 20
-115.28175766
 10
-2.72151324
 20
-115.4346763
 10
-2.57775655
 20
-115.579308
 10
-2.41931407
 20
-115.71472965
 10
-2.24719705
 20
-115.84007691
 10
-2.06250403
 20
-115.95454975
  0
LINE
  5
2C1
100
AcDbEntity
  8
MST_1_1
 62
   147
  6
CONTINUOUS
100
AcDbLine
 10
-3.25485984
 20
-138.84278504
 30
2500.0
 11
-3.25485984
 21
-144.06631445
 31
2500.0
  0
LWPOLYLINE
  5
2C2
100
AcDbEntity
  8
MST_1_1
 62
   147
  6
CONTINUOUS
100
AcDbPolyline
 90
       13
 70
     0
 43
0.0
 38
2500.0
 10
-3.25485984
 20
-138.84278504
 10
-3.25268396
 20
-138.66132905
 10
-3.23151453
 20
-138.48058455
 10
-3.19148669
 20
-138.30170515
 10
-3.1328559
 20
-138.12583254
 10
-3.05599638
 20
-137.95408924
 10
-2.96139869
 20
-137.78757141
 10
-2.8496666
 20
-137.62734183
 10
-2.72151324
 20
-137.47442319
 10
-2.57775655
 20
-137.32979149
 10
-2.41931407
 20
-137.19436985
 10
-2.24719705
 20
-137.06902259
 10
-2.06250403
 20
-136.95454975
  0
LWPOLYLINE
  5
2C3
100
AcDbEntity
  8
MST_1_1
 62
   147
  6
CONTINUOUS
100
AcDbPolyline
 90
       13
 70
     0
 43
0.0
 38
2500.0
 10
-3.25485984
 20
-144.06631445
 10
-3.25268396
 20
-144.24777044
 10
-3.23151453
 20
-144.42851494
 10
-3.19148669
 20
-144.60739434
 10
-3.1328559
 20
-144.78326695
 10
-3.05599638
 20
-144.95501025
 10
-2.96139869
 20
-145.12152809
 10
-2.8496666
 20
-145.28175766
 10
-2.72151324
 20
-145.4346763
 10
-2.57775655
 20
-145.579308
 10
-2.41931407
 20
-145.71472965
 10
-2.24719705
 20
-145.84007691
 10
-2.06250403
 20
-145.95454975
  0
LINE
  5
2C4
100
AcDbEntity
  8
MST_1_1
 62
   147
  6
CONTINUOUS
100
AcDbLine
 10
-3.25485984
 20
-168.84278504
 30
2500.0
 11
-3.25485984
 21
-174.06631445
 31
2500.0
  0
LWPOLYLINE
  5
2C5
100
AcDbEntity
  8
MST_1_1
 62
   147
  6
CONTINUOUS
100
AcDbPolyline
 90
       13
 70
     0
 43
0.0
 38
2500.0
 10
-3.25485984
 20
-168.84278504
 10
-3.25268396
 20
-168.66132905
 10
-3.23151453
 20
-168.48058455
 10
-3.19148669
 20
-168.30170515
 10
-3.1328559
 20
-168.12583254
 10
-3.05599638
 20
-167.95408924
 10
-2.96139869
 20
-167.78757141
 10
-2.8496666
 20
-167.62734183
 10
-2.72151324
 20
-167.47442319
 10
-2.57775655
 20
-167.32979149
 10
-2.41931407
 20
-167.19436985
 10
-2.24719705
 20
-167.06902259
 10
-2.06250403
 20
-166.95454975
  0
LWPOLYLINE
  5
2C6
100
AcDbEntity
  8
MST_1_1
 62
   147
  6
CONTINUOUS
100
AcDbPolyline
 90
       13
 70
     0
 43
0.0
 38
2500.0
 10
-3.25485984
 20
-174.06631445
 10
-3.25268396
 20
-174.24777044
 10
-3.23151453
 20
-174.42851494
 10
-3.19148669
 20
-174.60739434
 10
-3.1328559
 20
-174.78326695
 10
-3.05599638
 20
-174.95501025
 10
-2.96139869
 20
-175.12152809
 10
-2.8496666
 20
-175.28175766
 10
-2.72151324
 20
-175.4346763
 10
-2.57775655
 20
-175.579308
 10
-2.41931407
 20
-175.71472965
 10
-2.24719705
 20
-175.84007691
 10
-2.06250403
 20
-175.95454975
  0
LINE
  5
2C7
100
AcDbEntity
  8
MST_1_1
 62
   147
  6
CONTINUOUS
100
AcDbLine
 10
-3.25485984
 20
-198.84278504
 30
2500.0
 11
-3.25485984
 21
-204.06631445
 31
2500.0
  0
LWPOLYLINE
  5
2C8
100
AcDbEntity
  8
MST_1_1
 62
   147
  6
CONTINUOUS
100
AcDbPolyline
 90
       13
 70
     0
 43
0.0
 38
2500.0
 10
-3.25485984
 20
-198.84278504
 10
-3.25268396
 20
-198.66132905
 10
-3.23151453
 20
-198.48058455
 10
-3.19148669
 20
-198.30170515
 10
-3.1328559
 20
-198.12583254
 10
-3.05599638
 20
-197.95408924
 10
-2.96139869
 20
-197.78757141
 10
-2.8496666
 20
-197.62734183
 10
-2.72151324
 20
-197.47442319
 10
-2.57775655
 20
-197.32979149
 10
-2.41931407
 20
-197.19436985
 10
-2.24719705
 20
-197.06902259
 10
-2.06250403
 20
-196.95454975
  0
LWPOLYLINE
  5
2C9
100
AcDbEntity
  8
MST_1_1
 62
   147
  6
CONTINUOUS
100
AcDbPolyline
 90
       13
 70
     0
 43
0.0
 38
2500.0
 10
-3.25485984
 20
-204.06631445
 10
-3.25268396
 20
-204.24777044
 10
-3.23151453
 20
-204.42851494
 10
-3.19148669
 20
-204.60739434
 10
-3.1328559
 20
-204.78326695
 10
-3.05599638
 20
-204.95501025
 10
-2.96139869
 20
-205.12152809
 10
-2.8496666
 20
-205.28175766
 10
-2.72151324
 20
-205.4346763
 10
-2.57775655
 20
-205.579308
 10
-2.41931407
 20
-205.71472965
 10
-2.24719705
 20
-205.84007691
 10
-2.06250403
 20
-205.95454975
  0
LINE
  5
2CA
100
AcDbEntity
  8
MST_1_1
 62
   147
  6
CONTINUOUS
100
AcDbLine
 10
-3.25485984
 20
-228.84278504
 30
2500.0
 11
-3.25485984
 21
-234.06631445
 31
2500.0
  0
LWPOLYLINE
  5
2CB
100
AcDbEntity
  8
MST_1_1
 62
   147
  6
CONTINUOUS
100
AcDbPolyline
 90
       13
 70
     0
 43
0.0
 38
2500.0
 10
-3.25485984
 20
-228.84278504
 10
-3.25268396
 20
-228.66132905
 10
-3.23151453
 20
-228.48058455
 10
-3.19148669
 20
-228.30170515
 10
-3.1328559
 20
-228.12583254
 10
-3.05599638
 20
-227.95408924
 10
-2.96139869
 20
-227.78757141
 10
-2.8496666
 20
-227.62734183
 10
-2.72151324
 20
-227.47442319
 10
-2.57775655
 20
-227.32979149
 10
-2.41931407
 20
-227.19436985
 10
-2.24719705
 20
-227.06902259
 10
-2.06250403
 20
-226.95454975
  0
LWPOLYLINE
  5
2CC
100
AcDbEntity
  8
MST_1_1
 62
   147
  6
CONTINUOUS
100
AcDbPolyline
 90
       13
 70
     0
 43
0.0
 38
2500.0
 10
-3.25485984
 20
-234.06631445
 10
-3.25268396
 20
-234.24777044
 10
-3.23151453
 20
-234.42851494
 10
-3.19148669
 20
-234.60739434
 10
-3.1328559
 20
-234.78326695
 10
-3.05599638
 20
-234.95501025
 10
-2.96139869
 20
-235.12152809
 10
-2.8496666
 20
-235.28175766
 10
-2.72151324
 20
-235.4346763
 10
-2.57775655
 20
-235.579308
 10
-2.41931407
 20
-235.71472965
 10
-2.24719705
 20
-235.84007691
 10
-2.06250403
 20
-235.95454975
  0
LINE
  5
2CD
100
AcDbEntity
  8
MST_1_1
 62
   147
  6
CONTINUOUS
100
AcDbLine
 10
-3.25485984
 20
-258.84278504
 30
2500.0
 11
-3.25485984
 21
-264.06631445
 31
2500.0
  0
LWPOLYLINE
  5
2CE
100
AcDbEntity
  8
MST_1_1
 62
   147
  6
CONTINUOUS
100
AcDbPolyline
 90
       13
 70
     0
 43
0.0
 38
2500.0
 10
-3.25485984
 20
-258.84278504
 10
-3.25268396
 20
-258.66132905
 10
-3.23151453
 20
-258.48058455
 10
-3.19148669
 20
-258.30170515
 10
-3.1328559
 20
-258.12583254
 10
-3.05599638
 20
-257.95408924
 10
-2.96139869
 20
-257.78757141
 10
-2.8496666
 20
-257.62734183
 10
-2.72151324
 20
-257.47442319
 10
-2.57775655
 20
-257.32979149
 10
-2.41931407
 20
-257.19436985
 10
-2.24719705
 20
-257.06902259
 10
-2.06250403
 20
-256.95454975
  0
LWPOLYLINE
  5
2CF
100
AcDbEntity
  8
MST_1_1
 62
   147
  6
CONTINUOUS
100
AcDbPolyline
 90
       13
 70
     0
 43
0.0
 38
2500.0
 10
-3.25485984
 20
-264.06631445
 10
-3.25268396
 20
-264.24777044
 10
-3.23151453
 20
-264.42851494
 10
-3.19148669
 20
-264.60739434
 10
-3.1328559
 20
-264.78326695
 10
-3.05599638
 20
-264.95501025
 10
-2.96139869
 20
-265.12152809
 10
-2.8496666
 20
-265.28175766
 10
-2.72151324
 20
-265.4346763
 10
-2.57775655
 20
-265.579308
 10
-2.41931407
 20
-265.71472965
 10
-2.24719705
 20
-265.84007691
 10
-2.06250403
 20
-265.95454975
  0
CIRCLE
  5
2D0
100
AcDbEntity
  8
MST_1_1
 62
   137
  6
CONTINUOUS
100
AcDbCircle
 10
-93.27649136
 20
-21.45454975
 30
0.0
 40
2.32981333
  0
CIRCLE
  5
2D1
100
AcDbEntity
  8
MST_1_1
 62
   137
  6
CONTINUOUS
100
AcDbCircle
 10
-93.27649136
 20
-21.45454975
 30
0.0
 40
1.32203389
  0
CIRCLE
  5
2D2
100
AcDbEntity
  8
MST_1_1
 62
   137
  6
CONTINUOUS
100
AcDbCircle
 10
-93.27649136
 20
-21.45454975
 30
0.0
 40
2.32981333
  0
CIRCLE
  5
2D3
100
AcDbEntity
  8
MST_1_1
 62
   137
  6
CONTINUOUS
100
AcDbCircle
 10
-93.27649136
 20
-21.45454975
 30
0.0
 40
2.32981333
  0
CIRCLE
  5
2D4
100
AcDbEntity
  8
MST_1_1
 62
   137
  6
CONTINUOUS
100
AcDbCircle
 10
-93.27649136
 20
-21.45454975
 30
0.0
 40
4.5
  0
ARC
  5
2D5
100
AcDbEntity
  8
MST_1_1
 62
   137
  6
CONTINUOUS
100
AcDbCircle
 10
-95.15049131
 20
-21.45454975
 30
0.0
 40
0.37600003
100
AcDbArc
 50
106.48878485
 51
253.51122516
  0
ARC
  5
2D6
100
AcDbEntity
  8
MST_1_1
 62
   137
  6
CONTINUOUS
100
AcDbCircle
 10
-95.5367621
 20
-22.7595177
 30
0.0
 40
0.98493585
100
AcDbArc
 50
346.4887751
 51
73.5112424
  0
ARC
  5
2D7
100
AcDbEntity
  8
MST_1_1
 62
   137
  6
CONTINUOUS
100
AcDbCircle
 10
-94.2134913
 20
-23.0774813
 30
0.0
 40
0.37600004
100
AcDbArc
 50
166.48877314
 51
313.51122983
  0
ARC
  5
2D8
100
AcDbEntity
  8
MST_1_1
 62
   137
  6
CONTINUOUS
100
AcDbCircle
 10
-93.27649136
 20
-24.06448542
 30
0.0
 40
0.98493568
100
AcDbArc
 50
46.48875513
 51
133.51124487
  0
ARC
  5
2D9
100
AcDbEntity
  8
MST_1_1
 62
   137
  6
CONTINUOUS
100
AcDbCircle
 10
-92.3394914
 20
-23.07748134
 30
0.0
 40
0.37600002
100
AcDbArc
 50
226.48878273
 51
13.51123435
  0
ARC
  5
2DA
100
AcDbEntity
  8
MST_1_1
 62
   137
  6
CONTINUOUS
100
AcDbCircle
 10
-91.01622058
 20
-22.75951772
 30
0.0
 40
0.98493588
100
AcDbArc
 50
106.48875933
 51
193.51124321
  0
ARC
  5
2DB
100
AcDbEntity
  8
MST_1_1
 62
   137
  6
CONTINUOUS
100
AcDbCircle
 10
-91.40249141
 20
-21.45454975
 30
0.0
 40
0.37600003
100
AcDbArc
 50
286.48879487
 51
73.51121515
  0
ARC
  5
2DC
100
AcDbEntity
  8
MST_1_1
 62
   137
  6
CONTINUOUS
100
AcDbCircle
 10
-91.01622062
 20
-20.1495818
 30
0.0
 40
0.98493585
100
AcDbArc
 50
166.48876508
 51
253.51125242
  0
ARC
  5
2DD
100
AcDbEntity
  8
MST_1_1
 62
   137
  6
CONTINUOUS
100
AcDbCircle
 10
-92.33949142
 20
-19.8316182
 30
0.0
 40
0.37600004
100
AcDbArc
 50
346.48878316
 51
133.51121981
  0
ARC
  5
2DE
100
AcDbEntity
  8
MST_1_1
 62
   137
  6
CONTINUOUS
100
AcDbCircle
 10
-93.27649136
 20
-18.84461407
 30
0.0
 40
0.98493568
100
AcDbArc
 50
226.48876515
 51
313.51125489
  0
ARC
  5
2DF
100
AcDbEntity
  8
MST_1_1
 62
   137
  6
CONTINUOUS
100
AcDbCircle
 10
-94.21349132
 20
-19.83161815
 30
0.0
 40
0.37600002
100
AcDbArc
 50
46.48877271
 51
193.51124436
  0
ARC
  5
2E0
100
AcDbEntity
  8
MST_1_1
 62
   137
  6
CONTINUOUS
100
AcDbCircle
 10
-95.53676214
 20
-20.14958178
 30
0.0
 40
0.98493588
100
AcDbArc
 50
286.48876935
 51
13.51123319
  0
LWPOLYLINE
  5
2E1
100
AcDbEntity
  8
MST_1_1
 62
   137
  6
CONTINUOUS
100
AcDbPolyline
 90
        9
 70
     0
 43
0.0
 10
-94.97354759
 20
-24.42439821
 10
-94.9614624
 20
-24.4123129
 10
-94.94936778
 20
-24.40021828
 10
-94.93726396
 20
-24.38811458
 10
-94.92515094
 20
-24.37600156
 10
-94.91302885
 20
-24.36387947
 10
-94.90089768
 20
-24.35174829
 10
-94.88875742
 20
-24.33960804
 10
-94.87660808
 20
-24.3274587
  0
ARC
  5
2E2
100
AcDbEntity
  8
MST_1_1
 62
   137
  6
CONTINUOUS
100
AcDbCircle
 10
-94.67373437
 20
-24.15852609
 30
0.0
 40
0.26399994
100
AcDbArc
 50
50.21590624
 51
219.78410378
  0
LWPOLYLINE
  5
2E3
100
AcDbEntity
  8
MST_1_1
 62
   137
  6
CONTINUOUS
100
AcDbPolyline
 90
        9
 70
     0
 43
0.0
 10
-94.50480176
 20
-23.95565238
 10
-94.49270865
 20
-23.94355915
 10
-94.48060844
 20
-23.93145895
 10
-94.46850125
 20
-23.91935198
 10
-94.45638719
 20
-23.90723781
 10
-94.44426614
 20
-23.89511688
 10
-94.43213834
 20
-23.88298896
 10
-94.42000368
 20
-23.87085429
 10
-94.40786226
 20
-23.85871287
  0
LWPOLYLINE
  5
2E4
100
AcDbEntity
  8
MST_1_1
 62
   137
  6
CONTINUOUS
100
AcDbPolyline
 90
        9
 70
     0
 43
0.0
 10
-94.40786226
 20
-23.85871287
 10
-94.480311
 20
-23.78626389
 10
-94.552836
 20
-23.71373901
 10
-94.62542748
 20
-23.64114754
 10
-94.69807541
 20
-23.56849949
 10
-94.77077014
 20
-23.49580487
 10
-94.84350189
 20
-23.42307324
 10
-94.91626077
 20
-23.35031424
 10
-94.98903688
 20
-23.27753813
  0
LWPOLYLINE
  5
2E5
100
AcDbEntity
  8
MST_1_1
 62
   137
  6
CONTINUOUS
100
AcDbPolyline
 90
        9
 70
     0
 43
0.0
 10
-94.98903688
 20
-23.27753813
 10
-94.99333307
 20
-23.28183433
 10
-94.99762833
 20
-23.2861297
 10
-95.00192289
 20
-23.29042426
 10
-95.00621664
 20
-23.29471789
 10
-95.01050945
 20
-23.29901082
 10
-95.01480145
 20
-23.30330282
 10
-95.01909264
 20
-23.30759389
 10
-95.02338289
 20
-23.31188426
  0
LWPOLYLINE
  5
2E6
100
AcDbEntity
  8
MST_1_1
 62
   137
  6
CONTINUOUS
100
AcDbPolyline
 90
       25
 70
     0
 43
0.0
 10
-95.02338289
 20
-23.31188424
 10
-95.02697239
 20
-23.30635534
 10
-95.03065727
 20
-23.30089969
 10
-95.03443653
 20
-23.29551829
 10
-95.03830915
 20
-23.29021216
 10
-95.04227414
 20
-23.28498228
 10
-95.04633049
 20
-23.27982968
 10
-95.05047721
 20
-23.27475535
 10
-95.05471329
 20
-23.2697603
 10
-95.05903773
 20
-23.26484553
 10
-95.06344953
 20
-23.26001204
 10
-95.06794768
 20
-23.25526085
 10
-95.07253118
 20
-23.25059296
 10
-95.07719903
 20
-23.24600938
 10
-95.08195023
 20
-23.24151109
 10
-95.08678378
 20
-23.23709913
 10
-95.09169866
 20
-23.23277448
 10
-95.09669389
 20
-23.22853815
 10
-95.10176846
 20
-23.22439114
 10
-95.10692137
 20
-23.22033448
 10
-95.1121516
 20
-23.21636914
 10
-95.11745817
 20
-23.21249615
 10
-95.12284007
 20
-23.20871651
 10
-95.1282963
 20
-23.20503121
 10
-95.13382585
 20
-23.20144128
  0
LWPOLYLINE
  5
2E7
100
AcDbEntity
  8
MST_1_1
 62
   137
  6
CONTINUOUS
100
AcDbPolyline
 90
        9
 70
     0
 43
0.0
 10
-95.13382588
 20
-23.20144128
 10
-95.1295355
 20
-23.19715103
 10
-95.12524444
 20
-23.19285984
 10
-95.12095244
 20
-23.18856784
 10
-95.1166595
 20
-23.18427503
 10
-95.11236587
 20
-23.17998128
 10
-95.10807131
 20
-23.17568672
 10
-95.10377594
 20
-23.17139146
 10
-95.09947975
 20
-23.16709527
  0
LWPOLYLINE
  5
2E8
100
AcDbEntity
  8
MST_1_1
 62
   137
  6
CONTINUOUS
100
AcDbPolyline
 90
        9
 70
     0
 43
0.0
 10
-95.09947975
 20
-23.16709527
 10
-95.17225585
 20
-23.09431916
 10
-95.24501485
 20
-23.02156028
 10
-95.31774648
 20
-22.94882853
 10
-95.3904411
 20
-22.8761338
 10
-95.46308915
 20
-22.80348586
 10
-95.53568062
 20
-22.73089439
 10
-95.60820551
 20
-22.65836939
 10
-95.68065449
 20
-22.58592064
  0
LWPOLYLINE
  5
2E9
100
AcDbEntity
  8
MST_1_1
 62
   137
  6
CONTINUOUS
100
AcDbPolyline
 90
        9
 70
     0
 43
0.0
 10
-95.68065449
 20
-22.58592064
 10
-95.69279591
 20
-22.59806206
 10
-95.70493057
 20
-22.61019673
 10
-95.71705849
 20
-22.62232453
 10
-95.72917942
 20
-22.63444558
 10
-95.7412936
 20
-22.64655964
 10
-95.75340056
 20
-22.65866683
 10
-95.76550077
 20
-22.67076704
 10
-95.77759399
 20
-22.68286015
  0
ARC
  5
2EA
100
AcDbEntity
  8
MST_1_1
 62
   137
  6
CONTINUOUS
100
AcDbCircle
 10
-95.98046758
 20
-22.85179288
 30
0.0
 40
0.26399993
100
AcDbArc
 50
230.21587884
 51
39.78413117
  0
LWPOLYLINE
  5
2EB
100
AcDbEntity
  8
MST_1_1
 62
   137
  6
CONTINUOUS
100
AcDbPolyline
 90
        9
 70
     0
 43
0.0
 10
-96.14940031
 20
-23.05466647
 10
-96.16154965
 20
-23.06681581
 10
-96.1736899
 20
-23.07895606
 10
-96.18582108
 20
-23.09108724
 10
-96.19794317
 20
-23.10320933
 10
-96.21005619
 20
-23.11532235
 10
-96.22215989
 20
-23.12742616
 10
-96.23425451
 20
-23.13952079
 10
-96.24633982
 20
-23.15160598
  0
LWPOLYLINE
  5
2EC
100
AcDbEntity
  8
MST_1_1
 62
   137
  6
CONTINUOUS
100
AcDbPolyline
 90
        9
 70
     0
 43
0.0
 10
-96.24633982
 20
-23.15160598
 10
-96.17390364
 20
-23.22404238
 10
-96.10138621
 20
-23.2965597
 10
-96.02879823
 20
-23.36914756
 10
-95.95615018
 20
-23.44179561
 10
-95.88345254
 20
-23.51449349
 10
-95.81071531
 20
-23.58723048
 10
-95.73794945
 20
-23.65999634
 10
-95.66516519
 20
-23.7327806
  0
LWPOLYLINE
  5
2ED
100
AcDbEntity
  8
MST_1_1
 62
   137
  6
CONTINUOUS
100
AcDbPolyline
 90
        9
 70
     0
 43
0.0
 10
-95.66516519
 20
-23.7327806
 10
-95.66087599
 20
-23.72849139
 10
-95.65658562
 20
-23.72420102
 10
-95.65229408
 20
-23.71990949
 10
-95.64800139
 20
-23.71561679
 10
-95.64370752
 20
-23.71132293
 10
-95.6394125
 20
-23.70702813
 10
-95.63511654
 20
-23.70273194
 10
-95.63081918
 20
-23.69843459
  0
LWPOLYLINE
  5
2EE
100
AcDbEntity
  8
MST_1_1
 62
   137
  6
CONTINUOUS
100
AcDbPolyline
 90
       25
 70
     0
 43
0.0
 10
-95.63081916
 20
-23.69843459
 10
-95.62722997
 20
-23.70396297
 10
-95.62354531
 20
-23.70941822
 10
-95.61976619
 20
-23.71479933
 10
-95.61589361
 20
-23.72010527
 10
-95.6119286
 20
-23.72533503
 10
-95.60787217
 20
-23.7304876
 10
-95.60372532
 20
-23.73556197
 10
-95.59948908
 20
-23.74055711
 10
-95.59516444
 20
-23.74547202
 10
-95.59075242
 20
-23.75030568
 10
-95.58625404
 20
-23.75505708
 10
-95.58167031
 20
-23.75972519
 10
-95.57700223
 20
-23.76430902
 10
-95.57225082
 20
-23.76880753
 10
-95.5674171
 20
-23.77321973
 10
-95.56250207
 20
-23.77754458
 10
-95.55750674
 20
-23.78178109
 10
-95.55243213
 20
-23.78592822
 10
-95.54727925
 20
-23.78998498
 10
-95.54204911
 20
-23.79395034
 10
-95.53674273
 20
-23.7978233
 10
-95.5313611
 20
-23.80160282
 10
-95.52590526
 20
-23.80528791
 10
-95.5203762
 20
-23.80887755
  0
LWPOLYLINE
  5
2EF
100
AcDbEntity
  8
MST_1_1
 62
   137
  6
CONTINUOUS
100
AcDbPolyline
 90
        9
 70
     0
 43
0.0
 10
-95.5203762
 20
-23.80887757
 10
-95.52467355
 20
-23.81317493
 10
-95.52896975
 20
-23.81747088
 10
-95.53326454
 20
-23.82176591
 10
-95.5375584
 20
-23.82605977
 10
-95.5418511
 20
-23.83035247
 10
-95.54614264
 20
-23.83464401
 10
-95.55043301
 20
-23.83893438
 10
-95.55472221
 20
-23.84322358
  0
LWPOLYLINE
  5
2F0
100
AcDbEntity
  8
MST_1_1
 62
   137
  6
CONTINUOUS
100
AcDbPolyline
 90
        9
 70
     0
 43
0.0
 10
-95.55472221
 20
-23.84322358
 10
-95.48193796
 20
-23.91600784
 10
-95.40917209
 20
-23.9887737
 10
-95.3364351
 20
-24.06151093
 10
-95.26373723
 20
-24.13420857
 10
-95.19108917
 20
-24.20685662
 10
-95.11850131
 20
-24.2794446
 10
-95.045984
 20
-24.35196203
 10
-94.97354759
 20
-24.42439821
  0
CIRCLE
  5
2F1
100
AcDbEntity
  8
MST_1_1
 62
   137
  6
CONTINUOUS
100
AcDbCircle
 10
-93.27649136
 20
-21.45454975
 30
0.0
 40
4.28859654
  0
LWPOLYLINE
  5
2F2
100
AcDbEntity
  8
MST_1_1
 62
   137
  6
CONTINUOUS
100
AcDbPolyline
 90
        9
 70
     0
 43
0.0
 10
-95.2484931
 20
-23.15384651
 10
-95.29613282
 20
-23.10620679
 10
-95.34376158
 20
-23.05857791
 10
-95.39137708
 20
-23.01096241
 10
-95.43897628
 20
-22.96336322
 10
-95.48655638
 20
-22.91578311
 10
-95.5341146
 20
-22.86822477
 10
-95.58164838
 20
-22.82069112
 10
-95.62915468
 20
-22.77318482
  0
ARC
  5
2F3
100
AcDbEntity
  8
MST_1_1
 62
   137
  6
CONTINUOUS
100
AcDbCircle
 10
-95.32710128
 20
-23.50515905
 30
0.0
 40
0.35999965
100
AcDbArc
 50
77.38749365
 51
127.33775307
  0
LWPOLYLINE
  5
2F4
100
AcDbEntity
  8
MST_1_1
 62
   137
  6
CONTINUOUS
100
AcDbPolyline
 90
        9
 70
     0
 43
0.0
 10
-95.04087429
 20
-23.72350393
 10
-95.10392274
 20
-23.66045549
 10
-95.16699085
 20
-23.59738725
 10
-95.23007201
 20
-23.53430598
 10
-95.2931598
 20
-23.47121819
 10
-95.35624759
 20
-23.4081304
 10
-95.41932886
 20
-23.34504924
 10
-95.4823971
 20
-23.28198112
 10
-95.54544554
 20
-23.21893268
  0
ARC
  5
2F5
100
AcDbEntity
  8
MST_1_1
 62
   137
  6
CONTINUOUS
100
AcDbCircle
 10
-95.32710139
 20
-23.50515951
 30
0.0
 40
0.36000032
100
AcDbArc
 50
322.66230677
 51
12.61245653
  0
LWPOLYLINE
  5
2F6
100
AcDbEntity
  8
MST_1_1
 62
   137
  6
CONTINUOUS
100
AcDbPolyline
 90
        9
 70
     0
 43
0.0
 10
-94.59512643
 20
-23.80721306
 10
-94.64263273
 20
-23.75970676
 10
-94.69016639
 20
-23.71217299
 10
-94.73772472
 20
-23.66461477
 10
-94.78530483
 20
-23.61703467
 10
-94.83290403
 20
-23.56943547
 10
-94.88051952
 20
-23.52181997
 10
-94.92814841
 20
-23.4741912
 10
-94.97578812
 20
-23.42655149
  0
ARC
  5
2F7
100
AcDbEntity
  8
MST_1_1
 62
   137
  6
CONTINUOUS
100
AcDbCircle
 10
-94.67373419
 20
-24.15852619
 30
0.0
 40
0.36000013
100
AcDbArc
 50
77.38757789
 51
192.61246315
  0
LWPOLYLINE
  5
2F8
100
AcDbEntity
  8
MST_1_1
 62
   137
  6
CONTINUOUS
100
AcDbPolyline
 90
        9
 70
     0
 43
0.0
 10
-95.40570897
 20
-23.85647234
 10
-95.3580667
 20
-23.90411485
 10
-95.31043537
 20
-23.95174595
 10
-95.26281848
 20
-23.99936284
 10
-95.21521858
 20
-24.04696274
 10
-95.16763859
 20
-24.09454284
 10
-95.12008142
 20
-24.1420999
 10
-95.07254997
 20
-24.18963134
 10
-95.02504728
 20
-24.23713415
  0
ARC
  5
2F9
100
AcDbEntity
  8
MST_1_1
 62
   137
  6
CONTINUOUS
100
AcDbCircle
 10
-95.32710119
 20
-23.5051584
 30
0.0
 40
0.36000093
100
AcDbArc
 50
257.38761324
 51
307.3376629
  0
LWPOLYLINE
  5
2FA
100
AcDbEntity
  8
MST_1_1
 62
   137
  6
CONTINUOUS
100
AcDbPolyline
 90
        9
 70
     0
 43
0.0
 10
-95.61332778
 20
-23.28681504
 10
-95.55027934
 20
-23.34986325
 10
-95.48721134
 20
-23.41293137
 10
-95.42413006
 20
-23.47601264
 10
-95.36104204
 20
-23.53910043
 10
-95.29795425
 20
-23.60218845
 10
-95.23487298
 20
-23.66526972
 10
-95.17180486
 20
-23.72833772
 10
-95.10875665
 20
-23.79138617
  0
ARC
  5
2FB
100
AcDbEntity
  8
MST_1_1
 62
   137
  6
CONTINUOUS
100
AcDbCircle
 10
-95.32710102
 20
-23.50515935
 30
0.0
 40
0.36
100
AcDbArc
 50
142.66227791
 51
192.61247599
  0
LWPOLYLINE
  5
2FC
100
AcDbEntity
  8
MST_1_1
 62
   137
  6
CONTINUOUS
100
AcDbPolyline
 90
        9
 70
     0
 43
0.0
 10
-96.05907576
 20
-23.20310567
 10
-96.01157295
 20
-23.25060836
 10
-95.96404151
 20
-23.2981398
 10
-95.91648445
 20
-23.34569698
 10
-95.86890435
 20
-23.39327697
 10
-95.82130445
 20
-23.44087686
 10
-95.77368756
 20
-23.48849376
 10
-95.72605646
 20
-23.53612509
 10
-95.67841396
 20
-23.58376736
  0
ARC
  5
2FD
100
AcDbEntity
  8
MST_1_1
 62
   137
  6
CONTINUOUS
100
AcDbCircle
 10
-95.9804677
 20
-22.85179269
 30
0.0
 40
0.36000006
100
AcDbArc
 50
257.38753734
 51
12.61244165
  0
LWPOLYLINE
  5
2FE
100
AcDbEntity
  8
MST_1_1
 62
   137
  6
CONTINUOUS
100
AcDbPolyline
 90
        9
 70
     0
 43
0.0
 10
-95.43311523
 20
-23.26338063
 10
-95.38964854
 20
-23.30684732
 10
-95.34617557
 20
-23.35032029
 10
-95.30269817
 20
-23.39379769
 10
-95.25921868
 20
-23.43727707
 10
-95.2157393
 20
-23.48075656
 10
-95.17226191
 20
-23.52423396
 10
-95.12878893
 20
-23.56770693
 10
-95.08532225
 20
-23.61117362
  0
ARC
  5
2FF
100
AcDbEntity
  8
MST_1_1
 62
   137
  6
CONTINUOUS
100
AcDbCircle
 10
-95.32710098
 20
-23.50515937
 30
0.0
 40
0.26399996
100
AcDbArc
 50
336.32369791
 51
113.67631211
  0
LWPOLYLINE
  5
300
100
AcDbEntity
  8
MST_1_1
 62
   137
  6
CONTINUOUS
100
AcDbPolyline
 90
        9
 70
     0
 43
0.0
 10
-95.22108673
 20
-23.7469381
 10
-95.2645533
 20
-23.70347165
 10
-95.30802627
 20
-23.65999867
 10
-95.35150367
 20
-23.61652127
 10
-95.39498316
 20
-23.57304155
 10
-95.43846289
 20
-23.52956206
 10
-95.48194028
 20
-23.48608466
 10
-95.52541326
 20
-23.44261168
 10
-95.56887971
 20
-23.39914511
  0
ARC
  5
301
100
AcDbEntity
  8
MST_1_1
 62
   137
  6
CONTINUOUS
100
AcDbCircle
 10
-95.32710106
 20
-23.50515945
 30
0.0
 40
0.26399992
100
AcDbArc
 50
156.32366302
 51
293.676347
  0
CIRCLE
  5
302
100
AcDbEntity
  8
MST_1_1
 62
   137
  6
CONTINUOUS
100
AcDbCircle
 10
-93.27649136
 20
-51.45454975
 30
0.0
 40
2.32981333
  0
CIRCLE
  5
303
100
AcDbEntity
  8
MST_1_1
 62
   137
  6
CONTINUOUS
100
AcDbCircle
 10
-93.27649136
 20
-51.45454975
 30
0.0
 40
1.32203389
  0
CIRCLE
  5
304
100
AcDbEntity
  8
MST_1_1
 62
   137
  6
CONTINUOUS
100
AcDbCircle
 10
-93.27649136
 20
-51.45454975
 30
0.0
 40
2.32981333
  0
CIRCLE
  5
305
100
AcDbEntity
  8
MST_1_1
 62
   137
  6
CONTINUOUS
100
AcDbCircle
 10
-93.27649136
 20
-51.45454975
 30
0.0
 40
2.32981333
  0
CIRCLE
  5
306
100
AcDbEntity
  8
MST_1_1
 62
   137
  6
CONTINUOUS
100
AcDbCircle
 10
-93.27649136
 20
-51.45454975
 30
0.0
 40
4.5
  0
ARC
  5
307
100
AcDbEntity
  8
MST_1_1
 62
   137
  6
CONTINUOUS
100
AcDbCircle
 10
-95.15049131
 20
-51.45454975
 30
0.0
 40
0.37600003
100
AcDbArc
 50
106.48878485
 51
253.51122516
  0
ARC
  5
308
100
AcDbEntity
  8
MST_1_1
 62
   137
  6
CONTINUOUS
100
AcDbCircle
 10
-95.5367621
 20
-52.7595177
 30
0.0
 40
0.98493585
100
AcDbArc
 50
346.4887751
 51
73.5112424
  0
ARC
  5
309
100
AcDbEntity
  8
MST_1_1
 62
   137
  6
CONTINUOUS
100
AcDbCircle
 10
-94.2134913
 20
-53.0774813
 30
0.0
 40
0.37600004
100
AcDbArc
 50
166.48877314
 51
313.51122983
  0
ARC
  5
30A
100
AcDbEntity
  8
MST_1_1
 62
   137
  6
CONTINUOUS
100
AcDbCircle
 10
-93.27649136
 20
-54.06448542
 30
0.0
 40
0.98493568
100
AcDbArc
 50
46.48875513
 51
133.51124487
  0
ARC
  5
30B
100
AcDbEntity
  8
MST_1_1
 62
   137
  6
CONTINUOUS
100
AcDbCircle
 10
-92.3394914
 20
-53.07748134
 30
0.0
 40
0.37600002
100
AcDbArc
 50
226.48878273
 51
13.51123435
  0
ARC
  5
30C
100
AcDbEntity
  8
MST_1_1
 62
   137
  6
CONTINUOUS
100
AcDbCircle
 10
-91.01622058
 20
-52.75951772
 30
0.0
 40
0.98493588
100
AcDbArc
 50
106.48875933
 51
193.51124321
  0
ARC
  5
30D
100
AcDbEntity
  8
MST_1_1
 62
   137
  6
CONTINUOUS
100
AcDbCircle
 10
-91.40249141
 20
-51.45454975
 30
0.0
 40
0.37600003
100
AcDbArc
 50
286.48879487
 51
73.51121515
  0
ARC
  5
30E
100
AcDbEntity
  8
MST_1_1
 62
   137
  6
CONTINUOUS
100
AcDbCircle
 10
-91.01622062
 20
-50.1495818
 30
0.0
 40
0.98493585
100
AcDbArc
 50
166.48876508
 51
253.51125242
  0
ARC
  5
30F
100
AcDbEntity
  8
MST_1_1
 62
   137
  6
CONTINUOUS
100
AcDbCircle
 10
-92.33949142
 20
-49.8316182
 30
0.0
 40
0.37600004
100
AcDbArc
 50
346.48878316
 51
133.51121981
  0
ARC
  5
310
100
AcDbEntity
  8
MST_1_1
 62
   137
  6
CONTINUOUS
100
AcDbCircle
 10
-93.27649136
 20
-48.84461407
 30
0.0
 40
0.98493568
100
AcDbArc
 50
226.48876515
 51
313.51125489
  0
ARC
  5
311
100
AcDbEntity
  8
MST_1_1
 62
   137
  6
CONTINUOUS
100
AcDbCircle
 10
-94.21349132
 20
-49.83161815
 30
0.0
 40
0.37600002
100
AcDbArc
 50
46.48877271
 51
193.51124436
  0
ARC
  5
312
100
AcDbEntity
  8
MST_1_1
 62
   137
  6
CONTINUOUS
100
AcDbCircle
 10
-95.53676214
 20
-50.14958178
 30
0.0
 40
0.98493588
100
AcDbArc
 50
286.48876935
 51
13.51123319
  0
LWPOLYLINE
  5
313
100
AcDbEntity
  8
MST_1_1
 62
   137
  6
CONTINUOUS
100
AcDbPolyline
 90
        9
 70
     0
 43
0.0
 10
-94.97354759
 20
-54.42439821
 10
-94.9614624
 20
-54.4123129
 10
-94.94936778
 20
-54.40021828
 10
-94.93726396
 20
-54.38811458
 10
-94.92515094
 20
-54.37600156
 10
-94.91302885
 20
-54.36387947
 10
-94.90089768
 20
-54.35174829
 10
-94.88875742
 20
-54.33960804
 10
-94.87660808
 20
-54.3274587
  0
ARC
  5
314
100
AcDbEntity
  8
MST_1_1
 62
   137
  6
CONTINUOUS
100
AcDbCircle
 10
-94.67373437
 20
-54.15852609
 30
0.0
 40
0.26399994
100
AcDbArc
 50
50.21590624
 51
219.78410378
  0
LWPOLYLINE
  5
315
100
AcDbEntity
  8
MST_1_1
 62
   137
  6
CONTINUOUS
100
AcDbPolyline
 90
        9
 70
     0
 43
0.0
 10
-94.50480176
 20
-53.95565238
 10
-94.49270865
 20
-53.94355915
 10
-94.48060844
 20
-53.93145895
 10
-94.46850125
 20
-53.91935198
 10
-94.45638719
 20
-53.90723781
 10
-94.44426614
 20
-53.89511688
 10
-94.43213834
 20
-53.88298896
 10
-94.42000368
 20
-53.87085429
 10
-94.40786226
 20
-53.85871287
  0
LWPOLYLINE
  5
316
100
AcDbEntity
  8
MST_1_1
 62
   137
  6
CONTINUOUS
100
AcDbPolyline
 90
        9
 70
     0
 43
0.0
 10
-94.40786226
 20
-53.85871287
 10
-94.480311
 20
-53.78626389
 10
-94.552836
 20
-53.71373901
 10
-94.62542748
 20
-53.64114754
 10
-94.69807541
 20
-53.56849949
 10
-94.77077014
 20
-53.49580487
 10
-94.84350189
 20
-53.42307324
 10
-94.91626077
 20
-53.35031424
 10
-94.98903688
 20
-53.27753813
  0
LWPOLYLINE
  5
317
100
AcDbEntity
  8
MST_1_1
 62
   137
  6
CONTINUOUS
100
AcDbPolyline
 90
        9
 70
     0
 43
0.0
 10
-94.98903688
 20
-53.27753813
 10
-94.99333307
 20
-53.28183433
 10
-94.99762833
 20
-53.2861297
 10
-95.00192289
 20
-53.29042426
 10
-95.00621664
 20
-53.29471789
 10
-95.01050945
 20
-53.29901082
 10
-95.01480145
 20
-53.30330282
 10
-95.01909264
 20
-53.30759389
 10
-95.02338289
 20
-53.31188426
  0
LWPOLYLINE
  5
318
100
AcDbEntity
  8
MST_1_1
 62
   137
  6
CONTINUOUS
100
AcDbPolyline
 90
       25
 70
     0
 43
0.0
 10
-95.02338289
 20
-53.31188424
 10
-95.02697239
 20
-53.30635534
 10
-95.03065727
 20
-53.30089969
 10
-95.03443653
 20
-53.29551829
 10
-95.03830915
 20
-53.29021216
 10
-95.04227414
 20
-53.28498228
 10
-95.04633049
 20
-53.27982968
 10
-95.05047721
 20
-53.27475535
 10
-95.05471329
 20
-53.2697603
 10
-95.05903773
 20
-53.26484553
 10
-95.06344953
 20
-53.26001204
 10
-95.06794768
 20
-53.25526085
 10
-95.07253118
 20
-53.25059296
 10
-95.07719903
 20
-53.24600938
 10
-95.08195023
 20
-53.24151109
 10
-95.08678378
 20
-53.23709913
 10
-95.09169866
 20
-53.23277448
 10
-95.09669389
 20
-53.22853815
 10
-95.10176846
 20
-53.22439114
 10
-95.10692137
 20
-53.22033448
 10
-95.1121516
 20
-53.21636914
 10
-95.11745817
 20
-53.21249615
 10
-95.12284007
 20
-53.20871651
 10
-95.1282963
 20
-53.20503121
 10
-95.13382585
 20
-53.20144128
  0
LWPOLYLINE
  5
319
100
AcDbEntity
  8
MST_1_1
 62
   137
  6
CONTINUOUS
100
AcDbPolyline
 90
        9
 70
     0
 43
0.0
 10
-95.13382588
 20
-53.20144128
 10
-95.1295355
 20
-53.19715103
 10
-95.12524444
 20
-53.19285984
 10
-95.12095244
 20
-53.18856784
 10
-95.1166595
 20
-53.18427503
 10
-95.11236587
 20
-53.17998128
 10
-95.10807131
 20
-53.17568672
 10
-95.10377594
 20
-53.17139146
 10
-95.09947975
 20
-53.16709527
  0
LWPOLYLINE
  5
31A
100
AcDbEntity
  8
MST_1_1
 62
   137
  6
CONTINUOUS
100
AcDbPolyline
 90
        9
 70
     0
 43
0.0
 10
-95.09947975
 20
-53.16709527
 10
-95.17225585
 20
-53.09431916
 10
-95.24501485
 20
-53.02156028
 10
-95.31774648
 20
-52.94882853
 10
-95.3904411
 20
-52.8761338
 10
-95.46308915
 20
-52.80348586
 10
-95.53568062
 20
-52.73089439
 10
-95.60820551
 20
-52.65836939
 10
-95.68065449
 20
-52.58592064
  0
LWPOLYLINE
  5
31B
100
AcDbEntity
  8
MST_1_1
 62
   137
  6
CONTINUOUS
100
AcDbPolyline
 90
        9
 70
     0
 43
0.0
 10
-95.68065449
 20
-52.58592064
 10
-95.69279591
 20
-52.59806206
 10
-95.70493057
 20
-52.61019673
 10
-95.71705849
 20
-52.62232453
 10
-95.72917942
 20
-52.63444558
 10
-95.7412936
 20
-52.64655964
 10
-95.75340056
 20
-52.65866683
 10
-95.76550077
 20
-52.67076704
 10
-95.77759399
 20
-52.68286015
  0
ARC
  5
31C
100
AcDbEntity
  8
MST_1_1
 62
   137
  6
CONTINUOUS
100
AcDbCircle
 10
-95.98046758
 20
-52.85179288
 30
0.0
 40
0.26399993
100
AcDbArc
 50
230.21587884
 51
39.78413117
  0
LWPOLYLINE
  5
31D
100
AcDbEntity
  8
MST_1_1
 62
   137
  6
CONTINUOUS
100
AcDbPolyline
 90
        9
 70
     0
 43
0.0
 10
-96.14940031
 20
-53.05466647
 10
-96.16154965
 20
-53.06681581
 10
-96.1736899
 20
-53.07895606
 10
-96.18582108
 20
-53.09108724
 10
-96.19794317
 20
-53.10320933
 10
-96.21005619
 20
-53.11532235
 10
-96.22215989
 20
-53.12742616
 10
-96.23425451
 20
-53.13952079
 10
-96.24633982
 20
-53.15160598
  0
LWPOLYLINE
  5
31E
100
AcDbEntity
  8
MST_1_1
 62
   137
  6
CONTINUOUS
100
AcDbPolyline
 90
        9
 70
     0
 43
0.0
 10
-96.24633982
 20
-53.15160598
 10
-96.17390364
 20
-53.22404238
 10
-96.10138621
 20
-53.2965597
 10
-96.02879823
 20
-53.36914756
 10
-95.95615018
 20
-53.44179561
 10
-95.88345254
 20
-53.51449349
 10
-95.81071531
 20
-53.58723048
 10
-95.73794945
 20
-53.65999634
 10
-95.66516519
 20
-53.7327806
  0
LWPOLYLINE
  5
31F
100
AcDbEntity
  8
MST_1_1
 62
   137
  6
CONTINUOUS
100
AcDbPolyline
 90
        9
 70
     0
 43
0.0
 10
-95.66516519
 20
-53.7327806
 10
-95.66087599
 20
-53.72849139
 10
-95.65658562
 20
-53.72420102
 10
-95.65229408
 20
-53.71990949
 10
-95.64800139
 20
-53.71561679
 10
-95.64370752
 20
-53.71132293
 10
-95.6394125
 20
-53.70702813
 10
-95.63511654
 20
-53.70273194
 10
-95.63081918
 20
-53.69843459
  0
LWPOLYLINE
  5
320
100
AcDbEntity
  8
MST_1_1
 62
   137
  6
CONTINUOUS
100
AcDbPolyline
 90
       25
 70
     0
 43
0.0
 10
-95.63081916
 20
-53.69843459
 10
-95.62722997
 20
-53.70396297
 10
-95.62354531
 20
-53.70941822
 10
-95.61976619
 20
-53.71479933
 10
-95.61589361
 20
-53.72010527
 10
-95.6119286
 20
-53.72533503
 10
-95.60787217
 20
-53.7304876
 10
-95.60372532
 20
-53.73556197
 10
-95.59948908
 20
-53.74055711
 10
-95.59516444
 20
-53.74547202
 10
-95.59075242
 20
-53.75030568
 10
-95.58625404
 20
-53.75505708
 10
-95.58167031
 20
-53.75972519
 10
-95.57700223
 20
-53.76430902
 10
-95.57225082
 20
-53.76880753
 10
-95.5674171
 20
-53.77321973
 10
-95.56250207
 20
-53.77754458
 10
-95.55750674
 20
-53.78178109
 10
-95.55243213
 20
-53.78592822
 10
-95.54727925
 20
-53.78998498
 10
-95.54204911
 20
-53.79395034
 10
-95.53674273
 20
-53.7978233
 10
-95.5313611
 20
-53.80160282
 10
-95.52590526
 20
-53.80528791
 10
-95.5203762
 20
-53.80887755
  0
LWPOLYLINE
  5
321
100
AcDbEntity
  8
MST_1_1
 62
   137
  6
CONTINUOUS
100
AcDbPolyline
 90
        9
 70
     0
 43
0.0
 10
-95.5203762
 20
-53.80887757
 10
-95.52467355
 20
-53.81317493
 10
-95.52896975
 20
-53.81747088
 10
-95.53326454
 20
-53.82176591
 10
-95.5375584
 20
-53.82605977
 10
-95.5418511
 20
-53.83035247
 10
-95.54614264
 20
-53.83464401
 10
-95.55043301
 20
-53.83893438
 10
-95.55472221
 20
-53.84322358
  0
LWPOLYLINE
  5
322
100
AcDbEntity
  8
MST_1_1
 62
   137
  6
CONTINUOUS
100
AcDbPolyline
 90
        9
 70
     0
 43
0.0
 10
-95.55472221
 20
-53.84322358
 10
-95.48193796
 20
-53.91600784
 10
-95.40917209
 20
-53.9887737
 10
-95.3364351
 20
-54.06151093
 10
-95.26373723
 20
-54.13420857
 10
-95.19108917
 20
-54.20685662
 10
-95.11850131
 20
-54.2794446
 10
-95.045984
 20
-54.35196203
 10
-94.97354759
 20
-54.42439821
  0
CIRCLE
  5
323
100
AcDbEntity
  8
MST_1_1
 62
   137
  6
CONTINUOUS
100
AcDbCircle
 10
-93.27649136
 20
-51.45454975
 30
0.0
 40
4.28859654
  0
LWPOLYLINE
  5
324
100
AcDbEntity
  8
MST_1_1
 62
   137
  6
CONTINUOUS
100
AcDbPolyline
 90
        9
 70
     0
 43
0.0
 10
-95.2484931
 20
-53.15384651
 10
-95.29613282
 20
-53.10620679
 10
-95.34376158
 20
-53.05857791
 10
-95.39137708
 20
-53.01096241
 10
-95.43897628
 20
-52.96336322
 10
-95.48655638
 20
-52.91578311
 10
-95.5341146
 20
-52.86822477
 10
-95.58164838
 20
-52.82069112
 10
-95.62915468
 20
-52.77318482
  0
ARC
  5
325
100
AcDbEntity
  8
MST_1_1
 62
   137
  6
CONTINUOUS
100
AcDbCircle
 10
-95.32710128
 20
-53.50515905
 30
0.0
 40
0.35999965
100
AcDbArc
 50
77.38749365
 51
127.33775307
  0
LWPOLYLINE
  5
326
100
AcDbEntity
  8
MST_1_1
 62
   137
  6
CONTINUOUS
100
AcDbPolyline
 90
        9
 70
     0
 43
0.0
 10
-95.04087429
 20
-53.72350393
 10
-95.10392274
 20
-53.66045549
 10
-95.16699085
 20
-53.59738725
 10
-95.23007201
 20
-53.53430598
 10
-95.2931598
 20
-53.47121819
 10
-95.35624759
 20
-53.4081304
 10
-95.41932886
 20
-53.34504924
 10
-95.4823971
 20
-53.28198112
 10
-95.54544554
 20
-53.21893268
  0
ARC
  5
327
100
AcDbEntity
  8
MST_1_1
 62
   137
  6
CONTINUOUS
100
AcDbCircle
 10
-95.32710139
 20
-53.50515951
 30
0.0
 40
0.36000032
100
AcDbArc
 50
322.66230677
 51
12.61245653
  0
LWPOLYLINE
  5
328
100
AcDbEntity
  8
MST_1_1
 62
   137
  6
CONTINUOUS
100
AcDbPolyline
 90
        9
 70
     0
 43
0.0
 10
-94.59512643
 20
-53.80721306
 10
-94.64263273
 20
-53.75970676
 10
-94.69016639
 20
-53.71217299
 10
-94.73772472
 20
-53.66461477
 10
-94.78530483
 20
-53.61703467
 10
-94.83290403
 20
-53.56943547
 10
-94.88051952
 20
-53.52181997
 10
-94.92814841
 20
-53.4741912
 10
-94.97578812
 20
-53.42655149
  0
ARC
  5
329
100
AcDbEntity
  8
MST_1_1
 62
   137
  6
CONTINUOUS
100
AcDbCircle
 10
-94.67373419
 20
-54.15852619
 30
0.0
 40
0.36000013
100
AcDbArc
 50
77.38757789
 51
192.61246315
  0
LWPOLYLINE
  5
32A
100
AcDbEntity
  8
MST_1_1
 62
   137
  6
CONTINUOUS
100
AcDbPolyline
 90
        9
 70
     0
 43
0.0
 10
-95.40570897
 20
-53.85647234
 10
-95.3580667
 20
-53.90411485
 10
-95.31043537
 20
-53.95174595
 10
-95.26281848
 20
-53.99936284
 10
-95.21521858
 20
-54.04696274
 10
-95.16763859
 20
-54.09454284
 10
-95.12008142
 20
-54.1420999
 10
-95.07254997
 20
-54.18963134
 10
-95.02504728
 20
-54.23713415
  0
ARC
  5
32B
100
AcDbEntity
  8
MST_1_1
 62
   137
  6
CONTINUOUS
100
AcDbCircle
 10
-95.32710119
 20
-53.5051584
 30
0.0
 40
0.36000093
100
AcDbArc
 50
257.38761324
 51
307.3376629
  0
LWPOLYLINE
  5
32C
100
AcDbEntity
  8
MST_1_1
 62
   137
  6
CONTINUOUS
100
AcDbPolyline
 90
        9
 70
     0
 43
0.0
 10
-95.61332778
 20
-53.28681504
 10
-95.55027934
 20
-53.34986325
 10
-95.48721134
 20
-53.41293137
 10
-95.42413006
 20
-53.47601264
 10
-95.36104204
 20
-53.53910043
 10
-95.29795425
 20
-53.60218845
 10
-95.23487298
 20
-53.66526972
 10
-95.17180486
 20
-53.72833772
 10
-95.10875665
 20
-53.79138617
  0
ARC
  5
32D
100
AcDbEntity
  8
MST_1_1
 62
   137
  6
CONTINUOUS
100
AcDbCircle
 10
-95.32710102
 20
-53.50515935
 30
0.0
 40
0.36
100
AcDbArc
 50
142.66227791
 51
192.61247599
  0
LWPOLYLINE
  5
32E
100
AcDbEntity
  8
MST_1_1
 62
   137
  6
CONTINUOUS
100
AcDbPolyline
 90
        9
 70
     0
 43
0.0
 10
-96.05907576
 20
-53.20310567
 10
-96.01157295
 20
-53.25060836
 10
-95.96404151
 20
-53.2981398
 10
-95.91648445
 20
-53.34569698
 10
-95.86890435
 20
-53.39327697
 10
-95.82130445
 20
-53.44087686
 10
-95.77368756
 20
-53.48849376
 10
-95.72605646
 20
-53.53612509
 10
-95.67841396
 20
-53.58376736
  0
ARC
  5
32F
100
AcDbEntity
  8
MST_1_1
 62
   137
  6
CONTINUOUS
100
AcDbCircle
 10
-95.9804677
 20
-52.85179269
 30
0.0
 40
0.36000006
100
AcDbArc
 50
257.38753734
 51
12.61244165
  0
LWPOLYLINE
  5
330
100
AcDbEntity
  8
MST_1_1
 62
   137
  6
CONTINUOUS
100
AcDbPolyline
 90
        9
 70
     0
 43
0.0
 10
-95.43311523
 20
-53.26338063
 10
-95.38964854
 20
-53.30684732
 10
-95.34617557
 20
-53.35032029
 10
-95.30269817
 20
-53.39379769
 10
-95.25921868
 20
-53.43727707
 10
-95.2157393
 20
-53.48075656
 10
-95.17226191
 20
-53.52423396
 10
-95.12878893
 20
-53.56770693
 10
-95.08532225
 20
-53.61117362
  0
ARC
  5
331
100
AcDbEntity
  8
MST_1_1
 62
   137
  6
CONTINUOUS
100
AcDbCircle
 10
-95.32710098
 20
-53.50515937
 30
0.0
 40
0.26399996
100
AcDbArc
 50
336.32369791
 51
113.67631211
  0
LWPOLYLINE
  5
332
100
AcDbEntity
  8
MST_1_1
 62
   137
  6
CONTINUOUS
100
AcDbPolyline
 90
        9
 70
     0
 43
0.0
 10
-95.22108673
 20
-53.7469381
 10
-95.2645533
 20
-53.70347165
 10
-95.30802627
 20
-53.65999867
 10
-95.35150367
 20
-53.61652127
 10
-95.39498316
 20
-53.57304155
 10
-95.43846289
 20
-53.52956206
 10
-95.48194028
 20
-53.48608466
 10
-95.52541326
 20
-53.44261168
 10
-95.56887971
 20
-53.39914511
  0
ARC
  5
333
100
AcDbEntity
  8
MST_1_1
 62
   137
  6
CONTINUOUS
100
AcDbCircle
 10
-95.32710106
 20
-53.50515945
 30
0.0
 40
0.26399992
100
AcDbArc
 50
156.32366302
 51
293.676347
  0
CIRCLE
  5
334
100
AcDbEntity
  8
MST_1_1
 62
   137
  6
CONTINUOUS
100
AcDbCircle
 10
-93.27649136
 20
-81.45454975
 30
0.0
 40
2.32981333
  0
CIRCLE
  5
335
100
AcDbEntity
  8
MST_1_1
 62
   137
  6
CONTINUOUS
100
AcDbCircle
 10
-93.27649136
 20
-81.45454975
 30
0.0
 40
1.32203389
  0
CIRCLE
  5
336
100
AcDbEntity
  8
MST_1_1
 62
   137
  6
CONTINUOUS
100
AcDbCircle
 10
-93.27649136
 20
-81.45454975
 30
0.0
 40
2.32981333
  0
CIRCLE
  5
337
100
AcDbEntity
  8
MST_1_1
 62
   137
  6
CONTINUOUS
100
AcDbCircle
 10
-93.27649136
 20
-81.45454975
 30
0.0
 40
2.32981333
  0
CIRCLE
  5
338
100
AcDbEntity
  8
MST_1_1
 62
   137
  6
CONTINUOUS
100
AcDbCircle
 10
-93.27649136
 20
-81.45454975
 30
0.0
 40
4.5
  0
ARC
  5
339
100
AcDbEntity
  8
MST_1_1
 62
   137
  6
CONTINUOUS
100
AcDbCircle
 10
-95.15049131
 20
-81.45454975
 30
0.0
 40
0.37600003
100
AcDbArc
 50
106.48878485
 51
253.51122516
  0
ARC
  5
33A
100
AcDbEntity
  8
MST_1_1
 62
   137
  6
CONTINUOUS
100
AcDbCircle
 10
-95.5367621
 20
-82.7595177
 30
0.0
 40
0.98493585
100
AcDbArc
 50
346.4887751
 51
73.5112424
  0
ARC
  5
33B
100
AcDbEntity
  8
MST_1_1
 62
   137
  6
CONTINUOUS
100
AcDbCircle
 10
-94.2134913
 20
-83.0774813
 30
0.0
 40
0.37600004
100
AcDbArc
 50
166.48877314
 51
313.51122983
  0
ARC
  5
33C
100
AcDbEntity
  8
MST_1_1
 62
   137
  6
CONTINUOUS
100
AcDbCircle
 10
-93.27649136
 20
-84.06448542
 30
0.0
 40
0.98493568
100
AcDbArc
 50
46.48875513
 51
133.51124487
  0
ARC
  5
33D
100
AcDbEntity
  8
MST_1_1
 62
   137
  6
CONTINUOUS
100
AcDbCircle
 10
-92.3394914
 20
-83.07748134
 30
0.0
 40
0.37600002
100
AcDbArc
 50
226.48878273
 51
13.51123435
  0
ARC
  5
33E
100
AcDbEntity
  8
MST_1_1
 62
   137
  6
CONTINUOUS
100
AcDbCircle
 10
-91.01622058
 20
-82.75951772
 30
0.0
 40
0.98493588
100
AcDbArc
 50
106.48875933
 51
193.51124321
  0
ARC
  5
33F
100
AcDbEntity
  8
MST_1_1
 62
   137
  6
CONTINUOUS
100
AcDbCircle
 10
-91.40249141
 20
-81.45454975
 30
0.0
 40
0.37600003
100
AcDbArc
 50
286.48879487
 51
73.51121515
  0
ARC
  5
340
100
AcDbEntity
  8
MST_1_1
 62
   137
  6
CONTINUOUS
100
AcDbCircle
 10
-91.01622062
 20
-80.1495818
 30
0.0
 40
0.98493585
100
AcDbArc
 50
166.48876508
 51
253.51125242
  0
ARC
  5
341
100
AcDbEntity
  8
MST_1_1
 62
   137
  6
CONTINUOUS
100
AcDbCircle
 10
-92.33949142
 20
-79.8316182
 30
0.0
 40
0.37600004
100
AcDbArc
 50
346.48878316
 51
133.51121981
  0
ARC
  5
342
100
AcDbEntity
  8
MST_1_1
 62
   137
  6
CONTINUOUS
100
AcDbCircle
 10
-93.27649136
 20
-78.84461407
 30
0.0
 40
0.98493568
100
AcDbArc
 50
226.48876515
 51
313.51125489
  0
ARC
  5
343
100
AcDbEntity
  8
MST_1_1
 62
   137
  6
CONTINUOUS
100
AcDbCircle
 10
-94.21349132
 20
-79.83161815
 30
0.0
 40
0.37600002
100
AcDbArc
 50
46.48877271
 51
193.51124436
  0
ARC
  5
344
100
AcDbEntity
  8
MST_1_1
 62
   137
  6
CONTINUOUS
100
AcDbCircle
 10
-95.53676214
 20
-80.14958178
 30
0.0
 40
0.98493588
100
AcDbArc
 50
286.48876935
 51
13.51123319
  0
LWPOLYLINE
  5
345
100
AcDbEntity
  8
MST_1_1
 62
   137
  6
CONTINUOUS
100
AcDbPolyline
 90
        9
 70
     0
 43
0.0
 10
-94.97354759
 20
-84.42439821
 10
-94.9614624
 20
-84.4123129
 10
-94.94936778
 20
-84.40021828
 10
-94.93726396
 20
-84.38811458
 10
-94.92515094
 20
-84.37600156
 10
-94.91302885
 20
-84.36387947
 10
-94.90089768
 20
-84.35174829
 10
-94.88875742
 20
-84.33960804
 10
-94.87660808
 20
-84.3274587
  0
ARC
  5
346
100
AcDbEntity
  8
MST_1_1
 62
   137
  6
CONTINUOUS
100
AcDbCircle
 10
-94.67373437
 20
-84.15852609
 30
0.0
 40
0.26399994
100
AcDbArc
 50
50.21590624
 51
219.78410378
  0
LWPOLYLINE
  5
347
100
AcDbEntity
  8
MST_1_1
 62
   137
  6
CONTINUOUS
100
AcDbPolyline
 90
        9
 70
     0
 43
0.0
 10
-94.50480176
 20
-83.95565238
 10
-94.49270865
 20
-83.94355915
 10
-94.48060844
 20
-83.93145895
 10
-94.46850125
 20
-83.91935198
 10
-94.45638719
 20
-83.90723781
 10
-94.44426614
 20
-83.89511688
 10
-94.43213834
 20
-83.88298896
 10
-94.42000368
 20
-83.87085429
 10
-94.40786226
 20
-83.85871287
  0
LWPOLYLINE
  5
348
100
AcDbEntity
  8
MST_1_1
 62
   137
  6
CONTINUOUS
100
AcDbPolyline
 90
        9
 70
     0
 43
0.0
 10
-94.40786226
 20
-83.85871287
 10
-94.480311
 20
-83.78626389
 10
-94.552836
 20
-83.71373901
 10
-94.62542748
 20
-83.64114754
 10
-94.69807541
 20
-83.56849949
 10
-94.77077014
 20
-83.49580487
 10
-94.84350189
 20
-83.42307324
 10
-94.91626077
 20
-83.35031424
 10
-94.98903688
 20
-83.27753813
  0
LWPOLYLINE
  5
349
100
AcDbEntity
  8
MST_1_1
 62
   137
  6
CONTINUOUS
100
AcDbPolyline
 90
        9
 70
     0
 43
0.0
 10
-94.98903688
 20
-83.27753813
 10
-94.99333307
 20
-83.28183433
 10
-94.99762833
 20
-83.2861297
 10
-95.00192289
 20
-83.29042426
 10
-95.00621664
 20
-83.29471789
 10
-95.01050945
 20
-83.29901082
 10
-95.01480145
 20
-83.30330282
 10
-95.01909264
 20
-83.30759389
 10
-95.02338289
 20
-83.31188426
  0
LWPOLYLINE
  5
34A
100
AcDbEntity
  8
MST_1_1
 62
   137
  6
CONTINUOUS
100
AcDbPolyline
 90
       25
 70
     0
 43
0.0
 10
-95.02338289
 20
-83.31188424
 10
-95.02697239
 20
-83.30635534
 10
-95.03065727
 20
-83.30089969
 10
-95.03443653
 20
-83.29551829
 10
-95.03830915
 20
-83.29021216
 10
-95.04227414
 20
-83.28498228
 10
-95.04633049
 20
-83.27982968
 10
-95.05047721
 20
-83.27475535
 10
-95.05471329
 20
-83.2697603
 10
-95.05903773
 20
-83.26484553
 10
-95.06344953
 20
-83.26001204
 10
-95.06794768
 20
-83.25526085
 10
-95.07253118
 20
-83.25059296
 10
-95.07719903
 20
-83.24600938
 10
-95.08195023
 20
-83.24151109
 10
-95.08678378
 20
-83.23709913
 10
-95.09169866
 20
-83.23277448
 10
-95.09669389
 20
-83.22853815
 10
-95.10176846
 20
-83.22439114
 10
-95.10692137
 20
-83.22033448
 10
-95.1121516
 20
-83.21636914
 10
-95.11745817
 20
-83.21249615
 10
-95.12284007
 20
-83.20871651
 10
-95.1282963
 20
-83.20503121
 10
-95.13382585
 20
-83.20144128
  0
LWPOLYLINE
  5
34B
100
AcDbEntity
  8
MST_1_1
 62
   137
  6
CONTINUOUS
100
AcDbPolyline
 90
        9
 70
     0
 43
0.0
 10
-95.13382588
 20
-83.20144128
 10
-95.1295355
 20
-83.19715103
 10
-95.12524444
 20
-83.19285984
 10
-95.12095244
 20
-83.18856784
 10
-95.1166595
 20
-83.18427503
 10
-95.11236587
 20
-83.17998128
 10
-95.10807131
 20
-83.17568672
 10
-95.10377594
 20
-83.17139146
 10
-95.09947975
 20
-83.16709527
  0
LWPOLYLINE
  5
34C
100
AcDbEntity
  8
MST_1_1
 62
   137
  6
CONTINUOUS
100
AcDbPolyline
 90
        9
 70
     0
 43
0.0
 10
-95.09947975
 20
-83.16709527
 10
-95.17225585
 20
-83.09431916
 10
-95.24501485
 20
-83.02156028
 10
-95.31774648
 20
-82.94882853
 10
-95.3904411
 20
-82.8761338
 10
-95.46308915
 20
-82.80348586
 10
-95.53568062
 20
-82.73089439
 10
-95.60820551
 20
-82.65836939
 10
-95.68065449
 20
-82.58592064
  0
LWPOLYLINE
  5
34D
100
AcDbEntity
  8
MST_1_1
 62
   137
  6
CONTINUOUS
100
AcDbPolyline
 90
        9
 70
     0
 43
0.0
 10
-95.68065449
 20
-82.58592064
 10
-95.69279591
 20
-82.59806206
 10
-95.70493057
 20
-82.61019673
 10
-95.71705849
 20
-82.62232453
 10
-95.72917942
 20
-82.63444558
 10
-95.7412936
 20
-82.64655964
 10
-95.75340056
 20
-82.65866683
 10
-95.76550077
 20
-82.67076704
 10
-95.77759399
 20
-82.68286015
  0
ARC
  5
34E
100
AcDbEntity
  8
MST_1_1
 62
   137
  6
CONTINUOUS
100
AcDbCircle
 10
-95.98046758
 20
-82.85179288
 30
0.0
 40
0.26399993
100
AcDbArc
 50
230.21587884
 51
39.78413117
  0
LWPOLYLINE
  5
34F
100
AcDbEntity
  8
MST_1_1
 62
   137
  6
CONTINUOUS
100
AcDbPolyline
 90
        9
 70
     0
 43
0.0
 10
-96.14940031
 20
-83.05466647
 10
-96.16154965
 20
-83.06681581
 10
-96.1736899
 20
-83.07895606
 10
-96.18582108
 20
-83.09108724
 10
-96.19794317
 20
-83.10320933
 10
-96.21005619
 20
-83.11532235
 10
-96.22215989
 20
-83.12742616
 10
-96.23425451
 20
-83.13952079
 10
-96.24633982
 20
-83.15160598
  0
LWPOLYLINE
  5
350
100
AcDbEntity
  8
MST_1_1
 62
   137
  6
CONTINUOUS
100
AcDbPolyline
 90
        9
 70
     0
 43
0.0
 10
-96.24633982
 20
-83.15160598
 10
-96.17390364
 20
-83.22404238
 10
-96.10138621
 20
-83.2965597
 10
-96.02879823
 20
-83.36914756
 10
-95.95615018
 20
-83.44179561
 10
-95.88345254
 20
-83.51449349
 10
-95.81071531
 20
-83.58723048
 10
-95.73794945
 20
-83.65999634
 10
-95.66516519
 20
-83.7327806
  0
LWPOLYLINE
  5
351
100
AcDbEntity
  8
MST_1_1
 62
   137
  6
CONTINUOUS
100
AcDbPolyline
 90
        9
 70
     0
 43
0.0
 10
-95.66516519
 20
-83.7327806
 10
-95.66087599
 20
-83.72849139
 10
-95.65658562
 20
-83.72420102
 10
-95.65229408
 20
-83.71990949
 10
-95.64800139
 20
-83.71561679
 10
-95.64370752
 20
-83.71132293
 10
-95.6394125
 20
-83.70702813
 10
-95.63511654
 20
-83.70273194
 10
-95.63081918
 20
-83.69843459
  0
LWPOLYLINE
  5
352
100
AcDbEntity
  8
MST_1_1
 62
   137
  6
CONTINUOUS
100
AcDbPolyline
 90
       25
 70
     0
 43
0.0
 10
-95.63081916
 20
-83.69843459
 10
-95.62722997
 20
-83.70396297
 10
-95.62354531
 20
-83.70941822
 10
-95.61976619
 20
-83.71479933
 10
-95.61589361
 20
-83.72010527
 10
-95.6119286
 20
-83.72533503
 10
-95.60787217
 20
-83.7304876
 10
-95.60372532
 20
-83.73556197
 10
-95.59948908
 20
-83.74055711
 10
-95.59516444
 20
-83.74547202
 10
-95.59075242
 20
-83.75030568
 10
-95.58625404
 20
-83.75505708
 10
-95.58167031
 20
-83.75972519
 10
-95.57700223
 20
-83.76430902
 10
-95.57225082
 20
-83.76880753
 10
-95.5674171
 20
-83.77321973
 10
-95.56250207
 20
-83.77754458
 10
-95.55750674
 20
-83.78178109
 10
-95.55243213
 20
-83.78592822
 10
-95.54727925
 20
-83.78998498
 10
-95.54204911
 20
-83.79395034
 10
-95.53674273
 20
-83.7978233
 10
-95.5313611
 20
-83.80160282
 10
-95.52590526
 20
-83.80528791
 10
-95.5203762
 20
-83.80887755
  0
LWPOLYLINE
  5
353
100
AcDbEntity
  8
MST_1_1
 62
   137
  6
CONTINUOUS
100
AcDbPolyline
 90
        9
 70
     0
 43
0.0
 10
-95.5203762
 20
-83.80887757
 10
-95.52467355
 20
-83.81317493
 10
-95.52896975
 20
-83.81747088
 10
-95.53326454
 20
-83.82176591
 10
-95.5375584
 20
-83.82605977
 10
-95.5418511
 20
-83.83035247
 10
-95.54614264
 20
-83.83464401
 10
-95.55043301
 20
-83.83893438
 10
-95.55472221
 20
-83.84322358
  0
LWPOLYLINE
  5
354
100
AcDbEntity
  8
MST_1_1
 62
   137
  6
CONTINUOUS
100
AcDbPolyline
 90
        9
 70
     0
 43
0.0
 10
-95.55472221
 20
-83.84322358
 10
-95.48193796
 20
-83.91600784
 10
-95.40917209
 20
-83.9887737
 10
-95.3364351
 20
-84.06151093
 10
-95.26373723
 20
-84.13420857
 10
-95.19108917
 20
-84.20685662
 10
-95.11850131
 20
-84.2794446
 10
-95.045984
 20
-84.35196203
 10
-94.97354759
 20
-84.42439821
  0
CIRCLE
  5
355
100
AcDbEntity
  8
MST_1_1
 62
   137
  6
CONTINUOUS
100
AcDbCircle
 10
-93.27649136
 20
-81.45454975
 30
0.0
 40
4.28859654
  0
LWPOLYLINE
  5
356
100
AcDbEntity
  8
MST_1_1
 62
   137
  6
CONTINUOUS
100
AcDbPolyline
 90
        9
 70
     0
 43
0.0
 10
-95.2484931
 20
-83.15384651
 10
-95.29613282
 20
-83.10620679
 10
-95.34376158
 20
-83.05857791
 10
-95.39137708
 20
-83.01096241
 10
-95.43897628
 20
-82.96336322
 10
-95.48655638
 20
-82.91578311
 10
-95.5341146
 20
-82.86822477
 10
-95.58164838
 20
-82.82069112
 10
-95.62915468
 20
-82.77318482
  0
ARC
  5
357
100
AcDbEntity
  8
MST_1_1
 62
   137
  6
CONTINUOUS
100
AcDbCircle
 10
-95.32710128
 20
-83.50515905
 30
0.0
 40
0.35999965
100
AcDbArc
 50
77.38749365
 51
127.33775307
  0
LWPOLYLINE
  5
358
100
AcDbEntity
  8
MST_1_1
 62
   137
  6
CONTINUOUS
100
AcDbPolyline
 90
        9
 70
     0
 43
0.0
 10
-95.04087429
 20
-83.72350393
 10
-95.10392274
 20
-83.66045549
 10
-95.16699085
 20
-83.59738725
 10
-95.23007201
 20
-83.53430598
 10
-95.2931598
 20
-83.47121819
 10
-95.35624759
 20
-83.4081304
 10
-95.41932886
 20
-83.34504924
 10
-95.4823971
 20
-83.28198112
 10
-95.54544554
 20
-83.21893268
  0
ARC
  5
359
100
AcDbEntity
  8
MST_1_1
 62
   137
  6
CONTINUOUS
100
AcDbCircle
 10
-95.32710139
 20
-83.50515951
 30
0.0
 40
0.36000032
100
AcDbArc
 50
322.66230677
 51
12.61245653
  0
LWPOLYLINE
  5
35A
100
AcDbEntity
  8
MST_1_1
 62
   137
  6
CONTINUOUS
100
AcDbPolyline
 90
        9
 70
     0
 43
0.0
 10
-94.59512643
 20
-83.80721306
 10
-94.64263273
 20
-83.75970676
 10
-94.69016639
 20
-83.71217299
 10
-94.73772472
 20
-83.66461477
 10
-94.78530483
 20
-83.61703467
 10
-94.83290403
 20
-83.56943547
 10
-94.88051952
 20
-83.52181997
 10
-94.92814841
 20
-83.4741912
 10
-94.97578812
 20
-83.42655149
  0
ARC
  5
35B
100
AcDbEntity
  8
MST_1_1
 62
   137
  6
CONTINUOUS
100
AcDbCircle
 10
-94.67373419
 20
-84.15852619
 30
0.0
 40
0.36000013
100
AcDbArc
 50
77.38757789
 51
192.61246315
  0
LWPOLYLINE
  5
35C
100
AcDbEntity
  8
MST_1_1
 62
   137
  6
CONTINUOUS
100
AcDbPolyline
 90
        9
 70
     0
 43
0.0
 10
-95.40570897
 20
-83.85647234
 10
-95.3580667
 20
-83.90411485
 10
-95.31043537
 20
-83.95174595
 10
-95.26281848
 20
-83.99936284
 10
-95.21521858
 20
-84.04696274
 10
-95.16763859
 20
-84.09454284
 10
-95.12008142
 20
-84.1420999
 10
-95.07254997
 20
-84.18963134
 10
-95.02504728
 20
-84.23713415
  0
ARC
  5
35D
100
AcDbEntity
  8
MST_1_1
 62
   137
  6
CONTINUOUS
100
AcDbCircle
 10
-95.32710119
 20
-83.5051584
 30
0.0
 40
0.36000093
100
AcDbArc
 50
257.38761324
 51
307.3376629
  0
LWPOLYLINE
  5
35E
100
AcDbEntity
  8
MST_1_1
 62
   137
  6
CONTINUOUS
100
AcDbPolyline
 90
        9
 70
     0
 43
0.0
 10
-95.61332778
 20
-83.28681504
 10
-95.55027934
 20
-83.34986325
 10
-95.48721134
 20
-83.41293137
 10
-95.42413006
 20
-83.47601264
 10
-95.36104204
 20
-83.53910043
 10
-95.29795425
 20
-83.60218845
 10
-95.23487298
 20
-83.66526972
 10
-95.17180486
 20
-83.72833772
 10
-95.10875665
 20
-83.79138617
  0
ARC
  5
35F
100
AcDbEntity
  8
MST_1_1
 62
   137
  6
CONTINUOUS
100
AcDbCircle
 10
-95.32710102
 20
-83.50515935
 30
0.0
 40
0.36
100
AcDbArc
 50
142.66227791
 51
192.61247599
  0
LWPOLYLINE
  5
360
100
AcDbEntity
  8
MST_1_1
 62
   137
  6
CONTINUOUS
100
AcDbPolyline
 90
        9
 70
     0
 43
0.0
 10
-96.05907576
 20
-83.20310567
 10
-96.01157295
 20
-83.25060836
 10
-95.96404151
 20
-83.2981398
 10
-95.91648445
 20
-83.34569698
 10
-95.86890435
 20
-83.39327697
 10
-95.82130445
 20
-83.44087686
 10
-95.77368756
 20
-83.48849376
 10
-95.72605646
 20
-83.53612509
 10
-95.67841396
 20
-83.58376736
  0
ARC
  5
361
100
AcDbEntity
  8
MST_1_1
 62
   137
  6
CONTINUOUS
100
AcDbCircle
 10
-95.9804677
 20
-82.85179269
 30
0.0
 40
0.36000006
100
AcDbArc
 50
257.38753734
 51
12.61244165
  0
LWPOLYLINE
  5
362
100
AcDbEntity
  8
MST_1_1
 62
   137
  6
CONTINUOUS
100
AcDbPolyline
 90
        9
 70
     0
 43
0.0
 10
-95.43311523
 20
-83.26338063
 10
-95.38964854
 20
-83.30684732
 10
-95.34617557
 20
-83.35032029
 10
-95.30269817
 20
-83.39379769
 10
-95.25921868
 20
-83.43727707
 10
-95.2157393
 20
-83.48075656
 10
-95.17226191
 20
-83.52423396
 10
-95.12878893
 20
-83.56770693
 10
-95.08532225
 20
-83.61117362
  0
ARC
  5
363
100
AcDbEntity
  8
MST_1_1
 62
   137
  6
CONTINUOUS
100
AcDbCircle
 10
-95.32710098
 20
-83.50515937
 30
0.0
 40
0.26399996
100
AcDbArc
 50
336.32369791
 51
113.67631211
  0
LWPOLYLINE
  5
364
100
AcDbEntity
  8
MST_1_1
 62
   137
  6
CONTINUOUS
100
AcDbPolyline
 90
        9
 70
     0
 43
0.0
 10
-95.22108673
 20
-83.7469381
 10
-95.2645533
 20
-83.70347165
 10
-95.30802627
 20
-83.65999867
 10
-95.35150367
 20
-83.61652127
 10
-95.39498316
 20
-83.57304155
 10
-95.43846289
 20
-83.52956206
 10
-95.48194028
 20
-83.48608466
 10
-95.52541326
 20
-83.44261168
 10
-95.56887971
 20
-83.39914511
  0
ARC
  5
365
100
AcDbEntity
  8
MST_1_1
 62
   137
  6
CONTINUOUS
100
AcDbCircle
 10
-95.32710106
 20
-83.50515945
 30
0.0
 40
0.26399992
100
AcDbArc
 50
156.32366302
 51
293.676347
  0
CIRCLE
  5
366
100
AcDbEntity
  8
MST_1_1
 62
   137
  6
CONTINUOUS
100
AcDbCircle
 10
-93.27649136
 20
-111.45454975
 30
0.0
 40
2.32981333
  0
CIRCLE
  5
367
100
AcDbEntity
  8
MST_1_1
 62
   137
  6
CONTINUOUS
100
AcDbCircle
 10
-93.27649136
 20
-111.45454975
 30
0.0
 40
1.32203389
  0
CIRCLE
  5
368
100
AcDbEntity
  8
MST_1_1
 62
   137
  6
CONTINUOUS
100
AcDbCircle
 10
-93.27649136
 20
-111.45454975
 30
0.0
 40
2.32981333
  0
CIRCLE
  5
369
100
AcDbEntity
  8
MST_1_1
 62
   137
  6
CONTINUOUS
100
AcDbCircle
 10
-93.27649136
 20
-111.45454975
 30
0.0
 40
2.32981333
  0
CIRCLE
  5
36A
100
AcDbEntity
  8
MST_1_1
 62
   137
  6
CONTINUOUS
100
AcDbCircle
 10
-93.27649136
 20
-111.45454975
 30
0.0
 40
4.5
  0
ARC
  5
36B
100
AcDbEntity
  8
MST_1_1
 62
   137
  6
CONTINUOUS
100
AcDbCircle
 10
-95.15049131
 20
-111.45454975
 30
0.0
 40
0.37600003
100
AcDbArc
 50
106.48878485
 51
253.51122516
  0
ARC
  5
36C
100
AcDbEntity
  8
MST_1_1
 62
   137
  6
CONTINUOUS
100
AcDbCircle
 10
-95.5367621
 20
-112.7595177
 30
0.0
 40
0.98493585
100
AcDbArc
 50
346.4887751
 51
73.5112424
  0
ARC
  5
36D
100
AcDbEntity
  8
MST_1_1
 62
   137
  6
CONTINUOUS
100
AcDbCircle
 10
-94.2134913
 20
-113.0774813
 30
0.0
 40
0.37600004
100
AcDbArc
 50
166.48877314
 51
313.51122983
  0
ARC
  5
36E
100
AcDbEntity
  8
MST_1_1
 62
   137
  6
CONTINUOUS
100
AcDbCircle
 10
-93.27649136
 20
-114.06448542
 30
0.0
 40
0.98493568
100
AcDbArc
 50
46.48875513
 51
133.51124487
  0
ARC
  5
36F
100
AcDbEntity
  8
MST_1_1
 62
   137
  6
CONTINUOUS
100
AcDbCircle
 10
-92.3394914
 20
-113.07748134
 30
0.0
 40
0.37600002
100
AcDbArc
 50
226.48878273
 51
13.51123435
  0
ARC
  5
370
100
AcDbEntity
  8
MST_1_1
 62
   137
  6
CONTINUOUS
100
AcDbCircle
 10
-91.01622058
 20
-112.75951772
 30
0.0
 40
0.98493588
100
AcDbArc
 50
106.48875933
 51
193.51124321
  0
ARC
  5
371
100
AcDbEntity
  8
MST_1_1
 62
   137
  6
CONTINUOUS
100
AcDbCircle
 10
-91.40249141
 20
-111.45454975
 30
0.0
 40
0.37600003
100
AcDbArc
 50
286.48879487
 51
73.51121515
  0
ARC
  5
372
100
AcDbEntity
  8
MST_1_1
 62
   137
  6
CONTINUOUS
100
AcDbCircle
 10
-91.01622062
 20
-110.1495818
 30
0.0
 40
0.98493585
100
AcDbArc
 50
166.48876508
 51
253.51125242
  0
ARC
  5
373
100
AcDbEntity
  8
MST_1_1
 62
   137
  6
CONTINUOUS
100
AcDbCircle
 10
-92.33949142
 20
-109.8316182
 30
0.0
 40
0.37600004
100
AcDbArc
 50
346.48878316
 51
133.51121981
  0
ARC
  5
374
100
AcDbEntity
  8
MST_1_1
 62
   137
  6
CONTINUOUS
100
AcDbCircle
 10
-93.27649136
 20
-108.84461407
 30
0.0
 40
0.98493568
100
AcDbArc
 50
226.48876515
 51
313.51125489
  0
ARC
  5
375
100
AcDbEntity
  8
MST_1_1
 62
   137
  6
CONTINUOUS
100
AcDbCircle
 10
-94.21349132
 20
-109.83161815
 30
0.0
 40
0.37600002
100
AcDbArc
 50
46.48877271
 51
193.51124436
  0
ARC
  5
376
100
AcDbEntity
  8
MST_1_1
 62
   137
  6
CONTINUOUS
100
AcDbCircle
 10
-95.53676214
 20
-110.14958178
 30
0.0
 40
0.98493588
100
AcDbArc
 50
286.48876935
 51
13.51123319
  0
LWPOLYLINE
  5
377
100
AcDbEntity
  8
MST_1_1
 62
   137
  6
CONTINUOUS
100
AcDbPolyline
 90
        9
 70
     0
 43
0.0
 10
-94.97354759
 20
-114.42439821
 10
-94.9614624
 20
-114.4123129
 10
-94.94936778
 20
-114.40021828
 10
-94.93726396
 20
-114.38811458
 10
-94.92515094
 20
-114.37600156
 10
-94.91302885
 20
-114.36387947
 10
-94.90089768
 20
-114.35174829
 10
-94.88875742
 20
-114.33960804
 10
-94.87660808
 20
-114.3274587
  0
ARC
  5
378
100
AcDbEntity
  8
MST_1_1
 62
   137
  6
CONTINUOUS
100
AcDbCircle
 10
-94.67373437
 20
-114.15852609
 30
0.0
 40
0.26399994
100
AcDbArc
 50
50.21590624
 51
219.78410378
  0
LWPOLYLINE
  5
379
100
AcDbEntity
  8
MST_1_1
 62
   137
  6
CONTINUOUS
100
AcDbPolyline
 90
        9
 70
     0
 43
0.0
 10
-94.50480176
 20
-113.95565238
 10
-94.49270865
 20
-113.94355915
 10
-94.48060844
 20
-113.93145895
 10
-94.46850125
 20
-113.91935198
 10
-94.45638719
 20
-113.90723781
 10
-94.44426614
 20
-113.89511688
 10
-94.43213834
 20
-113.88298896
 10
-94.42000368
 20
-113.87085429
 10
-94.40786226
 20
-113.85871287
  0
LWPOLYLINE
  5
37A
100
AcDbEntity
  8
MST_1_1
 62
   137
  6
CONTINUOUS
100
AcDbPolyline
 90
        9
 70
     0
 43
0.0
 10
-94.40786226
 20
-113.85871287
 10
-94.480311
 20
-113.78626389
 10
-94.552836
 20
-113.71373901
 10
-94.62542748
 20
-113.64114754
 10
-94.69807541
 20
-113.56849949
 10
-94.77077014
 20
-113.49580487
 10
-94.84350189
 20
-113.42307324
 10
-94.91626077
 20
-113.35031424
 10
-94.98903688
 20
-113.27753813
  0
LWPOLYLINE
  5
37B
100
AcDbEntity
  8
MST_1_1
 62
   137
  6
CONTINUOUS
100
AcDbPolyline
 90
        9
 70
     0
 43
0.0
 10
-94.98903688
 20
-113.27753813
 10
-94.99333307
 20
-113.28183433
 10
-94.99762833
 20
-113.2861297
 10
-95.00192289
 20
-113.29042426
 10
-95.00621664
 20
-113.29471789
 10
-95.01050945
 20
-113.29901082
 10
-95.01480145
 20
-113.30330282
 10
-95.01909264
 20
-113.30759389
 10
-95.02338289
 20
-113.31188426
  0
LWPOLYLINE
  5
37C
100
AcDbEntity
  8
MST_1_1
 62
   137
  6
CONTINUOUS
100
AcDbPolyline
 90
       25
 70
     0
 43
0.0
 10
-95.02338289
 20
-113.31188424
 10
-95.02697239
 20
-113.30635534
 10
-95.03065727
 20
-113.30089969
 10
-95.03443653
 20
-113.29551829
 10
-95.03830915
 20
-113.29021216
 10
-95.04227414
 20
-113.28498228
 10
-95.04633049
 20
-113.27982968
 10
-95.05047721
 20
-113.27475535
 10
-95.05471329
 20
-113.2697603
 10
-95.05903773
 20
-113.26484553
 10
-95.06344953
 20
-113.26001204
 10
-95.06794768
 20
-113.25526085
 10
-95.07253118
 20
-113.25059296
 10
-95.07719903
 20
-113.24600938
 10
-95.08195023
 20
-113.24151109
 10
-95.08678378
 20
-113.23709913
 10
-95.09169866
 20
-113.23277448
 10
-95.09669389
 20
-113.22853815
 10
-95.10176846
 20
-113.22439114
 10
-95.10692137
 20
-113.22033448
 10
-95.1121516
 20
-113.21636914
 10
-95.11745817
 20
-113.21249615
 10
-95.12284007
 20
-113.20871651
 10
-95.1282963
 20
-113.20503121
 10
-95.13382585
 20
-113.20144128
  0
LWPOLYLINE
  5
37D
100
AcDbEntity
  8
MST_1_1
 62
   137
  6
CONTINUOUS
100
AcDbPolyline
 90
        9
 70
     0
 43
0.0
 10
-95.13382588
 20
-113.20144128
 10
-95.1295355
 20
-113.19715103
 10
-95.12524444
 20
-113.19285984
 10
-95.12095244
 20
-113.18856784
 10
-95.1166595
 20
-113.18427503
 10
-95.11236587
 20
-113.17998128
 10
-95.10807131
 20
-113.17568672
 10
-95.10377594
 20
-113.17139146
 10
-95.09947975
 20
-113.16709527
  0
LWPOLYLINE
  5
37E
100
AcDbEntity
  8
MST_1_1
 62
   137
  6
CONTINUOUS
100
AcDbPolyline
 90
        9
 70
     0
 43
0.0
 10
-95.09947975
 20
-113.16709527
 10
-95.17225585
 20
-113.09431916
 10
-95.24501485
 20
-113.02156028
 10
-95.31774648
 20
-112.94882853
 10
-95.3904411
 20
-112.8761338
 10
-95.46308915
 20
-112.80348586
 10
-95.53568062
 20
-112.73089439
 10
-95.60820551
 20
-112.65836939
 10
-95.68065449
 20
-112.58592064
  0
LWPOLYLINE
  5
37F
100
AcDbEntity
  8
MST_1_1
 62
   137
  6
CONTINUOUS
100
AcDbPolyline
 90
        9
 70
     0
 43
0.0
 10
-95.68065449
 20
-112.58592064
 10
-95.69279591
 20
-112.59806206
 10
-95.70493057
 20
-112.61019673
 10
-95.71705849
 20
-112.62232453
 10
-95.72917942
 20
-112.63444558
 10
-95.7412936
 20
-112.64655964
 10
-95.75340056
 20
-112.65866683
 10
-95.76550077
 20
-112.67076704
 10
-95.77759399
 20
-112.68286015
  0
ARC
  5
380
100
AcDbEntity
  8
MST_1_1
 62
   137
  6
CONTINUOUS
100
AcDbCircle
 10
-95.98046758
 20
-112.85179288
 30
0.0
 40
0.26399993
100
AcDbArc
 50
230.21587884
 51
39.78413117
  0
LWPOLYLINE
  5
381
100
AcDbEntity
  8
MST_1_1
 62
   137
  6
CONTINUOUS
100
AcDbPolyline
 90
        9
 70
     0
 43
0.0
 10
-96.14940031
 20
-113.05466647
 10
-96.16154965
 20
-113.06681581
 10
-96.1736899
 20
-113.07895606
 10
-96.18582108
 20
-113.09108724
 10
-96.19794317
 20
-113.10320933
 10
-96.21005619
 20
-113.11532235
 10
-96.22215989
 20
-113.12742616
 10
-96.23425451
 20
-113.13952079
 10
-96.24633982
 20
-113.15160598
  0
LWPOLYLINE
  5
382
100
AcDbEntity
  8
MST_1_1
 62
   137
  6
CONTINUOUS
100
AcDbPolyline
 90
        9
 70
     0
 43
0.0
 10
-96.24633982
 20
-113.15160598
 10
-96.17390364
 20
-113.22404238
 10
-96.10138621
 20
-113.2965597
 10
-96.02879823
 20
-113.36914756
 10
-95.95615018
 20
-113.44179561
 10
-95.88345254
 20
-113.51449349
 10
-95.81071531
 20
-113.58723048
 10
-95.73794945
 20
-113.65999634
 10
-95.66516519
 20
-113.7327806
  0
LWPOLYLINE
  5
383
100
AcDbEntity
  8
MST_1_1
 62
   137
  6
CONTINUOUS
100
AcDbPolyline
 90
        9
 70
     0
 43
0.0
 10
-95.66516519
 20
-113.7327806
 10
-95.66087599
 20
-113.72849139
 10
-95.65658562
 20
-113.72420102
 10
-95.65229408
 20
-113.71990949
 10
-95.64800139
 20
-113.71561679
 10
-95.64370752
 20
-113.71132293
 10
-95.6394125
 20
-113.70702813
 10
-95.63511654
 20
-113.70273194
 10
-95.63081918
 20
-113.69843459
  0
LWPOLYLINE
  5
384
100
AcDbEntity
  8
MST_1_1
 62
   137
  6
CONTINUOUS
100
AcDbPolyline
 90
       25
 70
     0
 43
0.0
 10
-95.63081916
 20
-113.69843459
 10
-95.62722997
 20
-113.70396297
 10
-95.62354531
 20
-113.70941822
 10
-95.61976619
 20
-113.71479933
 10
-95.61589361
 20
-113.72010527
 10
-95.6119286
 20
-113.72533503
 10
-95.60787217
 20
-113.7304876
 10
-95.60372532
 20
-113.73556197
 10
-95.59948908
 20
-113.74055711
 10
-95.59516444
 20
-113.74547202
 10
-95.59075242
 20
-113.75030568
 10
-95.58625404
 20
-113.75505708
 10
-95.58167031
 20
-113.75972519
 10
-95.57700223
 20
-113.76430902
 10
-95.57225082
 20
-113.76880753
 10
-95.5674171
 20
-113.77321973
 10
-95.56250207
 20
-113.77754458
 10
-95.55750674
 20
-113.78178109
 10
-95.55243213
 20
-113.78592822
 10
-95.54727925
 20
-113.78998498
 10
-95.54204911
 20
-113.79395034
 10
-95.53674273
 20
-113.7978233
 10
-95.5313611
 20
-113.80160282
 10
-95.52590526
 20
-113.80528791
 10
-95.5203762
 20
-113.80887755
  0
LWPOLYLINE
  5
385
100
AcDbEntity
  8
MST_1_1
 62
   137
  6
CONTINUOUS
100
AcDbPolyline
 90
        9
 70
     0
 43
0.0
 10
-95.5203762
 20
-113.80887757
 10
-95.52467355
 20
-113.81317493
 10
-95.52896975
 20
-113.81747088
 10
-95.53326454
 20
-113.82176591
 10
-95.5375584
 20
-113.82605977
 10
-95.5418511
 20
-113.83035247
 10
-95.54614264
 20
-113.83464401
 10
-95.55043301
 20
-113.83893438
 10
-95.55472221
 20
-113.84322358
  0
LWPOLYLINE
  5
386
100
AcDbEntity
  8
MST_1_1
 62
   137
  6
CONTINUOUS
100
AcDbPolyline
 90
        9
 70
     0
 43
0.0
 10
-95.55472221
 20
-113.84322358
 10
-95.48193796
 20
-113.91600784
 10
-95.40917209
 20
-113.9887737
 10
-95.3364351
 20
-114.06151093
 10
-95.26373723
 20
-114.13420857
 10
-95.19108917
 20
-114.20685662
 10
-95.11850131
 20
-114.2794446
 10
-95.045984
 20
-114.35196203
 10
-94.97354759
 20
-114.42439821
  0
CIRCLE
  5
387
100
AcDbEntity
  8
MST_1_1
 62
   137
  6
CONTINUOUS
100
AcDbCircle
 10
-93.27649136
 20
-111.45454975
 30
0.0
 40
4.28859654
  0
LWPOLYLINE
  5
388
100
AcDbEntity
  8
MST_1_1
 62
   137
  6
CONTINUOUS
100
AcDbPolyline
 90
        9
 70
     0
 43
0.0
 10
-95.2484931
 20
-113.15384651
 10
-95.29613282
 20
-113.10620679
 10
-95.34376158
 20
-113.05857791
 10
-95.39137708
 20
-113.01096241
 10
-95.43897628
 20
-112.96336322
 10
-95.48655638
 20
-112.91578311
 10
-95.5341146
 20
-112.86822477
 10
-95.58164838
 20
-112.82069112
 10
-95.62915468
 20
-112.77318482
  0
ARC
  5
389
100
AcDbEntity
  8
MST_1_1
 62
   137
  6
CONTINUOUS
100
AcDbCircle
 10
-95.32710128
 20
-113.50515905
 30
0.0
 40
0.35999965
100
AcDbArc
 50
77.38749365
 51
127.33775307
  0
LWPOLYLINE
  5
38A
100
AcDbEntity
  8
MST_1_1
 62
   137
  6
CONTINUOUS
100
AcDbPolyline
 90
        9
 70
     0
 43
0.0
 10
-95.04087429
 20
-113.72350393
 10
-95.10392274
 20
-113.66045549
 10
-95.16699085
 20
-113.59738725
 10
-95.23007201
 20
-113.53430598
 10
-95.2931598
 20
-113.47121819
 10
-95.35624759
 20
-113.4081304
 10
-95.41932886
 20
-113.34504924
 10
-95.4823971
 20
-113.28198112
 10
-95.54544554
 20
-113.21893268
  0
ARC
  5
38B
100
AcDbEntity
  8
MST_1_1
 62
   137
  6
CONTINUOUS
100
AcDbCircle
 10
-95.32710139
 20
-113.50515951
 30
0.0
 40
0.36000032
100
AcDbArc
 50
322.66230677
 51
12.61245653
  0
LWPOLYLINE
  5
38C
100
AcDbEntity
  8
MST_1_1
 62
   137
  6
CONTINUOUS
100
AcDbPolyline
 90
        9
 70
     0
 43
0.0
 10
-94.59512643
 20
-113.80721306
 10
-94.64263273
 20
-113.75970676
 10
-94.69016639
 20
-113.71217299
 10
-94.73772472
 20
-113.66461477
 10
-94.78530483
 20
-113.61703467
 10
-94.83290403
 20
-113.56943547
 10
-94.88051952
 20
-113.52181997
 10
-94.92814841
 20
-113.4741912
 10
-94.97578812
 20
-113.42655149
  0
ARC
  5
38D
100
AcDbEntity
  8
MST_1_1
 62
   137
  6
CONTINUOUS
100
AcDbCircle
 10
-94.67373419
 20
-114.15852619
 30
0.0
 40
0.36000013
100
AcDbArc
 50
77.38757789
 51
192.61246315
  0
LWPOLYLINE
  5
38E
100
AcDbEntity
  8
MST_1_1
 62
   137
  6
CONTINUOUS
100
AcDbPolyline
 90
        9
 70
     0
 43
0.0
 10
-95.40570897
 20
-113.85647234
 10
-95.3580667
 20
-113.90411485
 10
-95.31043537
 20
-113.95174595
 10
-95.26281848
 20
-113.99936284
 10
-95.21521858
 20
-114.04696274
 10
-95.16763859
 20
-114.09454284
 10
-95.12008142
 20
-114.1420999
 10
-95.07254997
 20
-114.18963134
 10
-95.02504728
 20
-114.23713415
  0
ARC
  5
38F
100
AcDbEntity
  8
MST_1_1
 62
   137
  6
CONTINUOUS
100
AcDbCircle
 10
-95.32710119
 20
-113.5051584
 30
0.0
 40
0.36000093
100
AcDbArc
 50
257.38761324
 51
307.3376629
  0
LWPOLYLINE
  5
390
100
AcDbEntity
  8
MST_1_1
 62
   137
  6
CONTINUOUS
100
AcDbPolyline
 90
        9
 70
     0
 43
0.0
 10
-95.61332778
 20
-113.28681504
 10
-95.55027934
 20
-113.34986325
 10
-95.48721134
 20
-113.41293137
 10
-95.42413006
 20
-113.47601264
 10
-95.36104204
 20
-113.53910043
 10
-95.29795425
 20
-113.60218845
 10
-95.23487298
 20
-113.66526972
 10
-95.17180486
 20
-113.72833772
 10
-95.10875665
 20
-113.79138617
  0
ARC
  5
391
100
AcDbEntity
  8
MST_1_1
 62
   137
  6
CONTINUOUS
100
AcDbCircle
 10
-95.32710102
 20
-113.50515935
 30
0.0
 40
0.36
100
AcDbArc
 50
142.66227791
 51
192.61247599
  0
LWPOLYLINE
  5
392
100
AcDbEntity
  8
MST_1_1
 62
   137
  6
CONTINUOUS
100
AcDbPolyline
 90
        9
 70
     0
 43
0.0
 10
-96.05907576
 20
-113.20310567
 10
-96.01157295
 20
-113.25060836
 10
-95.96404151
 20
-113.2981398
 10
-95.91648445
 20
-113.34569698
 10
-95.86890435
 20
-113.39327697
 10
-95.82130445
 20
-113.44087686
 10
-95.77368756
 20
-113.48849376
 10
-95.72605646
 20
-113.53612509
 10
-95.67841396
 20
-113.58376736
  0
ARC
  5
393
100
AcDbEntity
  8
MST_1_1
 62
   137
  6
CONTINUOUS
100
AcDbCircle
 10
-95.9804677
 20
-112.85179269
 30
0.0
 40
0.36000006
100
AcDbArc
 50
257.38753734
 51
12.61244165
  0
LWPOLYLINE
  5
394
100
AcDbEntity
  8
MST_1_1
 62
   137
  6
CONTINUOUS
100
AcDbPolyline
 90
        9
 70
     0
 43
0.0
 10
-95.43311523
 20
-113.26338063
 10
-95.38964854
 20
-113.30684732
 10
-95.34617557
 20
-113.35032029
 10
-95.30269817
 20
-113.39379769
 10
-95.25921868
 20
-113.43727707
 10
-95.2157393
 20
-113.48075656
 10
-95.17226191
 20
-113.52423396
 10
-95.12878893
 20
-113.56770693
 10
-95.08532225
 20
-113.61117362
  0
ARC
  5
395
100
AcDbEntity
  8
MST_1_1
 62
   137
  6
CONTINUOUS
100
AcDbCircle
 10
-95.32710098
 20
-113.50515937
 30
0.0
 40
0.26399996
100
AcDbArc
 50
336.32369791
 51
113.67631211
  0
LWPOLYLINE
  5
396
100
AcDbEntity
  8
MST_1_1
 62
   137
  6
CONTINUOUS
100
AcDbPolyline
 90
        9
 70
     0
 43
0.0
 10
-95.22108673
 20
-113.7469381
 10
-95.2645533
 20
-113.70347165
 10
-95.30802627
 20
-113.65999867
 10
-95.35150367
 20
-113.61652127
 10
-95.39498316
 20
-113.57304155
 10
-95.43846289
 20
-113.52956206
 10
-95.48194028
 20
-113.48608466
 10
-95.52541326
 20
-113.44261168
 10
-95.56887971
 20
-113.39914511
  0
ARC
  5
397
100
AcDbEntity
  8
MST_1_1
 62
   137
  6
CONTINUOUS
100
AcDbCircle
 10
-95.32710106
 20
-113.50515945
 30
0.0
 40
0.26399992
100
AcDbArc
 50
156.32366302
 51
293.676347
  0
CIRCLE
  5
398
100
AcDbEntity
  8
MST_1_1
 62
   137
  6
CONTINUOUS
100
AcDbCircle
 10
-93.27649136
 20
-141.45454975
 30
0.0
 40
2.32981333
  0
CIRCLE
  5
399
100
AcDbEntity
  8
MST_1_1
 62
   137
  6
CONTINUOUS
100
AcDbCircle
 10
-93.27649136
 20
-141.45454975
 30
0.0
 40
1.32203389
  0
CIRCLE
  5
39A
100
AcDbEntity
  8
MST_1_1
 62
   137
  6
CONTINUOUS
100
AcDbCircle
 10
-93.27649136
 20
-141.45454975
 30
0.0
 40
2.32981333
  0
CIRCLE
  5
39B
100
AcDbEntity
  8
MST_1_1
 62
   137
  6
CONTINUOUS
100
AcDbCircle
 10
-93.27649136
 20
-141.45454975
 30
0.0
 40
2.32981333
  0
CIRCLE
  5
39C
100
AcDbEntity
  8
MST_1_1
 62
   137
  6
CONTINUOUS
100
AcDbCircle
 10
-93.27649136
 20
-141.45454975
 30
0.0
 40
4.5
  0
ARC
  5
39D
100
AcDbEntity
  8
MST_1_1
 62
   137
  6
CONTINUOUS
100
AcDbCircle
 10
-95.15049131
 20
-141.45454975
 30
0.0
 40
0.37600003
100
AcDbArc
 50
106.48878485
 51
253.51122516
  0
ARC
  5
39E
100
AcDbEntity
  8
MST_1_1
 62
   137
  6
CONTINUOUS
100
AcDbCircle
 10
-95.5367621
 20
-142.7595177
 30
0.0
 40
0.98493585
100
AcDbArc
 50
346.4887751
 51
73.5112424
  0
ARC
  5
39F
100
AcDbEntity
  8
MST_1_1
 62
   137
  6
CONTINUOUS
100
AcDbCircle
 10
-94.2134913
 20
-143.0774813
 30
0.0
 40
0.37600004
100
AcDbArc
 50
166.48877314
 51
313.51122983
  0
ARC
  5
3A0
100
AcDbEntity
  8
MST_1_1
 62
   137
  6
CONTINUOUS
100
AcDbCircle
 10
-93.27649136
 20
-144.06448542
 30
0.0
 40
0.98493568
100
AcDbArc
 50
46.48875513
 51
133.51124487
  0
ARC
  5
3A1
100
AcDbEntity
  8
MST_1_1
 62
   137
  6
CONTINUOUS
100
AcDbCircle
 10
-92.3394914
 20
-143.07748134
 30
0.0
 40
0.37600002
100
AcDbArc
 50
226.48878273
 51
13.51123435
  0
ARC
  5
3A2
100
AcDbEntity
  8
MST_1_1
 62
   137
  6
CONTINUOUS
100
AcDbCircle
 10
-91.01622058
 20
-142.75951772
 30
0.0
 40
0.98493588
100
AcDbArc
 50
106.48875933
 51
193.51124321
  0
ARC
  5
3A3
100
AcDbEntity
  8
MST_1_1
 62
   137
  6
CONTINUOUS
100
AcDbCircle
 10
-91.40249141
 20
-141.45454975
 30
0.0
 40
0.37600003
100
AcDbArc
 50
286.48879487
 51
73.51121515
  0
ARC
  5
3A4
100
AcDbEntity
  8
MST_1_1
 62
   137
  6
CONTINUOUS
100
AcDbCircle
 10
-91.01622062
 20
-140.1495818
 30
0.0
 40
0.98493585
100
AcDbArc
 50
166.48876508
 51
253.51125242
  0
ARC
  5
3A5
100
AcDbEntity
  8
MST_1_1
 62
   137
  6
CONTINUOUS
100
AcDbCircle
 10
-92.33949142
 20
-139.8316182
 30
0.0
 40
0.37600004
100
AcDbArc
 50
346.48878316
 51
133.51121981
  0
ARC
  5
3A6
100
AcDbEntity
  8
MST_1_1
 62
   137
  6
CONTINUOUS
100
AcDbCircle
 10
-93.27649136
 20
-138.84461407
 30
0.0
 40
0.98493568
100
AcDbArc
 50
226.48876515
 51
313.51125489
  0
ARC
  5
3A7
100
AcDbEntity
  8
MST_1_1
 62
   137
  6
CONTINUOUS
100
AcDbCircle
 10
-94.21349132
 20
-139.83161815
 30
0.0
 40
0.37600002
100
AcDbArc
 50
46.48877271
 51
193.51124436
  0
ARC
  5
3A8
100
AcDbEntity
  8
MST_1_1
 62
   137
  6
CONTINUOUS
100
AcDbCircle
 10
-95.53676214
 20
-140.14958178
 30
0.0
 40
0.98493588
100
AcDbArc
 50
286.48876935
 51
13.51123319
  0
LWPOLYLINE
  5
3A9
100
AcDbEntity
  8
MST_1_1
 62
   137
  6
CONTINUOUS
100
AcDbPolyline
 90
        9
 70
     0
 43
0.0
 10
-94.97354759
 20
-144.42439821
 10
-94.9614624
 20
-144.4123129
 10
-94.94936778
 20
-144.40021828
 10
-94.93726396
 20
-144.38811458
 10
-94.92515094
 20
-144.37600156
 10
-94.91302885
 20
-144.36387947
 10
-94.90089768
 20
-144.35174829
 10
-94.88875742
 20
-144.33960804
 10
-94.87660808
 20
-144.3274587
  0
ARC
  5
3AA
100
AcDbEntity
  8
MST_1_1
 62
   137
  6
CONTINUOUS
100
AcDbCircle
 10
-94.67373437
 20
-144.15852609
 30
0.0
 40
0.26399994
100
AcDbArc
 50
50.21590624
 51
219.78410378
  0
LWPOLYLINE
  5
3AB
100
AcDbEntity
  8
MST_1_1
 62
   137
  6
CONTINUOUS
100
AcDbPolyline
 90
        9
 70
     0
 43
0.0
 10
-94.50480176
 20
-143.95565238
 10
-94.49270865
 20
-143.94355915
 10
-94.48060844
 20
-143.93145895
 10
-94.46850125
 20
-143.91935198
 10
-94.45638719
 20
-143.90723781
 10
-94.44426614
 20
-143.89511688
 10
-94.43213834
 20
-143.88298896
 10
-94.42000368
 20
-143.87085429
 10
-94.40786226
 20
-143.85871287
  0
LWPOLYLINE
  5
3AC
100
AcDbEntity
  8
MST_1_1
 62
   137
  6
CONTINUOUS
100
AcDbPolyline
 90
        9
 70
     0
 43
0.0
 10
-94.40786226
 20
-143.85871287
 10
-94.480311
 20
-143.78626389
 10
-94.552836
 20
-143.71373901
 10
-94.62542748
 20
-143.64114754
 10
-94.69807541
 20
-143.56849949
 10
-94.77077014
 20
-143.49580487
 10
-94.84350189
 20
-143.42307324
 10
-94.91626077
 20
-143.35031424
 10
-94.98903688
 20
-143.27753813
  0
LWPOLYLINE
  5
3AD
100
AcDbEntity
  8
MST_1_1
 62
   137
  6
CONTINUOUS
100
AcDbPolyline
 90
        9
 70
     0
 43
0.0
 10
-94.98903688
 20
-143.27753813
 10
-94.99333307
 20
-143.28183433
 10
-94.99762833
 20
-143.2861297
 10
-95.00192289
 20
-143.29042426
 10
-95.00621664
 20
-143.29471789
 10
-95.01050945
 20
-143.29901082
 10
-95.01480145
 20
-143.30330282
 10
-95.01909264
 20
-143.30759389
 10
-95.02338289
 20
-143.31188426
  0
LWPOLYLINE
  5
3AE
100
AcDbEntity
  8
MST_1_1
 62
   137
  6
CONTINUOUS
100
AcDbPolyline
 90
       25
 70
     0
 43
0.0
 10
-95.02338289
 20
-143.31188424
 10
-95.02697239
 20
-143.30635534
 10
-95.03065727
 20
-143.30089969
 10
-95.03443653
 20
-143.29551829
 10
-95.03830915
 20
-143.29021216
 10
-95.04227414
 20
-143.28498228
 10
-95.04633049
 20
-143.27982968
 10
-95.05047721
 20
-143.27475535
 10
-95.05471329
 20
-143.2697603
 10
-95.05903773
 20
-143.26484553
 10
-95.06344953
 20
-143.26001204
 10
-95.06794768
 20
-143.25526085
 10
-95.07253118
 20
-143.25059296
 10
-95.07719903
 20
-143.24600938
 10
-95.08195023
 20
-143.24151109
 10
-95.08678378
 20
-143.23709913
 10
-95.09169866
 20
-143.23277448
 10
-95.09669389
 20
-143.22853815
 10
-95.10176846
 20
-143.22439114
 10
-95.10692137
 20
-143.22033448
 10
-95.1121516
 20
-143.21636914
 10
-95.11745817
 20
-143.21249615
 10
-95.12284007
 20
-143.20871651
 10
-95.1282963
 20
-143.20503121
 10
-95.13382585
 20
-143.20144128
  0
LWPOLYLINE
  5
3AF
100
AcDbEntity
  8
MST_1_1
 62
   137
  6
CONTINUOUS
100
AcDbPolyline
 90
        9
 70
     0
 43
0.0
 10
-95.13382588
 20
-143.20144128
 10
-95.1295355
 20
-143.19715103
 10
-95.12524444
 20
-143.19285984
 10
-95.12095244
 20
-143.18856784
 10
-95.1166595
 20
-143.18427503
 10
-95.11236587
 20
-143.17998128
 10
-95.10807131
 20
-143.17568672
 10
-95.10377594
 20
-143.17139146
 10
-95.09947975
 20
-143.16709527
  0
LWPOLYLINE
  5
3B0
100
AcDbEntity
  8
MST_1_1
 62
   137
  6
CONTINUOUS
100
AcDbPolyline
 90
        9
 70
     0
 43
0.0
 10
-95.09947975
 20
-143.16709527
 10
-95.17225585
 20
-143.09431916
 10
-95.24501485
 20
-143.02156028
 10
-95.31774648
 20
-142.94882853
 10
-95.3904411
 20
-142.8761338
 10
-95.46308915
 20
-142.80348586
 10
-95.53568062
 20
-142.73089439
 10
-95.60820551
 20
-142.65836939
 10
-95.68065449
 20
-142.58592064
  0
LWPOLYLINE
  5
3B1
100
AcDbEntity
  8
MST_1_1
 62
   137
  6
CONTINUOUS
100
AcDbPolyline
 90
        9
 70
     0
 43
0.0
 10
-95.68065449
 20
-142.58592064
 10
-95.69279591
 20
-142.59806206
 10
-95.70493057
 20
-142.61019673
 10
-95.71705849
 20
-142.62232453
 10
-95.72917942
 20
-142.63444558
 10
-95.7412936
 20
-142.64655964
 10
-95.75340056
 20
-142.65866683
 10
-95.76550077
 20
-142.67076704
 10
-95.77759399
 20
-142.68286015
  0
ARC
  5
3B2
100
AcDbEntity
  8
MST_1_1
 62
   137
  6
CONTINUOUS
100
AcDbCircle
 10
-95.98046758
 20
-142.85179288
 30
0.0
 40
0.26399993
100
AcDbArc
 50
230.21587884
 51
39.78413117
  0
LWPOLYLINE
  5
3B3
100
AcDbEntity
  8
MST_1_1
 62
   137
  6
CONTINUOUS
100
AcDbPolyline
 90
        9
 70
     0
 43
0.0
 10
-96.14940031
 20
-143.05466647
 10
-96.16154965
 20
-143.06681581
 10
-96.1736899
 20
-143.07895606
 10
-96.18582108
 20
-143.09108724
 10
-96.19794317
 20
-143.10320933
 10
-96.21005619
 20
-143.11532235
 10
-96.22215989
 20
-143.12742616
 10
-96.23425451
 20
-143.13952079
 10
-96.24633982
 20
-143.15160598
  0
LWPOLYLINE
  5
3B4
100
AcDbEntity
  8
MST_1_1
 62
   137
  6
CONTINUOUS
100
AcDbPolyline
 90
        9
 70
     0
 43
0.0
 10
-96.24633982
 20
-143.15160598
 10
-96.17390364
 20
-143.22404238
 10
-96.10138621
 20
-143.2965597
 10
-96.02879823
 20
-143.36914756
 10
-95.95615018
 20
-143.44179561
 10
-95.88345254
 20
-143.51449349
 10
-95.81071531
 20
-143.58723048
 10
-95.73794945
 20
-143.65999634
 10
-95.66516519
 20
-143.7327806
  0
LWPOLYLINE
  5
3B5
100
AcDbEntity
  8
MST_1_1
 62
   137
  6
CONTINUOUS
100
AcDbPolyline
 90
        9
 70
     0
 43
0.0
 10
-95.66516519
 20
-143.7327806
 10
-95.66087599
 20
-143.72849139
 10
-95.65658562
 20
-143.72420102
 10
-95.65229408
 20
-143.71990949
 10
-95.64800139
 20
-143.71561679
 10
-95.64370752
 20
-143.71132293
 10
-95.6394125
 20
-143.70702813
 10
-95.63511654
 20
-143.70273194
 10
-95.63081918
 20
-143.69843459
  0
LWPOLYLINE
  5
3B6
100
AcDbEntity
  8
MST_1_1
 62
   137
  6
CONTINUOUS
100
AcDbPolyline
 90
       25
 70
     0
 43
0.0
 10
-95.63081916
 20
-143.69843459
 10
-95.62722997
 20
-143.70396297
 10
-95.62354531
 20
-143.70941822
 10
-95.61976619
 20
-143.71479933
 10
-95.61589361
 20
-143.72010527
 10
-95.6119286
 20
-143.72533503
 10
-95.60787217
 20
-143.7304876
 10
-95.60372532
 20
-143.73556197
 10
-95.59948908
 20
-143.74055711
 10
-95.59516444
 20
-143.74547202
 10
-95.59075242
 20
-143.75030568
 10
-95.58625404
 20
-143.75505708
 10
-95.58167031
 20
-143.75972519
 10
-95.57700223
 20
-143.76430902
 10
-95.57225082
 20
-143.76880753
 10
-95.5674171
 20
-143.77321973
 10
-95.56250207
 20
-143.77754458
 10
-95.55750674
 20
-143.78178109
 10
-95.55243213
 20
-143.78592822
 10
-95.54727925
 20
-143.78998498
 10
-95.54204911
 20
-143.79395034
 10
-95.53674273
 20
-143.7978233
 10
-95.5313611
 20
-143.80160282
 10
-95.52590526
 20
-143.80528791
 10
-95.5203762
 20
-143.80887755
  0
LWPOLYLINE
  5
3B7
100
AcDbEntity
  8
MST_1_1
 62
   137
  6
CONTINUOUS
100
AcDbPolyline
 90
        9
 70
     0
 43
0.0
 10
-95.5203762
 20
-143.80887757
 10
-95.52467355
 20
-143.81317493
 10
-95.52896975
 20
-143.81747088
 10
-95.53326454
 20
-143.82176591
 10
-95.5375584
 20
-143.82605977
 10
-95.5418511
 20
-143.83035247
 10
-95.54614264
 20
-143.83464401
 10
-95.55043301
 20
-143.83893438
 10
-95.55472221
 20
-143.84322358
  0
LWPOLYLINE
  5
3B8
100
AcDbEntity
  8
MST_1_1
 62
   137
  6
CONTINUOUS
100
AcDbPolyline
 90
        9
 70
     0
 43
0.0
 10
-95.55472221
 20
-143.84322358
 10
-95.48193796
 20
-143.91600784
 10
-95.40917209
 20
-143.9887737
 10
-95.3364351
 20
-144.06151093
 10
-95.26373723
 20
-144.13420857
 10
-95.19108917
 20
-144.20685662
 10
-95.11850131
 20
-144.2794446
 10
-95.045984
 20
-144.35196203
 10
-94.97354759
 20
-144.42439821
  0
CIRCLE
  5
3B9
100
AcDbEntity
  8
MST_1_1
 62
   137
  6
CONTINUOUS
100
AcDbCircle
 10
-93.27649136
 20
-141.45454975
 30
0.0
 40
4.28859654
  0
LWPOLYLINE
  5
3BA
100
AcDbEntity
  8
MST_1_1
 62
   137
  6
CONTINUOUS
100
AcDbPolyline
 90
        9
 70
     0
 43
0.0
 10
-95.2484931
 20
-143.15384651
 10
-95.29613282
 20
-143.10620679
 10
-95.34376158
 20
-143.05857791
 10
-95.39137708
 20
-143.01096241
 10
-95.43897628
 20
-142.96336322
 10
-95.48655638
 20
-142.91578311
 10
-95.5341146
 20
-142.86822477
 10
-95.58164838
 20
-142.82069112
 10
-95.62915468
 20
-142.77318482
  0
ARC
  5
3BB
100
AcDbEntity
  8
MST_1_1
 62
   137
  6
CONTINUOUS
100
AcDbCircle
 10
-95.32710128
 20
-143.50515905
 30
0.0
 40
0.35999965
100
AcDbArc
 50
77.38749365
 51
127.33775307
  0
LWPOLYLINE
  5
3BC
100
AcDbEntity
  8
MST_1_1
 62
   137
  6
CONTINUOUS
100
AcDbPolyline
 90
        9
 70
     0
 43
0.0
 10
-95.04087429
 20
-143.72350393
 10
-95.10392274
 20
-143.66045549
 10
-95.16699085
 20
-143.59738725
 10
-95.23007201
 20
-143.53430598
 10
-95.2931598
 20
-143.47121819
 10
-95.35624759
 20
-143.4081304
 10
-95.41932886
 20
-143.34504924
 10
-95.4823971
 20
-143.28198112
 10
-95.54544554
 20
-143.21893268
  0
ARC
  5
3BD
100
AcDbEntity
  8
MST_1_1
 62
   137
  6
CONTINUOUS
100
AcDbCircle
 10
-95.32710139
 20
-143.50515951
 30
0.0
 40
0.36000032
100
AcDbArc
 50
322.66230677
 51
12.61245653
  0
LWPOLYLINE
  5
3BE
100
AcDbEntity
  8
MST_1_1
 62
   137
  6
CONTINUOUS
100
AcDbPolyline
 90
        9
 70
     0
 43
0.0
 10
-94.59512643
 20
-143.80721306
 10
-94.64263273
 20
-143.75970676
 10
-94.69016639
 20
-143.71217299
 10
-94.73772472
 20
-143.66461477
 10
-94.78530483
 20
-143.61703467
 10
-94.83290403
 20
-143.56943547
 10
-94.88051952
 20
-143.52181997
 10
-94.92814841
 20
-143.4741912
 10
-94.97578812
 20
-143.42655149
  0
ARC
  5
3BF
100
AcDbEntity
  8
MST_1_1
 62
   137
  6
CONTINUOUS
100
AcDbCircle
 10
-94.67373419
 20
-144.15852619
 30
0.0
 40
0.36000013
100
AcDbArc
 50
77.38757789
 51
192.61246315
  0
LWPOLYLINE
  5
3C0
100
AcDbEntity
  8
MST_1_1
 62
   137
  6
CONTINUOUS
100
AcDbPolyline
 90
        9
 70
     0
 43
0.0
 10
-95.40570897
 20
-143.85647234
 10
-95.3580667
 20
-143.90411485
 10
-95.31043537
 20
-143.95174595
 10
-95.26281848
 20
-143.99936284
 10
-95.21521858
 20
-144.04696274
 10
-95.16763859
 20
-144.09454284
 10
-95.12008142
 20
-144.1420999
 10
-95.07254997
 20
-144.18963134
 10
-95.02504728
 20
-144.23713415
  0
ARC
  5
3C1
100
AcDbEntity
  8
MST_1_1
 62
   137
  6
CONTINUOUS
100
AcDbCircle
 10
-95.32710119
 20
-143.5051584
 30
0.0
 40
0.36000093
100
AcDbArc
 50
257.38761324
 51
307.3376629
  0
LWPOLYLINE
  5
3C2
100
AcDbEntity
  8
MST_1_1
 62
   137
  6
CONTINUOUS
100
AcDbPolyline
 90
        9
 70
     0
 43
0.0
 10
-95.61332778
 20
-143.28681504
 10
-95.55027934
 20
-143.34986325
 10
-95.48721134
 20
-143.41293137
 10
-95.42413006
 20
-143.47601264
 10
-95.36104204
 20
-143.53910043
 10
-95.29795425
 20
-143.60218845
 10
-95.23487298
 20
-143.66526972
 10
-95.17180486
 20
-143.72833772
 10
-95.10875665
 20
-143.79138617
  0
ARC
  5
3C3
100
AcDbEntity
  8
MST_1_1
 62
   137
  6
CONTINUOUS
100
AcDbCircle
 10
-95.32710102
 20
-143.50515935
 30
0.0
 40
0.36
100
AcDbArc
 50
142.66227791
 51
192.61247599
  0
LWPOLYLINE
  5
3C4
100
AcDbEntity
  8
MST_1_1
 62
   137
  6
CONTINUOUS
100
AcDbPolyline
 90
        9
 70
     0
 43
0.0
 10
-96.05907576
 20
-143.20310567
 10
-96.01157295
 20
-143.25060836
 10
-95.96404151
 20
-143.2981398
 10
-95.91648445
 20
-143.34569698
 10
-95.86890435
 20
-143.39327697
 10
-95.82130445
 20
-143.44087686
 10
-95.77368756
 20
-143.48849376
 10
-95.72605646
 20
-143.53612509
 10
-95.67841396
 20
-143.58376736
  0
ARC
  5
3C5
100
AcDbEntity
  8
MST_1_1
 62
   137
  6
CONTINUOUS
100
AcDbCircle
 10
-95.9804677
 20
-142.85179269
 30
0.0
 40
0.36000006
100
AcDbArc
 50
257.38753734
 51
12.61244165
  0
LWPOLYLINE
  5
3C6
100
AcDbEntity
  8
MST_1_1
 62
   137
  6
CONTINUOUS
100
AcDbPolyline
 90
        9
 70
     0
 43
0.0
 10
-95.43311523
 20
-143.26338063
 10
-95.38964854
 20
-143.30684732
 10
-95.34617557
 20
-143.35032029
 10
-95.30269817
 20
-143.39379769
 10
-95.25921868
 20
-143.43727707
 10
-95.2157393
 20
-143.48075656
 10
-95.17226191
 20
-143.52423396
 10
-95.12878893
 20
-143.56770693
 10
-95.08532225
 20
-143.61117362
  0
ARC
  5
3C7
100
AcDbEntity
  8
MST_1_1
 62
   137
  6
CONTINUOUS
100
AcDbCircle
 10
-95.32710098
 20
-143.50515937
 30
0.0
 40
0.26399996
100
AcDbArc
 50
336.32369791
 51
113.67631211
  0
LWPOLYLINE
  5
3C8
100
AcDbEntity
  8
MST_1_1
 62
   137
  6
CONTINUOUS
100
AcDbPolyline
 90
        9
 70
     0
 43
0.0
 10
-95.22108673
 20
-143.7469381
 10
-95.2645533
 20
-143.70347165
 10
-95.30802627
 20
-143.65999867
 10
-95.35150367
 20
-143.61652127
 10
-95.39498316
 20
-143.57304155
 10
-95.43846289
 20
-143.52956206
 10
-95.48194028
 20
-143.48608466
 10
-95.52541326
 20
-143.44261168
 10
-95.56887971
 20
-143.39914511
  0
ARC
  5
3C9
100
AcDbEntity
  8
MST_1_1
 62
   137
  6
CONTINUOUS
100
AcDbCircle
 10
-95.32710106
 20
-143.50515945
 30
0.0
 40
0.26399992
100
AcDbArc
 50
156.32366302
 51
293.676347
  0
CIRCLE
  5
3CA
100
AcDbEntity
  8
MST_1_1
 62
   137
  6
CONTINUOUS
100
AcDbCircle
 10
-93.27649136
 20
-171.45454975
 30
0.0
 40
2.32981333
  0
CIRCLE
  5
3CB
100
AcDbEntity
  8
MST_1_1
 62
   137
  6
CONTINUOUS
100
AcDbCircle
 10
-93.27649136
 20
-171.45454975
 30
0.0
 40
1.32203389
  0
CIRCLE
  5
3CC
100
AcDbEntity
  8
MST_1_1
 62
   137
  6
CONTINUOUS
100
AcDbCircle
 10
-93.27649136
 20
-171.45454975
 30
0.0
 40
2.32981333
  0
CIRCLE
  5
3CD
100
AcDbEntity
  8
MST_1_1
 62
   137
  6
CONTINUOUS
100
AcDbCircle
 10
-93.27649136
 20
-171.45454975
 30
0.0
 40
2.32981333
  0
CIRCLE
  5
3CE
100
AcDbEntity
  8
MST_1_1
 62
   137
  6
CONTINUOUS
100
AcDbCircle
 10
-93.27649136
 20
-171.45454975
 30
0.0
 40
4.5
  0
ARC
  5
3CF
100
AcDbEntity
  8
MST_1_1
 62
   137
  6
CONTINUOUS
100
AcDbCircle
 10
-95.15049131
 20
-171.45454975
 30
0.0
 40
0.37600003
100
AcDbArc
 50
106.48878485
 51
253.51122516
  0
ARC
  5
3D0
100
AcDbEntity
  8
MST_1_1
 62
   137
  6
CONTINUOUS
100
AcDbCircle
 10
-95.5367621
 20
-172.7595177
 30
0.0
 40
0.98493585
100
AcDbArc
 50
346.4887751
 51
73.5112424
  0
ARC
  5
3D1
100
AcDbEntity
  8
MST_1_1
 62
   137
  6
CONTINUOUS
100
AcDbCircle
 10
-94.2134913
 20
-173.0774813
 30
0.0
 40
0.37600004
100
AcDbArc
 50
166.48877314
 51
313.51122983
  0
ARC
  5
3D2
100
AcDbEntity
  8
MST_1_1
 62
   137
  6
CONTINUOUS
100
AcDbCircle
 10
-93.27649136
 20
-174.06448542
 30
0.0
 40
0.98493568
100
AcDbArc
 50
46.48875513
 51
133.51124487
  0
ARC
  5
3D3
100
AcDbEntity
  8
MST_1_1
 62
   137
  6
CONTINUOUS
100
AcDbCircle
 10
-92.3394914
 20
-173.07748134
 30
0.0
 40
0.37600002
100
AcDbArc
 50
226.48878273
 51
13.51123435
  0
ARC
  5
3D4
100
AcDbEntity
  8
MST_1_1
 62
   137
  6
CONTINUOUS
100
AcDbCircle
 10
-91.01622058
 20
-172.75951772
 30
0.0
 40
0.98493588
100
AcDbArc
 50
106.48875933
 51
193.51124321
  0
ARC
  5
3D5
100
AcDbEntity
  8
MST_1_1
 62
   137
  6
CONTINUOUS
100
AcDbCircle
 10
-91.40249141
 20
-171.45454975
 30
0.0
 40
0.37600003
100
AcDbArc
 50
286.48879487
 51
73.51121515
  0
ARC
  5
3D6
100
AcDbEntity
  8
MST_1_1
 62
   137
  6
CONTINUOUS
100
AcDbCircle
 10
-91.01622062
 20
-170.1495818
 30
0.0
 40
0.98493585
100
AcDbArc
 50
166.48876508
 51
253.51125242
  0
ARC
  5
3D7
100
AcDbEntity
  8
MST_1_1
 62
   137
  6
CONTINUOUS
100
AcDbCircle
 10
-92.33949142
 20
-169.8316182
 30
0.0
 40
0.37600004
100
AcDbArc
 50
346.48878316
 51
133.51121981
  0
ARC
  5
3D8
100
AcDbEntity
  8
MST_1_1
 62
   137
  6
CONTINUOUS
100
AcDbCircle
 10
-93.27649136
 20
-168.84461407
 30
0.0
 40
0.98493568
100
AcDbArc
 50
226.48876515
 51
313.51125489
  0
ARC
  5
3D9
100
AcDbEntity
  8
MST_1_1
 62
   137
  6
CONTINUOUS
100
AcDbCircle
 10
-94.21349132
 20
-169.83161815
 30
0.0
 40
0.37600002
100
AcDbArc
 50
46.48877271
 51
193.51124436
  0
ARC
  5
3DA
100
AcDbEntity
  8
MST_1_1
 62
   137
  6
CONTINUOUS
100
AcDbCircle
 10
-95.53676214
 20
-170.14958178
 30
0.0
 40
0.98493588
100
AcDbArc
 50
286.48876935
 51
13.51123319
  0
LWPOLYLINE
  5
3DB
100
AcDbEntity
  8
MST_1_1
 62
   137
  6
CONTINUOUS
100
AcDbPolyline
 90
        9
 70
     0
 43
0.0
 10
-94.97354759
 20
-174.42439821
 10
-94.9614624
 20
-174.4123129
 10
-94.94936778
 20
-174.40021828
 10
-94.93726396
 20
-174.38811458
 10
-94.92515094
 20
-174.37600156
 10
-94.91302885
 20
-174.36387947
 10
-94.90089768
 20
-174.35174829
 10
-94.88875742
 20
-174.33960804
 10
-94.87660808
 20
-174.3274587
  0
ARC
  5
3DC
100
AcDbEntity
  8
MST_1_1
 62
   137
  6
CONTINUOUS
100
AcDbCircle
 10
-94.67373437
 20
-174.15852609
 30
0.0
 40
0.26399994
100
AcDbArc
 50
50.21590624
 51
219.78410378
  0
LWPOLYLINE
  5
3DD
100
AcDbEntity
  8
MST_1_1
 62
   137
  6
CONTINUOUS
100
AcDbPolyline
 90
        9
 70
     0
 43
0.0
 10
-94.50480176
 20
-173.95565238
 10
-94.49270865
 20
-173.94355915
 10
-94.48060844
 20
-173.93145895
 10
-94.46850125
 20
-173.91935198
 10
-94.45638719
 20
-173.90723781
 10
-94.44426614
 20
-173.89511688
 10
-94.43213834
 20
-173.88298896
 10
-94.42000368
 20
-173.87085429
 10
-94.40786226
 20
-173.85871287
  0
LWPOLYLINE
  5
3DE
100
AcDbEntity
  8
MST_1_1
 62
   137
  6
CONTINUOUS
100
AcDbPolyline
 90
        9
 70
     0
 43
0.0
 10
-94.40786226
 20
-173.85871287
 10
-94.480311
 20
-173.78626389
 10
-94.552836
 20
-173.71373901
 10
-94.62542748
 20
-173.64114754
 10
-94.69807541
 20
-173.56849949
 10
-94.77077014
 20
-173.49580487
 10
-94.84350189
 20
-173.42307324
 10
-94.91626077
 20
-173.35031424
 10
-94.98903688
 20
-173.27753813
  0
LWPOLYLINE
  5
3DF
100
AcDbEntity
  8
MST_1_1
 62
   137
  6
CONTINUOUS
100
AcDbPolyline
 90
        9
 70
     0
 43
0.0
 10
-94.98903688
 20
-173.27753813
 10
-94.99333307
 20
-173.28183433
 10
-94.99762833
 20
-173.2861297
 10
-95.00192289
 20
-173.29042426
 10
-95.00621664
 20
-173.29471789
 10
-95.01050945
 20
-173.29901082
 10
-95.01480145
 20
-173.30330282
 10
-95.01909264
 20
-173.30759389
 10
-95.02338289
 20
-173.31188426
  0
LWPOLYLINE
  5
3E0
100
AcDbEntity
  8
MST_1_1
 62
   137
  6
CONTINUOUS
100
AcDbPolyline
 90
       25
 70
     0
 43
0.0
 10
-95.02338289
 20
-173.31188424
 10
-95.02697239
 20
-173.30635534
 10
-95.03065727
 20
-173.30089969
 10
-95.03443653
 20
-173.29551829
 10
-95.03830915
 20
-173.29021216
 10
-95.04227414
 20
-173.28498228
 10
-95.04633049
 20
-173.27982968
 10
-95.05047721
 20
-173.27475535
 10
-95.05471329
 20
-173.2697603
 10
-95.05903773
 20
-173.26484553
 10
-95.06344953
 20
-173.26001204
 10
-95.06794768
 20
-173.25526085
 10
-95.07253118
 20
-173.25059296
 10
-95.07719903
 20
-173.24600938
 10
-95.08195023
 20
-173.24151109
 10
-95.08678378
 20
-173.23709913
 10
-95.09169866
 20
-173.23277448
 10
-95.09669389
 20
-173.22853815
 10
-95.10176846
 20
-173.22439114
 10
-95.10692137
 20
-173.22033448
 10
-95.1121516
 20
-173.21636914
 10
-95.11745817
 20
-173.21249615
 10
-95.12284007
 20
-173.20871651
 10
-95.1282963
 20
-173.20503121
 10
-95.13382585
 20
-173.20144128
  0
LWPOLYLINE
  5
3E1
100
AcDbEntity
  8
MST_1_1
 62
   137
  6
CONTINUOUS
100
AcDbPolyline
 90
        9
 70
     0
 43
0.0
 10
-95.13382588
 20
-173.20144128
 10
-95.1295355
 20
-173.19715103
 10
-95.12524444
 20
-173.19285984
 10
-95.12095244
 20
-173.18856784
 10
-95.1166595
 20
-173.18427503
 10
-95.11236587
 20
-173.17998128
 10
-95.10807131
 20
-173.17568672
 10
-95.10377594
 20
-173.17139146
 10
-95.09947975
 20
-173.16709527
  0
LWPOLYLINE
  5
3E2
100
AcDbEntity
  8
MST_1_1
 62
   137
  6
CONTINUOUS
100
AcDbPolyline
 90
        9
 70
     0
 43
0.0
 10
-95.09947975
 20
-173.16709527
 10
-95.17225585
 20
-173.09431916
 10
-95.24501485
 20
-173.02156028
 10
-95.31774648
 20
-172.94882853
 10
-95.3904411
 20
-172.8761338
 10
-95.46308915
 20
-172.80348586
 10
-95.53568062
 20
-172.73089439
 10
-95.60820551
 20
-172.65836939
 10
-95.68065449
 20
-172.58592064
  0
LWPOLYLINE
  5
3E3
100
AcDbEntity
  8
MST_1_1
 62
   137
  6
CONTINUOUS
100
AcDbPolyline
 90
        9
 70
     0
 43
0.0
 10
-95.68065449
 20
-172.58592064
 10
-95.69279591
 20
-172.59806206
 10
-95.70493057
 20
-172.61019673
 10
-95.71705849
 20
-172.62232453
 10
-95.72917942
 20
-172.63444558
 10
-95.7412936
 20
-172.64655964
 10
-95.75340056
 20
-172.65866683
 10
-95.76550077
 20
-172.67076704
 10
-95.77759399
 20
-172.68286015
  0
ARC
  5
3E4
100
AcDbEntity
  8
MST_1_1
 62
   137
  6
CONTINUOUS
100
AcDbCircle
 10
-95.98046758
 20
-172.85179288
 30
0.0
 40
0.26399993
100
AcDbArc
 50
230.21587884
 51
39.78413117
  0
LWPOLYLINE
  5
3E5
100
AcDbEntity
  8
MST_1_1
 62
   137
  6
CONTINUOUS
100
AcDbPolyline
 90
        9
 70
     0
 43
0.0
 10
-96.14940031
 20
-173.05466647
 10
-96.16154965
 20
-173.06681581
 10
-96.1736899
 20
-173.07895606
 10
-96.18582108
 20
-173.09108724
 10
-96.19794317
 20
-173.10320933
 10
-96.21005619
 20
-173.11532235
 10
-96.22215989
 20
-173.12742616
 10
-96.23425451
 20
-173.13952079
 10
-96.24633982
 20
-173.15160598
  0
LWPOLYLINE
  5
3E6
100
AcDbEntity
  8
MST_1_1
 62
   137
  6
CONTINUOUS
100
AcDbPolyline
 90
        9
 70
     0
 43
0.0
 10
-96.24633982
 20
-173.15160598
 10
-96.17390364
 20
-173.22404238
 10
-96.10138621
 20
-173.2965597
 10
-96.02879823
 20
-173.36914756
 10
-95.95615018
 20
-173.44179561
 10
-95.88345254
 20
-173.51449349
 10
-95.81071531
 20
-173.58723048
 10
-95.73794945
 20
-173.65999634
 10
-95.66516519
 20
-173.7327806
  0
LWPOLYLINE
  5
3E7
100
AcDbEntity
  8
MST_1_1
 62
   137
  6
CONTINUOUS
100
AcDbPolyline
 90
        9
 70
     0
 43
0.0
 10
-95.66516519
 20
-173.7327806
 10
-95.66087599
 20
-173.72849139
 10
-95.65658562
 20
-173.72420102
 10
-95.65229408
 20
-173.71990949
 10
-95.64800139
 20
-173.71561679
 10
-95.64370752
 20
-173.71132293
 10
-95.6394125
 20
-173.70702813
 10
-95.63511654
 20
-173.70273194
 10
-95.63081918
 20
-173.69843459
  0
LWPOLYLINE
  5
3E8
100
AcDbEntity
  8
MST_1_1
 62
   137
  6
CONTINUOUS
100
AcDbPolyline
 90
       25
 70
     0
 43
0.0
 10
-95.63081916
 20
-173.69843459
 10
-95.62722997
 20
-173.70396297
 10
-95.62354531
 20
-173.70941822
 10
-95.61976619
 20
-173.71479933
 10
-95.61589361
 20
-173.72010527
 10
-95.6119286
 20
-173.72533503
 10
-95.60787217
 20
-173.7304876
 10
-95.60372532
 20
-173.73556197
 10
-95.59948908
 20
-173.74055711
 10
-95.59516444
 20
-173.74547202
 10
-95.59075242
 20
-173.75030568
 10
-95.58625404
 20
-173.75505708
 10
-95.58167031
 20
-173.75972519
 10
-95.57700223
 20
-173.76430902
 10
-95.57225082
 20
-173.76880753
 10
-95.5674171
 20
-173.77321973
 10
-95.56250207
 20
-173.77754458
 10
-95.55750674
 20
-173.78178109
 10
-95.55243213
 20
-173.78592822
 10
-95.54727925
 20
-173.78998498
 10
-95.54204911
 20
-173.79395034
 10
-95.53674273
 20
-173.7978233
 10
-95.5313611
 20
-173.80160282
 10
-95.52590526
 20
-173.80528791
 10
-95.5203762
 20
-173.80887755
  0
LWPOLYLINE
  5
3E9
100
AcDbEntity
  8
MST_1_1
 62
   137
  6
CONTINUOUS
100
AcDbPolyline
 90
        9
 70
     0
 43
0.0
 10
-95.5203762
 20
-173.80887757
 10
-95.52467355
 20
-173.81317493
 10
-95.52896975
 20
-173.81747088
 10
-95.53326454
 20
-173.82176591
 10
-95.5375584
 20
-173.82605977
 10
-95.5418511
 20
-173.83035247
 10
-95.54614264
 20
-173.83464401
 10
-95.55043301
 20
-173.83893438
 10
-95.55472221
 20
-173.84322358
  0
LWPOLYLINE
  5
3EA
100
AcDbEntity
  8
MST_1_1
 62
   137
  6
CONTINUOUS
100
AcDbPolyline
 90
        9
 70
     0
 43
0.0
 10
-95.55472221
 20
-173.84322358
 10
-95.48193796
 20
-173.91600784
 10
-95.40917209
 20
-173.9887737
 10
-95.3364351
 20
-174.06151093
 10
-95.26373723
 20
-174.13420857
 10
-95.19108917
 20
-174.20685662
 10
-95.11850131
 20
-174.2794446
 10
-95.045984
 20
-174.35196203
 10
-94.97354759
 20
-174.42439821
  0
CIRCLE
  5
3EB
100
AcDbEntity
  8
MST_1_1
 62
   137
  6
CONTINUOUS
100
AcDbCircle
 10
-93.27649136
 20
-171.45454975
 30
0.0
 40
4.28859654
  0
LWPOLYLINE
  5
3EC
100
AcDbEntity
  8
MST_1_1
 62
   137
  6
CONTINUOUS
100
AcDbPolyline
 90
        9
 70
     0
 43
0.0
 10
-95.2484931
 20
-173.15384651
 10
-95.29613282
 20
-173.10620679
 10
-95.34376158
 20
-173.05857791
 10
-95.39137708
 20
-173.01096241
 10
-95.43897628
 20
-172.96336322
 10
-95.48655638
 20
-172.91578311
 10
-95.5341146
 20
-172.86822477
 10
-95.58164838
 20
-172.82069112
 10
-95.62915468
 20
-172.77318482
  0
ARC
  5
3ED
100
AcDbEntity
  8
MST_1_1
 62
   137
  6
CONTINUOUS
100
AcDbCircle
 10
-95.32710128
 20
-173.50515905
 30
0.0
 40
0.35999965
100
AcDbArc
 50
77.38749365
 51
127.33775307
  0
LWPOLYLINE
  5
3EE
100
AcDbEntity
  8
MST_1_1
 62
   137
  6
CONTINUOUS
100
AcDbPolyline
 90
        9
 70
     0
 43
0.0
 10
-95.04087429
 20
-173.72350393
 10
-95.10392274
 20
-173.66045549
 10
-95.16699085
 20
-173.59738725
 10
-95.23007201
 20
-173.53430598
 10
-95.2931598
 20
-173.47121819
 10
-95.35624759
 20
-173.4081304
 10
-95.41932886
 20
-173.34504924
 10
-95.4823971
 20
-173.28198112
 10
-95.54544554
 20
-173.21893268
  0
ARC
  5
3EF
100
AcDbEntity
  8
MST_1_1
 62
   137
  6
CONTINUOUS
100
AcDbCircle
 10
-95.32710139
 20
-173.50515951
 30
0.0
 40
0.36000032
100
AcDbArc
 50
322.66230677
 51
12.61245653
  0
LWPOLYLINE
  5
3F0
100
AcDbEntity
  8
MST_1_1
 62
   137
  6
CONTINUOUS
100
AcDbPolyline
 90
        9
 70
     0
 43
0.0
 10
-94.59512643
 20
-173.80721306
 10
-94.64263273
 20
-173.75970676
 10
-94.69016639
 20
-173.71217299
 10
-94.73772472
 20
-173.66461477
 10
-94.78530483
 20
-173.61703467
 10
-94.83290403
 20
-173.56943547
 10
-94.88051952
 20
-173.52181997
 10
-94.92814841
 20
-173.4741912
 10
-94.97578812
 20
-173.42655149
  0
ARC
  5
3F1
100
AcDbEntity
  8
MST_1_1
 62
   137
  6
CONTINUOUS
100
AcDbCircle
 10
-94.67373419
 20
-174.15852619
 30
0.0
 40
0.36000013
100
AcDbArc
 50
77.38757789
 51
192.61246315
  0
LWPOLYLINE
  5
3F2
100
AcDbEntity
  8
MST_1_1
 62
   137
  6
CONTINUOUS
100
AcDbPolyline
 90
        9
 70
     0
 43
0.0
 10
-95.40570897
 20
-173.85647234
 10
-95.3580667
 20
-173.90411485
 10
-95.31043537
 20
-173.95174595
 10
-95.26281848
 20
-173.99936284
 10
-95.21521858
 20
-174.04696274
 10
-95.16763859
 20
-174.09454284
 10
-95.12008142
 20
-174.1420999
 10
-95.07254997
 20
-174.18963134
 10
-95.02504728
 20
-174.23713415
  0
ARC
  5
3F3
100
AcDbEntity
  8
MST_1_1
 62
   137
  6
CONTINUOUS
100
AcDbCircle
 10
-95.32710119
 20
-173.5051584
 30
0.0
 40
0.36000093
100
AcDbArc
 50
257.38761324
 51
307.3376629
  0
LWPOLYLINE
  5
3F4
100
AcDbEntity
  8
MST_1_1
 62
   137
  6
CONTINUOUS
100
AcDbPolyline
 90
        9
 70
     0
 43
0.0
 10
-95.61332778
 20
-173.28681504
 10
-95.55027934
 20
-173.34986325
 10
-95.48721134
 20
-173.41293137
 10
-95.42413006
 20
-173.47601264
 10
-95.36104204
 20
-173.53910043
 10
-95.29795425
 20
-173.60218845
 10
-95.23487298
 20
-173.66526972
 10
-95.17180486
 20
-173.72833772
 10
-95.10875665
 20
-173.79138617
  0
ARC
  5
3F5
100
AcDbEntity
  8
MST_1_1
 62
   137
  6
CONTINUOUS
100
AcDbCircle
 10
-95.32710102
 20
-173.50515935
 30
0.0
 40
0.36
100
AcDbArc
 50
142.66227791
 51
192.61247599
  0
LWPOLYLINE
  5
3F6
100
AcDbEntity
  8
MST_1_1
 62
   137
  6
CONTINUOUS
100
AcDbPolyline
 90
        9
 70
     0
 43
0.0
 10
-96.05907576
 20
-173.20310567
 10
-96.01157295
 20
-173.25060836
 10
-95.96404151
 20
-173.2981398
 10
-95.91648445
 20
-173.34569698
 10
-95.86890435
 20
-173.39327697
 10
-95.82130445
 20
-173.44087686
 10
-95.77368756
 20
-173.48849376
 10
-95.72605646
 20
-173.53612509
 10
-95.67841396
 20
-173.58376736
  0
ARC
  5
3F7
100
AcDbEntity
  8
MST_1_1
 62
   137
  6
CONTINUOUS
100
AcDbCircle
 10
-95.9804677
 20
-172.85179269
 30
0.0
 40
0.36000006
100
AcDbArc
 50
257.38753734
 51
12.61244165
  0
LWPOLYLINE
  5
3F8
100
AcDbEntity
  8
MST_1_1
 62
   137
  6
CONTINUOUS
100
AcDbPolyline
 90
        9
 70
     0
 43
0.0
 10
-95.43311523
 20
-173.26338063
 10
-95.38964854
 20
-173.30684732
 10
-95.34617557
 20
-173.35032029
 10
-95.30269817
 20
-173.39379769
 10
-95.25921868
 20
-173.43727707
 10
-95.2157393
 20
-173.48075656
 10
-95.17226191
 20
-173.52423396
 10
-95.12878893
 20
-173.56770693
 10
-95.08532225
 20
-173.61117362
  0
ARC
  5
3F9
100
AcDbEntity
  8
MST_1_1
 62
   137
  6
CONTINUOUS
100
AcDbCircle
 10
-95.32710098
 20
-173.50515937
 30
0.0
 40
0.26399996
100
AcDbArc
 50
336.32369791
 51
113.67631211
  0
LWPOLYLINE
  5
3FA
100
AcDbEntity
  8
MST_1_1
 62
   137
  6
CONTINUOUS
100
AcDbPolyline
 90
        9
 70
     0
 43
0.0
 10
-95.22108673
 20
-173.7469381
 10
-95.2645533
 20
-173.70347165
 10
-95.30802627
 20
-173.65999867
 10
-95.35150367
 20
-173.61652127
 10
-95.39498316
 20
-173.57304155
 10
-95.43846289
 20
-173.52956206
 10
-95.48194028
 20
-173.48608466
 10
-95.52541326
 20
-173.44261168
 10
-95.56887971
 20
-173.39914511
  0
ARC
  5
3FB
100
AcDbEntity
  8
MST_1_1
 62
   137
  6
CONTINUOUS
100
AcDbCircle
 10
-95.32710106
 20
-173.50515945
 30
0.0
 40
0.26399992
100
AcDbArc
 50
156.32366302
 51
293.676347
  0
CIRCLE
  5
3FC
100
AcDbEntity
  8
MST_1_1
 62
   137
  6
CONTINUOUS
100
AcDbCircle
 10
-93.27649136
 20
-201.45454975
 30
0.0
 40
2.32981333
  0
CIRCLE
  5
3FD
100
AcDbEntity
  8
MST_1_1
 62
   137
  6
CONTINUOUS
100
AcDbCircle
 10
-93.27649136
 20
-201.45454975
 30
0.0
 40
1.32203389
  0
CIRCLE
  5
3FE
100
AcDbEntity
  8
MST_1_1
 62
   137
  6
CONTINUOUS
100
AcDbCircle
 10
-93.27649136
 20
-201.45454975
 30
0.0
 40
2.32981333
  0
CIRCLE
  5
3FF
100
AcDbEntity
  8
MST_1_1
 62
   137
  6
CONTINUOUS
100
AcDbCircle
 10
-93.27649136
 20
-201.45454975
 30
0.0
 40
2.32981333
  0
CIRCLE
  5
400
100
AcDbEntity
  8
MST_1_1
 62
   137
  6
CONTINUOUS
100
AcDbCircle
 10
-93.27649136
 20
-201.45454975
 30
0.0
 40
4.5
  0
ARC
  5
401
100
AcDbEntity
  8
MST_1_1
 62
   137
  6
CONTINUOUS
100
AcDbCircle
 10
-95.15049131
 20
-201.45454975
 30
0.0
 40
0.37600003
100
AcDbArc
 50
106.48878485
 51
253.51122516
  0
ARC
  5
402
100
AcDbEntity
  8
MST_1_1
 62
   137
  6
CONTINUOUS
100
AcDbCircle
 10
-95.5367621
 20
-202.7595177
 30
0.0
 40
0.98493585
100
AcDbArc
 50
346.4887751
 51
73.5112424
  0
ARC
  5
403
100
AcDbEntity
  8
MST_1_1
 62
   137
  6
CONTINUOUS
100
AcDbCircle
 10
-94.2134913
 20
-203.0774813
 30
0.0
 40
0.37600004
100
AcDbArc
 50
166.48877314
 51
313.51122983
  0
ARC
  5
404
100
AcDbEntity
  8
MST_1_1
 62
   137
  6
CONTINUOUS
100
AcDbCircle
 10
-93.27649136
 20
-204.06448542
 30
0.0
 40
0.98493568
100
AcDbArc
 50
46.48875513
 51
133.51124487
  0
ARC
  5
405
100
AcDbEntity
  8
MST_1_1
 62
   137
  6
CONTINUOUS
100
AcDbCircle
 10
-92.3394914
 20
-203.07748134
 30
0.0
 40
0.37600002
100
AcDbArc
 50
226.48878273
 51
13.51123435
  0
ARC
  5
406
100
AcDbEntity
  8
MST_1_1
 62
   137
  6
CONTINUOUS
100
AcDbCircle
 10
-91.01622058
 20
-202.75951772
 30
0.0
 40
0.98493588
100
AcDbArc
 50
106.48875933
 51
193.51124321
  0
ARC
  5
407
100
AcDbEntity
  8
MST_1_1
 62
   137
  6
CONTINUOUS
100
AcDbCircle
 10
-91.40249141
 20
-201.45454975
 30
0.0
 40
0.37600003
100
AcDbArc
 50
286.48879487
 51
73.51121515
  0
ARC
  5
408
100
AcDbEntity
  8
MST_1_1
 62
   137
  6
CONTINUOUS
100
AcDbCircle
 10
-91.01622062
 20
-200.1495818
 30
0.0
 40
0.98493585
100
AcDbArc
 50
166.48876508
 51
253.51125242
  0
ARC
  5
409
100
AcDbEntity
  8
MST_1_1
 62
   137
  6
CONTINUOUS
100
AcDbCircle
 10
-92.33949142
 20
-199.8316182
 30
0.0
 40
0.37600004
100
AcDbArc
 50
346.48878316
 51
133.51121981
  0
ARC
  5
40A
100
AcDbEntity
  8
MST_1_1
 62
   137
  6
CONTINUOUS
100
AcDbCircle
 10
-93.27649136
 20
-198.84461407
 30
0.0
 40
0.98493568
100
AcDbArc
 50
226.48876515
 51
313.51125489
  0
ARC
  5
40B
100
AcDbEntity
  8
MST_1_1
 62
   137
  6
CONTINUOUS
100
AcDbCircle
 10
-94.21349132
 20
-199.83161815
 30
0.0
 40
0.37600002
100
AcDbArc
 50
46.48877271
 51
193.51124436
  0
ARC
  5
40C
100
AcDbEntity
  8
MST_1_1
 62
   137
  6
CONTINUOUS
100
AcDbCircle
 10
-95.53676214
 20
-200.14958178
 30
0.0
 40
0.98493588
100
AcDbArc
 50
286.48876935
 51
13.51123319
  0
LWPOLYLINE
  5
40D
100
AcDbEntity
  8
MST_1_1
 62
   137
  6
CONTINUOUS
100
AcDbPolyline
 90
        9
 70
     0
 43
0.0
 10
-94.97354759
 20
-204.42439821
 10
-94.9614624
 20
-204.4123129
 10
-94.94936778
 20
-204.40021828
 10
-94.93726396
 20
-204.38811458
 10
-94.92515094
 20
-204.37600156
 10
-94.91302885
 20
-204.36387947
 10
-94.90089768
 20
-204.35174829
 10
-94.88875742
 20
-204.33960804
 10
-94.87660808
 20
-204.3274587
  0
ARC
  5
40E
100
AcDbEntity
  8
MST_1_1
 62
   137
  6
CONTINUOUS
100
AcDbCircle
 10
-94.67373437
 20
-204.15852609
 30
0.0
 40
0.26399994
100
AcDbArc
 50
50.21590624
 51
219.78410378
  0
LWPOLYLINE
  5
40F
100
AcDbEntity
  8
MST_1_1
 62
   137
  6
CONTINUOUS
100
AcDbPolyline
 90
        9
 70
     0
 43
0.0
 10
-94.50480176
 20
-203.95565238
 10
-94.49270865
 20
-203.94355915
 10
-94.48060844
 20
-203.93145895
 10
-94.46850125
 20
-203.91935198
 10
-94.45638719
 20
-203.90723781
 10
-94.44426614
 20
-203.89511688
 10
-94.43213834
 20
-203.88298896
 10
-94.42000368
 20
-203.87085429
 10
-94.40786226
 20
-203.85871287
  0
LWPOLYLINE
  5
410
100
AcDbEntity
  8
MST_1_1
 62
   137
  6
CONTINUOUS
100
AcDbPolyline
 90
        9
 70
     0
 43
0.0
 10
-94.40786226
 20
-203.85871287
 10
-94.480311
 20
-203.78626389
 10
-94.552836
 20
-203.71373901
 10
-94.62542748
 20
-203.64114754
 10
-94.69807541
 20
-203.56849949
 10
-94.77077014
 20
-203.49580487
 10
-94.84350189
 20
-203.42307324
 10
-94.91626077
 20
-203.35031424
 10
-94.98903688
 20
-203.27753813
  0
LWPOLYLINE
  5
411
100
AcDbEntity
  8
MST_1_1
 62
   137
  6
CONTINUOUS
100
AcDbPolyline
 90
        9
 70
     0
 43
0.0
 10
-94.98903688
 20
-203.27753813
 10
-94.99333307
 20
-203.28183433
 10
-94.99762833
 20
-203.2861297
 10
-95.00192289
 20
-203.29042426
 10
-95.00621664
 20
-203.29471789
 10
-95.01050945
 20
-203.29901082
 10
-95.01480145
 20
-203.30330282
 10
-95.01909264
 20
-203.30759389
 10
-95.02338289
 20
-203.31188426
  0
LWPOLYLINE
  5
412
100
AcDbEntity
  8
MST_1_1
 62
   137
  6
CONTINUOUS
100
AcDbPolyline
 90
       25
 70
     0
 43
0.0
 10
-95.02338289
 20
-203.31188424
 10
-95.02697239
 20
-203.30635534
 10
-95.03065727
 20
-203.30089969
 10
-95.03443653
 20
-203.29551829
 10
-95.03830915
 20
-203.29021216
 10
-95.04227414
 20
-203.28498228
 10
-95.04633049
 20
-203.27982968
 10
-95.05047721
 20
-203.27475535
 10
-95.05471329
 20
-203.2697603
 10
-95.05903773
 20
-203.26484553
 10
-95.06344953
 20
-203.26001204
 10
-95.06794768
 20
-203.25526085
 10
-95.07253118
 20
-203.25059296
 10
-95.07719903
 20
-203.24600938
 10
-95.08195023
 20
-203.24151109
 10
-95.08678378
 20
-203.23709913
 10
-95.09169866
 20
-203.23277448
 10
-95.09669389
 20
-203.22853815
 10
-95.10176846
 20
-203.22439114
 10
-95.10692137
 20
-203.22033448
 10
-95.1121516
 20
-203.21636914
 10
-95.11745817
 20
-203.21249615
 10
-95.12284007
 20
-203.20871651
 10
-95.1282963
 20
-203.20503121
 10
-95.13382585
 20
-203.20144128
  0
LWPOLYLINE
  5
413
100
AcDbEntity
  8
MST_1_1
 62
   137
  6
CONTINUOUS
100
AcDbPolyline
 90
        9
 70
     0
 43
0.0
 10
-95.13382588
 20
-203.20144128
 10
-95.1295355
 20
-203.19715103
 10
-95.12524444
 20
-203.19285984
 10
-95.12095244
 20
-203.18856784
 10
-95.1166595
 20
-203.18427503
 10
-95.11236587
 20
-203.17998128
 10
-95.10807131
 20
-203.17568672
 10
-95.10377594
 20
-203.17139146
 10
-95.09947975
 20
-203.16709527
  0
LWPOLYLINE
  5
414
100
AcDbEntity
  8
MST_1_1
 62
   137
  6
CONTINUOUS
100
AcDbPolyline
 90
        9
 70
     0
 43
0.0
 10
-95.09947975
 20
-203.16709527
 10
-95.17225585
 20
-203.09431916
 10
-95.24501485
 20
-203.02156028
 10
-95.31774648
 20
-202.94882853
 10
-95.3904411
 20
-202.8761338
 10
-95.46308915
 20
-202.80348586
 10
-95.53568062
 20
-202.73089439
 10
-95.60820551
 20
-202.65836939
 10
-95.68065449
 20
-202.58592064
  0
LWPOLYLINE
  5
415
100
AcDbEntity
  8
MST_1_1
 62
   137
  6
CONTINUOUS
100
AcDbPolyline
 90
        9
 70
     0
 43
0.0
 10
-95.68065449
 20
-202.58592064
 10
-95.69279591
 20
-202.59806206
 10
-95.70493057
 20
-202.61019673
 10
-95.71705849
 20
-202.62232453
 10
-95.72917942
 20
-202.63444558
 10
-95.7412936
 20
-202.64655964
 10
-95.75340056
 20
-202.65866683
 10
-95.76550077
 20
-202.67076704
 10
-95.77759399
 20
-202.68286015
  0
ARC
  5
416
100
AcDbEntity
  8
MST_1_1
 62
   137
  6
CONTINUOUS
100
AcDbCircle
 10
-95.98046758
 20
-202.85179288
 30
0.0
 40
0.26399993
100
AcDbArc
 50
230.21587884
 51
39.78413117
  0
LWPOLYLINE
  5
417
100
AcDbEntity
  8
MST_1_1
 62
   137
  6
CONTINUOUS
100
AcDbPolyline
 90
        9
 70
     0
 43
0.0
 10
-96.14940031
 20
-203.05466647
 10
-96.16154965
 20
-203.06681581
 10
-96.1736899
 20
-203.07895606
 10
-96.18582108
 20
-203.09108724
 10
-96.19794317
 20
-203.10320933
 10
-96.21005619
 20
-203.11532235
 10
-96.22215989
 20
-203.12742616
 10
-96.23425451
 20
-203.13952079
 10
-96.24633982
 20
-203.15160598
  0
LWPOLYLINE
  5
418
100
AcDbEntity
  8
MST_1_1
 62
   137
  6
CONTINUOUS
100
AcDbPolyline
 90
        9
 70
     0
 43
0.0
 10
-96.24633982
 20
-203.15160598
 10
-96.17390364
 20
-203.22404238
 10
-96.10138621
 20
-203.2965597
 10
-96.02879823
 20
-203.36914756
 10
-95.95615018
 20
-203.44179561
 10
-95.88345254
 20
-203.51449349
 10
-95.81071531
 20
-203.58723048
 10
-95.73794945
 20
-203.65999634
 10
-95.66516519
 20
-203.7327806
  0
LWPOLYLINE
  5
419
100
AcDbEntity
  8
MST_1_1
 62
   137
  6
CONTINUOUS
100
AcDbPolyline
 90
        9
 70
     0
 43
0.0
 10
-95.66516519
 20
-203.7327806
 10
-95.66087599
 20
-203.72849139
 10
-95.65658562
 20
-203.72420102
 10
-95.65229408
 20
-203.71990949
 10
-95.64800139
 20
-203.71561679
 10
-95.64370752
 20
-203.71132293
 10
-95.6394125
 20
-203.70702813
 10
-95.63511654
 20
-203.70273194
 10
-95.63081918
 20
-203.69843459
  0
LWPOLYLINE
  5
41A
100
AcDbEntity
  8
MST_1_1
 62
   137
  6
CONTINUOUS
100
AcDbPolyline
 90
       25
 70
     0
 43
0.0
 10
-95.63081916
 20
-203.69843459
 10
-95.62722997
 20
-203.70396297
 10
-95.62354531
 20
-203.70941822
 10
-95.61976619
 20
-203.71479933
 10
-95.61589361
 20
-203.72010527
 10
-95.6119286
 20
-203.72533503
 10
-95.60787217
 20
-203.7304876
 10
-95.60372532
 20
-203.73556197
 10
-95.59948908
 20
-203.74055711
 10
-95.59516444
 20
-203.74547202
 10
-95.59075242
 20
-203.75030568
 10
-95.58625404
 20
-203.75505708
 10
-95.58167031
 20
-203.75972519
 10
-95.57700223
 20
-203.76430902
 10
-95.57225082
 20
-203.76880753
 10
-95.5674171
 20
-203.77321973
 10
-95.56250207
 20
-203.77754458
 10
-95.55750674
 20
-203.78178109
 10
-95.55243213
 20
-203.78592822
 10
-95.54727925
 20
-203.78998498
 10
-95.54204911
 20
-203.79395034
 10
-95.53674273
 20
-203.7978233
 10
-95.5313611
 20
-203.80160282
 10
-95.52590526
 20
-203.80528791
 10
-95.5203762
 20
-203.80887755
  0
LWPOLYLINE
  5
41B
100
AcDbEntity
  8
MST_1_1
 62
   137
  6
CONTINUOUS
100
AcDbPolyline
 90
        9
 70
     0
 43
0.0
 10
-95.5203762
 20
-203.80887757
 10
-95.52467355
 20
-203.81317493
 10
-95.52896975
 20
-203.81747088
 10
-95.53326454
 20
-203.82176591
 10
-95.5375584
 20
-203.82605977
 10
-95.5418511
 20
-203.83035247
 10
-95.54614264
 20
-203.83464401
 10
-95.55043301
 20
-203.83893438
 10
-95.55472221
 20
-203.84322358
  0
LWPOLYLINE
  5
41C
100
AcDbEntity
  8
MST_1_1
 62
   137
  6
CONTINUOUS
100
AcDbPolyline
 90
        9
 70
     0
 43
0.0
 10
-95.55472221
 20
-203.84322358
 10
-95.48193796
 20
-203.91600784
 10
-95.40917209
 20
-203.9887737
 10
-95.3364351
 20
-204.06151093
 10
-95.26373723
 20
-204.13420857
 10
-95.19108917
 20
-204.20685662
 10
-95.11850131
 20
-204.2794446
 10
-95.045984
 20
-204.35196203
 10
-94.97354759
 20
-204.42439821
  0
CIRCLE
  5
41D
100
AcDbEntity
  8
MST_1_1
 62
   137
  6
CONTINUOUS
100
AcDbCircle
 10
-93.27649136
 20
-201.45454975
 30
0.0
 40
4.28859654
  0
LWPOLYLINE
  5
41E
100
AcDbEntity
  8
MST_1_1
 62
   137
  6
CONTINUOUS
100
AcDbPolyline
 90
        9
 70
     0
 43
0.0
 10
-95.2484931
 20
-203.15384651
 10
-95.29613282
 20
-203.10620679
 10
-95.34376158
 20
-203.05857791
 10
-95.39137708
 20
-203.01096241
 10
-95.43897628
 20
-202.96336322
 10
-95.48655638
 20
-202.91578311
 10
-95.5341146
 20
-202.86822477
 10
-95.58164838
 20
-202.82069112
 10
-95.62915468
 20
-202.77318482
  0
ARC
  5
41F
100
AcDbEntity
  8
MST_1_1
 62
   137
  6
CONTINUOUS
100
AcDbCircle
 10
-95.32710128
 20
-203.50515905
 30
0.0
 40
0.35999965
100
AcDbArc
 50
77.38749365
 51
127.33775307
  0
LWPOLYLINE
  5
420
100
AcDbEntity
  8
MST_1_1
 62
   137
  6
CONTINUOUS
100
AcDbPolyline
 90
        9
 70
     0
 43
0.0
 10
-95.04087429
 20
-203.72350393
 10
-95.10392274
 20
-203.66045549
 10
-95.16699085
 20
-203.59738725
 10
-95.23007201
 20
-203.53430598
 10
-95.2931598
 20
-203.47121819
 10
-95.35624759
 20
-203.4081304
 10
-95.41932886
 20
-203.34504924
 10
-95.4823971
 20
-203.28198112
 10
-95.54544554
 20
-203.21893268
  0
ARC
  5
421
100
AcDbEntity
  8
MST_1_1
 62
   137
  6
CONTINUOUS
100
AcDbCircle
 10
-95.32710139
 20
-203.50515951
 30
0.0
 40
0.36000032
100
AcDbArc
 50
322.66230677
 51
12.61245653
  0
LWPOLYLINE
  5
422
100
AcDbEntity
  8
MST_1_1
 62
   137
  6
CONTINUOUS
100
AcDbPolyline
 90
        9
 70
     0
 43
0.0
 10
-94.59512643
 20
-203.80721306
 10
-94.64263273
 20
-203.75970676
 10
-94.69016639
 20
-203.71217299
 10
-94.73772472
 20
-203.66461477
 10
-94.78530483
 20
-203.61703467
 10
-94.83290403
 20
-203.56943547
 10
-94.88051952
 20
-203.52181997
 10
-94.92814841
 20
-203.4741912
 10
-94.97578812
 20
-203.42655149
  0
ARC
  5
423
100
AcDbEntity
  8
MST_1_1
 62
   137
  6
CONTINUOUS
100
AcDbCircle
 10
-94.67373419
 20
-204.15852619
 30
0.0
 40
0.36000013
100
AcDbArc
 50
77.38757789
 51
192.61246315
  0
LWPOLYLINE
  5
424
100
AcDbEntity
  8
MST_1_1
 62
   137
  6
CONTINUOUS
100
AcDbPolyline
 90
        9
 70
     0
 43
0.0
 10
-95.40570897
 20
-203.85647234
 10
-95.3580667
 20
-203.90411485
 10
-95.31043537
 20
-203.95174595
 10
-95.26281848
 20
-203.99936284
 10
-95.21521858
 20
-204.04696274
 10
-95.16763859
 20
-204.09454284
 10
-95.12008142
 20
-204.1420999
 10
-95.07254997
 20
-204.18963134
 10
-95.02504728
 20
-204.23713415
  0
ARC
  5
425
100
AcDbEntity
  8
MST_1_1
 62
   137
  6
CONTINUOUS
100
AcDbCircle
 10
-95.32710119
 20
-203.5051584
 30
0.0
 40
0.36000093
100
AcDbArc
 50
257.38761324
 51
307.3376629
  0
LWPOLYLINE
  5
426
100
AcDbEntity
  8
MST_1_1
 62
   137
  6
CONTINUOUS
100
AcDbPolyline
 90
        9
 70
     0
 43
0.0
 10
-95.61332778
 20
-203.28681504
 10
-95.55027934
 20
-203.34986325
 10
-95.48721134
 20
-203.41293137
 10
-95.42413006
 20
-203.47601264
 10
-95.36104204
 20
-203.53910043
 10
-95.29795425
 20
-203.60218845
 10
-95.23487298
 20
-203.66526972
 10
-95.17180486
 20
-203.72833772
 10
-95.10875665
 20
-203.79138617
  0
ARC
  5
427
100
AcDbEntity
  8
MST_1_1
 62
   137
  6
CONTINUOUS
100
AcDbCircle
 10
-95.32710102
 20
-203.50515935
 30
0.0
 40
0.36
100
AcDbArc
 50
142.66227791
 51
192.61247599
  0
LWPOLYLINE
  5
428
100
AcDbEntity
  8
MST_1_1
 62
   137
  6
CONTINUOUS
100
AcDbPolyline
 90
        9
 70
     0
 43
0.0
 10
-96.05907576
 20
-203.20310567
 10
-96.01157295
 20
-203.25060836
 10
-95.96404151
 20
-203.2981398
 10
-95.91648445
 20
-203.34569698
 10
-95.86890435
 20
-203.39327697
 10
-95.82130445
 20
-203.44087686
 10
-95.77368756
 20
-203.48849376
 10
-95.72605646
 20
-203.53612509
 10
-95.67841396
 20
-203.58376736
  0
ARC
  5
429
100
AcDbEntity
  8
MST_1_1
 62
   137
  6
CONTINUOUS
100
AcDbCircle
 10
-95.9804677
 20
-202.85179269
 30
0.0
 40
0.36000006
100
AcDbArc
 50
257.38753734
 51
12.61244165
  0
LWPOLYLINE
  5
42A
100
AcDbEntity
  8
MST_1_1
 62
   137
  6
CONTINUOUS
100
AcDbPolyline
 90
        9
 70
     0
 43
0.0
 10
-95.43311523
 20
-203.26338063
 10
-95.38964854
 20
-203.30684732
 10
-95.34617557
 20
-203.35032029
 10
-95.30269817
 20
-203.39379769
 10
-95.25921868
 20
-203.43727707
 10
-95.2157393
 20
-203.48075656
 10
-95.17226191
 20
-203.52423396
 10
-95.12878893
 20
-203.56770693
 10
-95.08532225
 20
-203.61117362
  0
ARC
  5
42B
100
AcDbEntity
  8
MST_1_1
 62
   137
  6
CONTINUOUS
100
AcDbCircle
 10
-95.32710098
 20
-203.50515937
 30
0.0
 40
0.26399996
100
AcDbArc
 50
336.32369791
 51
113.67631211
  0
LWPOLYLINE
  5
42C
100
AcDbEntity
  8
MST_1_1
 62
   137
  6
CONTINUOUS
100
AcDbPolyline
 90
        9
 70
     0
 43
0.0
 10
-95.22108673
 20
-203.7469381
 10
-95.2645533
 20
-203.70347165
 10
-95.30802627
 20
-203.65999867
 10
-95.35150367
 20
-203.61652127
 10
-95.39498316
 20
-203.57304155
 10
-95.43846289
 20
-203.52956206
 10
-95.48194028
 20
-203.48608466
 10
-95.52541326
 20
-203.44261168
 10
-95.56887971
 20
-203.39914511
  0
ARC
  5
42D
100
AcDbEntity
  8
MST_1_1
 62
   137
  6
CONTINUOUS
100
AcDbCircle
 10
-95.32710106
 20
-203.50515945
 30
0.0
 40
0.26399992
100
AcDbArc
 50
156.32366302
 51
293.676347
  0
CIRCLE
  5
42E
100
AcDbEntity
  8
MST_1_1
 62
   137
  6
CONTINUOUS
100
AcDbCircle
 10
-93.27649136
 20
-231.45454975
 30
0.0
 40
2.32981333
  0
CIRCLE
  5
42F
100
AcDbEntity
  8
MST_1_1
 62
   137
  6
CONTINUOUS
100
AcDbCircle
 10
-93.27649136
 20
-231.45454975
 30
0.0
 40
1.32203389
  0
CIRCLE
  5
430
100
AcDbEntity
  8
MST_1_1
 62
   137
  6
CONTINUOUS
100
AcDbCircle
 10
-93.27649136
 20
-231.45454975
 30
0.0
 40
2.32981333
  0
CIRCLE
  5
431
100
AcDbEntity
  8
MST_1_1
 62
   137
  6
CONTINUOUS
100
AcDbCircle
 10
-93.27649136
 20
-231.45454975
 30
0.0
 40
2.32981333
  0
CIRCLE
  5
432
100
AcDbEntity
  8
MST_1_1
 62
   137
  6
CONTINUOUS
100
AcDbCircle
 10
-93.27649136
 20
-231.45454975
 30
0.0
 40
4.5
  0
ARC
  5
433
100
AcDbEntity
  8
MST_1_1
 62
   137
  6
CONTINUOUS
100
AcDbCircle
 10
-95.15049131
 20
-231.45454975
 30
0.0
 40
0.37600003
100
AcDbArc
 50
106.48878485
 51
253.51122516
  0
ARC
  5
434
100
AcDbEntity
  8
MST_1_1
 62
   137
  6
CONTINUOUS
100
AcDbCircle
 10
-95.5367621
 20
-232.7595177
 30
0.0
 40
0.98493585
100
AcDbArc
 50
346.4887751
 51
73.5112424
  0
ARC
  5
435
100
AcDbEntity
  8
MST_1_1
 62
   137
  6
CONTINUOUS
100
AcDbCircle
 10
-94.2134913
 20
-233.0774813
 30
0.0
 40
0.37600004
100
AcDbArc
 50
166.48877314
 51
313.51122983
  0
ARC
  5
436
100
AcDbEntity
  8
MST_1_1
 62
   137
  6
CONTINUOUS
100
AcDbCircle
 10
-93.27649136
 20
-234.06448542
 30
0.0
 40
0.98493568
100
AcDbArc
 50
46.48875513
 51
133.51124487
  0
ARC
  5
437
100
AcDbEntity
  8
MST_1_1
 62
   137
  6
CONTINUOUS
100
AcDbCircle
 10
-92.3394914
 20
-233.07748134
 30
0.0
 40
0.37600002
100
AcDbArc
 50
226.48878273
 51
13.51123435
  0
ARC
  5
438
100
AcDbEntity
  8
MST_1_1
 62
   137
  6
CONTINUOUS
100
AcDbCircle
 10
-91.01622058
 20
-232.75951772
 30
0.0
 40
0.98493588
100
AcDbArc
 50
106.48875933
 51
193.51124321
  0
ARC
  5
439
100
AcDbEntity
  8
MST_1_1
 62
   137
  6
CONTINUOUS
100
AcDbCircle
 10
-91.40249141
 20
-231.45454975
 30
0.0
 40
0.37600003
100
AcDbArc
 50
286.48879487
 51
73.51121515
  0
ARC
  5
43A
100
AcDbEntity
  8
MST_1_1
 62
   137
  6
CONTINUOUS
100
AcDbCircle
 10
-91.01622062
 20
-230.1495818
 30
0.0
 40
0.98493585
100
AcDbArc
 50
166.48876508
 51
253.51125242
  0
ARC
  5
43B
100
AcDbEntity
  8
MST_1_1
 62
   137
  6
CONTINUOUS
100
AcDbCircle
 10
-92.33949142
 20
-229.8316182
 30
0.0
 40
0.37600004
100
AcDbArc
 50
346.48878316
 51
133.51121981
  0
ARC
  5
43C
100
AcDbEntity
  8
MST_1_1
 62
   137
  6
CONTINUOUS
100
AcDbCircle
 10
-93.27649136
 20
-228.84461407
 30
0.0
 40
0.98493568
100
AcDbArc
 50
226.48876515
 51
313.51125489
  0
ARC
  5
43D
100
AcDbEntity
  8
MST_1_1
 62
   137
  6
CONTINUOUS
100
AcDbCircle
 10
-94.21349132
 20
-229.83161815
 30
0.0
 40
0.37600002
100
AcDbArc
 50
46.48877271
 51
193.51124436
  0
ARC
  5
43E
100
AcDbEntity
  8
MST_1_1
 62
   137
  6
CONTINUOUS
100
AcDbCircle
 10
-95.53676214
 20
-230.14958178
 30
0.0
 40
0.98493588
100
AcDbArc
 50
286.48876935
 51
13.51123319
  0
LWPOLYLINE
  5
43F
100
AcDbEntity
  8
MST_1_1
 62
   137
  6
CONTINUOUS
100
AcDbPolyline
 90
        9
 70
     0
 43
0.0
 10
-94.97354759
 20
-234.42439821
 10
-94.9614624
 20
-234.4123129
 10
-94.94936778
 20
-234.40021828
 10
-94.93726396
 20
-234.38811458
 10
-94.92515094
 20
-234.37600156
 10
-94.91302885
 20
-234.36387947
 10
-94.90089768
 20
-234.35174829
 10
-94.88875742
 20
-234.33960804
 10
-94.87660808
 20
-234.3274587
  0
ARC
  5
440
100
AcDbEntity
  8
MST_1_1
 62
   137
  6
CONTINUOUS
100
AcDbCircle
 10
-94.67373437
 20
-234.15852609
 30
0.0
 40
0.26399994
100
AcDbArc
 50
50.21590624
 51
219.78410378
  0
LWPOLYLINE
  5
441
100
AcDbEntity
  8
MST_1_1
 62
   137
  6
CONTINUOUS
100
AcDbPolyline
 90
        9
 70
     0
 43
0.0
 10
-94.50480176
 20
-233.95565238
 10
-94.49270865
 20
-233.94355915
 10
-94.48060844
 20
-233.93145895
 10
-94.46850125
 20
-233.91935198
 10
-94.45638719
 20
-233.90723781
 10
-94.44426614
 20
-233.89511688
 10
-94.43213834
 20
-233.88298896
 10
-94.42000368
 20
-233.87085429
 10
-94.40786226
 20
-233.85871287
  0
LWPOLYLINE
  5
442
100
AcDbEntity
  8
MST_1_1
 62
   137
  6
CONTINUOUS
100
AcDbPolyline
 90
        9
 70
     0
 43
0.0
 10
-94.40786226
 20
-233.85871287
 10
-94.480311
 20
-233.78626389
 10
-94.552836
 20
-233.71373901
 10
-94.62542748
 20
-233.64114754
 10
-94.69807541
 20
-233.56849949
 10
-94.77077014
 20
-233.49580487
 10
-94.84350189
 20
-233.42307324
 10
-94.91626077
 20
-233.35031424
 10
-94.98903688
 20
-233.27753813
  0
LWPOLYLINE
  5
443
100
AcDbEntity
  8
MST_1_1
 62
   137
  6
CONTINUOUS
100
AcDbPolyline
 90
        9
 70
     0
 43
0.0
 10
-94.98903688
 20
-233.27753813
 10
-94.99333307
 20
-233.28183433
 10
-94.99762833
 20
-233.2861297
 10
-95.00192289
 20
-233.29042426
 10
-95.00621664
 20
-233.29471789
 10
-95.01050945
 20
-233.29901082
 10
-95.01480145
 20
-233.30330282
 10
-95.01909264
 20
-233.30759389
 10
-95.02338289
 20
-233.31188426
  0
LWPOLYLINE
  5
444
100
AcDbEntity
  8
MST_1_1
 62
   137
  6
CONTINUOUS
100
AcDbPolyline
 90
       25
 70
     0
 43
0.0
 10
-95.02338289
 20
-233.31188424
 10
-95.02697239
 20
-233.30635534
 10
-95.03065727
 20
-233.30089969
 10
-95.03443653
 20
-233.29551829
 10
-95.03830915
 20
-233.29021216
 10
-95.04227414
 20
-233.28498228
 10
-95.04633049
 20
-233.27982968
 10
-95.05047721
 20
-233.27475535
 10
-95.05471329
 20
-233.2697603
 10
-95.05903773
 20
-233.26484553
 10
-95.06344953
 20
-233.26001204
 10
-95.06794768
 20
-233.25526085
 10
-95.07253118
 20
-233.25059296
 10
-95.07719903
 20
-233.24600938
 10
-95.08195023
 20
-233.24151109
 10
-95.08678378
 20
-233.23709913
 10
-95.09169866
 20
-233.23277448
 10
-95.09669389
 20
-233.22853815
 10
-95.10176846
 20
-233.22439114
 10
-95.10692137
 20
-233.22033448
 10
-95.1121516
 20
-233.21636914
 10
-95.11745817
 20
-233.21249615
 10
-95.12284007
 20
-233.20871651
 10
-95.1282963
 20
-233.20503121
 10
-95.13382585
 20
-233.20144128
  0
LWPOLYLINE
  5
445
100
AcDbEntity
  8
MST_1_1
 62
   137
  6
CONTINUOUS
100
AcDbPolyline
 90
        9
 70
     0
 43
0.0
 10
-95.13382588
 20
-233.20144128
 10
-95.1295355
 20
-233.19715103
 10
-95.12524444
 20
-233.19285984
 10
-95.12095244
 20
-233.18856784
 10
-95.1166595
 20
-233.18427503
 10
-95.11236587
 20
-233.17998128
 10
-95.10807131
 20
-233.17568672
 10
-95.10377594
 20
-233.17139146
 10
-95.09947975
 20
-233.16709527
  0
LWPOLYLINE
  5
446
100
AcDbEntity
  8
MST_1_1
 62
   137
  6
CONTINUOUS
100
AcDbPolyline
 90
        9
 70
     0
 43
0.0
 10
-95.09947975
 20
-233.16709527
 10
-95.17225585
 20
-233.09431916
 10
-95.24501485
 20
-233.02156028
 10
-95.31774648
 20
-232.94882853
 10
-95.3904411
 20
-232.8761338
 10
-95.46308915
 20
-232.80348586
 10
-95.53568062
 20
-232.73089439
 10
-95.60820551
 20
-232.65836939
 10
-95.68065449
 20
-232.58592064
  0
LWPOLYLINE
  5
447
100
AcDbEntity
  8
MST_1_1
 62
   137
  6
CONTINUOUS
100
AcDbPolyline
 90
        9
 70
     0
 43
0.0
 10
-95.68065449
 20
-232.58592064
 10
-95.69279591
 20
-232.59806206
 10
-95.70493057
 20
-232.61019673
 10
-95.71705849
 20
-232.62232453
 10
-95.72917942
 20
-232.63444558
 10
-95.7412936
 20
-232.64655964
 10
-95.75340056
 20
-232.65866683
 10
-95.76550077
 20
-232.67076704
 10
-95.77759399
 20
-232.68286015
  0
ARC
  5
448
100
AcDbEntity
  8
MST_1_1
 62
   137
  6
CONTINUOUS
100
AcDbCircle
 10
-95.98046758
 20
-232.85179288
 30
0.0
 40
0.26399993
100
AcDbArc
 50
230.21587884
 51
39.78413117
  0
LWPOLYLINE
  5
449
100
AcDbEntity
  8
MST_1_1
 62
   137
  6
CONTINUOUS
100
AcDbPolyline
 90
        9
 70
     0
 43
0.0
 10
-96.14940031
 20
-233.05466647
 10
-96.16154965
 20
-233.06681581
 10
-96.1736899
 20
-233.07895606
 10
-96.18582108
 20
-233.09108724
 10
-96.19794317
 20
-233.10320933
 10
-96.21005619
 20
-233.11532235
 10
-96.22215989
 20
-233.12742616
 10
-96.23425451
 20
-233.13952079
 10
-96.24633982
 20
-233.15160598
  0
LWPOLYLINE
  5
44A
100
AcDbEntity
  8
MST_1_1
 62
   137
  6
CONTINUOUS
100
AcDbPolyline
 90
        9
 70
     0
 43
0.0
 10
-96.24633982
 20
-233.15160598
 10
-96.17390364
 20
-233.22404238
 10
-96.10138621
 20
-233.2965597
 10
-96.02879823
 20
-233.36914756
 10
-95.95615018
 20
-233.44179561
 10
-95.88345254
 20
-233.51449349
 10
-95.81071531
 20
-233.58723048
 10
-95.73794945
 20
-233.65999634
 10
-95.66516519
 20
-233.7327806
  0
LWPOLYLINE
  5
44B
100
AcDbEntity
  8
MST_1_1
 62
   137
  6
CONTINUOUS
100
AcDbPolyline
 90
        9
 70
     0
 43
0.0
 10
-95.66516519
 20
-233.7327806
 10
-95.66087599
 20
-233.72849139
 10
-95.65658562
 20
-233.72420102
 10
-95.65229408
 20
-233.71990949
 10
-95.64800139
 20
-233.71561679
 10
-95.64370752
 20
-233.71132293
 10
-95.6394125
 20
-233.70702813
 10
-95.63511654
 20
-233.70273194
 10
-95.63081918
 20
-233.69843459
  0
LWPOLYLINE
  5
44C
100
AcDbEntity
  8
MST_1_1
 62
   137
  6
CONTINUOUS
100
AcDbPolyline
 90
       25
 70
     0
 43
0.0
 10
-95.63081916
 20
-233.69843459
 10
-95.62722997
 20
-233.70396297
 10
-95.62354531
 20
-233.70941822
 10
-95.61976619
 20
-233.71479933
 10
-95.61589361
 20
-233.72010527
 10
-95.6119286
 20
-233.72533503
 10
-95.60787217
 20
-233.7304876
 10
-95.60372532
 20
-233.73556197
 10
-95.59948908
 20
-233.74055711
 10
-95.59516444
 20
-233.74547202
 10
-95.59075242
 20
-233.75030568
 10
-95.58625404
 20
-233.75505708
 10
-95.58167031
 20
-233.75972519
 10
-95.57700223
 20
-233.76430902
 10
-95.57225082
 20
-233.76880753
 10
-95.5674171
 20
-233.77321973
 10
-95.56250207
 20
-233.77754458
 10
-95.55750674
 20
-233.78178109
 10
-95.55243213
 20
-233.78592822
 10
-95.54727925
 20
-233.78998498
 10
-95.54204911
 20
-233.79395034
 10
-95.53674273
 20
-233.7978233
 10
-95.5313611
 20
-233.80160282
 10
-95.52590526
 20
-233.80528791
 10
-95.5203762
 20
-233.80887755
  0
LWPOLYLINE
  5
44D
100
AcDbEntity
  8
MST_1_1
 62
   137
  6
CONTINUOUS
100
AcDbPolyline
 90
        9
 70
     0
 43
0.0
 10
-95.5203762
 20
-233.80887757
 10
-95.52467355
 20
-233.81317493
 10
-95.52896975
 20
-233.81747088
 10
-95.53326454
 20
-233.82176591
 10
-95.5375584
 20
-233.82605977
 10
-95.5418511
 20
-233.83035247
 10
-95.54614264
 20
-233.83464401
 10
-95.55043301
 20
-233.83893438
 10
-95.55472221
 20
-233.84322358
  0
LWPOLYLINE
  5
44E
100
AcDbEntity
  8
MST_1_1
 62
   137
  6
CONTINUOUS
100
AcDbPolyline
 90
        9
 70
     0
 43
0.0
 10
-95.55472221
 20
-233.84322358
 10
-95.48193796
 20
-233.91600784
 10
-95.40917209
 20
-233.9887737
 10
-95.3364351
 20
-234.06151093
 10
-95.26373723
 20
-234.13420857
 10
-95.19108917
 20
-234.20685662
 10
-95.11850131
 20
-234.2794446
 10
-95.045984
 20
-234.35196203
 10
-94.97354759
 20
-234.42439821
  0
CIRCLE
  5
44F
100
AcDbEntity
  8
MST_1_1
 62
   137
  6
CONTINUOUS
100
AcDbCircle
 10
-93.27649136
 20
-231.45454975
 30
0.0
 40
4.28859654
  0
LWPOLYLINE
  5
450
100
AcDbEntity
  8
MST_1_1
 62
   137
  6
CONTINUOUS
100
AcDbPolyline
 90
        9
 70
     0
 43
0.0
 10
-95.2484931
 20
-233.15384651
 10
-95.29613282
 20
-233.10620679
 10
-95.34376158
 20
-233.05857791
 10
-95.39137708
 20
-233.01096241
 10
-95.43897628
 20
-232.96336322
 10
-95.48655638
 20
-232.91578311
 10
-95.5341146
 20
-232.86822477
 10
-95.58164838
 20
-232.82069112
 10
-95.62915468
 20
-232.77318482
  0
ARC
  5
451
100
AcDbEntity
  8
MST_1_1
 62
   137
  6
CONTINUOUS
100
AcDbCircle
 10
-95.32710128
 20
-233.50515905
 30
0.0
 40
0.35999965
100
AcDbArc
 50
77.38749365
 51
127.33775307
  0
LWPOLYLINE
  5
452
100
AcDbEntity
  8
MST_1_1
 62
   137
  6
CONTINUOUS
100
AcDbPolyline
 90
        9
 70
     0
 43
0.0
 10
-95.04087429
 20
-233.72350393
 10
-95.10392274
 20
-233.66045549
 10
-95.16699085
 20
-233.59738725
 10
-95.23007201
 20
-233.53430598
 10
-95.2931598
 20
-233.47121819
 10
-95.35624759
 20
-233.4081304
 10
-95.41932886
 20
-233.34504924
 10
-95.4823971
 20
-233.28198112
 10
-95.54544554
 20
-233.21893268
  0
ARC
  5
453
100
AcDbEntity
  8
MST_1_1
 62
   137
  6
CONTINUOUS
100
AcDbCircle
 10
-95.32710139
 20
-233.50515951
 30
0.0
 40
0.36000032
100
AcDbArc
 50
322.66230677
 51
12.61245653
  0
LWPOLYLINE
  5
454
100
AcDbEntity
  8
MST_1_1
 62
   137
  6
CONTINUOUS
100
AcDbPolyline
 90
        9
 70
     0
 43
0.0
 10
-94.59512643
 20
-233.80721306
 10
-94.64263273
 20
-233.75970676
 10
-94.69016639
 20
-233.71217299
 10
-94.73772472
 20
-233.66461477
 10
-94.78530483
 20
-233.61703467
 10
-94.83290403
 20
-233.56943547
 10
-94.88051952
 20
-233.52181997
 10
-94.92814841
 20
-233.4741912
 10
-94.97578812
 20
-233.42655149
  0
ARC
  5
455
100
AcDbEntity
  8
MST_1_1
 62
   137
  6
CONTINUOUS
100
AcDbCircle
 10
-94.67373419
 20
-234.15852619
 30
0.0
 40
0.36000013
100
AcDbArc
 50
77.38757789
 51
192.61246315
  0
LWPOLYLINE
  5
456
100
AcDbEntity
  8
MST_1_1
 62
   137
  6
CONTINUOUS
100
AcDbPolyline
 90
        9
 70
     0
 43
0.0
 10
-95.40570897
 20
-233.85647234
 10
-95.3580667
 20
-233.90411485
 10
-95.31043537
 20
-233.95174595
 10
-95.26281848
 20
-233.99936284
 10
-95.21521858
 20
-234.04696274
 10
-95.16763859
 20
-234.09454284
 10
-95.12008142
 20
-234.1420999
 10
-95.07254997
 20
-234.18963134
 10
-95.02504728
 20
-234.23713415
  0
ARC
  5
457
100
AcDbEntity
  8
MST_1_1
 62
   137
  6
CONTINUOUS
100
AcDbCircle
 10
-95.32710119
 20
-233.5051584
 30
0.0
 40
0.36000093
100
AcDbArc
 50
257.38761324
 51
307.3376629
  0
LWPOLYLINE
  5
458
100
AcDbEntity
  8
MST_1_1
 62
   137
  6
CONTINUOUS
100
AcDbPolyline
 90
        9
 70
     0
 43
0.0
 10
-95.61332778
 20
-233.28681504
 10
-95.55027934
 20
-233.34986325
 10
-95.48721134
 20
-233.41293137
 10
-95.42413006
 20
-233.47601264
 10
-95.36104204
 20
-233.53910043
 10
-95.29795425
 20
-233.60218845
 10
-95.23487298
 20
-233.66526972
 10
-95.17180486
 20
-233.72833772
 10
-95.10875665
 20
-233.79138617
  0
ARC
  5
459
100
AcDbEntity
  8
MST_1_1
 62
   137
  6
CONTINUOUS
100
AcDbCircle
 10
-95.32710102
 20
-233.50515935
 30
0.0
 40
0.36
100
AcDbArc
 50
142.66227791
 51
192.61247599
  0
LWPOLYLINE
  5
45A
100
AcDbEntity
  8
MST_1_1
 62
   137
  6
CONTINUOUS
100
AcDbPolyline
 90
        9
 70
     0
 43
0.0
 10
-96.05907576
 20
-233.20310567
 10
-96.01157295
 20
-233.25060836
 10
-95.96404151
 20
-233.2981398
 10
-95.91648445
 20
-233.34569698
 10
-95.86890435
 20
-233.39327697
 10
-95.82130445
 20
-233.44087686
 10
-95.77368756
 20
-233.48849376
 10
-95.72605646
 20
-233.53612509
 10
-95.67841396
 20
-233.58376736
  0
ARC
  5
45B
100
AcDbEntity
  8
MST_1_1
 62
   137
  6
CONTINUOUS
100
AcDbCircle
 10
-95.9804677
 20
-232.85179269
 30
0.0
 40
0.36000006
100
AcDbArc
 50
257.38753734
 51
12.61244165
  0
LWPOLYLINE
  5
45C
100
AcDbEntity
  8
MST_1_1
 62
   137
  6
CONTINUOUS
100
AcDbPolyline
 90
        9
 70
     0
 43
0.0
 10
-95.43311523
 20
-233.26338063
 10
-95.38964854
 20
-233.30684732
 10
-95.34617557
 20
-233.35032029
 10
-95.30269817
 20
-233.39379769
 10
-95.25921868
 20
-233.43727707
 10
-95.2157393
 20
-233.48075656
 10
-95.17226191
 20
-233.52423396
 10
-95.12878893
 20
-233.56770693
 10
-95.08532225
 20
-233.61117362
  0
ARC
  5
45D
100
AcDbEntity
  8
MST_1_1
 62
   137
  6
CONTINUOUS
100
AcDbCircle
 10
-95.32710098
 20
-233.50515937
 30
0.0
 40
0.26399996
100
AcDbArc
 50
336.32369791
 51
113.67631211
  0
LWPOLYLINE
  5
45E
100
AcDbEntity
  8
MST_1_1
 62
   137
  6
CONTINUOUS
100
AcDbPolyline
 90
        9
 70
     0
 43
0.0
 10
-95.22108673
 20
-233.7469381
 10
-95.2645533
 20
-233.70347165
 10
-95.30802627
 20
-233.65999867
 10
-95.35150367
 20
-233.61652127
 10
-95.39498316
 20
-233.57304155
 10
-95.43846289
 20
-233.52956206
 10
-95.48194028
 20
-233.48608466
 10
-95.52541326
 20
-233.44261168
 10
-95.56887971
 20
-233.39914511
  0
ARC
  5
45F
100
AcDbEntity
  8
MST_1_1
 62
   137
  6
CONTINUOUS
100
AcDbCircle
 10
-95.32710106
 20
-233.50515945
 30
0.0
 40
0.26399992
100
AcDbArc
 50
156.32366302
 51
293.676347
  0
CIRCLE
  5
460
100
AcDbEntity
  8
MST_1_1
 62
   137
  6
CONTINUOUS
100
AcDbCircle
 10
-93.27649136
 20
-261.45454975
 30
0.0
 40
2.32981333
  0
CIRCLE
  5
461
100
AcDbEntity
  8
MST_1_1
 62
   137
  6
CONTINUOUS
100
AcDbCircle
 10
-93.27649136
 20
-261.45454975
 30
0.0
 40
1.32203389
  0
CIRCLE
  5
462
100
AcDbEntity
  8
MST_1_1
 62
   137
  6
CONTINUOUS
100
AcDbCircle
 10
-93.27649136
 20
-261.45454975
 30
0.0
 40
2.32981333
  0
CIRCLE
  5
463
100
AcDbEntity
  8
MST_1_1
 62
   137
  6
CONTINUOUS
100
AcDbCircle
 10
-93.27649136
 20
-261.45454975
 30
0.0
 40
2.32981333
  0
CIRCLE
  5
464
100
AcDbEntity
  8
MST_1_1
 62
   137
  6
CONTINUOUS
100
AcDbCircle
 10
-93.27649136
 20
-261.45454975
 30
0.0
 40
4.5
  0
ARC
  5
465
100
AcDbEntity
  8
MST_1_1
 62
   137
  6
CONTINUOUS
100
AcDbCircle
 10
-95.15049131
 20
-261.45454975
 30
0.0
 40
0.37600003
100
AcDbArc
 50
106.48878485
 51
253.51122516
  0
ARC
  5
466
100
AcDbEntity
  8
MST_1_1
 62
   137
  6
CONTINUOUS
100
AcDbCircle
 10
-95.5367621
 20
-262.7595177
 30
0.0
 40
0.98493585
100
AcDbArc
 50
346.4887751
 51
73.5112424
  0
ARC
  5
467
100
AcDbEntity
  8
MST_1_1
 62
   137
  6
CONTINUOUS
100
AcDbCircle
 10
-94.2134913
 20
-263.0774813
 30
0.0
 40
0.37600004
100
AcDbArc
 50
166.48877314
 51
313.51122983
  0
ARC
  5
468
100
AcDbEntity
  8
MST_1_1
 62
   137
  6
CONTINUOUS
100
AcDbCircle
 10
-93.27649136
 20
-264.06448542
 30
0.0
 40
0.98493568
100
AcDbArc
 50
46.48875513
 51
133.51124487
  0
ARC
  5
469
100
AcDbEntity
  8
MST_1_1
 62
   137
  6
CONTINUOUS
100
AcDbCircle
 10
-92.3394914
 20
-263.07748134
 30
0.0
 40
0.37600002
100
AcDbArc
 50
226.48878273
 51
13.51123435
  0
ARC
  5
46A
100
AcDbEntity
  8
MST_1_1
 62
   137
  6
CONTINUOUS
100
AcDbCircle
 10
-91.01622058
 20
-262.75951772
 30
0.0
 40
0.98493588
100
AcDbArc
 50
106.48875933
 51
193.51124321
  0
ARC
  5
46B
100
AcDbEntity
  8
MST_1_1
 62
   137
  6
CONTINUOUS
100
AcDbCircle
 10
-91.40249141
 20
-261.45454975
 30
0.0
 40
0.37600003
100
AcDbArc
 50
286.48879487
 51
73.51121515
  0
ARC
  5
46C
100
AcDbEntity
  8
MST_1_1
 62
   137
  6
CONTINUOUS
100
AcDbCircle
 10
-91.01622062
 20
-260.1495818
 30
0.0
 40
0.98493585
100
AcDbArc
 50
166.48876508
 51
253.51125242
  0
ARC
  5
46D
100
AcDbEntity
  8
MST_1_1
 62
   137
  6
CONTINUOUS
100
AcDbCircle
 10
-92.33949142
 20
-259.8316182
 30
0.0
 40
0.37600004
100
AcDbArc
 50
346.48878316
 51
133.51121981
  0
ARC
  5
46E
100
AcDbEntity
  8
MST_1_1
 62
   137
  6
CONTINUOUS
100
AcDbCircle
 10
-93.27649136
 20
-258.84461407
 30
0.0
 40
0.98493568
100
AcDbArc
 50
226.48876515
 51
313.51125489
  0
ARC
  5
46F
100
AcDbEntity
  8
MST_1_1
 62
   137
  6
CONTINUOUS
100
AcDbCircle
 10
-94.21349132
 20
-259.83161815
 30
0.0
 40
0.37600002
100
AcDbArc
 50
46.48877271
 51
193.51124436
  0
ARC
  5
470
100
AcDbEntity
  8
MST_1_1
 62
   137
  6
CONTINUOUS
100
AcDbCircle
 10
-95.53676214
 20
-260.14958178
 30
0.0
 40
0.98493588
100
AcDbArc
 50
286.48876935
 51
13.51123319
  0
LWPOLYLINE
  5
471
100
AcDbEntity
  8
MST_1_1
 62
   137
  6
CONTINUOUS
100
AcDbPolyline
 90
        9
 70
     0
 43
0.0
 10
-94.97354759
 20
-264.42439821
 10
-94.9614624
 20
-264.4123129
 10
-94.94936778
 20
-264.40021828
 10
-94.93726396
 20
-264.38811458
 10
-94.92515094
 20
-264.37600156
 10
-94.91302885
 20
-264.36387947
 10
-94.90089768
 20
-264.35174829
 10
-94.88875742
 20
-264.33960804
 10
-94.87660808
 20
-264.3274587
  0
ARC
  5
472
100
AcDbEntity
  8
MST_1_1
 62
   137
  6
CONTINUOUS
100
AcDbCircle
 10
-94.67373437
 20
-264.15852609
 30
0.0
 40
0.26399994
100
AcDbArc
 50
50.21590624
 51
219.78410378
  0
LWPOLYLINE
  5
473
100
AcDbEntity
  8
MST_1_1
 62
   137
  6
CONTINUOUS
100
AcDbPolyline
 90
        9
 70
     0
 43
0.0
 10
-94.50480176
 20
-263.95565238
 10
-94.49270865
 20
-263.94355915
 10
-94.48060844
 20
-263.93145895
 10
-94.46850125
 20
-263.91935198
 10
-94.45638719
 20
-263.90723781
 10
-94.44426614
 20
-263.89511688
 10
-94.43213834
 20
-263.88298896
 10
-94.42000368
 20
-263.87085429
 10
-94.40786226
 20
-263.85871287
  0
LWPOLYLINE
  5
474
100
AcDbEntity
  8
MST_1_1
 62
   137
  6
CONTINUOUS
100
AcDbPolyline
 90
        9
 70
     0
 43
0.0
 10
-94.40786226
 20
-263.85871287
 10
-94.480311
 20
-263.78626389
 10
-94.552836
 20
-263.71373901
 10
-94.62542748
 20
-263.64114754
 10
-94.69807541
 20
-263.56849949
 10
-94.77077014
 20
-263.49580487
 10
-94.84350189
 20
-263.42307324
 10
-94.91626077
 20
-263.35031424
 10
-94.98903688
 20
-263.27753813
  0
LWPOLYLINE
  5
475
100
AcDbEntity
  8
MST_1_1
 62
   137
  6
CONTINUOUS
100
AcDbPolyline
 90
        9
 70
     0
 43
0.0
 10
-94.98903688
 20
-263.27753813
 10
-94.99333307
 20
-263.28183433
 10
-94.99762833
 20
-263.2861297
 10
-95.00192289
 20
-263.29042426
 10
-95.00621664
 20
-263.29471789
 10
-95.01050945
 20
-263.29901082
 10
-95.01480145
 20
-263.30330282
 10
-95.01909264
 20
-263.30759389
 10
-95.02338289
 20
-263.31188426
  0
LWPOLYLINE
  5
476
100
AcDbEntity
  8
MST_1_1
 62
   137
  6
CONTINUOUS
100
AcDbPolyline
 90
       25
 70
     0
 43
0.0
 10
-95.02338289
 20
-263.31188424
 10
-95.02697239
 20
-263.30635534
 10
-95.03065727
 20
-263.30089969
 10
-95.03443653
 20
-263.29551829
 10
-95.03830915
 20
-263.29021216
 10
-95.04227414
 20
-263.28498228
 10
-95.04633049
 20
-263.27982968
 10
-95.05047721
 20
-263.27475535
 10
-95.05471329
 20
-263.2697603
 10
-95.05903773
 20
-263.26484553
 10
-95.06344953
 20
-263.26001204
 10
-95.06794768
 20
-263.25526085
 10
-95.07253118
 20
-263.25059296
 10
-95.07719903
 20
-263.24600938
 10
-95.08195023
 20
-263.24151109
 10
-95.08678378
 20
-263.23709913
 10
-95.09169866
 20
-263.23277448
 10
-95.09669389
 20
-263.22853815
 10
-95.10176846
 20
-263.22439114
 10
-95.10692137
 20
-263.22033448
 10
-95.1121516
 20
-263.21636914
 10
-95.11745817
 20
-263.21249615
 10
-95.12284007
 20
-263.20871651
 10
-95.1282963
 20
-263.20503121
 10
-95.13382585
 20
-263.20144128
  0
LWPOLYLINE
  5
477
100
AcDbEntity
  8
MST_1_1
 62
   137
  6
CONTINUOUS
100
AcDbPolyline
 90
        9
 70
     0
 43
0.0
 10
-95.13382588
 20
-263.20144128
 10
-95.1295355
 20
-263.19715103
 10
-95.12524444
 20
-263.19285984
 10
-95.12095244
 20
-263.18856784
 10
-95.1166595
 20
-263.18427503
 10
-95.11236587
 20
-263.17998128
 10
-95.10807131
 20
-263.17568672
 10
-95.10377594
 20
-263.17139146
 10
-95.09947975
 20
-263.16709527
  0
LWPOLYLINE
  5
478
100
AcDbEntity
  8
MST_1_1
 62
   137
  6
CONTINUOUS
100
AcDbPolyline
 90
        9
 70
     0
 43
0.0
 10
-95.09947975
 20
-263.16709527
 10
-95.17225585
 20
-263.09431916
 10
-95.24501485
 20
-263.02156028
 10
-95.31774648
 20
-262.94882853
 10
-95.3904411
 20
-262.8761338
 10
-95.46308915
 20
-262.80348586
 10
-95.53568062
 20
-262.73089439
 10
-95.60820551
 20
-262.65836939
 10
-95.68065449
 20
-262.58592064
  0
LWPOLYLINE
  5
479
100
AcDbEntity
  8
MST_1_1
 62
   137
  6
CONTINUOUS
100
AcDbPolyline
 90
        9
 70
     0
 43
0.0
 10
-95.68065449
 20
-262.58592064
 10
-95.69279591
 20
-262.59806206
 10
-95.70493057
 20
-262.61019673
 10
-95.71705849
 20
-262.62232453
 10
-95.72917942
 20
-262.63444558
 10
-95.7412936
 20
-262.64655964
 10
-95.75340056
 20
-262.65866683
 10
-95.76550077
 20
-262.67076704
 10
-95.77759399
 20
-262.68286015
  0
ARC
  5
47A
100
AcDbEntity
  8
MST_1_1
 62
   137
  6
CONTINUOUS
100
AcDbCircle
 10
-95.98046758
 20
-262.85179288
 30
0.0
 40
0.26399993
100
AcDbArc
 50
230.21587884
 51
39.78413117
  0
LWPOLYLINE
  5
47B
100
AcDbEntity
  8
MST_1_1
 62
   137
  6
CONTINUOUS
100
AcDbPolyline
 90
        9
 70
     0
 43
0.0
 10
-96.14940031
 20
-263.05466647
 10
-96.16154965
 20
-263.06681581
 10
-96.1736899
 20
-263.07895606
 10
-96.18582108
 20
-263.09108724
 10
-96.19794317
 20
-263.10320933
 10
-96.21005619
 20
-263.11532235
 10
-96.22215989
 20
-263.12742616
 10
-96.23425451
 20
-263.13952079
 10
-96.24633982
 20
-263.15160598
  0
LWPOLYLINE
  5
47C
100
AcDbEntity
  8
MST_1_1
 62
   137
  6
CONTINUOUS
100
AcDbPolyline
 90
        9
 70
     0
 43
0.0
 10
-96.24633982
 20
-263.15160598
 10
-96.17390364
 20
-263.22404238
 10
-96.10138621
 20
-263.2965597
 10
-96.02879823
 20
-263.36914756
 10
-95.95615018
 20
-263.44179561
 10
-95.88345254
 20
-263.51449349
 10
-95.81071531
 20
-263.58723048
 10
-95.73794945
 20
-263.65999634
 10
-95.66516519
 20
-263.7327806
  0
LWPOLYLINE
  5
47D
100
AcDbEntity
  8
MST_1_1
 62
   137
  6
CONTINUOUS
100
AcDbPolyline
 90
        9
 70
     0
 43
0.0
 10
-95.66516519
 20
-263.7327806
 10
-95.66087599
 20
-263.72849139
 10
-95.65658562
 20
-263.72420102
 10
-95.65229408
 20
-263.71990949
 10
-95.64800139
 20
-263.71561679
 10
-95.64370752
 20
-263.71132293
 10
-95.6394125
 20
-263.70702813
 10
-95.63511654
 20
-263.70273194
 10
-95.63081918
 20
-263.69843459
  0
LWPOLYLINE
  5
47E
100
AcDbEntity
  8
MST_1_1
 62
   137
  6
CONTINUOUS
100
AcDbPolyline
 90
       25
 70
     0
 43
0.0
 10
-95.63081916
 20
-263.69843459
 10
-95.62722997
 20
-263.70396297
 10
-95.62354531
 20
-263.70941822
 10
-95.61976619
 20
-263.71479933
 10
-95.61589361
 20
-263.72010527
 10
-95.6119286
 20
-263.72533503
 10
-95.60787217
 20
-263.7304876
 10
-95.60372532
 20
-263.73556197
 10
-95.59948908
 20
-263.74055711
 10
-95.59516444
 20
-263.74547202
 10
-95.59075242
 20
-263.75030568
 10
-95.58625404
 20
-263.75505708
 10
-95.58167031
 20
-263.75972519
 10
-95.57700223
 20
-263.76430902
 10
-95.57225082
 20
-263.76880753
 10
-95.5674171
 20
-263.77321973
 10
-95.56250207
 20
-263.77754458
 10
-95.55750674
 20
-263.78178109
 10
-95.55243213
 20
-263.78592822
 10
-95.54727925
 20
-263.78998498
 10
-95.54204911
 20
-263.79395034
 10
-95.53674273
 20
-263.7978233
 10
-95.5313611
 20
-263.80160282
 10
-95.52590526
 20
-263.80528791
 10
-95.5203762
 20
-263.80887755
  0
LWPOLYLINE
  5
47F
100
AcDbEntity
  8
MST_1_1
 62
   137
  6
CONTINUOUS
100
AcDbPolyline
 90
        9
 70
     0
 43
0.0
 10
-95.5203762
 20
-263.80887757
 10
-95.52467355
 20
-263.81317493
 10
-95.52896975
 20
-263.81747088
 10
-95.53326454
 20
-263.82176591
 10
-95.5375584
 20
-263.82605977
 10
-95.5418511
 20
-263.83035247
 10
-95.54614264
 20
-263.83464401
 10
-95.55043301
 20
-263.83893438
 10
-95.55472221
 20
-263.84322358
  0
LWPOLYLINE
  5
480
100
AcDbEntity
  8
MST_1_1
 62
   137
  6
CONTINUOUS
100
AcDbPolyline
 90
        9
 70
     0
 43
0.0
 10
-95.55472221
 20
-263.84322358
 10
-95.48193796
 20
-263.91600784
 10
-95.40917209
 20
-263.9887737
 10
-95.3364351
 20
-264.06151093
 10
-95.26373723
 20
-264.13420857
 10
-95.19108917
 20
-264.20685662
 10
-95.11850131
 20
-264.2794446
 10
-95.045984
 20
-264.35196203
 10
-94.97354759
 20
-264.42439821
  0
CIRCLE
  5
481
100
AcDbEntity
  8
MST_1_1
 62
   137
  6
CONTINUOUS
100
AcDbCircle
 10
-93.27649136
 20
-261.45454975
 30
0.0
 40
4.28859654
  0
LWPOLYLINE
  5
482
100
AcDbEntity
  8
MST_1_1
 62
   137
  6
CONTINUOUS
100
AcDbPolyline
 90
        9
 70
     0
 43
0.0
 10
-95.2484931
 20
-263.15384651
 10
-95.29613282
 20
-263.10620679
 10
-95.34376158
 20
-263.05857791
 10
-95.39137708
 20
-263.01096241
 10
-95.43897628
 20
-262.96336322
 10
-95.48655638
 20
-262.91578311
 10
-95.5341146
 20
-262.86822477
 10
-95.58164838
 20
-262.82069112
 10
-95.62915468
 20
-262.77318482
  0
ARC
  5
483
100
AcDbEntity
  8
MST_1_1
 62
   137
  6
CONTINUOUS
100
AcDbCircle
 10
-95.32710128
 20
-263.50515905
 30
0.0
 40
0.35999965
100
AcDbArc
 50
77.38749365
 51
127.33775307
  0
LWPOLYLINE
  5
484
100
AcDbEntity
  8
MST_1_1
 62
   137
  6
CONTINUOUS
100
AcDbPolyline
 90
        9
 70
     0
 43
0.0
 10
-95.04087429
 20
-263.72350393
 10
-95.10392274
 20
-263.66045549
 10
-95.16699085
 20
-263.59738725
 10
-95.23007201
 20
-263.53430598
 10
-95.2931598
 20
-263.47121819
 10
-95.35624759
 20
-263.4081304
 10
-95.41932886
 20
-263.34504924
 10
-95.4823971
 20
-263.28198112
 10
-95.54544554
 20
-263.21893268
  0
ARC
  5
485
100
AcDbEntity
  8
MST_1_1
 62
   137
  6
CONTINUOUS
100
AcDbCircle
 10
-95.32710139
 20
-263.50515951
 30
0.0
 40
0.36000032
100
AcDbArc
 50
322.66230677
 51
12.61245653
  0
LWPOLYLINE
  5
486
100
AcDbEntity
  8
MST_1_1
 62
   137
  6
CONTINUOUS
100
AcDbPolyline
 90
        9
 70
     0
 43
0.0
 10
-94.59512643
 20
-263.80721306
 10
-94.64263273
 20
-263.75970676
 10
-94.69016639
 20
-263.71217299
 10
-94.73772472
 20
-263.66461477
 10
-94.78530483
 20
-263.61703467
 10
-94.83290403
 20
-263.56943547
 10
-94.88051952
 20
-263.52181997
 10
-94.92814841
 20
-263.4741912
 10
-94.97578812
 20
-263.42655149
  0
ARC
  5
487
100
AcDbEntity
  8
MST_1_1
 62
   137
  6
CONTINUOUS
100
AcDbCircle
 10
-94.67373419
 20
-264.15852619
 30
0.0
 40
0.36000013
100
AcDbArc
 50
77.38757789
 51
192.61246315
  0
LWPOLYLINE
  5
488
100
AcDbEntity
  8
MST_1_1
 62
   137
  6
CONTINUOUS
100
AcDbPolyline
 90
        9
 70
     0
 43
0.0
 10
-95.40570897
 20
-263.85647234
 10
-95.3580667
 20
-263.90411485
 10
-95.31043537
 20
-263.95174595
 10
-95.26281848
 20
-263.99936284
 10
-95.21521858
 20
-264.04696274
 10
-95.16763859
 20
-264.09454284
 10
-95.12008142
 20
-264.1420999
 10
-95.07254997
 20
-264.18963134
 10
-95.02504728
 20
-264.23713415
  0
ARC
  5
489
100
AcDbEntity
  8
MST_1_1
 62
   137
  6
CONTINUOUS
100
AcDbCircle
 10
-95.32710119
 20
-263.5051584
 30
0.0
 40
0.36000093
100
AcDbArc
 50
257.38761324
 51
307.3376629
  0
LWPOLYLINE
  5
48A
100
AcDbEntity
  8
MST_1_1
 62
   137
  6
CONTINUOUS
100
AcDbPolyline
 90
        9
 70
     0
 43
0.0
 10
-95.61332778
 20
-263.28681504
 10
-95.55027934
 20
-263.34986325
 10
-95.48721134
 20
-263.41293137
 10
-95.42413006
 20
-263.47601264
 10
-95.36104204
 20
-263.53910043
 10
-95.29795425
 20
-263.60218845
 10
-95.23487298
 20
-263.66526972
 10
-95.17180486
 20
-263.72833772
 10
-95.10875665
 20
-263.79138617
  0
ARC
  5
48B
100
AcDbEntity
  8
MST_1_1
 62
   137
  6
CONTINUOUS
100
AcDbCircle
 10
-95.32710102
 20
-263.50515935
 30
0.0
 40
0.36
100
AcDbArc
 50
142.66227791
 51
192.61247599
  0
LWPOLYLINE
  5
48C
100
AcDbEntity
  8
MST_1_1
 62
   137
  6
CONTINUOUS
100
AcDbPolyline
 90
        9
 70
     0
 43
0.0
 10
-96.05907576
 20
-263.20310567
 10
-96.01157295
 20
-263.25060836
 10
-95.96404151
 20
-263.2981398
 10
-95.91648445
 20
-263.34569698
 10
-95.86890435
 20
-263.39327697
 10
-95.82130445
 20
-263.44087686
 10
-95.77368756
 20
-263.48849376
 10
-95.72605646
 20
-263.53612509
 10
-95.67841396
 20
-263.58376736
  0
ARC
  5
48D
100
AcDbEntity
  8
MST_1_1
 62
   137
  6
CONTINUOUS
100
AcDbCircle
 10
-95.9804677
 20
-262.85179269
 30
0.0
 40
0.36000006
100
AcDbArc
 50
257.38753734
 51
12.61244165
  0
LWPOLYLINE
  5
48E
100
AcDbEntity
  8
MST_1_1
 62
   137
  6
CONTINUOUS
100
AcDbPolyline
 90
        9
 70
     0
 43
0.0
 10
-95.43311523
 20
-263.26338063
 10
-95.38964854
 20
-263.30684732
 10
-95.34617557
 20
-263.35032029
 10
-95.30269817
 20
-263.39379769
 10
-95.25921868
 20
-263.43727707
 10
-95.2157393
 20
-263.48075656
 10
-95.17226191
 20
-263.52423396
 10
-95.12878893
 20
-263.56770693
 10
-95.08532225
 20
-263.61117362
  0
ARC
  5
48F
100
AcDbEntity
  8
MST_1_1
 62
   137
  6
CONTINUOUS
100
AcDbCircle
 10
-95.32710098
 20
-263.50515937
 30
0.0
 40
0.26399996
100
AcDbArc
 50
336.32369791
 51
113.67631211
  0
LWPOLYLINE
  5
490
100
AcDbEntity
  8
MST_1_1
 62
   137
  6
CONTINUOUS
100
AcDbPolyline
 90
        9
 70
     0
 43
0.0
 10
-95.22108673
 20
-263.7469381
 10
-95.2645533
 20
-263.70347165
 10
-95.30802627
 20
-263.65999867
 10
-95.35150367
 20
-263.61652127
 10
-95.39498316
 20
-263.57304155
 10
-95.43846289
 20
-263.52956206
 10
-95.48194028
 20
-263.48608466
 10
-95.52541326
 20
-263.44261168
 10
-95.56887971
 20
-263.39914511
  0
ARC
  5
491
100
AcDbEntity
  8
MST_1_1
 62
   137
  6
CONTINUOUS
100
AcDbCircle
 10
-95.32710106
 20
-263.50515945
 30
0.0
 40
0.26399992
100
AcDbArc
 50
156.32366302
 51
293.676347
  0
MTEXT
  5
492
100
AcDbEntity
  8
MST_1_1
 62
     4
100
AcDbMText
 10
-125.92658845
 20
170.00095886
 30
2500.0
 11
1.0
 21
0.0
 31
0.0
 40
20.0
 41
377.85535624
 71
     1
 72
     1
  1
\fTahoma|b0|i0|c0|p18;\H20;\W0.80000001;\C7;Spanplattenschrauben Linsensenkkopf\PHECO-FIX-plus 4.5mm\P35.001
  0
LWPOLYLINE
  5
493
102
{ACAD_REACTORS
330
494
102
}
100
AcDbEntity
  8
MST_1_1
 62
    12
100
AcDbPolyline
 90
       46
 70
     1
 43
0.0
 10
478.44465773
 20
180.56670886
 10
478.3138364
 20
180.57734719
 10
478.18968707
 20
180.60813552
 10
478.07388173
 20
180.65738386
 10
477.9680924
 20
180.72340219
 10
477.87399107
 20
180.80450052
 10
477.79324973
 20
180.89898886
 10
477.7275404
 20
181.00517719
 10
477.67853507
 20
181.12137552
 10
477.64790573
 20
181.24589386
 10
477.6373244
 20
181.37704219
 10
477.6373244
 20
181.37704219
 10
477.64790573
 20
181.50825436
 10
477.67853507
 20
181.63285952
 10
477.7275404
 20
181.74916069
 10
477.79324973
 20
181.85546086
 10
477.87399107
 20
181.95006302
 10
477.9680924
 20
182.03127019
 10
478.07388173
 20
182.09738536
 10
478.18968707
 20
182.14671152
 10
478.3138364
 20
182.17755169
 10
478.44465773
 20
182.18820886
 10
478.44465773
 20
182.18820886
 10
478.5753124
 20
182.17755169
 10
478.69935507
 20
182.14671152
 10
478.81510373
 20
182.09738536
 10
478.9208764
 20
182.03127019
 10
479.01499107
 20
181.95006302
 10
479.09576573
 20
181.85546086
 10
479.1615184
 20
181.74916069
 10
479.21056707
 20
181.63285952
 10
479.24122973
 20
181.50825436
 10
479.2518244
 20
181.37704219
 10
479.2518244
 20
181.37704219
 10
479.24122973
 20
181.24589386
 10
479.21056707
 20
181.12137552
 10
479.1615184
 20
181.00517719
 10
479.09576573
 20
180.89898886
 10
479.01499107
 20
180.80450052
 10
478.9208764
 20
180.72340219
 10
478.81510373
 20
180.65738386
 10
478.69935507
 20
180.60813552
 10
478.5753124
 20
180.57734719
 10
478.44465773
 20
180.56670886
 10
478.44465773
 20
180.56670886
 10
478.44465773
 20
180.56670886
  0
HATCH
  5
494
100
AcDbEntity
  8
MST_1_1
 62
    12
100
AcDbHatch
 10
0.0
 20
0.0
 30
0.0
210
0.0
220
0.0
230
1.0
  2
SOLID
 70
     1
 71
     1
 91
        1
 92
        7
 72
     0
 73
     1
 93
       40
 10
478.44465773
 20
180.56670886
 10
478.3138364
 20
180.57734719
 10
478.18968707
 20
180.60813552
 10
478.07388173
 20
180.65738386
 10
477.9680924
 20
180.72340219
 10
477.87399107
 20
180.80450052
 10
477.79324973
 20
180.89898886
 10
477.7275404
 20
181.00517719
 10
477.67853507
 20
181.12137552
 10
477.64790573
 20
181.24589386
 10
477.6373244
 20
181.37704219
 10
477.64790573
 20
181.50825436
 10
477.67853507
 20
181.63285952
 10
477.7275404
 20
181.74916069
 10
477.79324973
 20
181.85546086
 10
477.87399107
 20
181.95006302
 10
477.9680924
 20
182.03127019
 10
478.07388173
 20
182.09738536
 10
478.18968707
 20
182.14671152
 10
478.3138364
 20
182.17755169
 10
478.44465773
 20
182.18820886
 10
478.5753124
 20
182.17755169
 10
478.69935507
 20
182.14671152
 10
478.81510373
 20
182.09738536
 10
478.9208764
 20
182.03127019
 10
479.01499107
 20
181.95006302
 10
479.09576573
 20
181.85546086
 10
479.1615184
 20
181.74916069
 10
479.21056707
 20
181.63285952
 10
479.24122973
 20
181.50825436
 10
479.2518244
 20
181.37704219
 10
479.24122973
 20
181.24589386
 10
479.21056707
 20
181.12137552
 10
479.1615184
 20
181.00517719
 10
479.09576573
 20
180.89898886
 10
479.01499107
 20
180.80450052
 10
478.9208764
 20
180.72340219
 10
478.81510373
 20
180.65738386
 10
478.69935507
 20
180.60813552
 10
478.5753124
 20
180.57734719
 97
        1
330
493
 75
     0
 76
     2
 47
0.775229
 98
        1
 10
0.0
 20
0.0
  0
LWPOLYLINE
  5
495
102
{ACAD_REACTORS
330
496
102
}
100
AcDbEntity
  8
MST_1_1
 62
    12
100
AcDbPolyline
 90
        8
 70
     1
 43
0.0
 10
410.97965773
 20
180.00095886
 10
476.94749107
 20
180.00095886
 10
476.94749107
 20
180.00095886
 10
476.94749107
 20
163.41970886
 10
476.94749107
 20
163.41970886
 10
410.97965773
 20
163.41970886
 10
410.97965773
 20
163.41970886
 10
410.97965773
 20
180.00095886
  0
HATCH
  5
496
100
AcDbEntity
  8
MST_1_1
 62
    12
100
AcDbHatch
 10
0.0
 20
0.0
 30
0.0
210
0.0
220
0.0
230
1.0
  2
SOLID
 70
     1
 71
     1
 91
        1
 92
        7
 72
     0
 73
     1
 93
        4
 10
410.97965773
 20
180.00095886
 10
476.94749107
 20
180.00095886
 10
476.94749107
 20
163.41970886
 10
410.97965773
 20
163.41970886
 97
        1
330
495
 75
     0
 76
     2
 47
0.775229
 98
        1
 10
0.0
 20
0.0
  0
LINE
  5
497
100
AcDbEntity
  8
MST_1_1
100
AcDbLine
 10
410.97965773
 20
163.41970886
 30
0.0
 11
410.97965773
 21
163.41970886
 31
0.0
  0
LINE
  5
498
100
AcDbEntity
  8
MST_1_1
100
AcDbLine
 10
410.97965773
 20
163.41970886
 30
0.0
 11
410.97965773
 21
163.41970886
 31
0.0
  0
LINE
  5
499
100
AcDbEntity
  8
MST_1_1
100
AcDbLine
 10
410.97965773
 20
163.41970886
 30
0.0
 11
410.97965773
 21
163.41970886
 31
0.0
  0
LINE
  5
49A
100
AcDbEntity
  8
MST_1_1
100
AcDbLine
 10
410.97965773
 20
163.41970886
 30
0.0
 11
410.97965773
 21
163.41970886
 31
0.0
  0
LINE
  5
49B
100
AcDbEntity
  8
MST_1_1
100
AcDbLine
 10
410.97965773
 20
163.41970886
 30
0.0
 11
410.97965773
 21
163.41970886
 31
0.0
  0
LINE
  5
49C
100
AcDbEntity
  8
MST_1_1
100
AcDbLine
 10
410.97965773
 20
163.41970886
 30
0.0
 11
410.97965773
 21
163.41970886
 31
0.0
  0
LINE
  5
49D
100
AcDbEntity
  8
MST_1_1
100
AcDbLine
 10
410.97965773
 20
163.41970886
 30
0.0
 11
410.97965773
 21
163.41970886
 31
0.0
  0
LINE
  5
49E
100
AcDbEntity
  8
MST_1_1
100
AcDbLine
 10
410.97965773
 20
163.41970886
 30
0.0
 11
410.97965773
 21
163.41970886
 31
0.0
  0
LINE
  5
49F
100
AcDbEntity
  8
MST_1_1
100
AcDbLine
 10
410.97965773
 20
163.41970886
 30
0.0
 11
410.97965773
 21
163.41970886
 31
0.0
  0
LINE
  5
4A0
100
AcDbEntity
  8
MST_1_1
100
AcDbLine
 10
410.97965773
 20
163.41970886
 30
0.0
 11
410.97965773
 21
163.41970886
 31
0.0
  0
LINE
  5
4A1
100
AcDbEntity
  8
MST_1_1
100
AcDbLine
 10
410.97965773
 20
163.41970886
 30
0.0
 11
410.97965773
 21
163.41970886
 31
0.0
  0
LWPOLYLINE
  5
4A2
102
{ACAD_REACTORS
330
4A3
102
}
100
AcDbEntity
  8
MST_1_1
 62
   190
100
AcDbPolyline
 90
        8
 70
     1
 43
0.0
 10
443.78615773
 20
178.85129219
 10
475.80099107
 20
178.85129219
 10
475.80099107
 20
178.85129219
 10
475.80099107
 20
164.56754052
 10
475.80099107
 20
164.56754052
 10
443.78615773
 20
164.56754052
 10
443.78615773
 20
164.56754052
 10
443.78615773
 20
178.85129219
  0
HATCH
  5
4A3
100
AcDbEntity
  8
MST_1_1
 62
   190
100
AcDbHatch
 10
0.0
 20
0.0
 30
0.0
210
0.0
220
0.0
230
1.0
  2
SOLID
 70
     1
 71
     1
 91
        1
 92
        7
 72
     0
 73
     1
 93
        4
 10
443.78615773
 20
178.85129219
 10
475.80099107
 20
178.85129219
 10
475.80099107
 20
164.56754052
 10
443.78615773
 20
164.56754052
 97
        1
330
4A2
 75
     0
 76
     2
 47
0.775229
 98
        1
 10
0.0
 20
0.0
  0
LWPOLYLINE
  5
4A4
102
{ACAD_REACTORS
330
4A5
102
}
100
AcDbEntity
  8
MST_1_1
 62
    12
100
AcDbPolyline
 90
       22
 70
     1
 43
0.0
 10
445.70399107
 20
166.86080886
 10
445.70399107
 20
175.94732552
 10
445.70399107
 20
175.94732552
 10
453.8833244
 20
175.94732552
 10
453.8833244
 20
175.94732552
 10
453.8833244
 20
173.48297552
 10
453.8833244
 20
173.48297552
 10
450.1073244
 20
173.48297552
 10
450.1073244
 20
173.48297552
 10
450.1073244
 20
172.42835886
 10
450.1073244
 20
172.42835886
 10
453.52499107
 20
172.42835886
 10
453.52499107
 20
172.42835886
 10
453.52499107
 20
170.10055886
 10
453.52499107
 20
170.10055886
 10
450.1073244
 20
170.10055886
 10
450.1073244
 20
170.10055886
 10
450.1073244
 20
166.86080886
 10
450.1073244
 20
166.86080886
 10
445.70399107
 20
166.86080886
 10
445.70399107
 20
166.86080886
 10
445.70399107
 20
166.86080886
  0
HATCH
  5
4A5
100
AcDbEntity
  8
MST_1_1
 62
    12
100
AcDbHatch
 10
0.0
 20
0.0
 30
0.0
210
0.0
220
0.0
230
1.0
  2
SOLID
 70
     1
 71
     1
 91
        1
 92
        7
 72
     0
 73
     1
 93
       10
 10
445.70399107
 20
166.86080886
 10
445.70399107
 20
175.94732552
 10
453.8833244
 20
175.94732552
 10
453.8833244
 20
173.48297552
 10
450.1073244
 20
173.48297552
 10
450.1073244
 20
172.42835886
 10
453.52499107
 20
172.42835886
 10
453.52499107
 20
170.10055886
 10
450.1073244
 20
170.10055886
 10
450.1073244
 20
166.86080886
 97
        1
330
4A4
 75
     0
 76
     2
 47
0.775229
 98
        1
 10
0.0
 20
0.0
  0
LWPOLYLINE
  5
4A6
102
{ACAD_REACTORS
330
4A7
102
}
100
AcDbEntity
  8
MST_1_1
 62
   190
100
AcDbPolyline
 90
      178
 70
     1
 43
0.0
 10
441.92865773
 20
171.38595886
 10
441.92508573
 20
171.18779214
 10
441.91438173
 20
170.99232512
 10
441.89656373
 20
170.79957751
 10
441.87164973
 20
170.60956899
 10
441.83965773
 20
170.42231927
 10
441.80060573
 20
170.23784806
 10
441.75451173
 20
170.05617504
 10
441.70139373
 20
169.87731992
 10
441.64126973
 20
169.70130241
 10
441.57415773
 20
169.52814219
 10
441.57415773
 20
169.52814219
 10
441.50042473
 20
169.35766832
 10
441.42003373
 20
169.19092126
 10
441.33299673
 20
169.02789279
 10
441.23932573
 20
168.86857472
 10
441.13903273
 20
168.71295886
 10
441.03212973
 20
168.56103699
 10
440.91862873
 20
168.41280092
 10
440.79854173
 20
168.26824246
 10
440.67188073
 20
168.12735339
 10
440.53865773
 20
167.99012552
 10
440.53865773
 20
167.99012552
 10
440.39991907
 20
167.86034474
 10
440.2570084
 20
167.73677726
 10
440.10993373
 20
167.61943037
 10
439.95870307
 20
167.50831139
 10
439.8033244
 20
167.40342761
 10
439.64380573
 20
167.30478632
 10
439.48015507
 20
167.21239484
 10
439.3123804
 20
167.12626046
 10
439.14048973
 20
167.04639047
 10
438.96449107
 20
166.97279219
 10
438.96449107
 20
166.97279219
 10
438.78544307
 20
166.90579406
 10
438.60392707
 20
166.84573712
 10
438.41998507
 20
166.79264759
 10
438.23365907
 20
166.74655166
 10
438.04499107
 20
166.70747552
 10
437.85402307
 20
166.67544539
 10
437.66079707
 20
166.65048746
 10
437.46535507
 20
166.63262792
 10
437.26773907
 20
166.62189299
 10
437.06799107
 20
166.61830886
 10
437.06799107
 20
166.61830886
 10
436.86607073
 20
166.62189299
 10
436.6666284
 20
166.63262792
 10
436.46969207
 20
166.65048746
 10
436.27528973
 20
166.67544539
 10
436.0834494
 20
166.70747552
 10
435.89419907
 20
166.74655166
 10
435.70756673
 20
166.79264759
 10
435.5235804
 20
166.84573712
 10
435.34226807
 20
166.90579406
 10
435.16365773
 20
166.97279219
 10
435.16365773
 20
166.97279219
 10
434.98773123
 20
167.04650782
 10
434.81584573
 20
167.12673126
 10
434.64799223
 20
167.21345729
 10
434.48416173
 20
167.30668072
 10
434.32434523
 20
167.40639636
 10
434.16853373
 20
167.51259899
 10
434.01671823
 20
167.62528342
 10
433.86888973
 20
167.74444446
 10
433.72503923
 20
167.87007689
 10
433.58515773
 20
168.00217552
 10
433.58515773
 20
168.00217552
 10
433.4535989
 20
168.13595041
 10
433.32844707
 20
168.27369459
 10
433.20973923
 20
168.41539237
 10
433.0975124
 20
168.56102806
 10
432.99180357
 20
168.71058594
 10
432.89264973
 20
168.86405032
 10
432.8000879
 20
169.02140551
 10
432.71415507
 20
169.18263579
 10
432.63488823
 20
169.34772547
 10
432.5623244
 20
169.51665886
 10
432.5623244
 20
169.51665886
 10
432.49650657
 20
169.68978151
 10
432.43756173
 20
169.86598606
 10
432.3855029
 20
170.04526741
 10
432.34034307
 20
170.22762046
 10
432.30209523
 20
170.41304011
 10
432.2707724
 20
170.60152126
 10
432.24638757
 20
170.79305881
 10
432.22895373
 20
170.98764766
 10
432.2184839
 20
171.18528271
 10
432.21499107
 20
171.38595886
 10
432.21499107
 20
171.38595886
 10
432.2184839
 20
171.58663089
 10
432.22895373
 20
171.78435312
 10
432.24638757
 20
171.97913476
 10
432.2707724
 20
172.17098499
 10
432.30209523
 20
172.35991302
 10
432.34034307
 20
172.54592806
 10
432.3855029
 20
172.72903929
 10
432.43756173
 20
172.90925592
 10
432.49650657
 20
173.08658716
 10
432.5623244
 20
173.26104219
 10
432.5623244
 20
173.26104219
 10
432.63488823
 20
173.43110864
 10
432.71415507
 20
173.59728179
 10
432.8000879
 20
173.75952234
 10
432.89264973
 20
173.91779099
 10
432.99180357
 20
174.07204844
 10
433.0975124
 20
174.22225539
 10
433.20973923
 20
174.36837254
 10
433.32844707
 20
174.51036059
 10
433.4535989
 20
174.64818024
 10
433.58515773
 20
174.78179219
 10
433.58515773
 20
174.78179219
 10
433.72396157
 20
174.91218402
 10
433.8667884
 20
175.03630686
 10
434.01366123
 20
175.15414169
 10
434.16460307
 20
175.26566952
 10
434.3196369
 20
175.37087136
 10
434.47878573
 20
175.46972819
 10
434.64207257
 20
175.56222102
 10
434.8095204
 20
175.64833086
 10
434.98115223
 20
175.72803869
 10
435.15699107
 20
175.80132552
 10
435.15699107
 20
175.80132552
 10
435.33590507
 20
175.86835711
 10
435.51754307
 20
175.92825419
 10
435.70189907
 20
175.98103527
 10
435.88896707
 20
176.02671886
 10
436.07874107
 20
176.06532344
 10
436.27121507
 20
176.09686752
 10
436.46638307
 20
176.12136961
 10
436.66423907
 20
176.13884819
 10
436.86477707
 20
176.14932177
 10
437.06799107
 20
176.15280886
 10
437.06799107
 20
176.15280886
 10
437.27136273
 20
176.14932177
 10
437.4720644
 20
176.13884819
 10
437.67007607
 20
176.12136961
 10
437.86537773
 20
176.09686752
 10
438.0579494
 20
176.06532344
 10
438.24777107
 20
176.02671886
 10
438.43482273
 20
175.98103527
 10
438.6190844
 20
175.92825419
 10
438.80053607
 20
175.86835711
 10
438.97915773
 20
175.80132552
 10
438.97915773
 20
175.80132552
 10
439.1551604
 20
175.72803869
 10
439.32707907
 20
175.64833086
 10
439.49492973
 20
175.56222102
 10
439.6587284
 20
175.46972819
 10
439.81849107
 20
175.37087136
 10
439.97423373
 20
175.26566952
 10
440.1259724
 20
175.15414169
 10
440.27372307
 20
175.03630686
 10
440.41750173
 20
174.91218402
 10
440.5573244
 20
174.78179219
 10
440.5573244
 20
174.78179219
 10
440.68766923
 20
174.64701767
 10
440.81178307
 20
174.50819006
 10
440.9296349
 20
174.36533324
 10
441.04119373
 20
174.21847112
 10
441.14642857
 20
174.06762761
 10
441.2453084
 20
173.91282659
 10
441.33780223
 20
173.75409197
 10
441.42387907
 20
173.59144766
 10
441.5035079
 20
173.42491754
 10
441.57665773
 20
173.25452552
 10
441.57665773
 20
173.25452552
 10
441.64369973
 20
173.08023361
 10
441.70363373
 20
172.90315619
 10
441.75647173
 20
172.72329077
 10
441.80222573
 20
172.54063486
 10
441.84090773
 20
172.35518594
 10
441.87252973
 20
172.16694152
 10
441.89710373
 20
171.97589911
 10
441.91464173
 20
171.78205619
 10
441.92515573
 20
171.58541027
 10
441.92865773
 20
171.38595886
 10
441.92865773
 20
171.38595886
 10
441.92865773
 20
171.38595886
  0
HATCH
  5
4A7
100
AcDbEntity
  8
MST_1_1
 62
   190
100
AcDbHatch
 10
0.0
 20
0.0
 30
0.0
210
0.0
220
0.0
230
1.0
  2
SOLID
 70
     1
 71
     1
 91
        1
 92
        7
 72
     0
 73
     1
 93
      160
 10
441.92865773
 20
171.38595886
 10
441.92508573
 20
171.18779214
 10
441.91438173
 20
170.99232512
 10
441.89656373
 20
170.79957751
 10
441.87164973
 20
170.60956899
 10
441.83965773
 20
170.42231927
 10
441.80060573
 20
170.23784806
 10
441.75451173
 20
170.05617504
 10
441.70139373
 20
169.87731992
 10
441.64126973
 20
169.70130241
 10
441.57415773
 20
169.52814219
 10
441.50042473
 20
169.35766832
 10
441.42003373
 20
169.19092126
 10
441.33299673
 20
169.02789279
 10
441.23932573
 20
168.86857472
 10
441.13903273
 20
168.71295886
 10
441.03212973
 20
168.56103699
 10
440.91862873
 20
168.41280092
 10
440.79854173
 20
168.26824246
 10
440.67188073
 20
168.12735339
 10
440.53865773
 20
167.99012552
 10
440.39991907
 20
167.86034474
 10
440.2570084
 20
167.73677726
 10
440.10993373
 20
167.61943037
 10
439.95870307
 20
167.50831139
 10
439.8033244
 20
167.40342761
 10
439.64380573
 20
167.30478632
 10
439.48015507
 20
167.21239484
 10
439.3123804
 20
167.12626046
 10
439.14048973
 20
167.04639047
 10
438.96449107
 20
166.97279219
 10
438.78544307
 20
166.90579406
 10
438.60392707
 20
166.84573712
 10
438.41998507
 20
166.79264759
 10
438.23365907
 20
166.74655166
 10
438.04499107
 20
166.70747552
 10
437.85402307
 20
166.67544539
 10
437.66079707
 20
166.65048746
 10
437.46535507
 20
166.63262792
 10
437.26773907
 20
166.62189299
 10
437.06799107
 20
166.61830886
 10
436.86607073
 20
166.62189299
 10
436.6666284
 20
166.63262792
 10
436.46969207
 20
166.65048746
 10
436.27528973
 20
166.67544539
 10
436.0834494
 20
166.70747552
 10
435.89419907
 20
166.74655166
 10
435.70756673
 20
166.79264759
 10
435.5235804
 20
166.84573712
 10
435.34226807
 20
166.90579406
 10
435.16365773
 20
166.97279219
 10
434.98773123
 20
167.04650782
 10
434.81584573
 20
167.12673126
 10
434.64799223
 20
167.21345729
 10
434.48416173
 20
167.30668072
 10
434.32434523
 20
167.40639636
 10
434.16853373
 20
167.51259899
 10
434.01671823
 20
167.62528342
 10
433.86888973
 20
167.74444446
 10
433.72503923
 20
167.87007689
 10
433.58515773
 20
168.00217552
 10
433.4535989
 20
168.13595041
 10
433.32844707
 20
168.27369459
 10
433.20973923
 20
168.41539237
 10
433.0975124
 20
168.56102806
 10
432.99180357
 20
168.71058594
 10
432.89264973
 20
168.86405032
 10
432.8000879
 20
169.02140551
 10
432.71415507
 20
169.18263579
 10
432.63488823
 20
169.34772547
 10
432.5623244
 20
169.51665886
 10
432.49650657
 20
169.68978151
 10
432.43756173
 20
169.86598606
 10
432.3855029
 20
170.04526741
 10
432.34034307
 20
170.22762046
 10
432.30209523
 20
170.41304011
 10
432.2707724
 20
170.60152126
 10
432.24638757
 20
170.79305881
 10
432.22895373
 20
170.98764766
 10
432.2184839
 20
171.18528271
 10
432.21499107
 20
171.38595886
 10
432.2184839
 20
171.58663089
 10
432.22895373
 20
171.78435312
 10
432.24638757
 20
171.97913476
 10
432.2707724
 20
172.17098499
 10
432.30209523
 20
172.35991302
 10
432.34034307
 20
172.54592806
 10
432.3855029
 20
172.72903929
 10
432.43756173
 20
172.90925592
 10
432.49650657
 20
173.08658716
 10
432.5623244
 20
173.26104219
 10
432.63488823
 20
173.43110864
 10
432.71415507
 20
173.59728179
 10
432.8000879
 20
173.75952234
 10
432.89264973
 20
173.91779099
 10
432.99180357
 20
174.07204844
 10
433.0975124
 20
174.22225539
 10
433.20973923
 20
174.36837254
 10
433.32844707
 20
174.51036059
 10
433.4535989
 20
174.64818024
 10
433.58515773
 20
174.78179219
 10
433.72396157
 20
174.91218402
 10
433.8667884
 20
175.03630686
 10
434.01366123
 20
175.15414169
 10
434.16460307
 20
175.26566952
 10
434.3196369
 20
175.37087136
 10
434.47878573
 20
175.46972819
 10
434.64207257
 20
175.56222102
 10
434.8095204
 20
175.64833086
 10
434.98115223
 20
175.72803869
 10
435.15699107
 20
175.80132552
 10
435.33590507
 20
175.86835711
 10
435.51754307
 20
175.92825419
 10
435.70189907
 20
175.98103527
 10
435.88896707
 20
176.02671886
 10
436.07874107
 20
176.06532344
 10
436.27121507
 20
176.09686752
 10
436.46638307
 20
176.12136961
 10
436.66423907
 20
176.13884819
 10
436.86477707
 20
176.14932177
 10
437.06799107
 20
176.15280886
 10
437.27136273
 20
176.14932177
 10
437.4720644
 20
176.13884819
 10
437.67007607
 20
176.12136961
 10
437.86537773
 20
176.09686752
 10
438.0579494
 20
176.06532344
 10
438.24777107
 20
176.02671886
 10
438.43482273
 20
175.98103527
 10
438.6190844
 20
175.92825419
 10
438.80053607
 20
175.86835711
 10
438.97915773
 20
175.80132552
 10
439.1551604
 20
175.72803869
 10
439.32707907
 20
175.64833086
 10
439.49492973
 20
175.56222102
 10
439.6587284
 20
175.46972819
 10
439.81849107
 20
175.37087136
 10
439.97423373
 20
175.26566952
 10
440.1259724
 20
175.15414169
 10
440.27372307
 20
175.03630686
 10
440.41750173
 20
174.91218402
 10
440.5573244
 20
174.78179219
 10
440.68766923
 20
174.64701767
 10
440.81178307
 20
174.50819006
 10
440.9296349
 20
174.36533324
 10
441.04119373
 20
174.21847112
 10
441.14642857
 20
174.06762761
 10
441.2453084
 20
173.91282659
 10
441.33780223
 20
173.75409197
 10
441.42387907
 20
173.59144766
 10
441.5035079
 20
173.42491754
 10
441.57665773
 20
173.25452552
 10
441.64369973
 20
173.08023361
 10
441.70363373
 20
172.90315619
 10
441.75647173
 20
172.72329077
 10
441.80222573
 20
172.54063486
 10
441.84090773
 20
172.35518594
 10
441.87252973
 20
172.16694152
 10
441.89710373
 20
171.97589911
 10
441.91464173
 20
171.78205619
 10
441.92515573
 20
171.58541027
 97
        1
330
4A6
 75
     0
 76
     2
 47
0.775229
 98
        1
 10
0.0
 20
0.0
  0
LWPOLYLINE
  5
4A8
102
{ACAD_REACTORS
330
4A9
102
}
100
AcDbEntity
  8
MST_1_1
 62
    12
100
AcDbPolyline
 90
       90
 70
     1
 43
0.0
 10
437.06799107
 20
169.67177552
 10
437.20320823
 20
169.67651084
 10
437.3329684
 20
169.69069406
 10
437.45728457
 20
169.71429107
 10
437.57616973
 20
169.74726779
 10
437.6896369
 20
169.78959011
 10
437.79769907
 20
169.84122392
 10
437.90036923
 20
169.90213514
 10
437.9976604
 20
169.97228966
 10
438.08958557
 20
170.05165337
 10
438.17615773
 20
170.14019219
 10
438.17615773
 20
170.14019219
 10
438.25585023
 20
170.23731721
 10
438.32721773
 20
170.34043832
 10
438.39024523
 20
170.44959464
 10
438.44491773
 20
170.56482526
 10
438.49122023
 20
170.68616927
 10
438.52913773
 20
170.81366579
 10
438.55865523
 20
170.94735391
 10
438.57975773
 20
171.08727272
 10
438.59243023
 20
171.23346134
 10
438.59665773
 20
171.38595886
 10
438.59665773
 20
171.38595886
 10
438.59243023
 20
171.53920439
 10
438.57975773
 20
171.68621312
 10
438.55865523
 20
171.82701826
 10
438.52913773
 20
171.96165299
 10
438.49122023
 20
172.09015052
 10
438.44491773
 20
172.21254406
 10
438.39024523
 20
172.32886679
 10
438.32721773
 20
172.43915192
 10
438.25585023
 20
172.54343266
 10
438.17615773
 20
172.64174219
 10
438.17615773
 20
172.64174219
 10
438.08958557
 20
172.73176757
 10
437.9976604
 20
172.81238326
 10
437.90036923
 20
172.88357354
 10
437.79769907
 20
172.94532272
 10
437.6896369
 20
172.99761511
 10
437.57616973
 20
173.04043499
 10
437.45728457
 20
173.07376667
 10
437.3329684
 20
173.09759446
 10
437.20320823
 20
173.11190264
 10
437.06799107
 20
173.11667552
 10
437.06799107
 20
173.11667552
 10
436.93283807
 20
173.11189857
 10
436.80298707
 20
173.09756192
 10
436.67845007
 20
173.07365687
 10
436.55923907
 20
173.04017472
 10
436.44536607
 20
172.99710677
 10
436.33684307
 20
172.94444432
 10
436.23368207
 20
172.88217867
 10
436.13589507
 20
172.81030112
 10
436.04349407
 20
172.72880297
 10
435.95649107
 20
172.63767552
 10
435.95649107
 20
172.63767552
 10
435.8761444
 20
172.53931156
 10
435.80429773
 20
172.43498979
 10
435.74094107
 20
172.32471042
 10
435.6860644
 20
172.20847366
 10
435.63965773
 20
172.08627969
 10
435.60171107
 20
171.95812872
 10
435.5722144
 20
171.82402096
 10
435.55115773
 20
171.68395659
 10
435.53853107
 20
171.53793582
 10
435.5343244
 20
171.38595886
 10
435.5343244
 20
171.38595886
 10
435.53853107
 20
171.23346134
 10
435.55115773
 20
171.08727272
 10
435.5722144
 20
170.94735391
 10
435.60171107
 20
170.81366579
 10
435.63965773
 20
170.68616927
 10
435.6860644
 20
170.56482526
 10
435.74094107
 20
170.44959464
 10
435.80429773
 20
170.34043832
 10
435.8761444
 20
170.23731721
 10
435.95649107
 20
170.14019219
 10
435.95649107
 20
170.14019219
 10
436.04349407
 20
170.05165337
 10
436.13589507
 20
169.97228966
 10
436.23368207
 20
169.90213514
 10
436.33684307
 20
169.84122392
 10
436.44536607
 20
169.78959011
 10
436.55923907
 20
169.74726779
 10
436.67845007
 20
169.71429107
 10
436.80298707
 20
169.69069406
 10
436.93283807
 20
169.67651084
 10
437.06799107
 20
169.67177552
 10
437.06799107
 20
169.67177552
 10
437.06799107
 20
169.67177552
  0
HATCH
  5
4A9
100
AcDbEntity
  8
MST_1_1
 62
    12
100
AcDbHatch
 10
0.0
 20
0.0
 30
0.0
210
0.0
220
0.0
230
1.0
  2
SOLID
 70
     1
 71
     1
 91
        1
 92
        7
 72
     0
 73
     1
 93
       80
 10
437.06799107
 20
169.67177552
 10
437.20320823
 20
169.67651084
 10
437.3329684
 20
169.69069406
 10
437.45728457
 20
169.71429107
 10
437.57616973
 20
169.74726779
 10
437.6896369
 20
169.78959011
 10
437.79769907
 20
169.84122392
 10
437.90036923
 20
169.90213514
 10
437.9976604
 20
169.97228966
 10
438.08958557
 20
170.05165337
 10
438.17615773
 20
170.14019219
 10
438.25585023
 20
170.23731721
 10
438.32721773
 20
170.34043832
 10
438.39024523
 20
170.44959464
 10
438.44491773
 20
170.56482526
 10
438.49122023
 20
170.68616927
 10
438.52913773
 20
170.81366579
 10
438.55865523
 20
170.94735391
 10
438.57975773
 20
171.08727272
 10
438.59243023
 20
171.23346134
 10
438.59665773
 20
171.38595886
 10
438.59243023
 20
171.53920439
 10
438.57975773
 20
171.68621312
 10
438.55865523
 20
171.82701826
 10
438.52913773
 20
171.96165299
 10
438.49122023
 20
172.09015052
 10
438.44491773
 20
172.21254406
 10
438.39024523
 20
172.32886679
 10
438.32721773
 20
172.43915192
 10
438.25585023
 20
172.54343266
 10
438.17615773
 20
172.64174219
 10
438.08958557
 20
172.73176757
 10
437.9976604
 20
172.81238326
 10
437.90036923
 20
172.88357354
 10
437.79769907
 20
172.94532272
 10
437.6896369
 20
172.99761511
 10
437.57616973
 20
173.04043499
 10
437.45728457
 20
173.07376667
 10
437.3329684
 20
173.09759446
 10
437.20320823
 20
173.11190264
 10
437.06799107
 20
173.11667552
 10
436.93283807
 20
173.11189857
 10
436.80298707
 20
173.09756192
 10
436.67845007
 20
173.07365687
 10
436.55923907
 20
173.04017472
 10
436.44536607
 20
172.99710677
 10
436.33684307
 20
172.94444432
 10
436.23368207
 20
172.88217867
 10
436.13589507
 20
172.81030112
 10
436.04349407
 20
172.72880297
 10
435.95649107
 20
172.63767552
 10
435.8761444
 20
172.53931156
 10
435.80429773
 20
172.43498979
 10
435.74094107
 20
172.32471042
 10
435.6860644
 20
172.20847366
 10
435.63965773
 20
172.08627969
 10
435.60171107
 20
171.95812872
 10
435.5722144
 20
171.82402096
 10
435.55115773
 20
171.68395659
 10
435.53853107
 20
171.53793582
 10
435.5343244
 20
171.38595886
 10
435.53853107
 20
171.23346134
 10
435.55115773
 20
171.08727272
 10
435.5722144
 20
170.94735391
 10
435.60171107
 20
170.81366579
 10
435.63965773
 20
170.68616927
 10
435.6860644
 20
170.56482526
 10
435.74094107
 20
170.44959464
 10
435.80429773
 20
170.34043832
 10
435.8761444
 20
170.23731721
 10
435.95649107
 20
170.14019219
 10
436.04349407
 20
170.05165337
 10
436.13589507
 20
169.97228966
 10
436.23368207
 20
169.90213514
 10
436.33684307
 20
169.84122392
 10
436.44536607
 20
169.78959011
 10
436.55923907
 20
169.74726779
 10
436.67845007
 20
169.71429107
 10
436.80298707
 20
169.69069406
 10
436.93283807
 20
169.67651084
 97
        1
330
4A8
 75
     0
 76
     2
 47
0.775229
 98
        1
 10
0.0
 20
0.0
  0
LWPOLYLINE
  5
4AA
102
{ACAD_REACTORS
330
4AB
102
}
100
AcDbEntity
  8
MST_1_1
 62
   190
100
AcDbPolyline
 90
       60
 70
     1
 43
0.0
 10
423.42895773
 20
166.86080886
 10
423.42895773
 20
175.94732552
 10
423.42895773
 20
175.94732552
 10
427.5392244
 20
175.94732552
 10
427.5392244
 20
175.94732552
 10
427.88796017
 20
175.93942489
 10
428.21990253
 20
175.91573246
 10
428.5350441
 20
175.87626242
 10
428.83337747
 20
175.82102899
 10
429.11489523
 20
175.75004636
 10
429.37959
 20
175.66332872
 10
429.62745437
 20
175.56089029
 10
429.85848093
 20
175.44274526
 10
430.0726623
 20
175.30890782
 10
430.26999107
 20
175.15939219
 10
430.26999107
 20
175.15939219
 10
430.4491969
 20
174.99480314
 10
430.60951773
 20
174.81623779
 10
430.75095857
 20
174.62372884
 10
430.8735244
 20
174.41730899
 10
430.97722023
 20
174.19701094
 10
431.06205107
 20
173.96286739
 10
431.1280219
 20
173.71491104
 10
431.17513773
 20
173.45317459
 10
431.20340357
 20
173.17769074
 10
431.2128244
 20
172.88849219
 10
431.2128244
 20
172.88849219
 10
431.20804273
 20
172.69800762
 10
431.19371107
 20
172.51436166
 10
431.1698494
 20
172.33756589
 10
431.13647773
 20
172.16763192
 10
431.09361607
 20
172.00457136
 10
431.0412844
 20
171.84839579
 10
430.97950273
 20
171.69911682
 10
430.90829107
 20
171.55674606
 10
430.8276694
 20
171.42129509
 10
430.73765773
 20
171.29277552
 10
430.73765773
 20
171.29277552
 10
430.63921673
 20
171.17218327
 10
430.53426973
 20
171.06214752
 10
430.42278073
 20
170.96265477
 10
430.30471373
 20
170.87369152
 10
430.18003273
 20
170.79524427
 10
430.04870173
 20
170.72729952
 10
429.91068473
 20
170.66984377
 10
429.76594573
 20
170.62286352
 10
429.61444873
 20
170.58634527
 10
429.45615773
 20
170.56027552
 10
429.45615773
 20
170.56027552
 10
431.88249107
 20
166.86080886
 10
431.88249107
 20
166.86080886
 10
428.22199107
 20
166.86080886
 10
428.22199107
 20
166.86080886
 10
426.63200773
 20
169.85812552
 10
426.63200773
 20
169.85812552
 10
426.63200773
 20
166.86080886
 10
426.63200773
 20
166.86080886
 10
423.42895773
 20
166.86080886
 10
423.42895773
 20
166.86080886
 10
423.42895773
 20
166.86080886
  0
HATCH
  5
4AB
100
AcDbEntity
  8
MST_1_1
 62
   190
100
AcDbHatch
 10
0.0
 20
0.0
 30
0.0
210
0.0
220
0.0
230
1.0
  2
SOLID
 70
     1
 71
     1
 91
        1
 92
        7
 72
     0
 73
     1
 93
       47
 10
423.42895773
 20
166.86080886
 10
423.42895773
 20
175.94732552
 10
427.5392244
 20
175.94732552
 10
427.88796017
 20
175.93942489
 10
428.21990253
 20
175.91573246
 10
428.5350441
 20
175.87626242
 10
428.83337747
 20
175.82102899
 10
429.11489523
 20
175.75004636
 10
429.37959
 20
175.66332872
 10
429.62745437
 20
175.56089029
 10
429.85848093
 20
175.44274526
 10
430.0726623
 20
175.30890782
 10
430.26999107
 20
175.15939219
 10
430.4491969
 20
174.99480314
 10
430.60951773
 20
174.81623779
 10
430.75095857
 20
174.62372884
 10
430.8735244
 20
174.41730899
 10
430.97722023
 20
174.19701094
 10
431.06205107
 20
173.96286739
 10
431.1280219
 20
173.71491104
 10
431.17513773
 20
173.45317459
 10
431.20340357
 20
173.17769074
 10
431.2128244
 20
172.88849219
 10
431.20804273
 20
172.69800762
 10
431.19371107
 20
172.51436166
 10
431.1698494
 20
172.33756589
 10
431.13647773
 20
172.16763192
 10
431.09361607
 20
172.00457136
 10
431.0412844
 20
171.84839579
 10
430.97950273
 20
171.69911682
 10
430.90829107
 20
171.55674606
 10
430.8276694
 20
171.42129509
 10
430.73765773
 20
171.29277552
 10
430.63921673
 20
171.17218327
 10
430.53426973
 20
171.06214752
 10
430.42278073
 20
170.96265477
 10
430.30471373
 20
170.87369152
 10
430.18003273
 20
170.79524427
 10
430.04870173
 20
170.72729952
 10
429.91068473
 20
170.66984377
 10
429.76594573
 20
170.62286352
 10
429.61444873
 20
170.58634527
 10
429.45615773
 20
170.56027552
 10
431.88249107
 20
166.86080886
 10
428.22199107
 20
166.86080886
 10
426.63200773
 20
169.85812552
 10
426.63200773
 20
166.86080886
 97
        1
330
4AA
 75
     0
 76
     2
 47
0.775229
 98
        1
 10
0.0
 20
0.0
  0
LWPOLYLINE
  5
4AC
102
{ACAD_REACTORS
330
4AD
102
}
100
AcDbEntity
  8
MST_1_1
 62
    12
100
AcDbPolyline
 90
       52
 70
     1
 43
0.0
 10
426.63200773
 20
173.60869219
 10
426.63200773
 20
171.83364219
 10
426.63200773
 20
171.83364219
 10
427.1411244
 20
171.83364219
 10
427.1411244
 20
171.83364219
 10
427.23217085
 20
171.83591359
 10
427.31885
 20
171.84272339
 10
427.40117655
 20
171.85406499
 10
427.4791652
 20
171.86993179
 10
427.55283065
 20
171.89031719
 10
427.6221876
 20
171.91521459
 10
427.68725075
 20
171.94461739
 10
427.7480348
 20
171.97851899
 10
427.80455445
 20
172.01691279
 10
427.8568244
 20
172.05979219
 10
427.8568244
 20
172.05979219
 10
427.90466857
 20
172.10687567
 10
427.94749773
 20
172.15789806
 10
427.9853069
 20
172.21286224
 10
428.01809107
 20
172.27177112
 10
428.04584523
 20
172.33462761
 10
428.0685644
 20
172.40143459
 10
428.08624357
 20
172.47219497
 10
428.09887773
 20
172.54691166
 10
428.1064619
 20
172.62558754
 10
428.10899107
 20
172.70822552
 10
428.10899107
 20
172.70822552
 10
428.1064619
 20
172.79306432
 10
428.09887773
 20
172.87389392
 10
428.08624357
 20
172.95070412
 10
428.0685644
 20
173.02348472
 10
428.04584523
 20
173.09222552
 10
428.01809107
 20
173.15691632
 10
427.9853069
 20
173.21754692
 10
427.94749773
 20
173.27410712
 10
427.90466857
 20
173.32658672
 10
427.8568244
 20
173.37497552
 10
427.8568244
 20
173.37497552
 10
427.80455445
 20
173.41911169
 10
427.7480348
 20
173.45868686
 10
427.68725075
 20
173.49368102
 10
427.6221876
 20
173.52407419
 10
427.55283065
 20
173.54984636
 10
427.4791652
 20
173.57097752
 10
427.40117655
 20
173.58744769
 10
427.31885
 20
173.59923686
 10
427.23217085
 20
173.60632502
 10
427.1411244
 20
173.60869219
 10
427.1411244
 20
173.60869219
 10
426.63200773
 20
173.60869219
 10
426.63200773
 20
173.60869219
 10
426.63200773
 20
173.60869219
  0
HATCH
  5
4AD
100
AcDbEntity
  8
MST_1_1
 62
    12
100
AcDbHatch
 10
0.0
 20
0.0
 30
0.0
210
0.0
220
0.0
230
1.0
  2
SOLID
 70
     1
 71
     1
 91
        1
 92
        7
 72
     0
 73
     1
 93
       43
 10
426.63200773
 20
173.60869219
 10
426.63200773
 20
171.83364219
 10
427.1411244
 20
171.83364219
 10
427.23217085
 20
171.83591359
 10
427.31885
 20
171.84272339
 10
427.40117655
 20
171.85406499
 10
427.4791652
 20
171.86993179
 10
427.55283065
 20
171.89031719
 10
427.6221876
 20
171.91521459
 10
427.68725075
 20
171.94461739
 10
427.7480348
 20
171.97851899
 10
427.80455445
 20
172.01691279
 10
427.8568244
 20
172.05979219
 10
427.90466857
 20
172.10687567
 10
427.94749773
 20
172.15789806
 10
427.9853069
 20
172.21286224
 10
428.01809107
 20
172.27177112
 10
428.04584523
 20
172.33462761
 10
428.0685644
 20
172.40143459
 10
428.08624357
 20
172.47219497
 10
428.09887773
 20
172.54691166
 10
428.1064619
 20
172.62558754
 10
428.10899107
 20
172.70822552
 10
428.1064619
 20
172.79306432
 10
428.09887773
 20
172.87389392
 10
428.08624357
 20
172.95070412
 10
428.0685644
 20
173.02348472
 10
428.04584523
 20
173.09222552
 10
428.01809107
 20
173.15691632
 10
427.9853069
 20
173.21754692
 10
427.94749773
 20
173.27410712
 10
427.90466857
 20
173.32658672
 10
427.8568244
 20
173.37497552
 10
427.80455445
 20
173.41911169
 10
427.7480348
 20
173.45868686
 10
427.68725075
 20
173.49368102
 10
427.6221876
 20
173.52407419
 10
427.55283065
 20
173.54984636
 10
427.4791652
 20
173.57097752
 10
427.40117655
 20
173.58744769
 10
427.31885
 20
173.59923686
 10
427.23217085
 20
173.60632502
 10
427.1411244
 20
173.60869219
 97
        1
330
4AC
 75
     0
 76
     2
 47
0.775229
 98
        1
 10
0.0
 20
0.0
  0
LWPOLYLINE
  5
4AE
102
{ACAD_REACTORS
330
4AF
102
}
100
AcDbEntity
  8
MST_1_1
 62
   190
100
AcDbPolyline
 90
       56
 70
     1
 43
0.0
 10
414.42935773
 20
166.86080886
 10
414.42935773
 20
175.94732552
 10
414.42935773
 20
175.94732552
 10
418.3340744
 20
175.94732552
 10
418.3340744
 20
175.94732552
 10
418.73485055
 20
175.93937686
 10
419.1135016
 20
175.91553419
 10
419.47003145
 20
175.87580252
 10
419.804444
 20
175.82018686
 10
420.11674315
 20
175.74869219
 10
420.4069328
 20
175.66132352
 10
420.67501685
 20
175.55808586
 10
420.9209992
 20
175.43898419
 10
421.14488375
 20
175.30402352
 10
421.3466744
 20
175.15320886
 10
421.3466744
 20
175.15320886
 10
421.5277296
 20
174.98484752
 10
421.689734
 20
174.79796019
 10
421.8326858
 20
174.59252686
 10
421.9565832
 20
174.36852752
 10
422.0614244
 20
174.12594219
 10
422.1472076
 20
173.86475086
 10
422.213931
 20
173.58493352
 10
422.2615928
 20
173.28647019
 10
422.2901912
 20
172.96934086
 10
422.2997244
 20
172.63352552
 10
422.2997244
 20
172.63352552
 10
422.2911545
 20
172.32053351
 10
422.2654512
 20
172.02487139
 10
422.2226241
 20
171.74654507
 10
422.1626828
 20
171.48556046
 10
422.0856369
 20
171.24192344
 10
421.991496
 20
171.01563992
 10
421.8802697
 20
170.80671581
 10
421.7519676
 20
170.61515699
 10
421.6065993
 20
170.44096937
 10
421.4441744
 20
170.28415886
 10
421.4441744
 20
170.28415886
 10
421.26242173
 20
170.14360141
 10
421.06061907
 20
170.01778726
 10
420.8387594
 20
169.90672871
 10
420.59683573
 20
169.81043806
 10
420.33484107
 20
169.72892761
 10
420.0527684
 20
169.66220966
 10
419.75061073
 20
169.61029651
 10
419.42836107
 20
169.57320046
 10
419.0860124
 20
169.55093381
 10
418.72355773
 20
169.54350886
 10
418.72355773
 20
169.54350886
 10
417.70060773
 20
169.54350886
 10
417.70060773
 20
169.54350886
 10
417.70060773
 20
166.86080886
 10
417.70060773
 20
166.86080886
 10
414.42935773
 20
166.86080886
 10
414.42935773
 20
166.86080886
 10
414.42935773
 20
166.86080886
  0
HATCH
  5
4AF
100
AcDbEntity
  8
MST_1_1
 62
   190
100
AcDbHatch
 10
0.0
 20
0.0
 30
0.0
210
0.0
220
0.0
230
1.0
  2
SOLID
 70
     1
 71
     1
 91
        1
 92
        7
 72
     0
 73
     1
 93
       45
 10
414.42935773
 20
166.86080886
 10
414.42935773
 20
175.94732552
 10
418.3340744
 20
175.94732552
 10
418.73485055
 20
175.93937686
 10
419.1135016
 20
175.91553419
 10
419.47003145
 20
175.87580252
 10
419.804444
 20
175.82018686
 10
420.11674315
 20
175.74869219
 10
420.4069328
 20
175.66132352
 10
420.67501685
 20
175.55808586
 10
420.9209992
 20
175.43898419
 10
421.14488375
 20
175.30402352
 10
421.3466744
 20
175.15320886
 10
421.5277296
 20
174.98484752
 10
421.689734
 20
174.79796019
 10
421.8326858
 20
174.59252686
 10
421.9565832
 20
174.36852752
 10
422.0614244
 20
174.12594219
 10
422.1472076
 20
173.86475086
 10
422.213931
 20
173.58493352
 10
422.2615928
 20
173.28647019
 10
422.2901912
 20
172.96934086
 10
422.2997244
 20
172.63352552
 10
422.2911545
 20
172.32053351
 10
422.2654512
 20
172.02487139
 10
422.2226241
 20
171.74654507
 10
422.1626828
 20
171.48556046
 10
422.0856369
 20
171.24192344
 10
421.991496
 20
171.01563992
 10
421.8802697
 20
170.80671581
 10
421.7519676
 20
170.61515699
 10
421.6065993
 20
170.44096937
 10
421.4441744
 20
170.28415886
 10
421.26242173
 20
170.14360141
 10
421.06061907
 20
170.01778726
 10
420.8387594
 20
169.90672871
 10
420.59683573
 20
169.81043806
 10
420.33484107
 20
169.72892761
 10
420.0527684
 20
169.66220966
 10
419.75061073
 20
169.61029651
 10
419.42836107
 20
169.57320046
 10
419.0860124
 20
169.55093381
 10
418.72355773
 20
169.54350886
 10
417.70060773
 20
169.54350886
 10
417.70060773
 20
166.86080886
 97
        1
330
4AE
 75
     0
 76
     2
 47
0.775229
 98
        1
 10
0.0
 20
0.0
  0
LWPOLYLINE
  5
4B0
102
{ACAD_REACTORS
330
4B1
102
}
100
AcDbEntity
  8
MST_1_1
 62
    12
100
AcDbPolyline
 90
       52
 70
     1
 43
0.0
 10
417.7133744
 20
173.42177552
 10
417.7133744
 20
171.90720886
 10
417.7133744
 20
171.90720886
 10
418.2210244
 20
171.90720886
 10
418.2210244
 20
171.90720886
 10
418.31186252
 20
171.90917716
 10
418.39846733
 20
171.91507526
 10
418.48080955
 20
171.92489296
 10
418.55885987
 20
171.93862006
 10
418.63258898
 20
171.95624636
 10
418.7019676
 20
171.97776166
 10
418.76696642
 20
172.00315576
 10
418.82755613
 20
172.03241846
 10
418.88370745
 20
172.06553956
 10
418.93539107
 20
172.10250886
 10
418.93539107
 20
172.10250886
 10
418.98245982
 20
172.14332622
 10
419.02459307
 20
172.18741379
 10
419.06178632
 20
172.23477976
 10
419.09403507
 20
172.28543232
 10
419.12133482
 20
172.33937969
 10
419.14368107
 20
172.39663006
 10
419.16106932
 20
172.45719162
 10
419.17349507
 20
172.52107259
 10
419.18095382
 20
172.58828116
 10
419.18344107
 20
172.65882552
 10
419.18344107
 20
172.65882552
 10
419.1809073
 20
172.72908321
 10
419.17329893
 20
172.79619899
 10
419.16060537
 20
172.86017697
 10
419.142816
 20
172.92102126
 10
419.11992023
 20
172.97873594
 10
419.09190747
 20
173.03332512
 10
419.0587671
 20
173.08479291
 10
419.02048853
 20
173.13314339
 10
418.97706117
 20
173.17838067
 10
418.9284744
 20
173.22050886
 10
418.9284744
 20
173.22050886
 10
418.8757285
 20
173.25854027
 10
418.8190052
 20
173.29263419
 10
418.7582961
 20
173.32277511
 10
418.6935928
 20
173.34894752
 10
418.6248869
 20
173.37113594
 10
418.55217
 20
173.38932486
 10
418.4754337
 20
173.40349877
 10
418.3946696
 20
173.41364219
 10
418.3098693
 20
173.41973961
 10
418.2210244
 20
173.42177552
 10
418.2210244
 20
173.42177552
 10
417.7133744
 20
173.42177552
 10
417.7133744
 20
173.42177552
 10
417.7133744
 20
173.42177552
  0
HATCH
  5
4B1
100
AcDbEntity
  8
MST_1_1
 62
    12
100
AcDbHatch
 10
0.0
 20
0.0
 30
0.0
210
0.0
220
0.0
230
1.0
  2
SOLID
 70
     1
 71
     1
 91
        1
 92
        7
 72
     0
 73
     1
 93
       43
 10
417.7133744
 20
173.42177552
 10
417.7133744
 20
171.90720886
 10
418.2210244
 20
171.90720886
 10
418.31186252
 20
171.90917716
 10
418.39846733
 20
171.91507526
 10
418.48080955
 20
171.92489296
 10
418.55885987
 20
171.93862006
 10
418.63258898
 20
171.95624636
 10
418.7019676
 20
171.97776166
 10
418.76696642
 20
172.00315576
 10
418.82755613
 20
172.03241846
 10
418.88370745
 20
172.06553956
 10
418.93539107
 20
172.10250886
 10
418.98245982
 20
172.14332622
 10
419.02459307
 20
172.18741379
 10
419.06178632
 20
172.23477976
 10
419.09403507
 20
172.28543232
 10
419.12133482
 20
172.33937969
 10
419.14368107
 20
172.39663006
 10
419.16106932
 20
172.45719162
 10
419.17349507
 20
172.52107259
 10
419.18095382
 20
172.58828116
 10
419.18344107
 20
172.65882552
 10
419.1809073
 20
172.72908321
 10
419.17329893
 20
172.79619899
 10
419.16060537
 20
172.86017697
 10
419.142816
 20
172.92102126
 10
419.11992023
 20
172.97873594
 10
419.09190747
 20
173.03332512
 10
419.0587671
 20
173.08479291
 10
419.02048853
 20
173.13314339
 10
418.97706117
 20
173.17838067
 10
418.9284744
 20
173.22050886
 10
418.8757285
 20
173.25854027
 10
418.8190052
 20
173.29263419
 10
418.7582961
 20
173.32277511
 10
418.6935928
 20
173.34894752
 10
418.6248869
 20
173.37113594
 10
418.55217
 20
173.38932486
 10
418.4754337
 20
173.40349877
 10
418.3946696
 20
173.41364219
 10
418.3098693
 20
173.41973961
 10
418.2210244
 20
173.42177552
 97
        1
330
4B0
 75
     0
 76
     2
 47
0.775229
 98
        1
 10
0.0
 20
0.0
  0
LWPOLYLINE
  5
4B2
102
{ACAD_REACTORS
330
4B3
102
}
100
AcDbEntity
  8
MST_1_1
 62
    12
100
AcDbPolyline
 90
       10
 70
     1
 43
0.0
 10
455.4758244
 20
166.86080886
 10
455.4758244
 20
175.94732552
 10
455.4758244
 20
175.94732552
 10
459.94365773
 20
175.94732552
 10
459.94365773
 20
175.94732552
 10
459.94365773
 20
166.86080886
 10
459.94365773
 20
166.86080886
 10
455.4758244
 20
166.86080886
 10
455.4758244
 20
166.86080886
 10
455.4758244
 20
166.86080886
  0
HATCH
  5
4B3
100
AcDbEntity
  8
MST_1_1
 62
    12
100
AcDbHatch
 10
0.0
 20
0.0
 30
0.0
210
0.0
220
0.0
230
1.0
  2
SOLID
 70
     1
 71
     1
 91
        1
 92
        7
 72
     0
 73
     1
 93
        4
 10
455.4758244
 20
166.86080886
 10
455.4758244
 20
175.94732552
 10
459.94365773
 20
175.94732552
 10
459.94365773
 20
166.86080886
 97
        1
330
4B2
 75
     0
 76
     2
 47
0.775229
 98
        1
 10
0.0
 20
0.0
  0
LWPOLYLINE
  5
4B4
102
{ACAD_REACTORS
330
4B5
102
}
100
AcDbEntity
  8
MST_1_1
 62
    12
100
AcDbPolyline
 90
      114
 70
     1
 43
0.0
 10
467.69299107
 20
168.92192552
 10
467.65863707
 20
168.97674387
 10
467.62607907
 20
169.02929432
 10
467.59532307
 20
169.07959997
 10
467.56637507
 20
169.12768392
 10
467.53924107
 20
169.17356927
 10
467.51392707
 20
169.21727912
 10
467.49043907
 20
169.25883657
 10
467.46878307
 20
169.29826472
 10
467.44896507
 20
169.33558667
 10
467.43099107
 20
169.37082552
 10
467.43099107
 20
169.37082552
 10
467.4136884
 20
169.40477669
 10
467.39736973
 20
169.43798686
 10
467.38201907
 20
169.47046602
 10
467.3676204
 20
169.50222419
 10
467.35415773
 20
169.53327136
 10
467.34161507
 20
169.56361752
 10
467.3299764
 20
169.59327269
 10
467.31922573
 20
169.62224686
 10
467.30934707
 20
169.65055002
 10
467.3003244
 20
169.67819219
 10
467.3003244
 20
169.67819219
 10
467.29266007
 20
169.65198821
 10
467.28422973
 20
169.62522432
 10
467.2749774
 20
169.59789764
 10
467.26484707
 20
169.57000526
 10
467.25378273
 20
169.54154427
 10
467.2417284
 20
169.51251179
 10
467.22862807
 20
169.48290491
 10
467.21442573
 20
169.45272072
 10
467.1990654
 20
169.42195634
 10
467.18249107
 20
169.39060886
 10
467.18249107
 20
169.39060886
 10
467.16515473
 20
169.35720287
 10
467.1451604
 20
169.32076499
 10
467.12253007
 20
169.28131031
 10
467.09728573
 20
169.23885392
 10
467.0694494
 20
169.19341094
 10
467.03904307
 20
169.14499646
 10
467.00608873
 20
169.09362557
 10
466.9706084
 20
169.03931339
 10
466.93262407
 20
168.98207501
 10
466.89215773
 20
168.92192552
 10
466.89215773
 20
168.92192552
 10
465.50249107
 20
166.86080886
 10
465.50249107
 20
166.86080886
 10
460.4748244
 20
166.86080886
 10
460.4748244
 20
166.86080886
 10
464.81765773
 20
171.70082552
 10
464.81765773
 20
171.70082552
 10
460.98565773
 20
175.94732552
 10
460.98565773
 20
175.94732552
 10
466.00515773
 20
175.94732552
 10
466.00515773
 20
175.94732552
 10
466.90849107
 20
174.46424219
 10
466.90849107
 20
174.46424219
 10
466.91131707
 20
174.45872911
 10
466.91467907
 20
174.45263152
 10
466.91855307
 20
174.44595194
 10
466.92291507
 20
174.43869286
 10
466.92774107
 20
174.43085677
 10
466.93300707
 20
174.42244619
 10
466.93868907
 20
174.41346361
 10
466.94476307
 20
174.40391152
 10
466.95120507
 20
174.39379244
 10
466.95799107
 20
174.38310886
 10
466.95799107
 20
174.38310886
 10
467.0067264
 20
174.30045594
 10
467.05223373
 20
174.22120752
 10
467.09451507
 20
174.14537911
 10
467.1335724
 20
174.07298619
 10
467.16940773
 20
174.00404427
 10
467.20202307
 20
173.93856886
 10
467.2314204
 20
173.87657544
 10
467.25760173
 20
173.81807952
 10
467.28056907
 20
173.76309661
 10
467.3003244
 20
173.71164219
 10
467.3003244
 20
173.71164219
 10
467.31243807
 20
173.74428549
 10
467.32509373
 20
173.77703459
 10
467.3383134
 20
173.80990329
 10
467.35211907
 20
173.84290539
 10
467.36653273
 20
173.87605469
 10
467.3815764
 20
173.90936499
 10
467.39727207
 20
173.94285009
 10
467.41364173
 20
173.97652379
 10
467.4307074
 20
174.01039989
 10
467.44849107
 20
174.04449219
 10
467.44849107
 20
174.04449219
 10
467.4657774
 20
174.07957454
 10
467.48440173
 20
174.11621499
 10
467.50431207
 20
174.15440364
 10
467.5254564
 20
174.19413059
 10
467.54778273
 20
174.23538594
 10
467.57123907
 20
174.27815979
 10
467.5957734
 20
174.32244224
 10
467.62133373
 20
174.36822339
 10
467.64786807
 20
174.41549334
 10
467.6753244
 20
174.46424219
 10
467.6753244
 20
174.46424219
 10
468.6028244
 20
175.94732552
 10
468.6028244
 20
175.94732552
 10
473.59949107
 20
175.94732552
 10
473.59949107
 20
175.94732552
 10
469.78015773
 20
171.70082552
 10
469.78015773
 20
171.70082552
 10
474.1278244
 20
166.86080886
 10
474.1278244
 20
166.86080886
 10
469.09565773
 20
166.86080886
 10
469.09565773
 20
166.86080886
 10
467.69299107
 20
168.92192552
 10
467.69299107
 20
168.92192552
 10
467.69299107
 20
168.92192552
  0
HATCH
  5
4B5
100
AcDbEntity
  8
MST_1_1
 62
    12
100
AcDbHatch
 10
0.0
 20
0.0
 30
0.0
210
0.0
220
0.0
230
1.0
  2
SOLID
 70
     1
 71
     1
 91
        1
 92
        7
 72
     0
 73
     1
 93
       92
 10
467.69299107
 20
168.92192552
 10
467.65863707
 20
168.97674387
 10
467.62607907
 20
169.02929432
 10
467.59532307
 20
169.07959997
 10
467.56637507
 20
169.12768392
 10
467.53924107
 20
169.17356927
 10
467.51392707
 20
169.21727912
 10
467.49043907
 20
169.25883657
 10
467.46878307
 20
169.29826472
 10
467.44896507
 20
169.33558667
 10
467.43099107
 20
169.37082552
 10
467.4136884
 20
169.40477669
 10
467.39736973
 20
169.43798686
 10
467.38201907
 20
169.47046602
 10
467.3676204
 20
169.50222419
 10
467.35415773
 20
169.53327136
 10
467.34161507
 20
169.56361752
 10
467.3299764
 20
169.59327269
 10
467.31922573
 20
169.62224686
 10
467.30934707
 20
169.65055002
 10
467.3003244
 20
169.67819219
 10
467.29266007
 20
169.65198821
 10
467.28422973
 20
169.62522432
 10
467.2749774
 20
169.59789764
 10
467.26484707
 20
169.57000526
 10
467.25378273
 20
169.54154427
 10
467.2417284
 20
169.51251179
 10
467.22862807
 20
169.48290491
 10
467.21442573
 20
169.45272072
 10
467.1990654
 20
169.42195634
 10
467.18249107
 20
169.39060886
 10
467.16515473
 20
169.35720287
 10
467.1451604
 20
169.32076499
 10
467.12253007
 20
169.28131031
 10
467.09728573
 20
169.23885392
 10
467.0694494
 20
169.19341094
 10
467.03904307
 20
169.14499646
 10
467.00608873
 20
169.09362557
 10
466.9706084
 20
169.03931339
 10
466.93262407
 20
168.98207501
 10
466.89215773
 20
168.92192552
 10
465.50249107
 20
166.86080886
 10
460.4748244
 20
166.86080886
 10
464.81765773
 20
171.70082552
 10
460.98565773
 20
175.94732552
 10
466.00515773
 20
175.94732552
 10
466.90849107
 20
174.46424219
 10
466.91131707
 20
174.45872911
 10
466.91467907
 20
174.45263152
 10
466.91855307
 20
174.44595194
 10
466.92291507
 20
174.43869286
 10
466.92774107
 20
174.43085677
 10
466.93300707
 20
174.42244619
 10
466.93868907
 20
174.41346361
 10
466.94476307
 20
174.40391152
 10
466.95120507
 20
174.39379244
 10
466.95799107
 20
174.38310886
 10
467.0067264
 20
174.30045594
 10
467.05223373
 20
174.22120752
 10
467.09451507
 20
174.14537911
 10
467.1335724
 20
174.07298619
 10
467.16940773
 20
174.00404427
 10
467.20202307
 20
173.93856886
 10
467.2314204
 20
173.87657544
 10
467.25760173
 20
173.81807952
 10
467.28056907
 20
173.76309661
 10
467.3003244
 20
173.71164219
 10
467.31243807
 20
173.74428549
 10
467.32509373
 20
173.77703459
 10
467.3383134
 20
173.80990329
 10
467.35211907
 20
173.84290539
 10
467.36653273
 20
173.87605469
 10
467.3815764
 20
173.90936499
 10
467.39727207
 20
173.94285009
 10
467.41364173
 20
173.97652379
 10
467.4307074
 20
174.01039989
 10
467.44849107
 20
174.04449219
 10
467.4657774
 20
174.07957454
 10
467.48440173
 20
174.11621499
 10
467.50431207
 20
174.15440364
 10
467.5254564
 20
174.19413059
 10
467.54778273
 20
174.23538594
 10
467.57123907
 20
174.27815979
 10
467.5957734
 20
174.32244224
 10
467.62133373
 20
174.36822339
 10
467.64786807
 20
174.41549334
 10
467.6753244
 20
174.46424219
 10
468.6028244
 20
175.94732552
 10
473.59949107
 20
175.94732552
 10
469.78015773
 20
171.70082552
 10
474.1278244
 20
166.86080886
 10
469.09565773
 20
166.86080886
 97
        1
330
4B4
 75
     0
 76
     2
 47
0.775229
 98
        1
 10
0.0
 20
0.0
  0
LWPOLYLINE
  5
4B6
102
{ACAD_REACTORS
330
4B7
102
}
100
AcDbEntity
  8
MST_1_1
 62
     7
100
AcDbPolyline
 90
       46
 70
     1
 43
0.0
 10
478.44299107
 20
182.07337552
 10
478.55552157
 20
182.06426202
 10
478.66243507
 20
182.03788752
 10
478.76226457
 20
181.99570102
 10
478.85354307
 20
181.93915152
 10
478.93480357
 20
181.86968802
 10
479.00457907
 20
181.78875952
 10
479.06140257
 20
181.69781502
 10
479.10380707
 20
181.59830352
 10
479.13032557
 20
181.49167402
 10
479.13949107
 20
181.37937552
 10
479.13949107
 20
181.37937552
 10
479.13032557
 20
181.26722186
 10
479.10380707
 20
181.16072619
 10
479.06140257
 20
181.06133652
 10
479.00457907
 20
180.97050086
 10
478.93480357
 20
180.88966719
 10
478.85354307
 20
180.82028352
 10
478.76226457
 20
180.76379786
 10
478.66243507
 20
180.72165819
 10
478.55552157
 20
180.69531252
 10
478.44299107
 20
180.68620886
 10
478.44299107
 20
180.68620886
 10
478.32987023
 20
180.69531252
 10
478.2225644
 20
180.72165819
 10
478.12250857
 20
180.76379786
 10
478.03113773
 20
180.82028352
 10
477.9498869
 20
180.88966719
 10
477.88019107
 20
180.97050086
 10
477.82348523
 20
181.06133652
 10
477.7812044
 20
181.16072619
 10
477.75478357
 20
181.26722186
 10
477.74565773
 20
181.37937552
 10
477.74565773
 20
181.37937552
 10
477.75478357
 20
181.49167402
 10
477.7812044
 20
181.59830352
 10
477.82348523
 20
181.69781502
 10
477.88019107
 20
181.78875952
 10
477.9498869
 20
181.86968802
 10
478.03113773
 20
181.93915152
 10
478.12250857
 20
181.99570102
 10
478.2225644
 20
182.03788752
 10
478.32987023
 20
182.06426202
 10
478.44299107
 20
182.07337552
 10
478.44299107
 20
182.07337552
 10
478.44299107
 20
182.07337552
  0
HATCH
  5
4B7
100
AcDbEntity
  8
MST_1_1
 62
     7
100
AcDbHatch
 10
0.0
 20
0.0
 30
0.0
210
0.0
220
0.0
230
1.0
  2
SOLID
 70
     1
 71
     1
 91
        1
 92
        7
 72
     0
 73
     1
 93
       40
 10
478.44299107
 20
182.07337552
 10
478.55552157
 20
182.06426202
 10
478.66243507
 20
182.03788752
 10
478.76226457
 20
181.99570102
 10
478.85354307
 20
181.93915152
 10
478.93480357
 20
181.86968802
 10
479.00457907
 20
181.78875952
 10
479.06140257
 20
181.69781502
 10
479.10380707
 20
181.59830352
 10
479.13032557
 20
181.49167402
 10
479.13949107
 20
181.37937552
 10
479.13032557
 20
181.26722186
 10
479.10380707
 20
181.16072619
 10
479.06140257
 20
181.06133652
 10
479.00457907
 20
180.97050086
 10
478.93480357
 20
180.88966719
 10
478.85354307
 20
180.82028352
 10
478.76226457
 20
180.76379786
 10
478.66243507
 20
180.72165819
 10
478.55552157
 20
180.69531252
 10
478.44299107
 20
180.68620886
 10
478.32987023
 20
180.69531252
 10
478.2225644
 20
180.72165819
 10
478.12250857
 20
180.76379786
 10
478.03113773
 20
180.82028352
 10
477.9498869
 20
180.88966719
 10
477.88019107
 20
180.97050086
 10
477.82348523
 20
181.06133652
 10
477.7812044
 20
181.16072619
 10
477.75478357
 20
181.26722186
 10
477.74565773
 20
181.37937552
 10
477.75478357
 20
181.49167402
 10
477.7812044
 20
181.59830352
 10
477.82348523
 20
181.69781502
 10
477.88019107
 20
181.78875952
 10
477.9498869
 20
181.86968802
 10
478.03113773
 20
181.93915152
 10
478.12250857
 20
181.99570102
 10
478.2225644
 20
182.03788752
 10
478.32987023
 20
182.06426202
 97
        1
330
4B6
 75
     0
 76
     2
 47
0.775229
 98
        1
 10
0.0
 20
0.0
  0
LWPOLYLINE
  5
4B8
102
{ACAD_REACTORS
330
4B9
102
}
100
AcDbEntity
  8
MST_1_1
 62
    12
100
AcDbPolyline
 90
       29
 70
     1
 43
0.0
 10
478.1233244
 20
181.86137552
 10
478.1233244
 20
180.95470886
 10
478.1233244
 20
180.95470886
 10
478.25749107
 20
180.95470886
 10
478.25749107
 20
180.95470886
 10
478.25749107
 20
181.36170886
 10
478.25749107
 20
181.36170886
 10
478.4358244
 20
181.36170886
 10
478.4358244
 20
181.36170886
 10
478.69515773
 20
180.96070886
 10
478.69515773
 20
180.96070886
 10
478.8313244
 20
180.96070886
 10
478.8313244
 20
180.96070886
 10
478.57249107
 20
181.36904219
 10
478.57249107
 20
181.36904219
 10
478.66107807
 20
181.38746386
 10
478.73074707
 20
181.42761552
 10
478.78121007
 20
181.48392719
 10
478.81217907
 20
181.55082886
 10
478.82336607
 20
181.62275052
 10
478.81448307
 20
181.69412219
 10
478.78524207
 20
181.75937386
 10
478.73535507
 20
181.81293552
 10
478.66453407
 20
181.84923719
 10
478.57249107
 20
181.86270886
 10
478.57249107
 20
181.86270886
 10
478.1233244
 20
181.86137552
 10
478.1233244
 20
181.86137552
 10
478.1233244
 20
181.86137552
  0
HATCH
  5
4B9
100
AcDbEntity
  8
MST_1_1
 62
    12
100
AcDbHatch
 10
0.0
 20
0.0
 30
0.0
210
0.0
220
0.0
230
1.0
  2
SOLID
 70
     1
 71
     1
 91
        1
 92
        7
 72
     0
 73
     1
 93
       18
 10
478.1233244
 20
181.86137552
 10
478.1233244
 20
180.95470886
 10
478.25749107
 20
180.95470886
 10
478.25749107
 20
181.36170886
 10
478.4358244
 20
181.36170886
 10
478.69515773
 20
180.96070886
 10
478.8313244
 20
180.96070886
 10
478.57249107
 20
181.36904219
 10
478.66107807
 20
181.38746386
 10
478.73074707
 20
181.42761552
 10
478.78121007
 20
181.48392719
 10
478.81217907
 20
181.55082886
 10
478.82336607
 20
181.62275052
 10
478.81448307
 20
181.69412219
 10
478.78524207
 20
181.75937386
 10
478.73535507
 20
181.81293552
 10
478.66453407
 20
181.84923719
 10
478.57249107
 20
181.86270886
 97
        1
330
4B8
 75
     0
 76
     2
 47
0.775229
 98
        1
 10
0.0
 20
0.0
  0
LWPOLYLINE
  5
4BA
102
{ACAD_REACTORS
330
4BB
102
}
100
AcDbEntity
  8
MST_1_1
 62
     7
100
AcDbPolyline
 90
       19
 70
     1
 43
0.0
 10
478.25749107
 20
181.75820886
 10
478.25749107
 20
181.46754219
 10
478.25749107
 20
181.46754219
 10
478.5588244
 20
181.46837552
 10
478.5588244
 20
181.46837552
 10
478.6118029
 20
181.48022586
 10
478.6532724
 20
181.50459819
 10
478.6831339
 20
181.53822452
 10
478.7012884
 20
181.57783686
 10
478.7076369
 20
181.62016719
 10
478.7020804
 20
181.66194752
 10
478.6845199
 20
181.69990986
 10
478.6548564
 20
181.73078619
 10
478.6129909
 20
181.75130852
 10
478.5588244
 20
181.75820886
 10
478.5588244
 20
181.75820886
 10
478.25749107
 20
181.75820886
 10
478.25749107
 20
181.75820886
 10
478.25749107
 20
181.75820886
  0
HATCH
  5
4BB
100
AcDbEntity
  8
MST_1_1
 62
     7
100
AcDbHatch
 10
0.0
 20
0.0
 30
0.0
210
0.0
220
0.0
230
1.0
  2
SOLID
 70
     1
 71
     1
 91
        1
 92
        7
 72
     0
 73
     1
 93
       13
 10
478.25749107
 20
181.75820886
 10
478.25749107
 20
181.46754219
 10
478.5588244
 20
181.46837552
 10
478.6118029
 20
181.48022586
 10
478.6532724
 20
181.50459819
 10
478.6831339
 20
181.53822452
 10
478.7012884
 20
181.57783686
 10
478.7076369
 20
181.62016719
 10
478.7020804
 20
181.66194752
 10
478.6845199
 20
181.69990986
 10
478.6548564
 20
181.73078619
 10
478.6129909
 20
181.75130852
 10
478.5588244
 20
181.75820886
 97
        1
330
4BA
 75
     0
 76
     2
 47
0.775229
 98
        1
 10
0.0
 20
0.0
  0
TEXT
  5
4BC
100
AcDbEntity
  8
MST_1_1
 62
     7
100
AcDbText
 10
52.93749597
 20
28.54545025
 30
0.0
 40
5.0
  1
50
  7
ARIAL
 50
89.9999975
 41
0.8
 51
0.0
100
AcDbText
  0
TEXT
  5
4BD
100
AcDbEntity
  8
MST_1_1
 62
     7
100
AcDbText
 10
42.93749597
 20
28.54545025
 30
0.0
 40
5.0
  1
40
  7
ARIAL
 50
89.9999975
 41
0.8
 51
0.0
100
AcDbText
  0
TEXT
  5
4BE
100
AcDbEntity
  8
MST_1_1
 62
     7
100
AcDbText
 10
37.93749597
 20
18.54545025
 30
0.0
 40
5.0
  1
35
  7
ARIAL
 50
89.9999975
 41
0.8
 51
0.0
100
AcDbText
  0
TEXT
  5
4BF
100
AcDbEntity
  8
MST_1_1
 62
     7
100
AcDbText
 10
32.93749597
 20
28.54545025
 30
0.0
 40
5.0
  1
30
  7
ARIAL
 50
89.9999975
 41
0.8
 51
0.0
100
AcDbText
  0
TEXT
  5
4C0
100
AcDbEntity
  8
MST_1_1
 62
     7
100
AcDbText
 10
22.93749597
 20
28.54545025
 30
0.0
 40
5.0
  1
20
  7
ARIAL
 50
89.9999975
 41
0.8
 51
0.0
100
AcDbText
  0
TEXT
  5
4C1
100
AcDbEntity
  8
MST_1_1
 62
     7
100
AcDbText
 10
27.93749597
 20
18.54545025
 30
0.0
 40
5.0
  1
25
  7
ARIAL
 50
89.9999975
 41
0.8
 51
0.0
100
AcDbText
  0
TEXT
  5
4C2
100
AcDbEntity
  8
MST_1_1
 62
     7
100
AcDbText
 10
18.93749597
 20
18.54545025
 30
0.0
 40
5.0
  1
16
  7
ARIAL
 50
89.9999975
 41
0.8
 51
0.0
100
AcDbText
  0
TEXT
  5
4C3
100
AcDbEntity
  8
MST_1_1
 62
     7
100
AcDbText
 10
-79.57395243
 20
6.04545025
 30
0.0
 40
5.0
  1
HECO-FIX-plus LSK 4.5x16
  7
ARIAL
 50
0.0
 41
0.8
 51
0.0
100
AcDbText
  0
TEXT
  5
4C4
100
AcDbEntity
  8
MST_1_1
 62
     7
100
AcDbText
 10
-79.57395243
 20
-23.95454975
 30
0.0
 40
5.0
  1
HECO-FIX-plus LSK 4.5x20
  7
ARIAL
 50
0.0
 41
0.8
 51
0.0
100
AcDbText
  0
TEXT
  5
4C5
100
AcDbEntity
  8
MST_1_1
 62
     7
100
AcDbText
 10
-79.57395243
 20
-53.95454975
 30
0.0
 40
5.0
  1
HECO-FIX-plus LSK 4.5x25
  7
ARIAL
 50
0.0
 41
0.8
 51
0.0
100
AcDbText
  0
TEXT
  5
4C6
100
AcDbEntity
  8
MST_1_1
 62
     7
100
AcDbText
 10
-79.57395243
 20
-83.95454975
 30
0.0
 40
5.0
  1
HECO-FIX-plus LSK 4.5x30
  7
ARIAL
 50
0.0
 41
0.8
 51
0.0
100
AcDbText
  0
TEXT
  5
4C7
100
AcDbEntity
  8
MST_1_1
 62
     7
100
AcDbText
 10
-79.57395243
 20
-113.95454975
 30
0.0
 40
5.0
  1
HECO-FIX-plus LSK 4.5x35
  7
ARIAL
 50
0.0
 41
0.8
 51
0.0
100
AcDbText
  0
TEXT
  5
4C8
100
AcDbEntity
  8
MST_1_1
 62
     7
100
AcDbText
 10
-79.57395243
 20
-143.95454975
 30
0.0
 40
5.0
  1
HECO-FIX-plus LSK 4.5x40
  7
ARIAL
 50
0.0
 41
0.8
 51
0.0
100
AcDbText
  0
TEXT
  5
4C9
100
AcDbEntity
  8
MST_1_1
 62
     7
100
AcDbText
 10
-79.57395243
 20
-173.95454975
 30
0.0
 40
5.0
  1
HECO-FIX-plus LSK 4.5x45
  7
ARIAL
 50
0.0
 41
0.8
 51
0.0
100
AcDbText
  0
TEXT
  5
4CA
100
AcDbEntity
  8
MST_1_1
 62
     7
100
AcDbText
 10
47.93749597
 20
18.54545025
 30
0.0
 40
5.0
  1
45
  7
ARIAL
 50
89.9999975
 41
0.8
 51
0.0
100
AcDbText
  0
TEXT
  5
4CB
100
AcDbEntity
  8
MST_1_1
 62
     7
100
AcDbText
 10
-79.57395243
 20
-203.95454975
 30
0.0
 40
5.0
  1
HECO-FIX-plus LSK 4.5x50
  7
ARIAL
 50
0.0
 41
0.8
 51
0.0
100
AcDbText
  0
TEXT
  5
4CC
100
AcDbEntity
  8
MST_1_1
 62
     7
100
AcDbText
 10
57.93749597
 20
18.54545025
 30
0.0
 40
5.0
  1
55
  7
ARIAL
 50
89.9999975
 41
0.8
 51
0.0
100
AcDbText
  0
TEXT
  5
4CD
100
AcDbEntity
  8
MST_1_1
 62
     7
100
AcDbText
 10
62.93749597
 20
28.54545025
 30
0.0
 40
5.0
  1
60
  7
ARIAL
 50
89.9999975
 41
0.8
 51
0.0
100
AcDbText
  0
TEXT
  5
4CE
100
AcDbEntity
  8
MST_1_1
 62
     7
100
AcDbText
 10
-79.57395243
 20
-233.95454975
 30
0.0
 40
5.0
  1
HECO-FIX-plus LSK 4.5x55
  7
ARIAL
 50
0.0
 41
0.8
 51
0.0
100
AcDbText
  0
TEXT
  5
4CF
100
AcDbEntity
  8
MST_1_1
 62
     7
100
AcDbText
 10
-79.57395243
 20
-263.95454975
 30
0.0
 40
5.0
  1
HECO-FIX-plus LSK 4.5x60
  7
ARIAL
 50
0.0
 41
0.8
 51
0.0
100
AcDbText
  0
TEXT
  5
4D0
100
AcDbEntity
  8
MST_1_1
 62
     7
100
AcDbText
 10
-133.10921016
 20
6.04545025
 30
0.0
 40
5.0
  1
T-Drive T25
  7
ARIAL
 50
0.0
 41
0.8
 51
0.0
100
AcDbText
  0
TEXT
  5
4D1
100
AcDbEntity
  8
MST_1_1
 62
     7
100
AcDbText
 10
-133.10921016
 20
-23.95454975
 30
0.0
 40
5.0
  1
T-Drive T25
  7
ARIAL
 50
0.0
 41
0.8
 51
0.0
100
AcDbText
  0
TEXT
  5
4D2
100
AcDbEntity
  8
MST_1_1
 62
     7
100
AcDbText
 10
-133.10921016
 20
-53.95454975
 30
0.0
 40
5.0
  1
T-Drive T25
  7
ARIAL
 50
0.0
 41
0.8
 51
0.0
100
AcDbText
  0
TEXT
  5
4D3
100
AcDbEntity
  8
MST_1_1
 62
     7
100
AcDbText
 10
-133.10921016
 20
-83.95454975
 30
0.0
 40
5.0
  1
T-Drive T25
  7
ARIAL
 50
0.0
 41
0.8
 51
0.0
100
AcDbText
  0
TEXT
  5
4D4
100
AcDbEntity
  8
MST_1_1
 62
     7
100
AcDbText
 10
-133.10921016
 20
-113.95454975
 30
0.0
 40
5.0
  1
T-Drive T25
  7
ARIAL
 50
0.0
 41
0.8
 51
0.0
100
AcDbText
  0
TEXT
  5
4D5
100
AcDbEntity
  8
MST_1_1
 62
     7
100
AcDbText
 10
-133.10921016
 20
-143.95454975
 30
0.0
 40
5.0
  1
T-Drive T25
  7
ARIAL
 50
0.0
 41
0.8
 51
0.0
100
AcDbText
  0
TEXT
  5
4D6
100
AcDbEntity
  8
MST_1_1
 62
     7
100
AcDbText
 10
-133.10921016
 20
-173.95454975
 30
0.0
 40
5.0
  1
T-Drive T25
  7
ARIAL
 50
0.0
 41
0.8
 51
0.0
100
AcDbText
  0
TEXT
  5
4D7
100
AcDbEntity
  8
MST_1_1
 62
     7
100
AcDbText
 10
-133.10921016
 20
-203.95454975
 30
0.0
 40
5.0
  1
T-Drive T25
  7
ARIAL
 50
0.0
 41
0.8
 51
0.0
100
AcDbText
  0
TEXT
  5
4D8
100
AcDbEntity
  8
MST_1_1
 62
     7
100
AcDbText
 10
-133.10921016
 20
-233.95454975
 30
0.0
 40
5.0
  1
T-Drive T25
  7
ARIAL
 50
0.0
 41
0.8
 51
0.0
100
AcDbText
  0
TEXT
  5
4D9
100
AcDbEntity
  8
MST_1_1
 62
     7
100
AcDbText
 10
-133.10921016
 20
-263.95454975
 30
0.0
 40
5.0
  1
T-Drive T25
  7
ARIAL
 50
0.0
 41
0.8
 51
0.0
100
AcDbText
  0
ENDSEC
  0
SECTION
  2
OBJECTS
  0
DICTIONARY
  5
1
100
AcDbDictionary
  3
ACAD_GROUP
350
2
  3
ACAD_MLINESTYLE
350
3
  0
DICTIONARY
  5
2
102
{CDWK_REACTORS
330
1
102
}
100
AcDbDictionary
  0
DICTIONARY
  5
3
102
{CDWK_REACTORS
330
1
102
}
100
AcDbDictionary
  3
STANDARD
350
4
  0
MLINESTYLE
  5
4
102
{CDWK_REACTORS
330
3
102
}
100
AcDbMlineStyle
  2
STANDARD
 70
     0
  3

 62
     0
 51
90.0
 52
90.0
 71
     2
 49
0.5
 62
   256
  6
BYLAYER
 49
-0.5
 62
   256
  6
BYLAYER
  0
ENDSEC
  0
EOF
