  0
SECTION
  2
HEADER
  9
$ACADVER
  1
AC1012
  9
$DWGCODEPAGE
  3
ANSI_1252
  9
$INSBASE
 10
0.0
 20
0.0
 30
0.0
  9
$EXTMIN
 10
-153.71829007
 20
-232.56114158
  9
$EXTMAX
 10
433.7753236
 20
194.50986171
  9
$LIMMIN
 10
-153.71829007
 20
-232.56114158
  9
$LIMMAX
 10
433.7753236
 20
194.50986171
  9
$ORTHOMODE
 70
     0
  9
$REGENMODE
 70
     1
  9
$FILLMODE
 70
     1
  9
$QTEXTMODE
 70
     0
  9
$MIRRTEXT
 70
     1
  9
$DRAGMODE
 70
     2
  9
$LTSCALE
 40
1.0
  9
$OSMODE
 70
     0
  9
$ATTMODE
 70
     1
  9
$TEXTSIZE
 40
3.5
  9
$TRACEWID
 40
1.0
  9
$TEXTSTYLE
  7
STANDARD
  9
$CLAYER
  8
0
  9
$CELTYPE
  6
BYLAYER
  9
$CECOLOR
 62
   256
  9
$DIMSCALE
 40
1.0
  9
$DIMASZ
 40
2.0
  9
$DIMEXO
 40
5.0
  9
$DIMDLI
 40
10.0
  9
$DIMRND
 40
0.0
  9
$DIMDLE
 40
2.0
  9
$DIMEXE
 40
2.0
  9
$DIMTP
 40
0.0
  9
$DIMTM
 40
0.0
  9
$DIMTXT
 40
2.5
  9
$DIMCEN
 40
1.5
  9
$DIMTSZ
 40
0.0
  9
$DIMTOL
 70
     0
  9
$DIMLIM
 70
     0
  9
$DIMTIH
 70
     1
  9
$DIMTOH
 70
     0
  9
$DIMSE1
 70
     0
  9
$DIMSE2
 70
     0
  9
$DIMTAD
 70
     1
  9
$DIMZIN
 70
     8
  9
$DIMBLK
  1

  9
$DIMASO
 70
     1
  9
$DIMSHO
 70
     1
  9
$DIMPOST
  1

  9
$DIMAPOST
  1

  9
$DIMALT
 70
     0
  9
$DIMALTD
 70
     2
  9
$DIMALTF
 40
25.4
  9
$DIMLFAC
 40
1.0
  9
$DIMTOFL
 70
     0
  9
$DIMTVP
 40
0.0
  9
$DIMTIX
 70
     0
  9
$DIMSOXD
 70
     0
  9
$DIMSAH
 70
     0
  9
$DIMBLK1
  1

  9
$DIMBLK2
  1

  9
$DIMSTYLE
  2
*UNNAMED
  9
$DIMCLRD
 70
     9
  9
$DIMCLRE
 70
     9
  9
$DIMCLRT
 70
     7
  9
$DIMTFAC
 40
1.0
  9
$DIMGAP
 40
0.09
  9
$DIMUNIT
 70
     2
  9
$LUNITS
 70
     2
  9
$LUPREC
 70
     6
  9
$AXISMODE
 70
     0
  9
$AXISUNIT
 10
0.0
 20
0.0
  9
$SKETCHINC
 40
0.1
  9
$FILLETRAD
 40
0.0
  9
$AUNITS
 70
     0
  9
$AUPREC
 70
     0
  9
$MENU
  1
ACAD
  9
$ELEVATION
 40
0.0
  9
$PELEVATION
 40
0.0
  9
$THICKNESS
 40
0.0
  9
$LIMCHECK
 70
     0
  9
$BLIPMODE
 70
     1
  9
$CHAMFERA
 40
0.0
  9
$CHAMFERB
 40
0.0
  9
$SKPOLY
 70
     1
  9
$TDCREATE
 40
2456119.0000000000
  9
$TDUPDATE
 40
2456119.0000000000
  9
$TDINDWG
 40
0.0
  9
$TDUSRTIMER
 40
0.0
  9
$USRTIMER
 70
     1
  9
$ANGBASE
 50
0.0
  9
$ANGDIR
 70
     0
  9
$PDMODE
 70
     0
  9
$PDSIZE
 40
0.0
  9
$PLINEWID
 40
0.0
  9
$COORDS
 70
     2
  9
$SPLFRAME
 70
     0
  9
$SPLINETYPE
 70
     6
  9
$SPLINESEGS
 70
     8
  9
$ATTDIA
 70
     1
  9
$ATTREQ
 70
     1
  9
$HANDLING
 70
     1
  9
$HANDSEED
  5
     378
  9
$SURFTAB1
 70
     6
  9
$SURFTAB2
 70
     6
  9
$SURFTYPE
 70
     6
  9
$SURFU
 70
     6
  9
$SURFV
 70
     6
  9
$UCSNAME
  2

  9
$UCSORG
 10
0.0
 20
0.0
 30
0.0
  9
$UCSXDIR
 10
1.0
 20
0.0
 30
0.0
  9
$UCSYDIR
 10
0.0
 20
1.0
 30
0.0
  9
$PUCSNAME
  2

  9
$PUCSORG
 10
0.0
 20
0.0
 30
0.0
  9
$PUCSXDIR
 10
1.0
 20
0.0
 30
0.0
  9
$PUCSYDIR
 10
0.0
 20
1.0
 30
0.0
  9
$USERI1
 70
     0
  9
$USERI2
 70
     0
  9
$USERI3
 70
     0
  9
$USERI4
 70
     0
  9
$USERI5
 70
     0
  9
$USERR1
 40
0.0
  9
$USERR2
 40
0.0
  9
$USERR3
 40
0.0
  9
$USERR4
 40
0.0
  9
$USERR5
 40
0.0
  9
$WORLDVIEW
 70
     1
  9
$SHADEDGE
 70
     3
  9
$SHADEDIF
 70
    70
  9
$TILEMODE
 70
     1
  9
$MAXACTVP
 70
    16
  9
$PINSBASE
 10
0.0
 20
0.0
 30
0.0
  9
$PLIMCHECK
 70
     0
  9
$PEXTMIN
 10
1.0000000000000E+20
 20
1.0000000000000E+20
 30
1.0000000000000E+20
  9
$PEXTMAX
 10
-1.0000000000000E+20
 20
-1.0000000000000E+20
 30
-1.0000000000000E+20
  9
$PLIMMIN
 10
0.0
 20
0.0
  9
$UNITMODE
 70
     0
  9
$VISRETAIN
 70
     0
  9
$MEASUREMENT
 70
     1
  0
ENDSEC
  0
SECTION
  2
TABLES
  0
TABLE
  2
VPORT
  5
36
100
AcDbSymbolTable
 70
     1
  0
ENDTAB
  0
TABLE
  2
STYLE
  5
37
100
AcDbSymbolTable
 70
     4
  0
STYLE
  5
38
100
AcDbSymbolTableRecord
100
AcDbTextStyleTableRecord
  2
STANDARD
 70
     0
 40
0.0
 41
1.0
 50
0.0
 71
     0
 42
3.5
  3
MONOTXT
  4

  0
STYLE
  5
39
100
AcDbSymbolTableRecord
100
AcDbTextStyleTableRecord
  2
CADWORK1
 70
     0
 40
0.0
 41
1.0
 50
0.0
 71
     0
 42
3.5
  3
MONOTXT
  4

  0
STYLE
  5
3A
100
AcDbSymbolTableRecord
100
AcDbTextStyleTableRecord
  2
MONOTXT
 70
     0
 40
0.0
 41
1.0
 50
0.0
 71
     0
 42
3.5
  3
MONOTXT
  4

  0
STYLE
  5
3B
100
AcDbSymbolTableRecord
100
AcDbTextStyleTableRecord
  2
TAHOMA
 70
     0
 40
0.0
 41
1.0
 50
0.0
 71
     0
 42
3.5
  3

  4

1001
ACAD
1000
Tahoma
1071
        0
  0
STYLE
  5
3C
100
AcDbSymbolTableRecord
100
AcDbTextStyleTableRecord
  2
ARIAL
 70
     0
 40
0.0
 41
1.0
 50
0.0
 71
     0
 42
3.5
  3

  4

1001
ACAD
1000
Arial
1071
        0
  0
ENDTAB
  0
TABLE
  2
LTYPE
  5
3D
100
AcDbSymbolTable
 70
    12
  0
LTYPE
  5
3E
100
AcDbSymbolTableRecord
100
AcDbLinetypeTableRecord
  2
BYBLOCK
 70
    64
  3

 72
    65
 73
     0
 40
0.0
  0
LTYPE
  5
3F
100
AcDbSymbolTableRecord
100
AcDbLinetypeTableRecord
  2
BYLAYER
 70
    64
  3

 72
    65
 73
     0
 40
0.0
  0
LTYPE
  5
40
100
AcDbSymbolTableRecord
100
AcDbLinetypeTableRecord
  2
CONTINUOUS
 70
    64
  3
Solid line
 72
    65
 73
     0
 40
0.0
  0
LTYPE
  5
41
100
AcDbSymbolTableRecord
100
AcDbLinetypeTableRecord
  2
DOT
 70
    64
  3
. . . . . . . . . . . . . . . . . . . . . . . .
 72
    65
 73
     2
 40
2.5
 49
0.0
 74
     0
 49
-2.5
 74
     0
  0
LTYPE
  5
42
100
AcDbSymbolTableRecord
100
AcDbLinetypeTableRecord
  2
DASHED
 70
    64
  3
__ __ __ __ __ __ __ __ __ __ __ __ __ __ __ __
 72
    65
 73
     2
 40
7.5
 49
5.0
 74
     0
 49
-2.5
 74
     0
  0
LTYPE
  5
43
100
AcDbSymbolTableRecord
100
AcDbLinetypeTableRecord
  2
BORDER
 70
    64
  3
 __ __ . __ __ . __ __ . __ __ . __ __ . __ __ .
 72
    65
 73
     6
 40
17.0
 49
5.0
 74
     0
 49
-2.0
 74
     0
 49
5.0
 74
     0
 49
-2.0
 74
     0
 49
1.0
 74
     0
 49
-2.0
 74
     0
  0
LTYPE
  5
44
100
AcDbSymbolTableRecord
100
AcDbLinetypeTableRecord
  2
DAL
 70
    64
  3
Solid line (for MAPS)
 72
    65
 73
     0
 40
0.0
  0
LTYPE
  5
45
100
AcDbSymbolTableRecord
100
AcDbLinetypeTableRecord
  2
MUR
 70
    64
  3
Solid line (for MAPS)
 72
    65
 73
     0
 40
0.0
  0
LTYPE
  5
46
100
AcDbSymbolTableRecord
100
AcDbLinetypeTableRecord
  2
SOM
 70
    64
  3
Solid line (for MAPS)
 72
    65
 73
     0
 40
0.0
  0
LTYPE
  5
47
100
AcDbSymbolTableRecord
100
AcDbLinetypeTableRecord
  2
COL
 70
    64
  3
Solid line (for MAPS)
 72
    65
 73
     0
 40
0.0
  0
LTYPE
  5
48
100
AcDbSymbolTableRecord
100
AcDbLinetypeTableRecord
  2
LGN
 70
    64
  3
Solid line (for MAPS)
 72
    65
 73
     0
 40
0.0
  0
LTYPE
  5
49
100
AcDbSymbolTableRecord
100
AcDbLinetypeTableRecord
  2
PNT
 70
    64
  3
Solid line (for MAPS)
 72
    65
 73
     0
 40
0.0
  0
ENDTAB
  0
TABLE
  2
LAYER
  5
4A
100
AcDbSymbolTable
 70
     1
  0
LAYER
  5
4B
100
AcDbSymbolTableRecord
100
AcDbLayerTableRecord
  2
0
 70
     0
 62
     1
  6
CONTINUOUS
  0
LAYER
  5
4C
100
AcDbSymbolTableRecord
100
AcDbLayerTableRecord
  2
MST_1_1
 70
     0
 62
     7
  6
CONTINUOUS
  0
ENDTAB
  0
TABLE
  2
VIEW
  5
4D
100
AcDbSymbolTable
 70
     0
  0
ENDTAB
  0
TABLE
  2
UCS
  5
4E
100
AcDbSymbolTable
 70
     0
  0
ENDTAB
  0
TABLE
  2
APPID
  5
4F
100
AcDbSymbolTable
 70
     1
  0
APPID
  5
50
100
AcDbSymbolTableRecord
100
AcDbRegAppTableRecord
  2
ACAD
 70
     0
  0
ENDTAB
  0
TABLE
  2
DIMSTYLE
  5
51
100
AcDbSymbolTable
 70
     0
  0
ENDTAB
  0
TABLE
  2
BLOCK_RECORD
  5
52
100
AcDbSymbolTable
 70
     0
  0
BLOCK_RECORD
  5
53
100
AcDbSymbolTableRecord
100
AcDbBlockTableRecord
  2
*MODEL_SPACE
  0
BLOCK_RECORD
  5
54
100
AcDbSymbolTableRecord
100
AcDbBlockTableRecord
  2
*PAPER_SPACE
  0
BLOCK_RECORD
  5
55
100
AcDbSymbolTableRecord
100
AcDbBlockTableRecord
  2
CDWK_EXTR_0
  0
BLOCK_RECORD
  5
56
100
AcDbSymbolTableRecord
100
AcDbBlockTableRecord
  2
CDWK_EXTR_1D
  0
BLOCK_RECORD
  5
57
100
AcDbSymbolTableRecord
100
AcDbBlockTableRecord
  2
CDWK_EXTR_1G
  0
BLOCK_RECORD
  5
58
100
AcDbSymbolTableRecord
100
AcDbBlockTableRecord
  2
CDWK_EXTR_2
  0
BLOCK_RECORD
  5
59
100
AcDbSymbolTableRecord
100
AcDbBlockTableRecord
  2
CDWK_EXTR_3
  0
BLOCK_RECORD
  5
5A
100
AcDbSymbolTableRecord
100
AcDbBlockTableRecord
  2
CDWK_EXTR_4
  0
BLOCK_RECORD
  5
5B
100
AcDbSymbolTableRecord
100
AcDbBlockTableRecord
  2
CDWK_PTTYP0
  0
ENDTAB
  0
ENDSEC
  0
SECTION
  2
BLOCKS
  0
BLOCK
  5
5C
100
AcDbEntity
  8
0
100
AcDbBlockBegin
  2
*MODEL_SPACE
 70
     0
 10
0.0
 20
0.0
 30
0.0
  3
*MODEL_SPACE
  1

  0
ENDBLK
  5
5D
100
AcDbEntity
100
AcDbBlockEnd
  0
BLOCK
  5
5E
100
AcDbEntity
  8
0
100
AcDbBlockBegin
  2
*PAPER_SPACE
 70
     0
 10
0.0
 20
0.0
 30
0.0
  3
*PAPER_SPACE
  1

  0
ENDBLK
  5
5F
100
AcDbEntity
100
AcDbBlockEnd
  0
BLOCK
  5
60
100
AcDbEntity
  8
0
100
AcDbBlockBegin
  2
CDWK_EXTR_0
 70
     0
 10
0.0
 20
0.0
 30
0.0
  3
CDWK_EXTR_0
  1

  4
Cadwork line-extremity
  0
LINE
  5
61
100
AcDbEntity
  8
0
 62
     0
100
AcDbLine
 10
0.0
 20
0.0
 30
0.0
 11
2.0
 21
0.5
 31
0.0
  0
LINE
  5
62
100
AcDbEntity
  8
0
 62
     0
100
AcDbLine
 10
0.0
 20
0.0
 30
0.0
 11
2.0
 21
-0.5
 31
0.0
  0
LINE
  5
63
100
AcDbEntity
  8
0
 62
     0
100
AcDbLine
 10
2.0
 20
0.5
 30
0.0
 11
2.0
 21
-0.5
 31
0.0
  0
ENDBLK
  5
64
100
AcDbEntity
100
AcDbBlockEnd
  0
BLOCK
  5
65
100
AcDbEntity
  8
0
100
AcDbBlockBegin
  2
CDWK_EXTR_1D
 70
     0
 10
0.0
 20
0.0
 30
0.0
  3
CDWK_EXTR_1D
  1

  4
Cadwork line-extremity
  0
LINE
  5
66
100
AcDbEntity
  8
0
 62
     0
100
AcDbLine
 10
0.0
 20
0.0
 30
0.0
 11
0.0
 21
1.0
 31
0.0
  0
LINE
  5
67
100
AcDbEntity
  8
0
 62
     0
100
AcDbLine
 10
0.0
 20
1.0
 30
0.0
 11
0.5
 21
1.5
 31
0.0
  0
LINE
  5
68
100
AcDbEntity
  8
0
 62
     0
100
AcDbLine
 10
0.5
 20
1.5
 30
0.0
 11
1.5
 21
1.5
 31
0.0
  0
ENDBLK
  5
69
100
AcDbEntity
100
AcDbBlockEnd
  0
BLOCK
  5
6A
100
AcDbEntity
  8
0
100
AcDbBlockBegin
  2
CDWK_EXTR_1G
 70
     0
 10
0.0
 20
0.0
 30
0.0
  3
CDWK_EXTR_1G
  1

  4
Cadwork line-extremity
  0
LINE
  5
6B
100
AcDbEntity
  8
0
 62
     0
100
AcDbLine
 10
0.0
 20
0.0
 30
0.0
 11
0.0
 21
-1.0
 31
0.0
  0
LINE
  5
6C
100
AcDbEntity
  8
0
 62
     0
100
AcDbLine
 10
0.0
 20
-1.0
 30
0.0
 11
0.5
 21
-1.5
 31
0.0
  0
LINE
  5
6D
100
AcDbEntity
  8
0
 62
     0
100
AcDbLine
 10
0.5
 20
-1.5
 30
0.0
 11
1.5
 21
-1.5
 31
0.0
  0
ENDBLK
  5
6E
100
AcDbEntity
100
AcDbBlockEnd
  0
BLOCK
  5
6F
100
AcDbEntity
  8
0
100
AcDbBlockBegin
  2
CDWK_EXTR_2
 70
     0
 10
0.0
 20
0.0
 30
0.0
  3
CDWK_EXTR_2
  1

  4
Cadwork line-extremity
  0
SOLID
  5
70
100
AcDbEntity
  8
0
 62
     0
100
AcDbTrace
 10
0.0
 20
0.0
 11
2.0
 21
0.5
 12
2.0
 22
-0.5
 13
2.0
 23
-0.5
  0
ENDBLK
  5
71
100
AcDbEntity
100
AcDbBlockEnd
  0
BLOCK
  5
72
100
AcDbEntity
  8
0
100
AcDbBlockBegin
  2
CDWK_EXTR_3
 70
     0
 10
0.0
 20
0.0
 30
0.0
  3
CDWK_EXTR_3
  1

  4
Cadwork line-extremity
  0
SOLID
  5
73
100
AcDbEntity
  8
0
 62
     0
100
AcDbTrace
 10
0.0
 20
0.0
 11
2.0
 21
0.5
 12
2.0
 22
-0.5
 13
2.0
 23
-0.5
  0
LINE
  5
74
100
AcDbEntity
  8
0
 62
     0
100
AcDbLine
 10
0.0
 20
1.0
 30
0.0
 11
0.0
 21
-1.0
 31
0.0
  0
ENDBLK
  5
75
100
AcDbEntity
100
AcDbBlockEnd
  0
BLOCK
  5
76
100
AcDbEntity
  8
0
100
AcDbBlockBegin
  2
CDWK_EXTR_4
 70
     0
 10
0.0
 20
0.0
 30
0.0
  3
CDWK_EXTR_4
  1

  4
Cadwork line-extremity
  0
POLYLINE
  5
77
100
AcDbEntity
  8
0
 62
     0
100
AcDb2dPolyline
 70
     1
 66
     1
 10
0.0
 20
0.0
 30
0.0
 40
0.5
 41
0.5
  0
VERTEX
  5
78
100
AcDbEntity
  8
0
100
AcDbVertex
100
AcDb2dVertex
 10
-0.25
 20
0.0
 30
0.0
 42
1.0
  0
VERTEX
  5
79
100
AcDbEntity
  8
0
100
AcDbVertex
100
AcDb2dVertex
 10
0.25
 20
0.0
 30
0.0
 42
1.0
  0
SEQEND
  5
7A
100
AcDbEntity
  0
ENDBLK
  5
7B
100
AcDbEntity
100
AcDbBlockEnd
  0
BLOCK
  5
7C
100
AcDbEntity
  8
0
100
AcDbBlockBegin
  2
CDWK_PTTYP0
 70
     0
 10
0.0
 20
0.0
 30
0.0
  3
CDWK_PTTYP0
  1

  4
Cadwork point
  0
POINT
  5
7D
100
AcDbEntity
  8
0
 62
     0
100
AcDbPoint
 10
0.0
 20
0.0
 30
0.0
  0
ENDBLK
  5
7E
100
AcDbEntity
100
AcDbBlockEnd
  0
ENDSEC
  0
SECTION
  2
ENTITIES
  0
LINE
  5
7F
100
AcDbEntity
  8
MST_1_1
 62
     7
  6
DASHED
100
AcDbLine
 10
-2.06250403
 20
28.54545025
 30
0.0
 11
-2.06250403
 21
-186.45454975
 31
0.0
  0
LINE
  5
80
100
AcDbEntity
  8
MST_1_1
 62
     7
  6
DASHED
100
AcDbLine
 10
37.93749597
 20
28.54545025
 30
0.0
 11
37.93749597
 21
-156.45454975
 31
0.0
  0
LINE
  5
81
100
AcDbEntity
  8
MST_1_1
 62
     7
  6
DASHED
100
AcDbLine
 10
32.93749597
 20
18.54545025
 30
0.0
 11
32.93749597
 21
-126.45454975
 31
0.0
  0
LINE
  5
82
100
AcDbEntity
  8
MST_1_1
 62
     7
  6
DASHED
100
AcDbLine
 10
27.93749597
 20
28.54545025
 30
0.0
 11
27.93749597
 21
-96.45454975
 31
0.0
  0
LWPOLYLINE
  5
83
100
AcDbEntity
  8
MST_1_1
 62
     1
  6
BORDER
100
AcDbPolyline
 90
        3
 70
     0
 43
0.0
 10
22.93749597
 20
-51.45454975
 10
-2.06250403
 20
-51.45454975
 10
-7.06250403
 20
-51.45454975
  0
LINE
  5
84
100
AcDbEntity
  8
MST_1_1
 62
   137
  6
CONTINUOUS
100
AcDbLine
 10
-2.06250403
 20
-51.45454975
 30
0.0
 11
-2.06250403
 21
-47.45454975
 31
0.0
  0
LINE
  5
85
100
AcDbEntity
  8
MST_1_1
 62
   137
  6
CONTINUOUS
100
AcDbLine
 10
-2.06250403
 20
-47.45454975
 30
0.0
 11
-1.96250406
 21
-47.45454975
 31
0.0
  0
LWPOLYLINE
  5
86
100
AcDbEntity
  8
MST_1_1
 62
   137
  6
CONTINUOUS
100
AcDbPolyline
 90
        6
 70
     0
 43
0.0
 38
2500.0
 10
3.22904766
 20
-49.45454961
 10
3.05178168
 20
-50.22026403
 10
4.55051101
 20
-53.45454975
 10
4.72777705
 20
-52.68883546
 10
3.22904766
 20
-49.45454961
 10
4.55051101
 20
-53.45454975
  0
LINE
  5
87
100
AcDbEntity
  8
MST_1_1
 62
   137
  6
CONTINUOUS
100
AcDbLine
 10
0.43749597
 20
-50.22026403
 30
2500.0
 11
3.05178168
 21
-50.22026403
 31
2500.0
  0
LWPOLYLINE
  5
88
100
AcDbEntity
  8
MST_1_1
 62
   137
  6
CONTINUOUS
100
AcDbPolyline
 90
        4
 70
     0
 43
0.0
 38
2500.0
 10
1.90997388
 20
-52.68883546
 10
2.26479673
 20
-53.45454975
 10
2.44206277
 20
-52.68883546
 10
2.17617646
 20
-52.11504788
  0
LINE
  5
89
100
AcDbEntity
  8
MST_1_1
 62
   137
  6
CONTINUOUS
100
AcDbLine
 10
1.96946672
 20
-52.56060134
 30
2500.0
 11
2.26479673
 21
-53.45454975
 31
2500.0
  0
LINE
  5
8A
100
AcDbEntity
  8
MST_1_1
 62
   137
  6
CONTINUOUS
100
AcDbLine
 10
1.90997388
 20
-52.68883546
 30
2500.0
 11
2.17617646
 21
-52.11504788
 31
2500.0
  0
LINE
  5
8B
100
AcDbEntity
  8
MST_1_1
 62
   137
  6
CONTINUOUS
100
AcDbLine
 10
4.19568817
 20
-52.68883546
 30
2500.0
 11
2.44206277
 21
-52.68883546
 31
2500.0
  0
LINE
  5
8C
100
AcDbEntity
  8
MST_1_1
 62
   137
  6
CONTINUOUS
100
AcDbLine
 10
1.90997388
 20
-52.68883546
 30
2500.0
 11
0.43749597
 21
-52.68883546
 31
2500.0
  0
LINE
  5
8D
100
AcDbEntity
  8
MST_1_1
 62
     7
  6
DASHED
100
AcDbLine
 10
22.93749597
 20
18.54545025
 30
0.0
 11
22.93749597
 21
-66.45454975
 31
0.0
  0
LINE
  5
8E
100
AcDbEntity
  8
MST_1_1
 62
     7
  6
DASHED
100
AcDbLine
 10
13.93749597
 20
18.54545025
 30
0.0
 11
13.93749597
 21
-36.45454975
 31
0.0
  0
LINE
  5
8F
100
AcDbEntity
  8
MST_1_1
 62
     7
  6
DASHED
100
AcDbLine
 10
9.93749597
 20
28.54545025
 30
0.0
 11
9.93749597
 21
-6.45454975
 31
0.0
  0
LINE
  5
90
100
AcDbEntity
  8
MST_1_1
 62
   137
  6
CONTINUOUS
100
AcDbLine
 10
-1.96250406
 20
-47.45454975
 30
0.0
 11
0.43749597
 21
-50.22026403
 31
0.0
  0
LINE
  5
91
100
AcDbEntity
  8
MST_1_1
 62
   137
  6
CONTINUOUS
100
AcDbLine
 10
0.43749597
 20
-52.68883546
 30
0.0
 11
-1.96250406
 21
-55.45454975
 31
0.0
  0
LINE
  5
92
100
AcDbEntity
  8
MST_1_1
 62
   137
  6
CONTINUOUS
100
AcDbLine
 10
-1.96250406
 20
-55.45454975
 30
0.0
 11
-2.06250403
 21
-55.45454975
 31
0.0
  0
LINE
  5
93
100
AcDbEntity
  8
MST_1_1
 62
   137
  6
CONTINUOUS
100
AcDbLine
 10
-2.06250403
 20
-55.45454975
 30
0.0
 11
-2.06250403
 21
-51.45454975
 31
0.0
  0
LWPOLYLINE
  5
94
100
AcDbEntity
  8
MST_1_1
 62
   137
  6
CONTINUOUS
100
AcDbPolyline
 90
        6
 70
     0
 43
0.0
 38
2500.0
 10
5.51476195
 20
-49.45454961
 10
5.33749597
 20
-50.22026403
 10
6.8362253
 20
-53.45454975
 10
7.01349134
 20
-52.68883546
 10
5.51476195
 20
-49.45454961
 10
6.8362253
 20
-53.45454975
  0
LWPOLYLINE
  5
95
100
AcDbEntity
  8
MST_1_1
 62
   137
  6
CONTINUOUS
100
AcDbPolyline
 90
        6
 70
     0
 43
0.0
 38
2500.0
 10
7.80047623
 20
-49.45454961
 10
7.62321025
 20
-50.22026403
 10
9.12193958
 20
-53.45454975
 10
9.29920563
 20
-52.68883546
 10
7.80047623
 20
-49.45454961
 10
9.12193958
 20
-53.45454975
  0
LWPOLYLINE
  5
96
100
AcDbEntity
  8
MST_1_1
 62
   137
  6
CONTINUOUS
100
AcDbPolyline
 90
        6
 70
     0
 43
0.0
 38
2500.0
 10
10.08619052
 20
-49.45454961
 10
9.90892454
 20
-50.22026403
 10
11.40765387
 20
-53.45454975
 10
11.58491991
 20
-52.68883546
 10
10.08619052
 20
-49.45454961
 10
11.40765387
 20
-53.45454975
  0
LWPOLYLINE
  5
97
100
AcDbEntity
  8
MST_1_1
 62
   137
  6
CONTINUOUS
100
AcDbPolyline
 90
        6
 70
     0
 43
0.0
 38
2500.0
 10
12.37190481
 20
-49.45454961
 10
12.19463883
 20
-50.22026403
 10
13.69336815
 20
-53.45454975
 10
13.8706342
 20
-52.68883546
 10
12.37190481
 20
-49.45454961
 10
13.69336815
 20
-53.45454975
  0
LWPOLYLINE
  5
98
100
AcDbEntity
  8
MST_1_1
 62
   137
  6
CONTINUOUS
100
AcDbPolyline
 90
        6
 70
     0
 43
0.0
 38
2500.0
 10
14.65761909
 20
-49.45454961
 10
14.48035311
 20
-50.22026403
 10
15.97908244
 20
-53.45454975
 10
16.12933982
 20
-52.63055028
 10
14.65761909
 20
-49.45454961
 10
15.97908244
 20
-53.45454975
  0
LWPOLYLINE
  5
99
100
AcDbEntity
  8
MST_1_1
 62
   137
  6
CONTINUOUS
100
AcDbPolyline
 90
        6
 70
     0
 43
0.0
 38
2500.0
 10
16.90965284
 20
-49.71476598
 10
16.7660674
 20
-50.33499467
 10
18.00374447
 20
-53.00592477
 10
18.14732991
 20
-52.38569608
 10
16.90965284
 20
-49.71476598
 10
17.98003815
 20
-52.95476609
  0
LINE
  5
9A
100
AcDbEntity
  8
MST_1_1
 62
   137
  6
CONTINUOUS
100
AcDbLine
 10
4.72777705
 20
-52.68883546
 30
2500.0
 11
6.48140245
 21
-52.68883546
 31
2500.0
  0
LINE
  5
9B
100
AcDbEntity
  8
MST_1_1
 62
   137
  6
CONTINUOUS
100
AcDbLine
 10
7.01349134
 20
-52.68883546
 30
2500.0
 11
8.76711674
 21
-52.68883546
 31
2500.0
  0
LINE
  5
9C
100
AcDbEntity
  8
MST_1_1
 62
   137
  6
CONTINUOUS
100
AcDbLine
 10
9.29920563
 20
-52.68883546
 30
2500.0
 11
11.05283102
 21
-52.68883546
 31
2500.0
  0
LINE
  5
9D
100
AcDbEntity
  8
MST_1_1
 62
   137
  6
CONTINUOUS
100
AcDbLine
 10
11.58491991
 20
-52.68883546
 30
2500.0
 11
13.33854531
 21
-52.68883546
 31
2500.0
  0
LINE
  5
9E
100
AcDbEntity
  8
MST_1_1
 62
   137
  6
CONTINUOUS
100
AcDbLine
 10
13.8706342
 20
-52.68883546
 30
2500.0
 11
15.01478424
 21
-52.68378087
 31
2500.0
  0
LINE
  5
9F
100
AcDbEntity
  8
MST_1_1
 62
   137
  6
CONTINUOUS
100
AcDbLine
 10
5.33749597
 20
-50.22026403
 30
2500.0
 11
3.58387057
 21
-50.22026403
 31
2500.0
  0
LINE
  5
A0
100
AcDbEntity
  8
MST_1_1
 62
   137
  6
CONTINUOUS
100
AcDbLine
 10
7.62321025
 20
-50.22026403
 30
2500.0
 11
5.86958486
 21
-50.22026403
 31
2500.0
  0
LINE
  5
A1
100
AcDbEntity
  8
MST_1_1
 62
   137
  6
CONTINUOUS
100
AcDbLine
 10
9.90892454
 20
-50.22026403
 30
2500.0
 11
8.15529914
 21
-50.22026403
 31
2500.0
  0
LINE
  5
A2
100
AcDbEntity
  8
MST_1_1
 62
   137
  6
CONTINUOUS
100
AcDbLine
 10
12.19463883
 20
-50.22026403
 30
2500.0
 11
10.44101343
 21
-50.22026403
 31
2500.0
  0
LINE
  5
A3
100
AcDbEntity
  8
MST_1_1
 62
   137
  6
CONTINUOUS
100
AcDbLine
 10
14.48035311
 20
-50.22026403
 30
2500.0
 11
12.72672771
 21
-50.22026403
 31
2500.0
  0
ARC
  5
A4
100
AcDbEntity
  8
MST_1_1
 62
   137
  6
CONTINUOUS
100
AcDbCircle
 10
14.54363085
 20
-71.78548655
 30
2500.0
 40
21.56531535
100
AcDbArc
 50
84.08482032
 51
88.74811714
  0
LWPOLYLINE
  5
A5
100
AcDbEntity
  8
MST_1_1
 62
   137
  6
CONTINUOUS
100
AcDbPolyline
 90
        3
 70
     0
 43
0.0
 38
2500.0
 10
22.93749597
 20
-51.45454975
 10
18.68913071
 20
-50.62236634
 42
0.01723995
 10
17.22117589
 20
-50.3870385
  0
ARC
  5
A6
100
AcDbEntity
  8
MST_1_1
 62
   137
  6
CONTINUOUS
100
AcDbCircle
 10
14.54363085
 20
-31.12361295
 30
2500.0
 40
21.56531535
100
AcDbArc
 50
271.25189287
 51
272.83975061
  0
LWPOLYLINE
  5
A7
100
AcDbEntity
  8
MST_1_1
 62
   137
  6
CONTINUOUS
100
AcDbPolyline
 90
        3
 70
     0
 43
0.0
 38
2500.0
 10
22.93749597
 20
-51.45454975
 10
18.68913071
 20
-52.28673316
 42
-0.0063851
 10
18.14732991
 20
-52.38569608
  0
ARC
  5
A8
100
AcDbEntity
  8
MST_1_1
 62
   137
  6
CONTINUOUS
100
AcDbCircle
 10
14.54363085
 20
-31.12361295
 30
2500.0
 40
21.56531535
100
AcDbArc
 50
274.21680449
 51
278.53995004
  0
LWPOLYLINE
  5
A9
100
AcDbEntity
  8
MST_1_1
 62
   137
  6
CONTINUOUS
100
AcDbPolyline
 90
        6
 70
     0
 43
0.0
 38
2500.0
 10
19.14654808
 20
-50.28405264
 10
19.05178168
 20
-50.69340357
 10
19.86864855
 20
-52.45621744
 10
19.95927534
 20
-52.03793316
 10
19.14654808
 20
-50.28405264
 10
19.85300238
 20
-52.42245271
  0
LWPOLYLINE
  5
AA
100
AcDbEntity
  8
MST_1_1
 62
     1
  6
BORDER
100
AcDbPolyline
 90
        3
 70
     0
 43
0.0
 10
13.93749597
 20
-21.45454975
 10
-2.06250403
 20
-21.45454975
 10
-7.06250403
 20
-21.45454975
  0
LWPOLYLINE
  5
AB
100
AcDbEntity
  8
MST_1_1
 62
     1
  6
BORDER
100
AcDbPolyline
 90
        3
 70
     0
 43
0.0
 10
9.93749597
 20
8.54545025
 10
-2.06250403
 20
8.54545025
 10
-7.06250403
 20
8.54545025
  0
LWPOLYLINE
  5
AC
100
AcDbEntity
  8
MST_1_1
 62
     1
  6
BORDER
100
AcDbPolyline
 90
        3
 70
     0
 43
0.0
 10
27.93749597
 20
-81.45454975
 10
-2.06250403
 20
-81.45454975
 10
-7.06250403
 20
-81.45454975
  0
LWPOLYLINE
  5
AD
100
AcDbEntity
  8
MST_1_1
 62
     1
  6
BORDER
100
AcDbPolyline
 90
        3
 70
     0
 43
0.0
 10
32.93749597
 20
-111.45454975
 10
-2.06250403
 20
-111.45454975
 10
-7.06250403
 20
-111.45454975
  0
LWPOLYLINE
  5
AE
100
AcDbEntity
  8
MST_1_1
 62
     1
  6
BORDER
100
AcDbPolyline
 90
        3
 70
     0
 43
0.0
 10
37.93749597
 20
-141.45454975
 10
-2.06250403
 20
-141.45454975
 10
-7.06250403
 20
-141.45454975
  0
LWPOLYLINE
  5
AF
100
AcDbEntity
  8
MST_1_1
 62
     1
  6
BORDER
100
AcDbPolyline
 90
        3
 70
     0
 43
0.0
 10
42.93749597
 20
-171.45454975
 10
-2.06250403
 20
-171.45454975
 10
-7.06250403
 20
-171.45454975
  0
LINE
  5
B0
100
AcDbEntity
  8
MST_1_1
 62
     7
  6
DASHED
100
AcDbLine
 10
42.93749597
 20
18.54545025
 30
0.0
 11
42.93749597
 21
-186.45454975
 31
0.0
  0
LINE
  5
B1
100
AcDbEntity
  8
MST_1_1
 62
   137
  6
CONTINUOUS
100
AcDbLine
 10
-2.06250403
 20
-21.45454975
 30
0.0
 11
-2.06250403
 21
-17.45454975
 31
0.0
  0
LINE
  5
B2
100
AcDbEntity
  8
MST_1_1
 62
   137
  6
CONTINUOUS
100
AcDbLine
 10
-2.06250403
 20
-17.45454975
 30
0.0
 11
-1.96250406
 21
-17.45454975
 31
0.0
  0
LWPOLYLINE
  5
B3
100
AcDbEntity
  8
MST_1_1
 62
   137
  6
CONTINUOUS
100
AcDbPolyline
 90
        6
 70
     0
 43
0.0
 38
2500.0
 10
3.37190481
 20
-19.45454961
 10
3.19463883
 20
-20.22026403
 10
4.69336815
 20
-23.45454975
 10
4.8706342
 20
-22.68883546
 10
3.37190481
 20
-19.45454961
 10
4.69336815
 20
-23.45454975
  0
LINE
  5
B4
100
AcDbEntity
  8
MST_1_1
 62
   137
  6
CONTINUOUS
100
AcDbLine
 10
0.43749597
 20
-20.22026403
 30
2500.0
 11
3.19463883
 21
-20.22026403
 31
2500.0
  0
LWPOLYLINE
  5
B5
100
AcDbEntity
  8
MST_1_1
 62
   137
  6
CONTINUOUS
100
AcDbPolyline
 90
        4
 70
     0
 43
0.0
 38
2500.0
 10
2.05283102
 20
-22.68883546
 10
2.40765387
 20
-23.45454975
 10
2.58491991
 20
-22.68883546
 10
2.31903361
 20
-22.11504788
  0
LINE
  5
B6
100
AcDbEntity
  8
MST_1_1
 62
   137
  6
CONTINUOUS
100
AcDbLine
 10
2.11232387
 20
-22.56060134
 30
2500.0
 11
2.40765387
 21
-23.45454975
 31
2500.0
  0
LINE
  5
B7
100
AcDbEntity
  8
MST_1_1
 62
   137
  6
CONTINUOUS
100
AcDbLine
 10
2.05283102
 20
-22.68883546
 30
2500.0
 11
2.31903361
 21
-22.11504788
 31
2500.0
  0
LINE
  5
B8
100
AcDbEntity
  8
MST_1_1
 62
   137
  6
CONTINUOUS
100
AcDbLine
 10
4.33854531
 20
-22.68883546
 30
2500.0
 11
2.58491991
 21
-22.68883546
 31
2500.0
  0
LINE
  5
B9
100
AcDbEntity
  8
MST_1_1
 62
   137
  6
CONTINUOUS
100
AcDbLine
 10
2.05283102
 20
-22.68883546
 30
2500.0
 11
0.43749597
 21
-22.68883546
 31
2500.0
  0
LINE
  5
BA
100
AcDbEntity
  8
MST_1_1
 62
   137
  6
CONTINUOUS
100
AcDbLine
 10
-1.96250406
 20
-17.45454975
 30
0.0
 11
0.43749597
 21
-20.22026403
 31
0.0
  0
LINE
  5
BB
100
AcDbEntity
  8
MST_1_1
 62
   137
  6
CONTINUOUS
100
AcDbLine
 10
0.43749597
 20
-22.68883546
 30
0.0
 11
-1.96250406
 21
-25.45454975
 31
0.0
  0
LINE
  5
BC
100
AcDbEntity
  8
MST_1_1
 62
   137
  6
CONTINUOUS
100
AcDbLine
 10
-1.96250406
 20
-25.45454975
 30
0.0
 11
-2.06250403
 21
-25.45454975
 31
0.0
  0
LINE
  5
BD
100
AcDbEntity
  8
MST_1_1
 62
   137
  6
CONTINUOUS
100
AcDbLine
 10
-2.06250403
 20
-25.45454975
 30
0.0
 11
-2.06250403
 21
-21.45454975
 31
0.0
  0
LWPOLYLINE
  5
BE
100
AcDbEntity
  8
MST_1_1
 62
   137
  6
CONTINUOUS
100
AcDbPolyline
 90
        6
 70
     0
 43
0.0
 38
2500.0
 10
5.65761909
 20
-19.45454961
 10
5.48035311
 20
-20.22026403
 10
6.97908244
 20
-23.45454975
 10
7.12933982
 20
-22.63055028
 10
5.65761909
 20
-19.45454961
 10
6.97908244
 20
-23.45454975
  0
LWPOLYLINE
  5
BF
100
AcDbEntity
  8
MST_1_1
 62
   137
  6
CONTINUOUS
100
AcDbPolyline
 90
        6
 70
     0
 43
0.0
 38
2500.0
 10
7.90965284
 20
-19.71476598
 10
7.7660674
 20
-20.33499467
 10
9.00374447
 20
-23.00592477
 10
9.14732991
 20
-22.38569608
 10
7.90965284
 20
-19.71476598
 10
8.98003815
 20
-22.95476609
  0
LINE
  5
C0
100
AcDbEntity
  8
MST_1_1
 62
   137
  6
CONTINUOUS
100
AcDbLine
 10
4.8706342
 20
-22.68883546
 30
2500.0
 11
6.01478424
 21
-22.68378087
 31
2500.0
  0
LINE
  5
C1
100
AcDbEntity
  8
MST_1_1
 62
   137
  6
CONTINUOUS
100
AcDbLine
 10
5.48035311
 20
-20.22026403
 30
2500.0
 11
3.72672771
 21
-20.22026403
 31
2500.0
  0
ARC
  5
C2
100
AcDbEntity
  8
MST_1_1
 62
   137
  6
CONTINUOUS
100
AcDbCircle
 10
5.54363085
 20
-41.78548655
 30
2500.0
 40
21.56531535
100
AcDbArc
 50
84.08482032
 51
88.74811714
  0
LWPOLYLINE
  5
C3
100
AcDbEntity
  8
MST_1_1
 62
   137
  6
CONTINUOUS
100
AcDbPolyline
 90
        3
 70
     0
 43
0.0
 38
2500.0
 10
13.93749597
 20
-21.45454975
 10
9.68913071
 20
-20.62236634
 42
0.01723995
 10
8.22117589
 20
-20.3870385
  0
ARC
  5
C4
100
AcDbEntity
  8
MST_1_1
 62
   137
  6
CONTINUOUS
100
AcDbCircle
 10
5.54363085
 20
-1.12361295
 30
2500.0
 40
21.56531535
100
AcDbArc
 50
271.25189287
 51
272.83975061
  0
LWPOLYLINE
  5
C5
100
AcDbEntity
  8
MST_1_1
 62
   137
  6
CONTINUOUS
100
AcDbPolyline
 90
        3
 70
     0
 43
0.0
 38
2500.0
 10
13.93749597
 20
-21.45454975
 10
9.68913071
 20
-22.28673316
 42
-0.0063851
 10
9.14732991
 20
-22.38569608
  0
ARC
  5
C6
100
AcDbEntity
  8
MST_1_1
 62
   137
  6
CONTINUOUS
100
AcDbCircle
 10
5.54363085
 20
-1.12361295
 30
2500.0
 40
21.56531535
100
AcDbArc
 50
274.21680449
 51
278.53995004
  0
LWPOLYLINE
  5
C7
100
AcDbEntity
  8
MST_1_1
 62
   137
  6
CONTINUOUS
100
AcDbPolyline
 90
        6
 70
     0
 43
0.0
 38
2500.0
 10
10.14654808
 20
-20.28405264
 10
10.05178168
 20
-20.69340357
 10
10.86864855
 20
-22.45621744
 10
10.95927534
 20
-22.03793316
 10
10.14654808
 20
-20.28405264
 10
10.85300238
 20
-22.42245271
  0
LINE
  5
C8
100
AcDbEntity
  8
MST_1_1
 62
   137
  6
CONTINUOUS
100
AcDbLine
 10
-2.06250403
 20
8.54545025
 30
0.0
 11
-2.06250403
 21
12.54545025
 31
0.0
  0
LINE
  5
C9
100
AcDbEntity
  8
MST_1_1
 62
   137
  6
CONTINUOUS
100
AcDbLine
 10
-2.06250403
 20
12.54545025
 30
0.0
 11
-1.96250406
 21
12.54545025
 31
0.0
  0
LINE
  5
CA
100
AcDbEntity
  8
MST_1_1
 62
   137
  6
CONTINUOUS
100
AcDbLine
 10
0.8706342
 20
7.31116454
 30
2500.0
 11
0.43749597
 21
7.31116454
 31
2500.0
  0
LINE
  5
CB
100
AcDbEntity
  8
MST_1_1
 62
   137
  6
CONTINUOUS
100
AcDbLine
 10
-1.96250406
 20
12.54545025
 30
0.0
 11
0.43749597
 21
9.77973597
 31
0.0
  0
LINE
  5
CC
100
AcDbEntity
  8
MST_1_1
 62
   137
  6
CONTINUOUS
100
AcDbLine
 10
0.43749597
 20
7.31116454
 30
0.0
 11
-1.96250406
 21
4.54545025
 31
0.0
  0
LINE
  5
CD
100
AcDbEntity
  8
MST_1_1
 62
   137
  6
CONTINUOUS
100
AcDbLine
 10
-1.96250406
 20
4.54545025
 30
0.0
 11
-2.06250403
 21
4.54545025
 31
0.0
  0
LINE
  5
CE
100
AcDbEntity
  8
MST_1_1
 62
   137
  6
CONTINUOUS
100
AcDbLine
 10
-2.06250403
 20
4.54545025
 30
0.0
 11
-2.06250403
 21
8.54545025
 31
0.0
  0
LWPOLYLINE
  5
CF
100
AcDbEntity
  8
MST_1_1
 62
   137
  6
CONTINUOUS
100
AcDbPolyline
 90
        6
 70
     0
 43
0.0
 38
2500.0
 10
1.65761909
 20
10.54545039
 10
1.48035311
 20
9.77973597
 10
2.97908244
 20
6.54545025
 10
3.12933982
 20
7.36944972
 10
1.65761909
 20
10.54545039
 10
2.97908244
 20
6.54545025
  0
LWPOLYLINE
  5
D0
100
AcDbEntity
  8
MST_1_1
 62
   137
  6
CONTINUOUS
100
AcDbPolyline
 90
        6
 70
     0
 43
0.0
 38
2500.0
 10
3.90965284
 20
10.28523402
 10
3.7660674
 20
9.66500533
 10
5.00374447
 20
6.99407523
 10
5.14732991
 20
7.61430392
 10
3.90965284
 20
10.28523402
 10
4.98003815
 20
7.04523391
  0
LINE
  5
D1
100
AcDbEntity
  8
MST_1_1
 62
   137
  6
CONTINUOUS
100
AcDbLine
 10
0.8706342
 20
7.31116454
 30
2500.0
 11
2.01478424
 21
7.31621913
 31
2500.0
  0
LINE
  5
D2
100
AcDbEntity
  8
MST_1_1
 62
   137
  6
CONTINUOUS
100
AcDbLine
 10
1.48035311
 20
9.77973597
 30
2500.0
 11
0.43749597
 21
9.77973597
 31
2500.0
  0
ARC
  5
D3
100
AcDbEntity
  8
MST_1_1
 62
   137
  6
CONTINUOUS
100
AcDbCircle
 10
1.54363085
 20
-11.78548655
 30
2500.0
 40
21.56531535
100
AcDbArc
 50
84.08482032
 51
88.74811714
  0
LWPOLYLINE
  5
D4
100
AcDbEntity
  8
MST_1_1
 62
   137
  6
CONTINUOUS
100
AcDbPolyline
 90
        3
 70
     0
 43
0.0
 38
2500.0
 10
9.93749597
 20
8.54545025
 10
5.68913071
 20
9.37763366
 42
0.01723995
 10
4.22117589
 20
9.6129615
  0
ARC
  5
D5
100
AcDbEntity
  8
MST_1_1
 62
   137
  6
CONTINUOUS
100
AcDbCircle
 10
1.54363085
 20
28.87638705
 30
2500.0
 40
21.56531535
100
AcDbArc
 50
271.25189287
 51
272.83975061
  0
LWPOLYLINE
  5
D6
100
AcDbEntity
  8
MST_1_1
 62
   137
  6
CONTINUOUS
100
AcDbPolyline
 90
        3
 70
     0
 43
0.0
 38
2500.0
 10
9.93749597
 20
8.54545025
 10
5.68913071
 20
7.71326684
 42
-0.0063851
 10
5.14732991
 20
7.61430392
  0
ARC
  5
D7
100
AcDbEntity
  8
MST_1_1
 62
   137
  6
CONTINUOUS
100
AcDbCircle
 10
1.54363085
 20
28.87638705
 30
2500.0
 40
21.56531535
100
AcDbArc
 50
274.21680449
 51
278.53995004
  0
LWPOLYLINE
  5
D8
100
AcDbEntity
  8
MST_1_1
 62
   137
  6
CONTINUOUS
100
AcDbPolyline
 90
        6
 70
     0
 43
0.0
 38
2500.0
 10
6.14654808
 20
9.71594736
 10
6.05178168
 20
9.30659643
 10
6.86864855
 20
7.54378256
 10
6.95927534
 20
7.96206684
 10
6.14654808
 20
9.71594736
 10
6.85300238
 20
7.57754729
  0
LINE
  5
D9
100
AcDbEntity
  8
MST_1_1
 62
   137
  6
CONTINUOUS
100
AcDbLine
 10
-2.06250403
 20
-111.45454975
 30
0.0
 11
-2.06250403
 21
-107.45454975
 31
0.0
  0
LINE
  5
DA
100
AcDbEntity
  8
MST_1_1
 62
   137
  6
CONTINUOUS
100
AcDbLine
 10
-2.06250403
 20
-107.45454975
 30
0.0
 11
-1.96250406
 21
-107.45454975
 31
0.0
  0
LWPOLYLINE
  5
DB
100
AcDbEntity
  8
MST_1_1
 62
   137
  6
CONTINUOUS
100
AcDbPolyline
 90
        6
 70
     0
 43
0.0
 38
2500.0
 10
4.08619052
 20
-109.45454961
 10
3.90892454
 20
-110.22026403
 10
5.40765387
 20
-113.45454975
 10
5.58491991
 20
-112.68883546
 10
4.08619052
 20
-109.45454961
 10
5.40765387
 20
-113.45454975
  0
LINE
  5
DC
100
AcDbEntity
  8
MST_1_1
 62
   137
  6
CONTINUOUS
100
AcDbLine
 10
0.43749597
 20
-110.22026403
 30
2500.0
 11
3.90892454
 21
-110.22026403
 31
2500.0
  0
LWPOLYLINE
  5
DD
100
AcDbEntity
  8
MST_1_1
 62
   137
  6
CONTINUOUS
100
AcDbPolyline
 90
        4
 70
     0
 43
0.0
 38
2500.0
 10
2.76711674
 20
-112.68883546
 10
3.12193958
 20
-113.45454975
 10
3.29920563
 20
-112.68883546
 10
3.03331932
 20
-112.11504788
  0
LINE
  5
DE
100
AcDbEntity
  8
MST_1_1
 62
   137
  6
CONTINUOUS
100
AcDbLine
 10
2.82660958
 20
-112.56060134
 30
2500.0
 11
3.12193958
 21
-113.45454975
 31
2500.0
  0
LINE
  5
DF
100
AcDbEntity
  8
MST_1_1
 62
   137
  6
CONTINUOUS
100
AcDbLine
 10
2.76711674
 20
-112.68883546
 30
2500.0
 11
3.03331932
 21
-112.11504788
 31
2500.0
  0
LINE
  5
E0
100
AcDbEntity
  8
MST_1_1
 62
   137
  6
CONTINUOUS
100
AcDbLine
 10
5.05283102
 20
-112.68883546
 30
2500.0
 11
3.29920563
 21
-112.68883546
 31
2500.0
  0
LINE
  5
E1
100
AcDbEntity
  8
MST_1_1
 62
   137
  6
CONTINUOUS
100
AcDbLine
 10
2.76711674
 20
-112.68883546
 30
2500.0
 11
0.43749597
 21
-112.68883546
 31
2500.0
  0
LINE
  5
E2
100
AcDbEntity
  8
MST_1_1
 62
   137
  6
CONTINUOUS
100
AcDbLine
 10
-1.96250406
 20
-107.45454975
 30
0.0
 11
0.43749597
 21
-110.22026403
 31
0.0
  0
LINE
  5
E3
100
AcDbEntity
  8
MST_1_1
 62
   137
  6
CONTINUOUS
100
AcDbLine
 10
0.43749597
 20
-112.68883546
 30
0.0
 11
-1.96250406
 21
-115.45454975
 31
0.0
  0
LINE
  5
E4
100
AcDbEntity
  8
MST_1_1
 62
   137
  6
CONTINUOUS
100
AcDbLine
 10
-1.96250406
 20
-115.45454975
 30
0.0
 11
-2.06250403
 21
-115.45454975
 31
0.0
  0
LINE
  5
E5
100
AcDbEntity
  8
MST_1_1
 62
   137
  6
CONTINUOUS
100
AcDbLine
 10
-2.06250403
 20
-115.45454975
 30
0.0
 11
-2.06250403
 21
-111.45454975
 31
0.0
  0
LWPOLYLINE
  5
E6
100
AcDbEntity
  8
MST_1_1
 62
   137
  6
CONTINUOUS
100
AcDbPolyline
 90
        6
 70
     0
 43
0.0
 38
2500.0
 10
6.37190481
 20
-109.45454961
 10
6.19463883
 20
-110.22026403
 10
7.69336815
 20
-113.45454975
 10
7.8706342
 20
-112.68883546
 10
6.37190481
 20
-109.45454961
 10
7.69336815
 20
-113.45454975
  0
LWPOLYLINE
  5
E7
100
AcDbEntity
  8
MST_1_1
 62
   137
  6
CONTINUOUS
100
AcDbPolyline
 90
        6
 70
     0
 43
0.0
 38
2500.0
 10
8.65761909
 20
-109.45454961
 10
8.48035311
 20
-110.22026403
 10
9.97908244
 20
-113.45454975
 10
10.15634848
 20
-112.68883546
 10
8.65761909
 20
-109.45454961
 10
9.97908244
 20
-113.45454975
  0
LWPOLYLINE
  5
E8
100
AcDbEntity
  8
MST_1_1
 62
   137
  6
CONTINUOUS
100
AcDbPolyline
 90
        6
 70
     0
 43
0.0
 38
2500.0
 10
10.94333338
 20
-109.45454961
 10
10.7660674
 20
-110.22026403
 10
12.26479673
 20
-113.45454975
 10
12.44206277
 20
-112.68883546
 10
10.94333338
 20
-109.45454961
 10
12.26479673
 20
-113.45454975
  0
LWPOLYLINE
  5
E9
100
AcDbEntity
  8
MST_1_1
 62
   137
  6
CONTINUOUS
100
AcDbPolyline
 90
        6
 70
     0
 43
0.0
 38
2500.0
 10
13.22904766
 20
-109.45454961
 10
13.05178168
 20
-110.22026403
 10
14.55051101
 20
-113.45454975
 10
14.72777705
 20
-112.68883546
 10
13.22904766
 20
-109.45454961
 10
14.55051101
 20
-113.45454975
  0
LWPOLYLINE
  5
EA
100
AcDbEntity
  8
MST_1_1
 62
   137
  6
CONTINUOUS
100
AcDbPolyline
 90
        6
 70
     0
 43
0.0
 38
2500.0
 10
24.65761909
 20
-109.45454961
 10
24.48035311
 20
-110.22026403
 10
25.97908244
 20
-113.45454975
 10
26.12933982
 20
-112.63055028
 10
24.65761909
 20
-109.45454961
 10
25.97908244
 20
-113.45454975
  0
LWPOLYLINE
  5
EB
100
AcDbEntity
  8
MST_1_1
 62
   137
  6
CONTINUOUS
100
AcDbPolyline
 90
        6
 70
     0
 43
0.0
 38
2500.0
 10
26.90965284
 20
-109.71476598
 10
26.7660674
 20
-110.33499467
 10
28.00374447
 20
-113.00592477
 10
28.14732991
 20
-112.38569608
 10
26.90965284
 20
-109.71476598
 10
27.98003815
 20
-112.95476609
  0
LINE
  5
EC
100
AcDbEntity
  8
MST_1_1
 62
   137
  6
CONTINUOUS
100
AcDbLine
 10
5.58491991
 20
-112.68883546
 30
2500.0
 11
7.33854531
 21
-112.68883546
 31
2500.0
  0
LINE
  5
ED
100
AcDbEntity
  8
MST_1_1
 62
   137
  6
CONTINUOUS
100
AcDbLine
 10
7.8706342
 20
-112.68883546
 30
2500.0
 11
9.6242596
 21
-112.68883546
 31
2500.0
  0
LINE
  5
EE
100
AcDbEntity
  8
MST_1_1
 62
   137
  6
CONTINUOUS
100
AcDbLine
 10
10.15634848
 20
-112.68883546
 30
2500.0
 11
11.90997388
 21
-112.68883546
 31
2500.0
  0
LINE
  5
EF
100
AcDbEntity
  8
MST_1_1
 62
   137
  6
CONTINUOUS
100
AcDbLine
 10
12.44206277
 20
-112.68883546
 30
2500.0
 11
14.19568817
 21
-112.68883546
 31
2500.0
  0
LINE
  5
F0
100
AcDbEntity
  8
MST_1_1
 62
   137
  6
CONTINUOUS
100
AcDbLine
 10
23.8706342
 20
-112.68883546
 30
2500.0
 11
25.01478424
 21
-112.68378087
 31
2500.0
  0
LINE
  5
F1
100
AcDbEntity
  8
MST_1_1
 62
   137
  6
CONTINUOUS
100
AcDbLine
 10
6.19463883
 20
-110.22026403
 30
2500.0
 11
4.44101343
 21
-110.22026403
 31
2500.0
  0
LINE
  5
F2
100
AcDbEntity
  8
MST_1_1
 62
   137
  6
CONTINUOUS
100
AcDbLine
 10
8.48035311
 20
-110.22026403
 30
2500.0
 11
6.72672771
 21
-110.22026403
 31
2500.0
  0
LINE
  5
F3
100
AcDbEntity
  8
MST_1_1
 62
   137
  6
CONTINUOUS
100
AcDbLine
 10
10.7660674
 20
-110.22026403
 30
2500.0
 11
9.012442
 21
-110.22026403
 31
2500.0
  0
LINE
  5
F4
100
AcDbEntity
  8
MST_1_1
 62
   137
  6
CONTINUOUS
100
AcDbLine
 10
13.05178168
 20
-110.22026403
 30
2500.0
 11
11.29815628
 21
-110.22026403
 31
2500.0
  0
LINE
  5
F5
100
AcDbEntity
  8
MST_1_1
 62
   137
  6
CONTINUOUS
100
AcDbLine
 10
24.48035311
 20
-110.22026403
 30
2500.0
 11
22.72672771
 21
-110.22026403
 31
2500.0
  0
ARC
  5
F6
100
AcDbEntity
  8
MST_1_1
 62
   137
  6
CONTINUOUS
100
AcDbCircle
 10
24.54363085
 20
-131.78548655
 30
2500.0
 40
21.56531535
100
AcDbArc
 50
84.08482032
 51
88.74811714
  0
LWPOLYLINE
  5
F7
100
AcDbEntity
  8
MST_1_1
 62
   137
  6
CONTINUOUS
100
AcDbPolyline
 90
        3
 70
     0
 43
0.0
 38
2500.0
 10
32.93749597
 20
-111.45454975
 10
28.68913071
 20
-110.62236634
 42
0.01723995
 10
27.22117589
 20
-110.3870385
  0
ARC
  5
F8
100
AcDbEntity
  8
MST_1_1
 62
   137
  6
CONTINUOUS
100
AcDbCircle
 10
24.54363085
 20
-91.12361295
 30
2500.0
 40
21.56531535
100
AcDbArc
 50
271.25189287
 51
272.83975061
  0
LWPOLYLINE
  5
F9
100
AcDbEntity
  8
MST_1_1
 62
   137
  6
CONTINUOUS
100
AcDbPolyline
 90
        3
 70
     0
 43
0.0
 38
2500.0
 10
32.93749597
 20
-111.45454975
 10
28.68913071
 20
-112.28673316
 42
-0.0063851
 10
28.14732991
 20
-112.38569608
  0
ARC
  5
FA
100
AcDbEntity
  8
MST_1_1
 62
   137
  6
CONTINUOUS
100
AcDbCircle
 10
24.54363085
 20
-91.12361295
 30
2500.0
 40
21.56531535
100
AcDbArc
 50
274.21680449
 51
278.53995004
  0
LWPOLYLINE
  5
FB
100
AcDbEntity
  8
MST_1_1
 62
   137
  6
CONTINUOUS
100
AcDbPolyline
 90
        6
 70
     0
 43
0.0
 38
2500.0
 10
29.14654808
 20
-110.28405264
 10
29.05178168
 20
-110.69340357
 10
29.86864855
 20
-112.45621744
 10
29.95927534
 20
-112.03793316
 10
29.14654808
 20
-110.28405264
 10
29.85300238
 20
-112.42245271
  0
LINE
  5
FC
100
AcDbEntity
  8
MST_1_1
 62
   137
  6
CONTINUOUS
100
AcDbLine
 10
-2.06250403
 20
-81.45454975
 30
0.0
 11
-2.06250403
 21
-77.45454975
 31
0.0
  0
LINE
  5
FD
100
AcDbEntity
  8
MST_1_1
 62
   137
  6
CONTINUOUS
100
AcDbLine
 10
-2.06250403
 20
-77.45454975
 30
0.0
 11
-1.96250406
 21
-77.45454975
 31
0.0
  0
LWPOLYLINE
  5
FE
100
AcDbEntity
  8
MST_1_1
 62
   137
  6
CONTINUOUS
100
AcDbPolyline
 90
        6
 70
     0
 43
0.0
 38
2500.0
 10
3.65761909
 20
-79.45454961
 10
3.48035311
 20
-80.22026403
 10
4.97908244
 20
-83.45454975
 10
5.15634848
 20
-82.68883546
 10
3.65761909
 20
-79.45454961
 10
4.97908244
 20
-83.45454975
  0
LINE
  5
FF
100
AcDbEntity
  8
MST_1_1
 62
   137
  6
CONTINUOUS
100
AcDbLine
 10
0.43749597
 20
-80.22026403
 30
2500.0
 11
3.48035311
 21
-80.22026403
 31
2500.0
  0
LWPOLYLINE
  5
100
100
AcDbEntity
  8
MST_1_1
 62
   137
  6
CONTINUOUS
100
AcDbPolyline
 90
        4
 70
     0
 43
0.0
 38
2500.0
 10
2.33854531
 20
-82.68883546
 10
2.69336815
 20
-83.45454975
 10
2.8706342
 20
-82.68883546
 10
2.60474789
 20
-82.11504788
  0
LINE
  5
101
100
AcDbEntity
  8
MST_1_1
 62
   137
  6
CONTINUOUS
100
AcDbLine
 10
2.39803815
 20
-82.56060134
 30
2500.0
 11
2.69336815
 21
-83.45454975
 31
2500.0
  0
LINE
  5
102
100
AcDbEntity
  8
MST_1_1
 62
   137
  6
CONTINUOUS
100
AcDbLine
 10
2.33854531
 20
-82.68883546
 30
2500.0
 11
2.60474789
 21
-82.11504788
 31
2500.0
  0
LINE
  5
103
100
AcDbEntity
  8
MST_1_1
 62
   137
  6
CONTINUOUS
100
AcDbLine
 10
4.6242596
 20
-82.68883546
 30
2500.0
 11
2.8706342
 21
-82.68883546
 31
2500.0
  0
LINE
  5
104
100
AcDbEntity
  8
MST_1_1
 62
   137
  6
CONTINUOUS
100
AcDbLine
 10
2.33854531
 20
-82.68883546
 30
2500.0
 11
0.43749597
 21
-82.68883546
 31
2500.0
  0
LINE
  5
105
100
AcDbEntity
  8
MST_1_1
 62
   137
  6
CONTINUOUS
100
AcDbLine
 10
-1.96250406
 20
-77.45454975
 30
0.0
 11
0.43749597
 21
-80.22026403
 31
0.0
  0
LINE
  5
106
100
AcDbEntity
  8
MST_1_1
 62
   137
  6
CONTINUOUS
100
AcDbLine
 10
0.43749597
 20
-82.68883546
 30
0.0
 11
-1.96250406
 21
-85.45454975
 31
0.0
  0
LINE
  5
107
100
AcDbEntity
  8
MST_1_1
 62
   137
  6
CONTINUOUS
100
AcDbLine
 10
-1.96250406
 20
-85.45454975
 30
0.0
 11
-2.06250403
 21
-85.45454975
 31
0.0
  0
LINE
  5
108
100
AcDbEntity
  8
MST_1_1
 62
   137
  6
CONTINUOUS
100
AcDbLine
 10
-2.06250403
 20
-85.45454975
 30
0.0
 11
-2.06250403
 21
-81.45454975
 31
0.0
  0
LWPOLYLINE
  5
109
100
AcDbEntity
  8
MST_1_1
 62
   137
  6
CONTINUOUS
100
AcDbPolyline
 90
        6
 70
     0
 43
0.0
 38
2500.0
 10
5.94333338
 20
-79.45454961
 10
5.7660674
 20
-80.22026403
 10
7.26479673
 20
-83.45454975
 10
7.44206277
 20
-82.68883546
 10
5.94333338
 20
-79.45454961
 10
7.26479673
 20
-83.45454975
  0
LWPOLYLINE
  5
10A
100
AcDbEntity
  8
MST_1_1
 62
   137
  6
CONTINUOUS
100
AcDbPolyline
 90
        6
 70
     0
 43
0.0
 38
2500.0
 10
8.22904766
 20
-79.45454961
 10
8.05178168
 20
-80.22026403
 10
9.55051101
 20
-83.45454975
 10
9.72777705
 20
-82.68883546
 10
8.22904766
 20
-79.45454961
 10
9.55051101
 20
-83.45454975
  0
LWPOLYLINE
  5
10B
100
AcDbEntity
  8
MST_1_1
 62
   137
  6
CONTINUOUS
100
AcDbPolyline
 90
        6
 70
     0
 43
0.0
 38
2500.0
 10
10.51476195
 20
-79.45454961
 10
10.33749597
 20
-80.22026403
 10
11.8362253
 20
-83.45454975
 10
12.01349134
 20
-82.68883546
 10
10.51476195
 20
-79.45454961
 10
11.8362253
 20
-83.45454975
  0
LWPOLYLINE
  5
10C
100
AcDbEntity
  8
MST_1_1
 62
   137
  6
CONTINUOUS
100
AcDbPolyline
 90
        6
 70
     0
 43
0.0
 38
2500.0
 10
12.80047623
 20
-79.45454961
 10
12.62321025
 20
-80.22026403
 10
14.12193958
 20
-83.45454975
 10
14.29920563
 20
-82.68883546
 10
12.80047623
 20
-79.45454961
 10
14.12193958
 20
-83.45454975
  0
LWPOLYLINE
  5
10D
100
AcDbEntity
  8
MST_1_1
 62
   137
  6
CONTINUOUS
100
AcDbPolyline
 90
        6
 70
     0
 43
0.0
 38
2500.0
 10
19.65761909
 20
-79.45454961
 10
19.48035311
 20
-80.22026403
 10
20.97908244
 20
-83.45454975
 10
21.12933982
 20
-82.63055028
 10
19.65761909
 20
-79.45454961
 10
20.97908244
 20
-83.45454975
  0
LWPOLYLINE
  5
10E
100
AcDbEntity
  8
MST_1_1
 62
   137
  6
CONTINUOUS
100
AcDbPolyline
 90
        6
 70
     0
 43
0.0
 38
2500.0
 10
21.90965284
 20
-79.71476598
 10
21.7660674
 20
-80.33499467
 10
23.00374447
 20
-83.00592477
 10
23.14732991
 20
-82.38569608
 10
21.90965284
 20
-79.71476598
 10
22.98003815
 20
-82.95476609
  0
LINE
  5
10F
100
AcDbEntity
  8
MST_1_1
 62
   137
  6
CONTINUOUS
100
AcDbLine
 10
5.15634848
 20
-82.68883546
 30
2500.0
 11
6.90997388
 21
-82.68883546
 31
2500.0
  0
LINE
  5
110
100
AcDbEntity
  8
MST_1_1
 62
   137
  6
CONTINUOUS
100
AcDbLine
 10
7.44206277
 20
-82.68883546
 30
2500.0
 11
9.19568817
 21
-82.68883546
 31
2500.0
  0
LINE
  5
111
100
AcDbEntity
  8
MST_1_1
 62
   137
  6
CONTINUOUS
100
AcDbLine
 10
9.72777705
 20
-82.68883546
 30
2500.0
 11
11.48140245
 21
-82.68883546
 31
2500.0
  0
LINE
  5
112
100
AcDbEntity
  8
MST_1_1
 62
   137
  6
CONTINUOUS
100
AcDbLine
 10
12.01349134
 20
-82.68883546
 30
2500.0
 11
13.76711674
 21
-82.68883546
 31
2500.0
  0
LINE
  5
113
100
AcDbEntity
  8
MST_1_1
 62
   137
  6
CONTINUOUS
100
AcDbLine
 10
18.8706342
 20
-82.68883546
 30
2500.0
 11
20.01478424
 21
-82.68378087
 31
2500.0
  0
LINE
  5
114
100
AcDbEntity
  8
MST_1_1
 62
   137
  6
CONTINUOUS
100
AcDbLine
 10
5.7660674
 20
-80.22026403
 30
2500.0
 11
4.012442
 21
-80.22026403
 31
2500.0
  0
LINE
  5
115
100
AcDbEntity
  8
MST_1_1
 62
   137
  6
CONTINUOUS
100
AcDbLine
 10
8.05178168
 20
-80.22026403
 30
2500.0
 11
6.29815628
 21
-80.22026403
 31
2500.0
  0
LINE
  5
116
100
AcDbEntity
  8
MST_1_1
 62
   137
  6
CONTINUOUS
100
AcDbLine
 10
10.33749597
 20
-80.22026403
 30
2500.0
 11
8.58387057
 21
-80.22026403
 31
2500.0
  0
LINE
  5
117
100
AcDbEntity
  8
MST_1_1
 62
   137
  6
CONTINUOUS
100
AcDbLine
 10
12.62321025
 20
-80.22026403
 30
2500.0
 11
10.86958486
 21
-80.22026403
 31
2500.0
  0
LINE
  5
118
100
AcDbEntity
  8
MST_1_1
 62
   137
  6
CONTINUOUS
100
AcDbLine
 10
19.48035311
 20
-80.22026403
 30
2500.0
 11
17.72672771
 21
-80.22026403
 31
2500.0
  0
ARC
  5
119
100
AcDbEntity
  8
MST_1_1
 62
   137
  6
CONTINUOUS
100
AcDbCircle
 10
19.54363085
 20
-101.78548655
 30
2500.0
 40
21.56531535
100
AcDbArc
 50
84.08482032
 51
88.74811714
  0
LWPOLYLINE
  5
11A
100
AcDbEntity
  8
MST_1_1
 62
   137
  6
CONTINUOUS
100
AcDbPolyline
 90
        3
 70
     0
 43
0.0
 38
2500.0
 10
27.93749597
 20
-81.45454975
 10
23.68913071
 20
-80.62236634
 42
0.01723995
 10
22.22117589
 20
-80.3870385
  0
ARC
  5
11B
100
AcDbEntity
  8
MST_1_1
 62
   137
  6
CONTINUOUS
100
AcDbCircle
 10
19.54363085
 20
-61.12361295
 30
2500.0
 40
21.56531535
100
AcDbArc
 50
271.25189287
 51
272.83975061
  0
LWPOLYLINE
  5
11C
100
AcDbEntity
  8
MST_1_1
 62
   137
  6
CONTINUOUS
100
AcDbPolyline
 90
        3
 70
     0
 43
0.0
 38
2500.0
 10
27.93749597
 20
-81.45454975
 10
23.68913071
 20
-82.28673316
 42
-0.0063851
 10
23.14732991
 20
-82.38569608
  0
ARC
  5
11D
100
AcDbEntity
  8
MST_1_1
 62
   137
  6
CONTINUOUS
100
AcDbCircle
 10
19.54363085
 20
-61.12361295
 30
2500.0
 40
21.56531535
100
AcDbArc
 50
274.21680449
 51
278.53995004
  0
LWPOLYLINE
  5
11E
100
AcDbEntity
  8
MST_1_1
 62
   137
  6
CONTINUOUS
100
AcDbPolyline
 90
        6
 70
     0
 43
0.0
 38
2500.0
 10
24.14654808
 20
-80.28405264
 10
24.05178168
 20
-80.69340357
 10
24.86864855
 20
-82.45621744
 10
24.95927534
 20
-82.03793316
 10
24.14654808
 20
-80.28405264
 10
24.85300238
 20
-82.42245271
  0
LINE
  5
11F
100
AcDbEntity
  8
MST_1_1
 62
   137
  6
CONTINUOUS
100
AcDbLine
 10
-2.06250403
 20
-141.45454975
 30
0.0
 11
-2.06250403
 21
-137.45454975
 31
0.0
  0
LINE
  5
120
100
AcDbEntity
  8
MST_1_1
 62
   137
  6
CONTINUOUS
100
AcDbLine
 10
-2.06250403
 20
-137.45454975
 30
0.0
 11
-1.96250406
 21
-137.45454975
 31
0.0
  0
LWPOLYLINE
  5
121
100
AcDbEntity
  8
MST_1_1
 62
   137
  6
CONTINUOUS
100
AcDbPolyline
 90
        6
 70
     0
 43
0.0
 38
2500.0
 10
4.51476195
 20
-139.45454961
 10
4.33749597
 20
-140.22026403
 10
5.8362253
 20
-143.45454975
 10
6.01349134
 20
-142.68883546
 10
4.51476195
 20
-139.45454961
 10
5.8362253
 20
-143.45454975
  0
LINE
  5
122
100
AcDbEntity
  8
MST_1_1
 62
   137
  6
CONTINUOUS
100
AcDbLine
 10
5.48140245
 20
-142.68883546
 30
2500.0
 11
3.72777705
 21
-142.68883546
 31
2500.0
  0
LINE
  5
123
100
AcDbEntity
  8
MST_1_1
 62
   137
  6
CONTINUOUS
100
AcDbLine
 10
3.19568817
 20
-142.68883546
 30
2500.0
 11
0.43749597
 21
-142.68883546
 31
2500.0
  0
LINE
  5
124
100
AcDbEntity
  8
MST_1_1
 62
   137
  6
CONTINUOUS
100
AcDbLine
 10
-1.96250406
 20
-137.45454975
 30
0.0
 11
0.43749597
 21
-140.22026403
 31
0.0
  0
LINE
  5
125
100
AcDbEntity
  8
MST_1_1
 62
   137
  6
CONTINUOUS
100
AcDbLine
 10
0.43749597
 20
-142.68883546
 30
0.0
 11
-1.96250406
 21
-145.45454975
 31
0.0
  0
LINE
  5
126
100
AcDbEntity
  8
MST_1_1
 62
   137
  6
CONTINUOUS
100
AcDbLine
 10
-1.96250406
 20
-145.45454975
 30
0.0
 11
-2.06250403
 21
-145.45454975
 31
0.0
  0
LINE
  5
127
100
AcDbEntity
  8
MST_1_1
 62
   137
  6
CONTINUOUS
100
AcDbLine
 10
-2.06250403
 20
-145.45454975
 30
0.0
 11
-2.06250403
 21
-141.45454975
 31
0.0
  0
LWPOLYLINE
  5
128
100
AcDbEntity
  8
MST_1_1
 62
   137
  6
CONTINUOUS
100
AcDbPolyline
 90
        6
 70
     0
 43
0.0
 38
2500.0
 10
6.80047623
 20
-139.45454961
 10
6.62321025
 20
-140.22026403
 10
8.12193958
 20
-143.45454975
 10
8.29920563
 20
-142.68883546
 10
6.80047623
 20
-139.45454961
 10
8.12193958
 20
-143.45454975
  0
LWPOLYLINE
  5
129
100
AcDbEntity
  8
MST_1_1
 62
   137
  6
CONTINUOUS
100
AcDbPolyline
 90
        6
 70
     0
 43
0.0
 38
2500.0
 10
9.08619052
 20
-139.45454961
 10
8.90892454
 20
-140.22026403
 10
10.40765387
 20
-143.45454975
 10
10.58491991
 20
-142.68883546
 10
9.08619052
 20
-139.45454961
 10
10.40765387
 20
-143.45454975
  0
LWPOLYLINE
  5
12A
100
AcDbEntity
  8
MST_1_1
 62
   137
  6
CONTINUOUS
100
AcDbPolyline
 90
        6
 70
     0
 43
0.0
 38
2500.0
 10
11.37190481
 20
-139.45454961
 10
11.19463883
 20
-140.22026403
 10
12.69336815
 20
-143.45454975
 10
12.8706342
 20
-142.68883546
 10
11.37190481
 20
-139.45454961
 10
12.69336815
 20
-143.45454975
  0
LWPOLYLINE
  5
12B
100
AcDbEntity
  8
MST_1_1
 62
   137
  6
CONTINUOUS
100
AcDbPolyline
 90
        6
 70
     0
 43
0.0
 38
2500.0
 10
27.37190481
 20
-139.45454961
 10
27.19463883
 20
-140.22026403
 10
28.69336815
 20
-143.45454975
 10
28.8706342
 20
-142.68883546
 10
27.37190481
 20
-139.45454961
 10
28.69336815
 20
-143.45454975
  0
LWPOLYLINE
  5
12C
100
AcDbEntity
  8
MST_1_1
 62
   137
  6
CONTINUOUS
100
AcDbPolyline
 90
        6
 70
     0
 43
0.0
 38
2500.0
 10
29.65761909
 20
-139.45454961
 10
29.48035311
 20
-140.22026403
 10
30.97908244
 20
-143.45454975
 10
31.12933982
 20
-142.63055028
 10
29.65761909
 20
-139.45454961
 10
30.97908244
 20
-143.45454975
  0
LWPOLYLINE
  5
12D
100
AcDbEntity
  8
MST_1_1
 62
   137
  6
CONTINUOUS
100
AcDbPolyline
 90
        6
 70
     0
 43
0.0
 38
2500.0
 10
31.90965284
 20
-139.71476598
 10
31.7660674
 20
-140.33499467
 10
33.00374447
 20
-143.00592477
 10
33.14732991
 20
-142.38569608
 10
31.90965284
 20
-139.71476598
 10
32.98003815
 20
-142.95476609
  0
LINE
  5
12E
100
AcDbEntity
  8
MST_1_1
 62
   137
  6
CONTINUOUS
100
AcDbLine
 10
6.01349134
 20
-142.68883546
 30
2500.0
 11
7.76711674
 21
-142.68883546
 31
2500.0
  0
LINE
  5
12F
100
AcDbEntity
  8
MST_1_1
 62
   137
  6
CONTINUOUS
100
AcDbLine
 10
8.29920563
 20
-142.68883546
 30
2500.0
 11
10.05283102
 21
-142.68883546
 31
2500.0
  0
LINE
  5
130
100
AcDbEntity
  8
MST_1_1
 62
   137
  6
CONTINUOUS
100
AcDbLine
 10
10.58491991
 20
-142.68883546
 30
2500.0
 11
12.33854531
 21
-142.68883546
 31
2500.0
  0
LINE
  5
131
100
AcDbEntity
  8
MST_1_1
 62
   137
  6
CONTINUOUS
100
AcDbLine
 10
26.58491991
 20
-142.68883546
 30
2500.0
 11
28.33854531
 21
-142.68883546
 31
2500.0
  0
LINE
  5
132
100
AcDbEntity
  8
MST_1_1
 62
   137
  6
CONTINUOUS
100
AcDbLine
 10
28.8706342
 20
-142.68883546
 30
2500.0
 11
30.01478424
 21
-142.68378087
 31
2500.0
  0
LINE
  5
133
100
AcDbEntity
  8
MST_1_1
 62
   137
  6
CONTINUOUS
100
AcDbLine
 10
6.62321025
 20
-140.22026403
 30
2500.0
 11
4.86958486
 21
-140.22026403
 31
2500.0
  0
LINE
  5
134
100
AcDbEntity
  8
MST_1_1
 62
   137
  6
CONTINUOUS
100
AcDbLine
 10
8.90892454
 20
-140.22026403
 30
2500.0
 11
7.15529914
 21
-140.22026403
 31
2500.0
  0
LINE
  5
135
100
AcDbEntity
  8
MST_1_1
 62
   137
  6
CONTINUOUS
100
AcDbLine
 10
11.19463883
 20
-140.22026403
 30
2500.0
 11
9.44101343
 21
-140.22026403
 31
2500.0
  0
LINE
  5
136
100
AcDbEntity
  8
MST_1_1
 62
   137
  6
CONTINUOUS
100
AcDbLine
 10
27.19463883
 20
-140.22026403
 30
2500.0
 11
25.44101343
 21
-140.22026403
 31
2500.0
  0
LINE
  5
137
100
AcDbEntity
  8
MST_1_1
 62
   137
  6
CONTINUOUS
100
AcDbLine
 10
29.48035311
 20
-140.22026403
 30
2500.0
 11
27.72672771
 21
-140.22026403
 31
2500.0
  0
ARC
  5
138
100
AcDbEntity
  8
MST_1_1
 62
   137
  6
CONTINUOUS
100
AcDbCircle
 10
29.54363085
 20
-161.78548655
 30
2500.0
 40
21.56531535
100
AcDbArc
 50
84.08482032
 51
88.74811714
  0
LWPOLYLINE
  5
139
100
AcDbEntity
  8
MST_1_1
 62
   137
  6
CONTINUOUS
100
AcDbPolyline
 90
        3
 70
     0
 43
0.0
 38
2500.0
 10
37.93749597
 20
-141.45454975
 10
33.68913071
 20
-140.62236634
 42
0.01723995
 10
32.22117589
 20
-140.3870385
  0
ARC
  5
13A
100
AcDbEntity
  8
MST_1_1
 62
   137
  6
CONTINUOUS
100
AcDbCircle
 10
29.54363085
 20
-121.12361295
 30
2500.0
 40
21.56531535
100
AcDbArc
 50
271.25189287
 51
272.83975061
  0
LWPOLYLINE
  5
13B
100
AcDbEntity
  8
MST_1_1
 62
   137
  6
CONTINUOUS
100
AcDbPolyline
 90
        3
 70
     0
 43
0.0
 38
2500.0
 10
37.93749597
 20
-141.45454975
 10
33.68913071
 20
-142.28673316
 42
-0.0063851
 10
33.14732991
 20
-142.38569608
  0
ARC
  5
13C
100
AcDbEntity
  8
MST_1_1
 62
   137
  6
CONTINUOUS
100
AcDbCircle
 10
29.54363085
 20
-121.12361295
 30
2500.0
 40
21.56531535
100
AcDbArc
 50
274.21680449
 51
278.53995004
  0
LWPOLYLINE
  5
13D
100
AcDbEntity
  8
MST_1_1
 62
   137
  6
CONTINUOUS
100
AcDbPolyline
 90
        6
 70
     0
 43
0.0
 38
2500.0
 10
34.14654808
 20
-140.28405264
 10
34.05178168
 20
-140.69340357
 10
34.86864855
 20
-142.45621744
 10
34.95927534
 20
-142.03793316
 10
34.14654808
 20
-140.28405264
 10
34.85300238
 20
-142.42245271
  0
LINE
  5
13E
100
AcDbEntity
  8
MST_1_1
 62
   137
  6
CONTINUOUS
100
AcDbLine
 10
-2.06250403
 20
-171.45454975
 30
0.0
 11
-2.06250403
 21
-167.45454975
 31
0.0
  0
LINE
  5
13F
100
AcDbEntity
  8
MST_1_1
 62
   137
  6
CONTINUOUS
100
AcDbLine
 10
-2.06250403
 20
-167.45454975
 30
0.0
 11
-1.96250406
 21
-167.45454975
 31
0.0
  0
LWPOLYLINE
  5
140
100
AcDbEntity
  8
MST_1_1
 62
   137
  6
CONTINUOUS
100
AcDbPolyline
 90
        6
 70
     0
 43
0.0
 38
2500.0
 10
2.65761909
 20
-169.45454961
 10
2.48035311
 20
-170.22026403
 10
3.97908244
 20
-173.45454975
 10
4.15634848
 20
-172.68883546
 10
2.65761909
 20
-169.45454961
 10
3.97908244
 20
-173.45454975
  0
LINE
  5
141
100
AcDbEntity
  8
MST_1_1
 62
   137
  6
CONTINUOUS
100
AcDbLine
 10
0.43749597
 20
-170.22026403
 30
2500.0
 11
2.48035311
 21
-170.22026403
 31
2500.0
  0
LWPOLYLINE
  5
142
100
AcDbEntity
  8
MST_1_1
 62
   137
  6
CONTINUOUS
100
AcDbPolyline
 90
        4
 70
     0
 43
0.0
 38
2500.0
 10
1.33854531
 20
-172.68883546
 10
1.69336815
 20
-173.45454975
 10
1.8706342
 20
-172.68883546
 10
1.60474789
 20
-172.11504788
  0
LINE
  5
143
100
AcDbEntity
  8
MST_1_1
 62
   137
  6
CONTINUOUS
100
AcDbLine
 10
1.39803815
 20
-172.56060134
 30
2500.0
 11
1.69336815
 21
-173.45454975
 31
2500.0
  0
LINE
  5
144
100
AcDbEntity
  8
MST_1_1
 62
   137
  6
CONTINUOUS
100
AcDbLine
 10
1.33854531
 20
-172.68883546
 30
2500.0
 11
1.60474789
 21
-172.11504788
 31
2500.0
  0
LINE
  5
145
100
AcDbEntity
  8
MST_1_1
 62
   137
  6
CONTINUOUS
100
AcDbLine
 10
3.6242596
 20
-172.68883546
 30
2500.0
 11
1.8706342
 21
-172.68883546
 31
2500.0
  0
LINE
  5
146
100
AcDbEntity
  8
MST_1_1
 62
   137
  6
CONTINUOUS
100
AcDbLine
 10
1.33854531
 20
-172.68883546
 30
2500.0
 11
0.43749597
 21
-172.68883546
 31
2500.0
  0
LINE
  5
147
100
AcDbEntity
  8
MST_1_1
 62
   137
  6
CONTINUOUS
100
AcDbLine
 10
-1.96250406
 20
-167.45454975
 30
0.0
 11
0.43749597
 21
-170.22026403
 31
0.0
  0
LINE
  5
148
100
AcDbEntity
  8
MST_1_1
 62
   137
  6
CONTINUOUS
100
AcDbLine
 10
0.43749597
 20
-172.68883546
 30
0.0
 11
-1.96250406
 21
-175.45454975
 31
0.0
  0
LINE
  5
149
100
AcDbEntity
  8
MST_1_1
 62
   137
  6
CONTINUOUS
100
AcDbLine
 10
-1.96250406
 20
-175.45454975
 30
0.0
 11
-2.06250403
 21
-175.45454975
 31
0.0
  0
LINE
  5
14A
100
AcDbEntity
  8
MST_1_1
 62
   137
  6
CONTINUOUS
100
AcDbLine
 10
-2.06250403
 20
-175.45454975
 30
0.0
 11
-2.06250403
 21
-171.45454975
 31
0.0
  0
LWPOLYLINE
  5
14B
100
AcDbEntity
  8
MST_1_1
 62
   137
  6
CONTINUOUS
100
AcDbPolyline
 90
        6
 70
     0
 43
0.0
 38
2500.0
 10
4.94333338
 20
-169.45454961
 10
4.7660674
 20
-170.22026403
 10
6.26479673
 20
-173.45454975
 10
6.44206277
 20
-172.68883546
 10
4.94333338
 20
-169.45454961
 10
6.26479673
 20
-173.45454975
  0
LWPOLYLINE
  5
14C
100
AcDbEntity
  8
MST_1_1
 62
   137
  6
CONTINUOUS
100
AcDbPolyline
 90
        6
 70
     0
 43
0.0
 38
2500.0
 10
7.22904766
 20
-169.45454961
 10
7.05178168
 20
-170.22026403
 10
8.55051101
 20
-173.45454975
 10
8.72777705
 20
-172.68883546
 10
7.22904766
 20
-169.45454961
 10
8.55051101
 20
-173.45454975
  0
LWPOLYLINE
  5
14D
100
AcDbEntity
  8
MST_1_1
 62
   137
  6
CONTINUOUS
100
AcDbPolyline
 90
        6
 70
     0
 43
0.0
 38
2500.0
 10
9.51476195
 20
-169.45454961
 10
9.33749597
 20
-170.22026403
 10
10.8362253
 20
-173.45454975
 10
11.01349134
 20
-172.68883546
 10
9.51476195
 20
-169.45454961
 10
10.8362253
 20
-173.45454975
  0
LWPOLYLINE
  5
14E
100
AcDbEntity
  8
MST_1_1
 62
   137
  6
CONTINUOUS
100
AcDbPolyline
 90
        6
 70
     0
 43
0.0
 38
2500.0
 10
11.80047623
 20
-169.45454961
 10
11.62321025
 20
-170.22026403
 10
13.12193958
 20
-173.45454975
 10
13.29920563
 20
-172.68883546
 10
11.80047623
 20
-169.45454961
 10
13.12193958
 20
-173.45454975
  0
LWPOLYLINE
  5
14F
100
AcDbEntity
  8
MST_1_1
 62
   137
  6
CONTINUOUS
100
AcDbPolyline
 90
        6
 70
     0
 43
0.0
 38
2500.0
 10
34.65761909
 20
-169.45454961
 10
34.48035311
 20
-170.22026403
 10
35.97908244
 20
-173.45454975
 10
36.12933982
 20
-172.63055028
 10
34.65761909
 20
-169.45454961
 10
35.97908244
 20
-173.45454975
  0
LWPOLYLINE
  5
150
100
AcDbEntity
  8
MST_1_1
 62
   137
  6
CONTINUOUS
100
AcDbPolyline
 90
        6
 70
     0
 43
0.0
 38
2500.0
 10
36.90965284
 20
-169.71476598
 10
36.7660674
 20
-170.33499467
 10
38.00374447
 20
-173.00592477
 10
38.14732991
 20
-172.38569608
 10
36.90965284
 20
-169.71476598
 10
37.98003815
 20
-172.95476609
  0
LINE
  5
151
100
AcDbEntity
  8
MST_1_1
 62
   137
  6
CONTINUOUS
100
AcDbLine
 10
4.15634848
 20
-172.68883546
 30
2500.0
 11
5.90997388
 21
-172.68883546
 31
2500.0
  0
LINE
  5
152
100
AcDbEntity
  8
MST_1_1
 62
   137
  6
CONTINUOUS
100
AcDbLine
 10
6.44206277
 20
-172.68883546
 30
2500.0
 11
8.19568817
 21
-172.68883546
 31
2500.0
  0
LINE
  5
153
100
AcDbEntity
  8
MST_1_1
 62
   137
  6
CONTINUOUS
100
AcDbLine
 10
8.72777705
 20
-172.68883546
 30
2500.0
 11
10.48140245
 21
-172.68883546
 31
2500.0
  0
LINE
  5
154
100
AcDbEntity
  8
MST_1_1
 62
   137
  6
CONTINUOUS
100
AcDbLine
 10
11.01349134
 20
-172.68883546
 30
2500.0
 11
12.76711674
 21
-172.68883546
 31
2500.0
  0
LINE
  5
155
100
AcDbEntity
  8
MST_1_1
 62
   137
  6
CONTINUOUS
100
AcDbLine
 10
33.8706342
 20
-172.68883546
 30
2500.0
 11
35.01478424
 21
-172.68378087
 31
2500.0
  0
LINE
  5
156
100
AcDbEntity
  8
MST_1_1
 62
   137
  6
CONTINUOUS
100
AcDbLine
 10
4.7660674
 20
-170.22026403
 30
2500.0
 11
3.012442
 21
-170.22026403
 31
2500.0
  0
LINE
  5
157
100
AcDbEntity
  8
MST_1_1
 62
   137
  6
CONTINUOUS
100
AcDbLine
 10
7.05178168
 20
-170.22026403
 30
2500.0
 11
5.29815628
 21
-170.22026403
 31
2500.0
  0
LINE
  5
158
100
AcDbEntity
  8
MST_1_1
 62
   137
  6
CONTINUOUS
100
AcDbLine
 10
9.33749597
 20
-170.22026403
 30
2500.0
 11
7.58387057
 21
-170.22026403
 31
2500.0
  0
LINE
  5
159
100
AcDbEntity
  8
MST_1_1
 62
   137
  6
CONTINUOUS
100
AcDbLine
 10
11.62321025
 20
-170.22026403
 30
2500.0
 11
9.86958486
 21
-170.22026403
 31
2500.0
  0
LINE
  5
15A
100
AcDbEntity
  8
MST_1_1
 62
   137
  6
CONTINUOUS
100
AcDbLine
 10
34.48035311
 20
-170.22026403
 30
2500.0
 11
32.72672771
 21
-170.22026403
 31
2500.0
  0
ARC
  5
15B
100
AcDbEntity
  8
MST_1_1
 62
   137
  6
CONTINUOUS
100
AcDbCircle
 10
34.54363085
 20
-191.78548655
 30
2500.0
 40
21.56531535
100
AcDbArc
 50
84.08482032
 51
88.74811714
  0
LWPOLYLINE
  5
15C
100
AcDbEntity
  8
MST_1_1
 62
   137
  6
CONTINUOUS
100
AcDbPolyline
 90
        3
 70
     0
 43
0.0
 38
2500.0
 10
42.93749597
 20
-171.45454975
 10
38.68913071
 20
-170.62236634
 42
0.01723995
 10
37.22117589
 20
-170.3870385
  0
ARC
  5
15D
100
AcDbEntity
  8
MST_1_1
 62
   137
  6
CONTINUOUS
100
AcDbCircle
 10
34.54363085
 20
-151.12361295
 30
2500.0
 40
21.56531535
100
AcDbArc
 50
271.25189287
 51
272.83975061
  0
LWPOLYLINE
  5
15E
100
AcDbEntity
  8
MST_1_1
 62
   137
  6
CONTINUOUS
100
AcDbPolyline
 90
        3
 70
     0
 43
0.0
 38
2500.0
 10
42.93749597
 20
-171.45454975
 10
38.68913071
 20
-172.28673316
 42
-0.0063851
 10
38.14732991
 20
-172.38569608
  0
ARC
  5
15F
100
AcDbEntity
  8
MST_1_1
 62
   137
  6
CONTINUOUS
100
AcDbCircle
 10
34.54363085
 20
-151.12361295
 30
2500.0
 40
21.56531535
100
AcDbArc
 50
274.21680449
 51
278.53995004
  0
LWPOLYLINE
  5
160
100
AcDbEntity
  8
MST_1_1
 62
   137
  6
CONTINUOUS
100
AcDbPolyline
 90
        6
 70
     0
 43
0.0
 38
2500.0
 10
39.14654808
 20
-170.28405264
 10
39.05178168
 20
-170.69340357
 10
39.86864855
 20
-172.45621744
 10
39.95927534
 20
-172.03793316
 10
39.14654808
 20
-170.28405264
 10
39.85300238
 20
-172.42245271
  0
LWPOLYLINE
  5
161
100
AcDbEntity
  8
MST_1_1
 62
   137
  6
CONTINUOUS
100
AcDbPolyline
 90
        6
 70
     0
 43
0.0
 38
2500.0
 10
15.08619052
 20
-79.45454961
 10
14.90892454
 20
-80.22026403
 10
16.40765387
 20
-83.45454975
 10
16.58491991
 20
-82.68883546
 10
15.08619052
 20
-79.45454961
 10
16.40765387
 20
-83.45454975
  0
LWPOLYLINE
  5
162
100
AcDbEntity
  8
MST_1_1
 62
   137
  6
CONTINUOUS
100
AcDbPolyline
 90
        6
 70
     0
 43
0.0
 38
2500.0
 10
17.37190481
 20
-79.45454961
 10
17.19463883
 20
-80.22026403
 10
18.69336815
 20
-83.45454975
 10
18.8706342
 20
-82.68883546
 10
17.37190481
 20
-79.45454961
 10
18.69336815
 20
-83.45454975
  0
LINE
  5
163
100
AcDbEntity
  8
MST_1_1
 62
   137
  6
CONTINUOUS
100
AcDbLine
 10
14.29920563
 20
-82.68883546
 30
2500.0
 11
16.05283102
 21
-82.68883546
 31
2500.0
  0
LINE
  5
164
100
AcDbEntity
  8
MST_1_1
 62
   137
  6
CONTINUOUS
100
AcDbLine
 10
16.58491991
 20
-82.68883546
 30
2500.0
 11
18.33854531
 21
-82.68883546
 31
2500.0
  0
LINE
  5
165
100
AcDbEntity
  8
MST_1_1
 62
   137
  6
CONTINUOUS
100
AcDbLine
 10
14.90892454
 20
-80.22026403
 30
2500.0
 11
13.15529914
 21
-80.22026403
 31
2500.0
  0
LINE
  5
166
100
AcDbEntity
  8
MST_1_1
 62
   137
  6
CONTINUOUS
100
AcDbLine
 10
17.19463883
 20
-80.22026403
 30
2500.0
 11
15.44101343
 21
-80.22026403
 31
2500.0
  0
LWPOLYLINE
  5
167
100
AcDbEntity
  8
MST_1_1
 62
   137
  6
CONTINUOUS
100
AcDbPolyline
 90
        6
 70
     0
 43
0.0
 38
2500.0
 10
17.80047623
 20
-109.45454961
 10
17.62321025
 20
-110.22026403
 10
19.12193958
 20
-113.45454975
 10
19.29920563
 20
-112.68883546
 10
17.80047623
 20
-109.45454961
 10
19.12193958
 20
-113.45454975
  0
LWPOLYLINE
  5
168
100
AcDbEntity
  8
MST_1_1
 62
   137
  6
CONTINUOUS
100
AcDbPolyline
 90
        6
 70
     0
 43
0.0
 38
2500.0
 10
20.08619052
 20
-109.45454961
 10
19.90892454
 20
-110.22026403
 10
21.40765387
 20
-113.45454975
 10
21.58491991
 20
-112.68883546
 10
20.08619052
 20
-109.45454961
 10
21.40765387
 20
-113.45454975
  0
LWPOLYLINE
  5
169
100
AcDbEntity
  8
MST_1_1
 62
   137
  6
CONTINUOUS
100
AcDbPolyline
 90
        6
 70
     0
 43
0.0
 38
2500.0
 10
22.37190481
 20
-109.45454961
 10
22.19463883
 20
-110.22026403
 10
23.69336815
 20
-113.45454975
 10
23.8706342
 20
-112.68883546
 10
22.37190481
 20
-109.45454961
 10
23.69336815
 20
-113.45454975
  0
LINE
  5
16A
100
AcDbEntity
  8
MST_1_1
 62
   137
  6
CONTINUOUS
100
AcDbLine
 10
17.01349134
 20
-112.68883546
 30
2500.0
 11
18.76711674
 21
-112.68883546
 31
2500.0
  0
LINE
  5
16B
100
AcDbEntity
  8
MST_1_1
 62
   137
  6
CONTINUOUS
100
AcDbLine
 10
19.29920563
 20
-112.68883546
 30
2500.0
 11
21.05283102
 21
-112.68883546
 31
2500.0
  0
LINE
  5
16C
100
AcDbEntity
  8
MST_1_1
 62
   137
  6
CONTINUOUS
100
AcDbLine
 10
21.58491991
 20
-112.68883546
 30
2500.0
 11
23.33854531
 21
-112.68883546
 31
2500.0
  0
LINE
  5
16D
100
AcDbEntity
  8
MST_1_1
 62
   137
  6
CONTINUOUS
100
AcDbLine
 10
17.62321025
 20
-110.22026403
 30
2500.0
 11
15.86958486
 21
-110.22026403
 31
2500.0
  0
LINE
  5
16E
100
AcDbEntity
  8
MST_1_1
 62
   137
  6
CONTINUOUS
100
AcDbLine
 10
19.90892454
 20
-110.22026403
 30
2500.0
 11
18.15529914
 21
-110.22026403
 31
2500.0
  0
LINE
  5
16F
100
AcDbEntity
  8
MST_1_1
 62
   137
  6
CONTINUOUS
100
AcDbLine
 10
22.19463883
 20
-110.22026403
 30
2500.0
 11
20.44101343
 21
-110.22026403
 31
2500.0
  0
LWPOLYLINE
  5
170
100
AcDbEntity
  8
MST_1_1
 62
   137
  6
CONTINUOUS
100
AcDbPolyline
 90
        6
 70
     0
 43
0.0
 38
2500.0
 10
15.51476195
 20
-109.45454961
 10
15.33749597
 20
-110.22026403
 10
16.8362253
 20
-113.45454975
 10
17.01349134
 20
-112.68883546
 10
15.51476195
 20
-109.45454961
 10
16.8362253
 20
-113.45454975
  0
LINE
  5
171
100
AcDbEntity
  8
MST_1_1
 62
   137
  6
CONTINUOUS
100
AcDbLine
 10
14.72777705
 20
-112.68883546
 30
2500.0
 11
16.48140245
 21
-112.68883546
 31
2500.0
  0
LINE
  5
172
100
AcDbEntity
  8
MST_1_1
 62
   137
  6
CONTINUOUS
100
AcDbLine
 10
15.33749597
 20
-110.22026403
 30
2500.0
 11
13.58387057
 21
-110.22026403
 31
2500.0
  0
LWPOLYLINE
  5
173
100
AcDbEntity
  8
MST_1_1
 62
   137
  6
CONTINUOUS
100
AcDbPolyline
 90
        6
 70
     0
 43
0.0
 38
2500.0
 10
20.51476195
 20
-139.45454961
 10
20.33749597
 20
-140.22026403
 10
21.8362253
 20
-143.45454975
 10
22.01349134
 20
-142.68883546
 10
20.51476195
 20
-139.45454961
 10
21.8362253
 20
-143.45454975
  0
LWPOLYLINE
  5
174
100
AcDbEntity
  8
MST_1_1
 62
   137
  6
CONTINUOUS
100
AcDbPolyline
 90
        6
 70
     0
 43
0.0
 38
2500.0
 10
22.80047623
 20
-139.45454961
 10
22.62321025
 20
-140.22026403
 10
24.12193958
 20
-143.45454975
 10
24.29920563
 20
-142.68883546
 10
22.80047623
 20
-139.45454961
 10
24.12193958
 20
-143.45454975
  0
LWPOLYLINE
  5
175
100
AcDbEntity
  8
MST_1_1
 62
   137
  6
CONTINUOUS
100
AcDbPolyline
 90
        6
 70
     0
 43
0.0
 38
2500.0
 10
25.08619052
 20
-139.45454961
 10
24.90892454
 20
-140.22026403
 10
26.40765387
 20
-143.45454975
 10
26.58491991
 20
-142.68883546
 10
25.08619052
 20
-139.45454961
 10
26.40765387
 20
-143.45454975
  0
LINE
  5
176
100
AcDbEntity
  8
MST_1_1
 62
   137
  6
CONTINUOUS
100
AcDbLine
 10
19.72777705
 20
-142.68883546
 30
2500.0
 11
21.48140245
 21
-142.68883546
 31
2500.0
  0
LINE
  5
177
100
AcDbEntity
  8
MST_1_1
 62
   137
  6
CONTINUOUS
100
AcDbLine
 10
22.01349134
 20
-142.68883546
 30
2500.0
 11
23.76711674
 21
-142.68883546
 31
2500.0
  0
LINE
  5
178
100
AcDbEntity
  8
MST_1_1
 62
   137
  6
CONTINUOUS
100
AcDbLine
 10
24.29920563
 20
-142.68883546
 30
2500.0
 11
26.05283102
 21
-142.68883546
 31
2500.0
  0
LINE
  5
179
100
AcDbEntity
  8
MST_1_1
 62
   137
  6
CONTINUOUS
100
AcDbLine
 10
20.33749597
 20
-140.22026403
 30
2500.0
 11
18.58387057
 21
-140.22026403
 31
2500.0
  0
LINE
  5
17A
100
AcDbEntity
  8
MST_1_1
 62
   137
  6
CONTINUOUS
100
AcDbLine
 10
22.62321025
 20
-140.22026403
 30
2500.0
 11
20.86958486
 21
-140.22026403
 31
2500.0
  0
LINE
  5
17B
100
AcDbEntity
  8
MST_1_1
 62
   137
  6
CONTINUOUS
100
AcDbLine
 10
24.90892454
 20
-140.22026403
 30
2500.0
 11
23.15529914
 21
-140.22026403
 31
2500.0
  0
LWPOLYLINE
  5
17C
100
AcDbEntity
  8
MST_1_1
 62
   137
  6
CONTINUOUS
100
AcDbPolyline
 90
        6
 70
     0
 43
0.0
 38
2500.0
 10
13.65761909
 20
-139.45454961
 10
13.48035311
 20
-140.22026403
 10
14.97908244
 20
-143.45454975
 10
15.15634848
 20
-142.68883546
 10
13.65761909
 20
-139.45454961
 10
14.97908244
 20
-143.45454975
  0
LWPOLYLINE
  5
17D
100
AcDbEntity
  8
MST_1_1
 62
   137
  6
CONTINUOUS
100
AcDbPolyline
 90
        6
 70
     0
 43
0.0
 38
2500.0
 10
15.94333338
 20
-139.45454961
 10
15.7660674
 20
-140.22026403
 10
17.26479673
 20
-143.45454975
 10
17.44206277
 20
-142.68883546
 10
15.94333338
 20
-139.45454961
 10
17.26479673
 20
-143.45454975
  0
LWPOLYLINE
  5
17E
100
AcDbEntity
  8
MST_1_1
 62
   137
  6
CONTINUOUS
100
AcDbPolyline
 90
        6
 70
     0
 43
0.0
 38
2500.0
 10
18.22904766
 20
-139.45454961
 10
18.05178168
 20
-140.22026403
 10
19.55051101
 20
-143.45454975
 10
19.72777705
 20
-142.68883546
 10
18.22904766
 20
-139.45454961
 10
19.55051101
 20
-143.45454975
  0
LINE
  5
17F
100
AcDbEntity
  8
MST_1_1
 62
   137
  6
CONTINUOUS
100
AcDbLine
 10
12.8706342
 20
-142.68883546
 30
2500.0
 11
14.6242596
 21
-142.68883546
 31
2500.0
  0
LINE
  5
180
100
AcDbEntity
  8
MST_1_1
 62
   137
  6
CONTINUOUS
100
AcDbLine
 10
15.15634848
 20
-142.68883546
 30
2500.0
 11
16.90997388
 21
-142.68883546
 31
2500.0
  0
LINE
  5
181
100
AcDbEntity
  8
MST_1_1
 62
   137
  6
CONTINUOUS
100
AcDbLine
 10
17.44206277
 20
-142.68883546
 30
2500.0
 11
19.19568817
 21
-142.68883546
 31
2500.0
  0
LINE
  5
182
100
AcDbEntity
  8
MST_1_1
 62
   137
  6
CONTINUOUS
100
AcDbLine
 10
13.48035311
 20
-140.22026403
 30
2500.0
 11
11.72672771
 21
-140.22026403
 31
2500.0
  0
LINE
  5
183
100
AcDbEntity
  8
MST_1_1
 62
   137
  6
CONTINUOUS
100
AcDbLine
 10
15.7660674
 20
-140.22026403
 30
2500.0
 11
14.012442
 21
-140.22026403
 31
2500.0
  0
LINE
  5
184
100
AcDbEntity
  8
MST_1_1
 62
   137
  6
CONTINUOUS
100
AcDbLine
 10
18.05178168
 20
-140.22026403
 30
2500.0
 11
16.29815628
 21
-140.22026403
 31
2500.0
  0
LWPOLYLINE
  5
185
100
AcDbEntity
  8
MST_1_1
 62
   137
  6
CONTINUOUS
100
AcDbPolyline
 90
        6
 70
     0
 43
0.0
 38
2500.0
 10
2.22904766
 20
-139.45454961
 10
2.05178168
 20
-140.22026403
 10
3.55051101
 20
-143.45454975
 10
3.72777705
 20
-142.68883546
 10
2.22904766
 20
-139.45454961
 10
3.55051101
 20
-143.45454975
  0
LINE
  5
186
100
AcDbEntity
  8
MST_1_1
 62
   137
  6
CONTINUOUS
100
AcDbLine
 10
4.33749597
 20
-140.22026403
 30
2500.0
 11
2.58387057
 21
-140.22026403
 31
2500.0
  0
LINE
  5
187
100
AcDbEntity
  8
MST_1_1
 62
   137
  6
CONTINUOUS
100
AcDbLine
 10
2.05178168
 20
-140.22026403
 30
2500.0
 11
0.43749597
 21
-140.22026403
 31
2500.0
  0
LWPOLYLINE
  5
188
100
AcDbEntity
  8
MST_1_1
 62
   137
  6
CONTINUOUS
100
AcDbPolyline
 90
        6
 70
     0
 43
0.0
 38
2500.0
 10
25.51476195
 20
-169.45454961
 10
25.33749597
 20
-170.22026403
 10
26.8362253
 20
-173.45454975
 10
27.01349134
 20
-172.68883546
 10
25.51476195
 20
-169.45454961
 10
26.8362253
 20
-173.45454975
  0
LWPOLYLINE
  5
189
100
AcDbEntity
  8
MST_1_1
 62
   137
  6
CONTINUOUS
100
AcDbPolyline
 90
        6
 70
     0
 43
0.0
 38
2500.0
 10
27.80047623
 20
-169.45454961
 10
27.62321025
 20
-170.22026403
 10
29.12193958
 20
-173.45454975
 10
29.29920563
 20
-172.68883546
 10
27.80047623
 20
-169.45454961
 10
29.12193958
 20
-173.45454975
  0
LWPOLYLINE
  5
18A
100
AcDbEntity
  8
MST_1_1
 62
   137
  6
CONTINUOUS
100
AcDbPolyline
 90
        6
 70
     0
 43
0.0
 38
2500.0
 10
30.08619052
 20
-169.45454961
 10
29.90892454
 20
-170.22026403
 10
31.40765387
 20
-173.45454975
 10
31.58491991
 20
-172.68883546
 10
30.08619052
 20
-169.45454961
 10
31.40765387
 20
-173.45454975
  0
LWPOLYLINE
  5
18B
100
AcDbEntity
  8
MST_1_1
 62
   137
  6
CONTINUOUS
100
AcDbPolyline
 90
        6
 70
     0
 43
0.0
 38
2500.0
 10
32.37190481
 20
-169.45454961
 10
32.19463883
 20
-170.22026403
 10
33.69336815
 20
-173.45454975
 10
33.8706342
 20
-172.68883546
 10
32.37190481
 20
-169.45454961
 10
33.69336815
 20
-173.45454975
  0
LINE
  5
18C
100
AcDbEntity
  8
MST_1_1
 62
   137
  6
CONTINUOUS
100
AcDbLine
 10
24.72777705
 20
-172.68883546
 30
2500.0
 11
26.48140245
 21
-172.68883546
 31
2500.0
  0
LINE
  5
18D
100
AcDbEntity
  8
MST_1_1
 62
   137
  6
CONTINUOUS
100
AcDbLine
 10
27.01349134
 20
-172.68883546
 30
2500.0
 11
28.76711674
 21
-172.68883546
 31
2500.0
  0
LINE
  5
18E
100
AcDbEntity
  8
MST_1_1
 62
   137
  6
CONTINUOUS
100
AcDbLine
 10
29.29920563
 20
-172.68883546
 30
2500.0
 11
31.05283102
 21
-172.68883546
 31
2500.0
  0
LINE
  5
18F
100
AcDbEntity
  8
MST_1_1
 62
   137
  6
CONTINUOUS
100
AcDbLine
 10
31.58491991
 20
-172.68883546
 30
2500.0
 11
33.33854531
 21
-172.68883546
 31
2500.0
  0
LINE
  5
190
100
AcDbEntity
  8
MST_1_1
 62
   137
  6
CONTINUOUS
100
AcDbLine
 10
25.33749597
 20
-170.22026403
 30
2500.0
 11
23.58387057
 21
-170.22026403
 31
2500.0
  0
LINE
  5
191
100
AcDbEntity
  8
MST_1_1
 62
   137
  6
CONTINUOUS
100
AcDbLine
 10
27.62321025
 20
-170.22026403
 30
2500.0
 11
25.86958486
 21
-170.22026403
 31
2500.0
  0
LINE
  5
192
100
AcDbEntity
  8
MST_1_1
 62
   137
  6
CONTINUOUS
100
AcDbLine
 10
29.90892454
 20
-170.22026403
 30
2500.0
 11
28.15529914
 21
-170.22026403
 31
2500.0
  0
LINE
  5
193
100
AcDbEntity
  8
MST_1_1
 62
   137
  6
CONTINUOUS
100
AcDbLine
 10
32.19463883
 20
-170.22026403
 30
2500.0
 11
30.44101343
 21
-170.22026403
 31
2500.0
  0
LWPOLYLINE
  5
194
100
AcDbEntity
  8
MST_1_1
 62
   137
  6
CONTINUOUS
100
AcDbPolyline
 90
        6
 70
     0
 43
0.0
 38
2500.0
 10
16.37190481
 20
-169.45454961
 10
16.19463883
 20
-170.22026403
 10
17.69336815
 20
-173.45454975
 10
17.8706342
 20
-172.68883546
 10
16.37190481
 20
-169.45454961
 10
17.69336815
 20
-173.45454975
  0
LWPOLYLINE
  5
195
100
AcDbEntity
  8
MST_1_1
 62
   137
  6
CONTINUOUS
100
AcDbPolyline
 90
        6
 70
     0
 43
0.0
 38
2500.0
 10
18.65761909
 20
-169.45454961
 10
18.48035311
 20
-170.22026403
 10
19.97908244
 20
-173.45454975
 10
20.15634848
 20
-172.68883546
 10
18.65761909
 20
-169.45454961
 10
19.97908244
 20
-173.45454975
  0
LWPOLYLINE
  5
196
100
AcDbEntity
  8
MST_1_1
 62
   137
  6
CONTINUOUS
100
AcDbPolyline
 90
        6
 70
     0
 43
0.0
 38
2500.0
 10
20.94333338
 20
-169.45454961
 10
20.7660674
 20
-170.22026403
 10
22.26479673
 20
-173.45454975
 10
22.44206277
 20
-172.68883546
 10
20.94333338
 20
-169.45454961
 10
22.26479673
 20
-173.45454975
  0
LWPOLYLINE
  5
197
100
AcDbEntity
  8
MST_1_1
 62
   137
  6
CONTINUOUS
100
AcDbPolyline
 90
        6
 70
     0
 43
0.0
 38
2500.0
 10
23.22904766
 20
-169.45454961
 10
23.05178168
 20
-170.22026403
 10
24.55051101
 20
-173.45454975
 10
24.72777705
 20
-172.68883546
 10
23.22904766
 20
-169.45454961
 10
24.55051101
 20
-173.45454975
  0
LINE
  5
198
100
AcDbEntity
  8
MST_1_1
 62
   137
  6
CONTINUOUS
100
AcDbLine
 10
15.58491991
 20
-172.68883546
 30
2500.0
 11
17.33854531
 21
-172.68883546
 31
2500.0
  0
LINE
  5
199
100
AcDbEntity
  8
MST_1_1
 62
   137
  6
CONTINUOUS
100
AcDbLine
 10
17.8706342
 20
-172.68883546
 30
2500.0
 11
19.6242596
 21
-172.68883546
 31
2500.0
  0
LINE
  5
19A
100
AcDbEntity
  8
MST_1_1
 62
   137
  6
CONTINUOUS
100
AcDbLine
 10
20.15634848
 20
-172.68883546
 30
2500.0
 11
21.90997388
 21
-172.68883546
 31
2500.0
  0
LINE
  5
19B
100
AcDbEntity
  8
MST_1_1
 62
   137
  6
CONTINUOUS
100
AcDbLine
 10
22.44206277
 20
-172.68883546
 30
2500.0
 11
24.19568817
 21
-172.68883546
 31
2500.0
  0
LINE
  5
19C
100
AcDbEntity
  8
MST_1_1
 62
   137
  6
CONTINUOUS
100
AcDbLine
 10
16.19463883
 20
-170.22026403
 30
2500.0
 11
14.44101343
 21
-170.22026403
 31
2500.0
  0
LINE
  5
19D
100
AcDbEntity
  8
MST_1_1
 62
   137
  6
CONTINUOUS
100
AcDbLine
 10
18.48035311
 20
-170.22026403
 30
2500.0
 11
16.72672771
 21
-170.22026403
 31
2500.0
  0
LINE
  5
19E
100
AcDbEntity
  8
MST_1_1
 62
   137
  6
CONTINUOUS
100
AcDbLine
 10
20.7660674
 20
-170.22026403
 30
2500.0
 11
19.012442
 21
-170.22026403
 31
2500.0
  0
LINE
  5
19F
100
AcDbEntity
  8
MST_1_1
 62
   137
  6
CONTINUOUS
100
AcDbLine
 10
23.05178168
 20
-170.22026403
 30
2500.0
 11
21.29815628
 21
-170.22026403
 31
2500.0
  0
LWPOLYLINE
  5
1A0
100
AcDbEntity
  8
MST_1_1
 62
   137
  6
CONTINUOUS
100
AcDbPolyline
 90
        6
 70
     0
 43
0.0
 38
2500.0
 10
14.08619052
 20
-169.45454961
 10
13.90892454
 20
-170.22026403
 10
15.40765387
 20
-173.45454975
 10
15.58491991
 20
-172.68883546
 10
14.08619052
 20
-169.45454961
 10
15.40765387
 20
-173.45454975
  0
LINE
  5
1A1
100
AcDbEntity
  8
MST_1_1
 62
   137
  6
CONTINUOUS
100
AcDbLine
 10
13.29920563
 20
-172.68883546
 30
2500.0
 11
15.05283102
 21
-172.68883546
 31
2500.0
  0
LINE
  5
1A2
100
AcDbEntity
  8
MST_1_1
 62
   137
  6
CONTINUOUS
100
AcDbLine
 10
13.90892454
 20
-170.22026403
 30
2500.0
 11
12.15529914
 21
-170.22026403
 31
2500.0
  0
LINE
  5
1A3
100
AcDbEntity
  8
MST_1_1
 62
   147
  6
CONTINUOUS
100
AcDbLine
 10
-3.12237586
 20
10.86701888
 30
2500.0
 11
-3.12237586
 21
6.22388162
 31
2500.0
  0
LWPOLYLINE
  5
1A4
100
AcDbEntity
  8
MST_1_1
 62
   147
  6
CONTINUOUS
100
AcDbPolyline
 90
       13
 70
     0
 43
0.0
 38
2500.0
 10
-3.12237586
 20
10.86701888
 10
-3.12044174
 20
11.02831309
 10
-3.10162448
 20
11.18897487
 10
-3.06604417
 20
11.34797878
 10
-3.01392792
 20
11.50430999
 10
-2.94560834
 20
11.6569707
 10
-2.86152151
 20
11.80498656
 10
-2.76220409
 20
11.94741284
 10
-2.64829
 20
12.08334052
 10
-2.52050627
 20
12.21190203
 10
-2.37966851
 20
12.33227683
 10
-2.2266756
 20
12.44369662
 10
-2.06250403
 20
12.54545025
  0
LWPOLYLINE
  5
1A5
100
AcDbEntity
  8
MST_1_1
 62
   147
  6
CONTINUOUS
100
AcDbPolyline
 90
       13
 70
     0
 43
0.0
 38
2500.0
 10
-3.12237586
 20
6.22388162
 10
-3.12044174
 20
6.06258741
 10
-3.10162448
 20
5.90192564
 10
-3.06604417
 20
5.74292172
 10
-3.01392792
 20
5.58659052
 10
-2.94560834
 20
5.4339298
 10
-2.86152151
 20
5.28591395
 10
-2.76220409
 20
5.14348766
 10
-2.64829
 20
5.00755998
 10
-2.52050627
 20
4.87899847
 10
-2.37966851
 20
4.75862367
 10
-2.2266756
 20
4.64720389
 10
-2.06250403
 20
4.54545025
  0
LINE
  5
1A6
100
AcDbEntity
  8
MST_1_1
 62
   147
  6
CONTINUOUS
100
AcDbLine
 10
-3.12237586
 20
-19.13298112
 30
2500.0
 11
-3.12237586
 21
-23.77611838
 31
2500.0
  0
LWPOLYLINE
  5
1A7
100
AcDbEntity
  8
MST_1_1
 62
   147
  6
CONTINUOUS
100
AcDbPolyline
 90
       13
 70
     0
 43
0.0
 38
2500.0
 10
-3.12237586
 20
-19.13298112
 10
-3.12044174
 20
-18.97168691
 10
-3.10162448
 20
-18.81102513
 10
-3.06604417
 20
-18.65202122
 10
-3.01392792
 20
-18.49569001
 10
-2.94560834
 20
-18.3430293
 10
-2.86152151
 20
-18.19501344
 10
-2.76220409
 20
-18.05258716
 10
-2.64829
 20
-17.91665948
 10
-2.52050627
 20
-17.78809797
 10
-2.37966851
 20
-17.66772317
 10
-2.2266756
 20
-17.55630338
 10
-2.06250403
 20
-17.45454975
  0
LWPOLYLINE
  5
1A8
100
AcDbEntity
  8
MST_1_1
 62
   147
  6
CONTINUOUS
100
AcDbPolyline
 90
       13
 70
     0
 43
0.0
 38
2500.0
 10
-3.12237586
 20
-23.77611838
 10
-3.12044174
 20
-23.93741259
 10
-3.10162448
 20
-24.09807436
 10
-3.06604417
 20
-24.25707828
 10
-3.01392792
 20
-24.41340948
 10
-2.94560834
 20
-24.5660702
 10
-2.86152151
 20
-24.71408605
 10
-2.76220409
 20
-24.85651234
 10
-2.64829
 20
-24.99244002
 10
-2.52050627
 20
-25.12100153
 10
-2.37966851
 20
-25.24137633
 10
-2.2266756
 20
-25.35279611
 10
-2.06250403
 20
-25.45454975
  0
LINE
  5
1A9
100
AcDbEntity
  8
MST_1_1
 62
   147
  6
CONTINUOUS
100
AcDbLine
 10
-3.12237586
 20
-49.13298112
 30
2500.0
 11
-3.12237586
 21
-53.77611838
 31
2500.0
  0
LWPOLYLINE
  5
1AA
100
AcDbEntity
  8
MST_1_1
 62
   147
  6
CONTINUOUS
100
AcDbPolyline
 90
       13
 70
     0
 43
0.0
 38
2500.0
 10
-3.12237586
 20
-49.13298112
 10
-3.12044174
 20
-48.97168691
 10
-3.10162448
 20
-48.81102513
 10
-3.06604417
 20
-48.65202122
 10
-3.01392792
 20
-48.49569001
 10
-2.94560834
 20
-48.3430293
 10
-2.86152151
 20
-48.19501344
 10
-2.76220409
 20
-48.05258716
 10
-2.64829
 20
-47.91665948
 10
-2.52050627
 20
-47.78809797
 10
-2.37966851
 20
-47.66772317
 10
-2.2266756
 20
-47.55630338
 10
-2.06250403
 20
-47.45454975
  0
LWPOLYLINE
  5
1AB
100
AcDbEntity
  8
MST_1_1
 62
   147
  6
CONTINUOUS
100
AcDbPolyline
 90
       13
 70
     0
 43
0.0
 38
2500.0
 10
-3.12237586
 20
-53.77611838
 10
-3.12044174
 20
-53.93741259
 10
-3.10162448
 20
-54.09807436
 10
-3.06604417
 20
-54.25707828
 10
-3.01392792
 20
-54.41340948
 10
-2.94560834
 20
-54.5660702
 10
-2.86152151
 20
-54.71408605
 10
-2.76220409
 20
-54.85651234
 10
-2.64829
 20
-54.99244002
 10
-2.52050627
 20
-55.12100153
 10
-2.37966851
 20
-55.24137633
 10
-2.2266756
 20
-55.35279611
 10
-2.06250403
 20
-55.45454975
  0
LINE
  5
1AC
100
AcDbEntity
  8
MST_1_1
 62
   147
  6
CONTINUOUS
100
AcDbLine
 10
-3.12237586
 20
-79.13298112
 30
2500.0
 11
-3.12237586
 21
-83.77611838
 31
2500.0
  0
LWPOLYLINE
  5
1AD
100
AcDbEntity
  8
MST_1_1
 62
   147
  6
CONTINUOUS
100
AcDbPolyline
 90
       13
 70
     0
 43
0.0
 38
2500.0
 10
-3.12237586
 20
-79.13298112
 10
-3.12044174
 20
-78.97168691
 10
-3.10162448
 20
-78.81102513
 10
-3.06604417
 20
-78.65202122
 10
-3.01392792
 20
-78.49569001
 10
-2.94560834
 20
-78.3430293
 10
-2.86152151
 20
-78.19501344
 10
-2.76220409
 20
-78.05258716
 10
-2.64829
 20
-77.91665948
 10
-2.52050627
 20
-77.78809797
 10
-2.37966851
 20
-77.66772317
 10
-2.2266756
 20
-77.55630338
 10
-2.06250403
 20
-77.45454975
  0
LWPOLYLINE
  5
1AE
100
AcDbEntity
  8
MST_1_1
 62
   147
  6
CONTINUOUS
100
AcDbPolyline
 90
       13
 70
     0
 43
0.0
 38
2500.0
 10
-3.12237586
 20
-83.77611838
 10
-3.12044174
 20
-83.93741259
 10
-3.10162448
 20
-84.09807436
 10
-3.06604417
 20
-84.25707828
 10
-3.01392792
 20
-84.41340948
 10
-2.94560834
 20
-84.5660702
 10
-2.86152151
 20
-84.71408605
 10
-2.76220409
 20
-84.85651234
 10
-2.64829
 20
-84.99244002
 10
-2.52050627
 20
-85.12100153
 10
-2.37966851
 20
-85.24137633
 10
-2.2266756
 20
-85.35279611
 10
-2.06250403
 20
-85.45454975
  0
LINE
  5
1AF
100
AcDbEntity
  8
MST_1_1
 62
   147
  6
CONTINUOUS
100
AcDbLine
 10
-3.12237586
 20
-109.13298112
 30
2500.0
 11
-3.12237586
 21
-113.77611838
 31
2500.0
  0
LWPOLYLINE
  5
1B0
100
AcDbEntity
  8
MST_1_1
 62
   147
  6
CONTINUOUS
100
AcDbPolyline
 90
       13
 70
     0
 43
0.0
 38
2500.0
 10
-3.12237586
 20
-109.13298112
 10
-3.12044174
 20
-108.97168691
 10
-3.10162448
 20
-108.81102513
 10
-3.06604417
 20
-108.65202122
 10
-3.01392792
 20
-108.49569001
 10
-2.94560834
 20
-108.3430293
 10
-2.86152151
 20
-108.19501344
 10
-2.76220409
 20
-108.05258716
 10
-2.64829
 20
-107.91665948
 10
-2.52050627
 20
-107.78809797
 10
-2.37966851
 20
-107.66772317
 10
-2.2266756
 20
-107.55630338
 10
-2.06250403
 20
-107.45454975
  0
LWPOLYLINE
  5
1B1
100
AcDbEntity
  8
MST_1_1
 62
   147
  6
CONTINUOUS
100
AcDbPolyline
 90
       13
 70
     0
 43
0.0
 38
2500.0
 10
-3.12237586
 20
-113.77611838
 10
-3.12044174
 20
-113.93741259
 10
-3.10162448
 20
-114.09807436
 10
-3.06604417
 20
-114.25707828
 10
-3.01392792
 20
-114.41340948
 10
-2.94560834
 20
-114.5660702
 10
-2.86152151
 20
-114.71408605
 10
-2.76220409
 20
-114.85651234
 10
-2.64829
 20
-114.99244002
 10
-2.52050627
 20
-115.12100153
 10
-2.37966851
 20
-115.24137633
 10
-2.2266756
 20
-115.35279611
 10
-2.06250403
 20
-115.45454975
  0
LINE
  5
1B2
100
AcDbEntity
  8
MST_1_1
 62
   147
  6
CONTINUOUS
100
AcDbLine
 10
-3.12237586
 20
-139.13298112
 30
2500.0
 11
-3.12237586
 21
-143.77611838
 31
2500.0
  0
LWPOLYLINE
  5
1B3
100
AcDbEntity
  8
MST_1_1
 62
   147
  6
CONTINUOUS
100
AcDbPolyline
 90
       13
 70
     0
 43
0.0
 38
2500.0
 10
-3.12237586
 20
-139.13298112
 10
-3.12044174
 20
-138.97168691
 10
-3.10162448
 20
-138.81102513
 10
-3.06604417
 20
-138.65202122
 10
-3.01392792
 20
-138.49569001
 10
-2.94560834
 20
-138.3430293
 10
-2.86152151
 20
-138.19501344
 10
-2.76220409
 20
-138.05258716
 10
-2.64829
 20
-137.91665948
 10
-2.52050627
 20
-137.78809797
 10
-2.37966851
 20
-137.66772317
 10
-2.2266756
 20
-137.55630338
 10
-2.06250403
 20
-137.45454975
  0
LWPOLYLINE
  5
1B4
100
AcDbEntity
  8
MST_1_1
 62
   147
  6
CONTINUOUS
100
AcDbPolyline
 90
       13
 70
     0
 43
0.0
 38
2500.0
 10
-3.12237586
 20
-143.77611838
 10
-3.12044174
 20
-143.93741259
 10
-3.10162448
 20
-144.09807436
 10
-3.06604417
 20
-144.25707828
 10
-3.01392792
 20
-144.41340948
 10
-2.94560834
 20
-144.5660702
 10
-2.86152151
 20
-144.71408605
 10
-2.76220409
 20
-144.85651234
 10
-2.64829
 20
-144.99244002
 10
-2.52050627
 20
-145.12100153
 10
-2.37966851
 20
-145.24137633
 10
-2.2266756
 20
-145.35279611
 10
-2.06250403
 20
-145.45454975
  0
LINE
  5
1B5
100
AcDbEntity
  8
MST_1_1
 62
   147
  6
CONTINUOUS
100
AcDbLine
 10
-3.12237586
 20
-169.13298112
 30
2500.0
 11
-3.12237586
 21
-173.77611838
 31
2500.0
  0
LWPOLYLINE
  5
1B6
100
AcDbEntity
  8
MST_1_1
 62
   147
  6
CONTINUOUS
100
AcDbPolyline
 90
       13
 70
     0
 43
0.0
 38
2500.0
 10
-3.12237586
 20
-169.13298112
 10
-3.12044174
 20
-168.97168691
 10
-3.10162448
 20
-168.81102513
 10
-3.06604417
 20
-168.65202122
 10
-3.01392792
 20
-168.49569001
 10
-2.94560834
 20
-168.3430293
 10
-2.86152151
 20
-168.19501344
 10
-2.76220409
 20
-168.05258716
 10
-2.64829
 20
-167.91665948
 10
-2.52050627
 20
-167.78809797
 10
-2.37966851
 20
-167.66772317
 10
-2.2266756
 20
-167.55630338
 10
-2.06250403
 20
-167.45454975
  0
LWPOLYLINE
  5
1B7
100
AcDbEntity
  8
MST_1_1
 62
   147
  6
CONTINUOUS
100
AcDbPolyline
 90
       13
 70
     0
 43
0.0
 38
2500.0
 10
-3.12237586
 20
-173.77611838
 10
-3.12044174
 20
-173.93741259
 10
-3.10162448
 20
-174.09807436
 10
-3.06604417
 20
-174.25707828
 10
-3.01392792
 20
-174.41340948
 10
-2.94560834
 20
-174.5660702
 10
-2.86152151
 20
-174.71408605
 10
-2.76220409
 20
-174.85651234
 10
-2.64829
 20
-174.99244002
 10
-2.52050627
 20
-175.12100153
 10
-2.37966851
 20
-175.24137633
 10
-2.2266756
 20
-175.35279611
 10
-2.06250403
 20
-175.45454975
  0
CIRCLE
  5
1B8
100
AcDbEntity
  8
MST_1_1
 62
   137
  6
CONTINUOUS
100
AcDbCircle
 10
-86.9285532
 20
8.54545025
 30
0.0
 40
1.89428533
  0
CIRCLE
  5
1B9
100
AcDbEntity
  8
MST_1_1
 62
   137
  6
CONTINUOUS
100
AcDbCircle
 10
-86.9285532
 20
8.54545025
 30
0.0
 40
1.06049438
  0
CIRCLE
  5
1BA
100
AcDbEntity
  8
MST_1_1
 62
   137
  6
CONTINUOUS
100
AcDbCircle
 10
-86.9285532
 20
8.54545025
 30
0.0
 40
1.89428533
  0
CIRCLE
  5
1BB
100
AcDbEntity
  8
MST_1_1
 62
   137
  6
CONTINUOUS
100
AcDbCircle
 10
-86.9285532
 20
8.54545025
 30
0.0
 40
1.06049438
  0
CIRCLE
  5
1BC
100
AcDbEntity
  8
MST_1_1
 62
   137
  6
CONTINUOUS
100
AcDbCircle
 10
-86.9285532
 20
8.54545025
 30
0.0
 40
1.89428533
  0
CIRCLE
  5
1BD
100
AcDbEntity
  8
MST_1_1
 62
   137
  6
CONTINUOUS
100
AcDbCircle
 10
-86.9285532
 20
8.54545025
 30
0.0
 40
1.06049438
  0
CIRCLE
  5
1BE
100
AcDbEntity
  8
MST_1_1
 62
   137
  6
CONTINUOUS
100
AcDbCircle
 10
-86.9285532
 20
8.54545025
 30
0.0
 40
1.59428533
  0
CIRCLE
  5
1BF
100
AcDbEntity
  8
MST_1_1
 62
   137
  6
CONTINUOUS
100
AcDbCircle
 10
-86.9285532
 20
8.54545025
 30
0.0
 40
1.99428533
  0
CIRCLE
  5
1C0
100
AcDbEntity
  8
MST_1_1
 62
   137
  6
CONTINUOUS
100
AcDbCircle
 10
-86.9285532
 20
8.54545025
 30
0.0
 40
1.125
  0
CIRCLE
  5
1C1
100
AcDbEntity
  8
MST_1_1
 62
   137
  6
CONTINUOUS
100
AcDbCircle
 10
-86.9285532
 20
8.54545025
 30
0.0
 40
4.0
  0
ARC
  5
1C2
100
AcDbEntity
  8
MST_1_1
 62
   137
  6
CONTINUOUS
100
AcDbCircle
 10
-88.30055318
 20
8.54545025
 30
0.0
 40
0.303
100
AcDbArc
 50
104.00039951
 51
255.99961051
  0
ARC
  5
1C3
100
AcDbEntity
  8
MST_1_1
 62
   137
  6
CONTINUOUS
100
AcDbCircle
 10
-88.53127076
 20
7.62012082
 30
0.0
 40
0.65065883
100
AcDbArc
 50
344.00042282
 51
75.99958535
  0
ARC
  5
1C4
100
AcDbEntity
  8
MST_1_1
 62
   137
  6
CONTINUOUS
100
AcDbCircle
 10
-87.61455317
 20
7.35726341
 30
0.0
 40
0.30299999
100
AcDbArc
 50
164.00040911
 51
315.99959504
  0
ARC
  5
1C5
100
AcDbEntity
  8
MST_1_1
 62
   137
  6
CONTINUOUS
100
AcDbCircle
 10
-86.9285532
 20
6.6947915
 30
0.0
 40
0.65065875
100
AcDbArc
 50
44.00040429
 51
135.99959571
  0
ARC
  5
1C6
100
AcDbEntity
  8
MST_1_1
 62
   137
  6
CONTINUOUS
100
AcDbCircle
 10
-86.2425532
 20
7.35726336
 30
0.0
 40
0.30299998
100
AcDbArc
 50
224.00041508
 51
15.9996008
  0
ARC
  5
1C7
100
AcDbEntity
  8
MST_1_1
 62
   137
  6
CONTINUOUS
100
AcDbCircle
 10
-85.55655322
 20
8.54545025
 30
0.0
 40
0.303
100
AcDbArc
 50
284.00040953
 51
75.99960049
  0
ARC
  5
1C8
100
AcDbEntity
  8
MST_1_1
 62
   137
  6
CONTINUOUS
100
AcDbCircle
 10
-85.32583564
 20
9.47077969
 30
0.0
 40
0.65065883
100
AcDbArc
 50
164.00041281
 51
255.99959537
  0
ARC
  5
1C9
100
AcDbEntity
  8
MST_1_1
 62
   137
  6
CONTINUOUS
100
AcDbCircle
 10
-86.24255323
 20
9.7336371
 30
0.0
 40
0.30299999
100
AcDbArc
 50
344.00041913
 51
135.99958502
  0
ARC
  5
1CA
100
AcDbEntity
  8
MST_1_1
 62
   137
  6
CONTINUOUS
100
AcDbCircle
 10
-86.9285532
 20
10.396109
 30
0.0
 40
0.65065875
100
AcDbArc
 50
224.00041431
 51
315.99960573
  0
ARC
  5
1CB
100
AcDbEntity
  8
MST_1_1
 62
   137
  6
CONTINUOUS
100
AcDbCircle
 10
-87.6145532
 20
9.73363715
 30
0.0
 40
0.30299998
100
AcDbArc
 50
44.00040506
 51
195.99961082
  0
ARC
  5
1CC
100
AcDbEntity
  8
MST_1_1
 62
   137
  6
CONTINUOUS
100
AcDbCircle
 10
-88.53127075
 20
9.47077969
 30
0.0
 40
0.65065883
100
AcDbArc
 50
284.00042461
 51
15.99958726
  0
LWPOLYLINE
  5
1CD
100
AcDbEntity
  8
MST_1_1
 62
   137
  6
CONTINUOUS
100
AcDbPolyline
 90
        9
 70
     0
 43
0.0
 10
-88.2190231
 20
6.30038613
 10
-88.20995714
 20
6.30945209
 10
-88.20088477
 20
6.31852456
 10
-88.19180612
 20
6.3276031
 10
-88.18272107
 20
6.33668815
 10
-88.17362985
 20
6.34577949
 10
-88.16453223
 20
6.35487711
 10
-88.15542843
 20
6.36398079
 10
-88.14631847
 20
6.37309075
  0
ARC
  5
1CE
100
AcDbEntity
  8
MST_1_1
 62
   137
  6
CONTINUOUS
100
AcDbCircle
 10
-87.99416314
 20
6.49979025
 30
0.0
 40
0.19800002
100
AcDbArc
 50
50.21591721
 51
219.78410477
  0
LWPOLYLINE
  5
1CF
100
AcDbEntity
  8
MST_1_1
 62
   137
  6
CONTINUOUS
100
AcDbPolyline
 90
        9
 70
     0
 43
0.0
 10
-87.86746367
 20
6.65194561
 10
-87.85839241
 20
6.66101693
 10
-87.84931632
 20
6.67009302
 10
-87.8402354
 20
6.67917388
 10
-87.8311496
 20
6.68825963
 10
-87.82205907
 20
6.69735027
 10
-87.81296378
 20
6.70644556
 10
-87.80386371
 20
6.71554552
 10
-87.79475898
 20
6.72465024
  0
LWPOLYLINE
  5
1D0
100
AcDbEntity
  8
MST_1_1
 62
   137
  6
CONTINUOUS
100
AcDbPolyline
 90
        9
 70
     0
 43
0.0
 10
-87.79475898
 20
6.72465024
 10
-87.84910846
 20
6.77899978
 10
-87.9035101
 20
6.83340136
 10
-87.95795731
 20
6.88784857
 10
-88.01244318
 20
6.94233444
 10
-88.06696117
 20
6.99685243
 10
-88.12150443
 20
7.05139569
 10
-88.17606631
 20
7.10595757
 10
-88.23063995
 20
7.16053121
  0
LWPOLYLINE
  5
1D1
100
AcDbEntity
  8
MST_1_1
 62
   137
  6
CONTINUOUS
100
AcDbPolyline
 90
        9
 70
     0
 43
0.0
 10
-88.23063995
 20
7.16053121
 10
-88.23386197
 20
7.1573093
 10
-88.2370833
 20
7.15408785
 10
-88.24030417
 20
7.15086711
 10
-88.24352445
 20
7.14764683
 10
-88.24674403
 20
7.14442713
 10
-88.24996315
 20
7.14120813
 10
-88.25318156
 20
7.13798959
 10
-88.25639952
 20
7.13477176
  0
LWPOLYLINE
  5
1D2
100
AcDbEntity
  8
MST_1_1
 62
   137
  6
CONTINUOUS
100
AcDbPolyline
 90
       25
 70
     0
 43
0.0
 10
-88.25639952
 20
7.13477172
 10
-88.25909184
 20
7.13891871
 10
-88.26185562
 20
7.14301069
 10
-88.26469013
 20
7.14704692
 10
-88.2675946
 20
7.15102663
 10
-88.2705683
 20
7.15494908
 10
-88.27361049
 20
7.15881354
 10
-88.27672041
 20
7.16261924
 10
-88.27989733
 20
7.16636545
 10
-88.2831405
 20
7.17005142
 10
-88.28644918
 20
7.1736764
 10
-88.28982261
 20
7.17723964
 10
-88.29326006
 20
7.18074039
 10
-88.29676078
 20
7.18417792
 10
-88.30032404
 20
7.18755147
 10
-88.30394907
 20
7.1908603
 10
-88.30763514
 20
7.19410365
 10
-88.3113815
 20
7.19728079
 10
-88.31518742
 20
7.20039097
 10
-88.31905214
 20
7.20343343
 10
-88.32297491
 20
7.20640743
 10
-88.32695501
 20
7.20931223
 10
-88.33099167
 20
7.21214708
 10
-88.33508416
 20
7.21491123
 10
-88.33923174
 20
7.21760394
  0
LWPOLYLINE
  5
1D3
100
AcDbEntity
  8
MST_1_1
 62
   137
  6
CONTINUOUS
100
AcDbPolyline
 90
        9
 70
     0
 43
0.0
 10
-88.33923169
 20
7.21760394
 10
-88.33601386
 20
7.22082189
 10
-88.33279532
 20
7.22404031
 10
-88.32957632
 20
7.22725942
 10
-88.32635663
 20
7.23047901
 10
-88.32313635
 20
7.23369929
 10
-88.3199156
 20
7.23692015
 10
-88.31669415
 20
7.24014148
 10
-88.31347224
 20
7.2433635
  0
LWPOLYLINE
  5
1D4
100
AcDbEntity
  8
MST_1_1
 62
   137
  6
CONTINUOUS
100
AcDbPolyline
 90
        9
 70
     0
 43
0.0
 10
-88.31347224
 20
7.2433635
 10
-88.36804588
 20
7.29793714
 10
-88.42260777
 20
7.35249903
 10
-88.47715102
 20
7.40704228
 10
-88.53166902
 20
7.46156028
 10
-88.58615488
 20
7.51604614
 10
-88.64060209
 20
7.57049335
 10
-88.69500367
 20
7.62489499
 10
-88.74935321
 20
7.67924447
  0
LWPOLYLINE
  5
1D5
100
AcDbEntity
  8
MST_1_1
 62
   137
  6
CONTINUOUS
100
AcDbPolyline
 90
        9
 70
     0
 43
0.0
 10
-88.74935321
 20
7.67924447
 10
-88.75845794
 20
7.67013975
 10
-88.76755789
 20
7.66103968
 10
-88.77665319
 20
7.65194438
 10
-88.78574383
 20
7.64285386
 10
-88.79482958
 20
7.63376805
 10
-88.80391044
 20
7.62468713
 10
-88.81298652
 20
7.61561104
 10
-88.82205784
 20
7.60653979
  0
ARC
  5
1D6
100
AcDbEntity
  8
MST_1_1
 62
   137
  6
CONTINUOUS
100
AcDbCircle
 10
-88.97421321
 20
7.47984033
 30
0.0
 40
0.19800002
100
AcDbArc
 50
230.21591956
 51
39.7840785
  0
LWPOLYLINE
  5
1D7
100
AcDbEntity
  8
MST_1_1
 62
   137
  6
CONTINUOUS
100
AcDbPolyline
 90
        9
 70
     0
 43
0.0
 10
-89.1009127
 20
7.32768498
 10
-89.11002266
 20
7.31857502
 10
-89.11912634
 20
7.30947123
 10
-89.12822397
 20
7.3003736
 10
-89.1373153
 20
7.29128238
 10
-89.14640036
 20
7.28219733
 10
-89.15547889
 20
7.27311868
 10
-89.16455137
 20
7.26404632
 10
-89.17361733
 20
7.25498036
  0
LWPOLYLINE
  5
1D8
100
AcDbEntity
  8
MST_1_1
 62
   137
  6
CONTINUOUS
100
AcDbPolyline
 90
        9
 70
     0
 43
0.0
 10
-89.17361733
 20
7.25498036
 10
-89.11927559
 20
7.20063885
 10
-89.0648789
 20
7.14624204
 10
-89.01043401
 20
7.09179704
 10
-88.95594792
 20
7.03731106
 10
-88.90142806
 20
6.98279121
 10
-88.84688143
 20
6.92824457
 10
-88.79231512
 20
6.87367827
 10
-88.73773624
 20
6.81909939
  0
LWPOLYLINE
  5
1D9
100
AcDbEntity
  8
MST_1_1
 62
   137
  6
CONTINUOUS
100
AcDbPolyline
 90
        9
 70
     0
 43
0.0
 10
-88.73773624
 20
6.81909939
 10
-88.7345191
 20
6.82231653
 10
-88.73130115
 20
6.82553448
 10
-88.72808239
 20
6.82875325
 10
-88.7248628
 20
6.83197283
 10
-88.72164252
 20
6.83519311
 10
-88.71842143
 20
6.83841432
 10
-88.7151994
 20
6.84163623
 10
-88.71197667
 20
6.84485896
  0
LWPOLYLINE
  5
1DA
100
AcDbEntity
  8
MST_1_1
 62
   137
  6
CONTINUOUS
100
AcDbPolyline
 90
       25
 70
     0
 43
0.0
 10
-88.71197672
 20
6.84485895
 10
-88.7092846
 20
6.84071229
 10
-88.70652096
 20
6.83662056
 10
-88.70368654
 20
6.83258453
 10
-88.7007821
 20
6.82860495
 10
-88.69780838
 20
6.82468256
 10
-88.69476615
 20
6.82081813
 10
-88.69165614
 20
6.8170124
 10
-88.68847911
 20
6.81326614
 10
-88.68523581
 20
6.80958008
 10
-88.681927
 20
6.80595499
 10
-88.67855341
 20
6.80239161
 10
-88.67511581
 20
6.79889071
 10
-88.67161494
 20
6.79545303
 10
-88.66805156
 20
6.79207932
 10
-88.66442641
 20
6.78877035
 10
-88.66074024
 20
6.78552686
 10
-88.65699381
 20
6.78234961
 10
-88.65318787
 20
6.77923935
 10
-88.64932317
 20
6.77619683
 10
-88.64540046
 20
6.77322281
 10
-88.64142048
 20
6.77031803
 10
-88.637384
 20
6.76748326
 10
-88.63329175
 20
6.76471924
 10
-88.6291445
 20
6.76202673
  0
LWPOLYLINE
  5
1DB
100
AcDbEntity
  8
MST_1_1
 62
   137
  6
CONTINUOUS
100
AcDbPolyline
 90
        9
 70
     0
 43
0.0
 10
-88.6291445
 20
6.76202678
 10
-88.63236722
 20
6.75880405
 10
-88.63558913
 20
6.75558203
 10
-88.63881034
 20
6.75236093
 10
-88.64203062
 20
6.74914065
 10
-88.64525021
 20
6.74592107
 10
-88.64846897
 20
6.7427023
 10
-88.65168693
 20
6.73948435
 10
-88.65490406
 20
6.73626721
  0
LWPOLYLINE
  5
1DC
100
AcDbEntity
  8
MST_1_1
 62
   137
  6
CONTINUOUS
100
AcDbPolyline
 90
        9
 70
     0
 43
0.0
 10
-88.65490406
 20
6.73626721
 10
-88.60032518
 20
6.68168833
 10
-88.54575888
 20
6.62712202
 10
-88.49121225
 20
6.57257539
 10
-88.43669239
 20
6.51805554
 10
-88.38220641
 20
6.46356944
 10
-88.32776141
 20
6.40912456
 10
-88.2733646
 20
6.35472787
 10
-88.2190231
 20
6.30038613
  0
CIRCLE
  5
1DD
100
AcDbEntity
  8
MST_1_1
 62
   137
  6
CONTINUOUS
100
AcDbCircle
 10
-86.9285532
 20
8.54545025
 30
0.0
 40
3.66283472
  0
ARC
  5
1DE
100
AcDbEntity
  8
MST_1_1
 62
   137
  6
CONTINUOUS
100
AcDbCircle
 10
-85.32583564
 20
7.62012082
 30
0.0
 40
0.65065883
100
AcDbArc
 50
104.00041459
 51
195.99959727
  0
LWPOLYLINE
  5
1DF
100
AcDbEntity
  8
MST_1_1
 62
   137
  6
CONTINUOUS
100
AcDbPolyline
 90
        9
 70
     0
 43
0.0
 10
-88.42523212
 20
7.25330002
 10
-88.46095823
 20
7.28902613
 10
-88.4966769
 20
7.3247448
 10
-88.53238637
 20
7.36045427
 10
-88.56808466
 20
7.39615256
 10
-88.60376991
 20
7.43183781
 10
-88.63944015
 20
7.46750817
 10
-88.67509362
 20
7.50316164
 10
-88.71072835
 20
7.53879637
  0
ARC
  5
1E0
100
AcDbEntity
  8
MST_1_1
 62
   137
  6
CONTINUOUS
100
AcDbCircle
 10
-88.48418823
 20
6.98981599
 30
0.0
 40
0.26999936
100
AcDbArc
 50
77.38747914
 51
127.33780242
  0
LINE
  5
1E1
100
AcDbEntity
  8
MST_1_1
 62
   137
  6
CONTINUOUS
100
AcDbLine
 10
-88.26951813
 20
6.82605707
 30
0.0
 11
-88.64794639
 21
7.20448533
 31
0.0
  0
ARC
  5
1E2
100
AcDbEntity
  8
MST_1_1
 62
   137
  6
CONTINUOUS
100
AcDbCircle
 10
-88.48418758
 20
6.98981525
 30
0.0
 40
0.26999948
100
AcDbArc
 50
322.66221884
 51
12.61250962
  0
LWPOLYLINE
  5
1E3
100
AcDbEntity
  8
MST_1_1
 62
   137
  6
CONTINUOUS
100
AcDbPolyline
 90
        9
 70
     0
 43
0.0
 10
-87.93520708
 20
6.7632751
 10
-87.97084181
 20
6.79890983
 10
-88.00649528
 20
6.8345633
 10
-88.04216564
 20
6.87023354
 10
-88.07785089
 20
6.90591879
 10
-88.11354918
 20
6.94161709
 10
-88.14925865
 20
6.97732655
 10
-88.18497732
 20
7.01304522
 10
-88.22070343
 20
7.04877134
  0
ARC
  5
1E4
100
AcDbEntity
  8
MST_1_1
 62
   137
  6
CONTINUOUS
100
AcDbCircle
 10
-87.99416302
 20
6.49979031
 30
0.0
 40
0.27000007
100
AcDbArc
 50
77.38755048
 51
192.61243885
  0
LWPOLYLINE
  5
1E5
100
AcDbEntity
  8
MST_1_1
 62
   137
  6
CONTINUOUS
100
AcDbPolyline
 90
        9
 70
     0
 43
0.0
 10
-88.54314407
 20
6.72633058
 10
-88.50741633
 20
6.69060283
 10
-88.47169627
 20
6.65488277
 10
-88.43598587
 20
6.61917237
 10
-88.40028699
 20
6.5834735
 10
-88.36460185
 20
6.54778848
 10
-88.32893231
 20
6.51211882
 10
-88.29328024
 20
6.47646686
 10
-88.25764784
 20
6.44083446
  0
ARC
  5
1E6
100
AcDbEntity
  8
MST_1_1
 62
   137
  6
CONTINUOUS
100
AcDbCircle
 10
-88.4841883
 20
6.98981617
 30
0.0
 40
0.27000082
100
AcDbArc
 50
257.38763285
 51
307.33766874
  0
LWPOLYLINE
  5
1E7
100
AcDbEntity
  8
MST_1_1
 62
   137
  6
CONTINUOUS
100
AcDbPolyline
 90
        9
 70
     0
 43
0.0
 10
-88.69885818
 20
7.15357365
 10
-88.65157039
 20
7.10628598
 10
-88.6042691
 20
7.05898468
 10
-88.55695885
 20
7.01167431
 10
-88.50964394
 20
6.96435952
 10
-88.46232914
 20
6.9170446
 10
-88.41501877
 20
6.86973435
 10
-88.36771748
 20
6.82243306
 10
-88.32042981
 20
6.77514527
  0
ARC
  5
1E8
100
AcDbEntity
  8
MST_1_1
 62
   137
  6
CONTINUOUS
100
AcDbCircle
 10
-88.48418802
 20
6.98981532
 30
0.0
 40
0.27000013
100
AcDbArc
 50
142.662273
 51
192.61245546
  0
LWPOLYLINE
  5
1E9
100
AcDbEntity
  8
MST_1_1
 62
   137
  6
CONTINUOUS
100
AcDbPolyline
 90
        9
 70
     0
 43
0.0
 10
-89.03316899
 20
7.21635562
 10
-88.99753659
 20
7.18072321
 10
-88.96188463
 20
7.14507114
 10
-88.92621498
 20
7.1094016
 10
-88.89052996
 20
7.07371646
 10
-88.85483108
 20
7.03801759
 10
-88.81912068
 20
7.00230719
 10
-88.78340062
 20
6.96658712
 10
-88.74767287
 20
6.93085938
  0
ARC
  5
1EA
100
AcDbEntity
  8
MST_1_1
 62
   137
  6
CONTINUOUS
100
AcDbCircle
 10
-88.97421289
 20
7.47984017
 30
0.0
 40
0.26999988
100
AcDbArc
 50
257.38751638
 51
12.61251432
  0
LWPOLYLINE
  5
1EB
100
AcDbEntity
  8
MST_1_1
 62
   137
  6
CONTINUOUS
100
AcDbPolyline
 90
        9
 70
     0
 43
0.0
 10
-88.56369883
 20
7.17114945
 10
-88.53109835
 20
7.13854897
 10
-88.49849344
 20
7.10594406
 10
-88.46588574
 20
7.07333625
 10
-88.43327642
 20
7.04072704
 10
-88.4006672
 20
7.00811771
 10
-88.36805939
 20
6.97551001
 10
-88.33545448
 20
6.9429051
 10
-88.302854
 20
6.91030462
  0
ARC
  5
1EC
100
AcDbEntity
  8
MST_1_1
 62
   137
  6
CONTINUOUS
100
AcDbCircle
 10
-88.48418818
 20
6.98981527
 30
0.0
 40
0.19800007
100
AcDbArc
 50
336.32372311
 51
113.6762869
  0
LWPOLYLINE
  5
1ED
100
AcDbEntity
  8
MST_1_1
 62
   137
  6
CONTINUOUS
100
AcDbPolyline
 90
        9
 70
     0
 43
0.0
 10
-88.40467736
 20
6.80848126
 10
-88.43727784
 20
6.84108163
 10
-88.46988263
 20
6.87368653
 10
-88.50249045
 20
6.90629435
 10
-88.53509978
 20
6.93890368
 10
-88.5677091
 20
6.97151301
 10
-88.60031692
 20
7.00412082
 10
-88.63292182
 20
7.03672561
 10
-88.66552219
 20
7.06932609
  0
ARC
  5
1EE
100
AcDbEntity
  8
MST_1_1
 62
   137
  6
CONTINUOUS
100
AcDbCircle
 10
-88.48418806
 20
6.98981539
 30
0.0
 40
0.19800004
100
AcDbArc
 50
156.32369345
 51
293.67631657
  0
CIRCLE
  5
1EF
100
AcDbEntity
  8
MST_1_1
 62
   137
  6
CONTINUOUS
100
AcDbCircle
 10
-86.9285532
 20
-21.45454975
 30
0.0
 40
1.89428533
  0
CIRCLE
  5
1F0
100
AcDbEntity
  8
MST_1_1
 62
   137
  6
CONTINUOUS
100
AcDbCircle
 10
-86.9285532
 20
-21.45454975
 30
0.0
 40
1.06049438
  0
CIRCLE
  5
1F1
100
AcDbEntity
  8
MST_1_1
 62
   137
  6
CONTINUOUS
100
AcDbCircle
 10
-86.9285532
 20
-21.45454975
 30
0.0
 40
1.89428533
  0
CIRCLE
  5
1F2
100
AcDbEntity
  8
MST_1_1
 62
   137
  6
CONTINUOUS
100
AcDbCircle
 10
-86.9285532
 20
-21.45454975
 30
0.0
 40
1.06049438
  0
CIRCLE
  5
1F3
100
AcDbEntity
  8
MST_1_1
 62
   137
  6
CONTINUOUS
100
AcDbCircle
 10
-86.9285532
 20
-21.45454975
 30
0.0
 40
1.89428533
  0
CIRCLE
  5
1F4
100
AcDbEntity
  8
MST_1_1
 62
   137
  6
CONTINUOUS
100
AcDbCircle
 10
-86.9285532
 20
-21.45454975
 30
0.0
 40
1.06049438
  0
CIRCLE
  5
1F5
100
AcDbEntity
  8
MST_1_1
 62
   137
  6
CONTINUOUS
100
AcDbCircle
 10
-86.9285532
 20
-21.45454975
 30
0.0
 40
1.59428533
  0
CIRCLE
  5
1F6
100
AcDbEntity
  8
MST_1_1
 62
   137
  6
CONTINUOUS
100
AcDbCircle
 10
-86.9285532
 20
-21.45454975
 30
0.0
 40
1.99428533
  0
CIRCLE
  5
1F7
100
AcDbEntity
  8
MST_1_1
 62
   137
  6
CONTINUOUS
100
AcDbCircle
 10
-86.9285532
 20
-21.45454975
 30
0.0
 40
1.125
  0
CIRCLE
  5
1F8
100
AcDbEntity
  8
MST_1_1
 62
   137
  6
CONTINUOUS
100
AcDbCircle
 10
-86.9285532
 20
-21.45454975
 30
0.0
 40
4.0
  0
ARC
  5
1F9
100
AcDbEntity
  8
MST_1_1
 62
   137
  6
CONTINUOUS
100
AcDbCircle
 10
-88.30055318
 20
-21.45454975
 30
0.0
 40
0.303
100
AcDbArc
 50
104.00039951
 51
255.99961051
  0
ARC
  5
1FA
100
AcDbEntity
  8
MST_1_1
 62
   137
  6
CONTINUOUS
100
AcDbCircle
 10
-88.53127076
 20
-22.37987918
 30
0.0
 40
0.65065883
100
AcDbArc
 50
344.00042282
 51
75.99958535
  0
ARC
  5
1FB
100
AcDbEntity
  8
MST_1_1
 62
   137
  6
CONTINUOUS
100
AcDbCircle
 10
-87.61455317
 20
-22.64273659
 30
0.0
 40
0.30299999
100
AcDbArc
 50
164.00040911
 51
315.99959504
  0
ARC
  5
1FC
100
AcDbEntity
  8
MST_1_1
 62
   137
  6
CONTINUOUS
100
AcDbCircle
 10
-86.9285532
 20
-23.3052085
 30
0.0
 40
0.65065875
100
AcDbArc
 50
44.00040429
 51
135.99959571
  0
ARC
  5
1FD
100
AcDbEntity
  8
MST_1_1
 62
   137
  6
CONTINUOUS
100
AcDbCircle
 10
-86.2425532
 20
-22.64273664
 30
0.0
 40
0.30299998
100
AcDbArc
 50
224.00041508
 51
15.9996008
  0
ARC
  5
1FE
100
AcDbEntity
  8
MST_1_1
 62
   137
  6
CONTINUOUS
100
AcDbCircle
 10
-85.55655322
 20
-21.45454975
 30
0.0
 40
0.303
100
AcDbArc
 50
284.00040953
 51
75.99960049
  0
ARC
  5
1FF
100
AcDbEntity
  8
MST_1_1
 62
   137
  6
CONTINUOUS
100
AcDbCircle
 10
-85.32583564
 20
-20.52922031
 30
0.0
 40
0.65065883
100
AcDbArc
 50
164.00041281
 51
255.99959537
  0
ARC
  5
200
100
AcDbEntity
  8
MST_1_1
 62
   137
  6
CONTINUOUS
100
AcDbCircle
 10
-86.24255323
 20
-20.2663629
 30
0.0
 40
0.30299999
100
AcDbArc
 50
344.00041913
 51
135.99958502
  0
ARC
  5
201
100
AcDbEntity
  8
MST_1_1
 62
   137
  6
CONTINUOUS
100
AcDbCircle
 10
-86.9285532
 20
-19.603891
 30
0.0
 40
0.65065875
100
AcDbArc
 50
224.00041431
 51
315.99960573
  0
ARC
  5
202
100
AcDbEntity
  8
MST_1_1
 62
   137
  6
CONTINUOUS
100
AcDbCircle
 10
-87.6145532
 20
-20.26636285
 30
0.0
 40
0.30299998
100
AcDbArc
 50
44.00040506
 51
195.99961082
  0
ARC
  5
203
100
AcDbEntity
  8
MST_1_1
 62
   137
  6
CONTINUOUS
100
AcDbCircle
 10
-88.53127075
 20
-20.52922031
 30
0.0
 40
0.65065883
100
AcDbArc
 50
284.00042461
 51
15.99958726
  0
LWPOLYLINE
  5
204
100
AcDbEntity
  8
MST_1_1
 62
   137
  6
CONTINUOUS
100
AcDbPolyline
 90
        9
 70
     0
 43
0.0
 10
-88.2190231
 20
-23.69961387
 10
-88.20995714
 20
-23.69054791
 10
-88.20088477
 20
-23.68147544
 10
-88.19180612
 20
-23.6723969
 10
-88.18272107
 20
-23.66331185
 10
-88.17362985
 20
-23.65422051
 10
-88.16453223
 20
-23.64512289
 10
-88.15542843
 20
-23.63601921
 10
-88.14631847
 20
-23.62690925
  0
ARC
  5
205
100
AcDbEntity
  8
MST_1_1
 62
   137
  6
CONTINUOUS
100
AcDbCircle
 10
-87.99416314
 20
-23.50020975
 30
0.0
 40
0.19800002
100
AcDbArc
 50
50.21591721
 51
219.78410477
  0
LWPOLYLINE
  5
206
100
AcDbEntity
  8
MST_1_1
 62
   137
  6
CONTINUOUS
100
AcDbPolyline
 90
        9
 70
     0
 43
0.0
 10
-87.86746367
 20
-23.34805439
 10
-87.85839241
 20
-23.33898307
 10
-87.84931632
 20
-23.32990698
 10
-87.8402354
 20
-23.32082612
 10
-87.8311496
 20
-23.31174037
 10
-87.82205907
 20
-23.30264973
 10
-87.81296378
 20
-23.29355444
 10
-87.80386371
 20
-23.28445448
 10
-87.79475898
 20
-23.27534976
  0
LWPOLYLINE
  5
207
100
AcDbEntity
  8
MST_1_1
 62
   137
  6
CONTINUOUS
100
AcDbPolyline
 90
        9
 70
     0
 43
0.0
 10
-87.79475898
 20
-23.27534976
 10
-87.84910846
 20
-23.22100022
 10
-87.9035101
 20
-23.16659864
 10
-87.95795731
 20
-23.11215143
 10
-88.01244318
 20
-23.05766556
 10
-88.06696117
 20
-23.00314757
 10
-88.12150443
 20
-22.94860431
 10
-88.17606631
 20
-22.89404243
 10
-88.23063995
 20
-22.83946879
  0
LWPOLYLINE
  5
208
100
AcDbEntity
  8
MST_1_1
 62
   137
  6
CONTINUOUS
100
AcDbPolyline
 90
        9
 70
     0
 43
0.0
 10
-88.23063995
 20
-22.83946879
 10
-88.23386197
 20
-22.8426907
 10
-88.2370833
 20
-22.84591215
 10
-88.24030417
 20
-22.84913289
 10
-88.24352445
 20
-22.85235317
 10
-88.24674403
 20
-22.85557287
 10
-88.24996315
 20
-22.85879187
 10
-88.25318156
 20
-22.86201041
 10
-88.25639952
 20
-22.86522824
  0
LWPOLYLINE
  5
209
100
AcDbEntity
  8
MST_1_1
 62
   137
  6
CONTINUOUS
100
AcDbPolyline
 90
       25
 70
     0
 43
0.0
 10
-88.25639952
 20
-22.86522828
 10
-88.25909184
 20
-22.86108129
 10
-88.26185562
 20
-22.85698931
 10
-88.26469013
 20
-22.85295308
 10
-88.2675946
 20
-22.84897337
 10
-88.2705683
 20
-22.84505092
 10
-88.27361049
 20
-22.84118646
 10
-88.27672041
 20
-22.83738076
 10
-88.27989733
 20
-22.83363455
 10
-88.2831405
 20
-22.82994858
 10
-88.28644918
 20
-22.8263236
 10
-88.28982261
 20
-22.82276036
 10
-88.29326006
 20
-22.81925961
 10
-88.29676078
 20
-22.81582208
 10
-88.30032404
 20
-22.81244853
 10
-88.30394907
 20
-22.8091397
 10
-88.30763514
 20
-22.80589635
 10
-88.3113815
 20
-22.80271921
 10
-88.31518742
 20
-22.79960903
 10
-88.31905214
 20
-22.79656657
 10
-88.32297491
 20
-22.79359257
 10
-88.32695501
 20
-22.79068777
 10
-88.33099167
 20
-22.78785292
 10
-88.33508416
 20
-22.78508877
 10
-88.33923174
 20
-22.78239606
  0
LWPOLYLINE
  5
20A
100
AcDbEntity
  8
MST_1_1
 62
   137
  6
CONTINUOUS
100
AcDbPolyline
 90
        9
 70
     0
 43
0.0
 10
-88.33923169
 20
-22.78239606
 10
-88.33601386
 20
-22.77917811
 10
-88.33279532
 20
-22.77595969
 10
-88.32957632
 20
-22.77274058
 10
-88.32635663
 20
-22.76952099
 10
-88.32313635
 20
-22.76630071
 10
-88.3199156
 20
-22.76307985
 10
-88.31669415
 20
-22.75985852
 10
-88.31347224
 20
-22.7566365
  0
LWPOLYLINE
  5
20B
100
AcDbEntity
  8
MST_1_1
 62
   137
  6
CONTINUOUS
100
AcDbPolyline
 90
        9
 70
     0
 43
0.0
 10
-88.31347224
 20
-22.7566365
 10
-88.36804588
 20
-22.70206286
 10
-88.42260777
 20
-22.64750097
 10
-88.47715102
 20
-22.59295772
 10
-88.53166902
 20
-22.53843972
 10
-88.58615488
 20
-22.48395386
 10
-88.64060209
 20
-22.42950665
 10
-88.69500367
 20
-22.37510501
 10
-88.74935321
 20
-22.32075553
  0
LWPOLYLINE
  5
20C
100
AcDbEntity
  8
MST_1_1
 62
   137
  6
CONTINUOUS
100
AcDbPolyline
 90
        9
 70
     0
 43
0.0
 10
-88.74935321
 20
-22.32075553
 10
-88.75845794
 20
-22.32986025
 10
-88.76755789
 20
-22.33896032
 10
-88.77665319
 20
-22.34805562
 10
-88.78574383
 20
-22.35714614
 10
-88.79482958
 20
-22.36623195
 10
-88.80391044
 20
-22.37531287
 10
-88.81298652
 20
-22.38438896
 10
-88.82205784
 20
-22.39346021
  0
ARC
  5
20D
100
AcDbEntity
  8
MST_1_1
 62
   137
  6
CONTINUOUS
100
AcDbCircle
 10
-88.97421321
 20
-22.52015967
 30
0.0
 40
0.19800002
100
AcDbArc
 50
230.21591956
 51
39.7840785
  0
LWPOLYLINE
  5
20E
100
AcDbEntity
  8
MST_1_1
 62
   137
  6
CONTINUOUS
100
AcDbPolyline
 90
        9
 70
     0
 43
0.0
 10
-89.1009127
 20
-22.67231502
 10
-89.11002266
 20
-22.68142498
 10
-89.11912634
 20
-22.69052877
 10
-89.12822397
 20
-22.6996264
 10
-89.1373153
 20
-22.70871762
 10
-89.14640036
 20
-22.71780267
 10
-89.15547889
 20
-22.72688132
 10
-89.16455137
 20
-22.73595368
 10
-89.17361733
 20
-22.74501964
  0
LWPOLYLINE
  5
20F
100
AcDbEntity
  8
MST_1_1
 62
   137
  6
CONTINUOUS
100
AcDbPolyline
 90
        9
 70
     0
 43
0.0
 10
-89.17361733
 20
-22.74501964
 10
-89.11927559
 20
-22.79936115
 10
-89.0648789
 20
-22.85375796
 10
-89.01043401
 20
-22.90820296
 10
-88.95594792
 20
-22.96268894
 10
-88.90142806
 20
-23.01720879
 10
-88.84688143
 20
-23.07175543
 10
-88.79231512
 20
-23.12632173
 10
-88.73773624
 20
-23.18090061
  0
LWPOLYLINE
  5
210
100
AcDbEntity
  8
MST_1_1
 62
   137
  6
CONTINUOUS
100
AcDbPolyline
 90
        9
 70
     0
 43
0.0
 10
-88.73773624
 20
-23.18090061
 10
-88.7345191
 20
-23.17768347
 10
-88.73130115
 20
-23.17446552
 10
-88.72808239
 20
-23.17124675
 10
-88.7248628
 20
-23.16802717
 10
-88.72164252
 20
-23.16480689
 10
-88.71842143
 20
-23.16158568
 10
-88.7151994
 20
-23.15836377
 10
-88.71197667
 20
-23.15514104
  0
LWPOLYLINE
  5
211
100
AcDbEntity
  8
MST_1_1
 62
   137
  6
CONTINUOUS
100
AcDbPolyline
 90
       25
 70
     0
 43
0.0
 10
-88.71197672
 20
-23.15514105
 10
-88.7092846
 20
-23.15928771
 10
-88.70652096
 20
-23.16337944
 10
-88.70368654
 20
-23.16741547
 10
-88.7007821
 20
-23.17139505
 10
-88.69780838
 20
-23.17531744
 10
-88.69476615
 20
-23.17918187
 10
-88.69165614
 20
-23.1829876
 10
-88.68847911
 20
-23.18673386
 10
-88.68523581
 20
-23.19041992
 10
-88.681927
 20
-23.19404501
 10
-88.67855341
 20
-23.19760839
 10
-88.67511581
 20
-23.20110929
 10
-88.67161494
 20
-23.20454697
 10
-88.66805156
 20
-23.20792068
 10
-88.66442641
 20
-23.21122965
 10
-88.66074024
 20
-23.21447314
 10
-88.65699381
 20
-23.21765039
 10
-88.65318787
 20
-23.22076065
 10
-88.64932317
 20
-23.22380317
 10
-88.64540046
 20
-23.22677719
 10
-88.64142048
 20
-23.22968197
 10
-88.637384
 20
-23.23251674
 10
-88.63329175
 20
-23.23528076
 10
-88.6291445
 20
-23.23797327
  0
LWPOLYLINE
  5
212
100
AcDbEntity
  8
MST_1_1
 62
   137
  6
CONTINUOUS
100
AcDbPolyline
 90
        9
 70
     0
 43
0.0
 10
-88.6291445
 20
-23.23797322
 10
-88.63236722
 20
-23.24119595
 10
-88.63558913
 20
-23.24441797
 10
-88.63881034
 20
-23.24763907
 10
-88.64203062
 20
-23.25085935
 10
-88.64525021
 20
-23.25407893
 10
-88.64846897
 20
-23.2572977
 10
-88.65168693
 20
-23.26051565
 10
-88.65490406
 20
-23.26373279
  0
LWPOLYLINE
  5
213
100
AcDbEntity
  8
MST_1_1
 62
   137
  6
CONTINUOUS
100
AcDbPolyline
 90
        9
 70
     0
 43
0.0
 10
-88.65490406
 20
-23.26373279
 10
-88.60032518
 20
-23.31831167
 10
-88.54575888
 20
-23.37287798
 10
-88.49121225
 20
-23.42742461
 10
-88.43669239
 20
-23.48194446
 10
-88.38220641
 20
-23.53643056
 10
-88.32776141
 20
-23.59087544
 10
-88.2733646
 20
-23.64527213
 10
-88.2190231
 20
-23.69961387
  0
CIRCLE
  5
214
100
AcDbEntity
  8
MST_1_1
 62
   137
  6
CONTINUOUS
100
AcDbCircle
 10
-86.9285532
 20
-21.45454975
 30
0.0
 40
3.66283472
  0
ARC
  5
215
100
AcDbEntity
  8
MST_1_1
 62
   137
  6
CONTINUOUS
100
AcDbCircle
 10
-85.32583564
 20
-22.37987918
 30
0.0
 40
0.65065883
100
AcDbArc
 50
104.00041459
 51
195.99959727
  0
LWPOLYLINE
  5
216
100
AcDbEntity
  8
MST_1_1
 62
   137
  6
CONTINUOUS
100
AcDbPolyline
 90
        9
 70
     0
 43
0.0
 10
-88.42523212
 20
-22.74669998
 10
-88.46095823
 20
-22.71097387
 10
-88.4966769
 20
-22.6752552
 10
-88.53238637
 20
-22.63954573
 10
-88.56808466
 20
-22.60384744
 10
-88.60376991
 20
-22.56816219
 10
-88.63944015
 20
-22.53249183
 10
-88.67509362
 20
-22.49683836
 10
-88.71072835
 20
-22.46120363
  0
ARC
  5
217
100
AcDbEntity
  8
MST_1_1
 62
   137
  6
CONTINUOUS
100
AcDbCircle
 10
-88.48418823
 20
-23.01018401
 30
0.0
 40
0.26999936
100
AcDbArc
 50
77.38747914
 51
127.33780242
  0
LINE
  5
218
100
AcDbEntity
  8
MST_1_1
 62
   137
  6
CONTINUOUS
100
AcDbLine
 10
-88.26951813
 20
-23.17394293
 30
0.0
 11
-88.64794639
 21
-22.79551467
 31
0.0
  0
ARC
  5
219
100
AcDbEntity
  8
MST_1_1
 62
   137
  6
CONTINUOUS
100
AcDbCircle
 10
-88.48418758
 20
-23.01018475
 30
0.0
 40
0.26999948
100
AcDbArc
 50
322.66221884
 51
12.61250962
  0
LWPOLYLINE
  5
21A
100
AcDbEntity
  8
MST_1_1
 62
   137
  6
CONTINUOUS
100
AcDbPolyline
 90
        9
 70
     0
 43
0.0
 10
-87.93520708
 20
-23.2367249
 10
-87.97084181
 20
-23.20109017
 10
-88.00649528
 20
-23.1654367
 10
-88.04216564
 20
-23.12976646
 10
-88.07785089
 20
-23.09408121
 10
-88.11354918
 20
-23.05838291
 10
-88.14925865
 20
-23.02267345
 10
-88.18497732
 20
-22.98695478
 10
-88.22070343
 20
-22.95122866
  0
ARC
  5
21B
100
AcDbEntity
  8
MST_1_1
 62
   137
  6
CONTINUOUS
100
AcDbCircle
 10
-87.99416302
 20
-23.50020969
 30
0.0
 40
0.27000007
100
AcDbArc
 50
77.38755048
 51
192.61243885
  0
LWPOLYLINE
  5
21C
100
AcDbEntity
  8
MST_1_1
 62
   137
  6
CONTINUOUS
100
AcDbPolyline
 90
        9
 70
     0
 43
0.0
 10
-88.54314407
 20
-23.27366942
 10
-88.50741633
 20
-23.30939717
 10
-88.47169627
 20
-23.34511723
 10
-88.43598587
 20
-23.38082763
 10
-88.40028699
 20
-23.4165265
 10
-88.36460185
 20
-23.45221152
 10
-88.32893231
 20
-23.48788118
 10
-88.29328024
 20
-23.52353314
 10
-88.25764784
 20
-23.55916554
  0
ARC
  5
21D
100
AcDbEntity
  8
MST_1_1
 62
   137
  6
CONTINUOUS
100
AcDbCircle
 10
-88.4841883
 20
-23.01018383
 30
0.0
 40
0.27000082
100
AcDbArc
 50
257.38763285
 51
307.33766874
  0
LWPOLYLINE
  5
21E
100
AcDbEntity
  8
MST_1_1
 62
   137
  6
CONTINUOUS
100
AcDbPolyline
 90
        9
 70
     0
 43
0.0
 10
-88.69885818
 20
-22.84642635
 10
-88.65157039
 20
-22.89371402
 10
-88.6042691
 20
-22.94101532
 10
-88.55695885
 20
-22.98832569
 10
-88.50964394
 20
-23.03564048
 10
-88.46232914
 20
-23.0829554
 10
-88.41501877
 20
-23.13026565
 10
-88.36771748
 20
-23.17756694
 10
-88.32042981
 20
-23.22485473
  0
ARC
  5
21F
100
AcDbEntity
  8
MST_1_1
 62
   137
  6
CONTINUOUS
100
AcDbCircle
 10
-88.48418802
 20
-23.01018468
 30
0.0
 40
0.27000013
100
AcDbArc
 50
142.662273
 51
192.61245546
  0
LWPOLYLINE
  5
220
100
AcDbEntity
  8
MST_1_1
 62
   137
  6
CONTINUOUS
100
AcDbPolyline
 90
        9
 70
     0
 43
0.0
 10
-89.03316899
 20
-22.78364438
 10
-88.99753659
 20
-22.81927679
 10
-88.96188463
 20
-22.85492886
 10
-88.92621498
 20
-22.8905984
 10
-88.89052996
 20
-22.92628354
 10
-88.85483108
 20
-22.96198241
 10
-88.81912068
 20
-22.99769281
 10
-88.78340062
 20
-23.03341288
 10
-88.74767287
 20
-23.06914062
  0
ARC
  5
221
100
AcDbEntity
  8
MST_1_1
 62
   137
  6
CONTINUOUS
100
AcDbCircle
 10
-88.97421289
 20
-22.52015983
 30
0.0
 40
0.26999988
100
AcDbArc
 50
257.38751638
 51
12.61251432
  0
LWPOLYLINE
  5
222
100
AcDbEntity
  8
MST_1_1
 62
   137
  6
CONTINUOUS
100
AcDbPolyline
 90
        9
 70
     0
 43
0.0
 10
-88.56369883
 20
-22.82885055
 10
-88.53109835
 20
-22.86145103
 10
-88.49849344
 20
-22.89405594
 10
-88.46588574
 20
-22.92666375
 10
-88.43327642
 20
-22.95927296
 10
-88.4006672
 20
-22.99188229
 10
-88.36805939
 20
-23.02448999
 10
-88.33545448
 20
-23.0570949
 10
-88.302854
 20
-23.08969538
  0
ARC
  5
223
100
AcDbEntity
  8
MST_1_1
 62
   137
  6
CONTINUOUS
100
AcDbCircle
 10
-88.48418818
 20
-23.01018473
 30
0.0
 40
0.19800007
100
AcDbArc
 50
336.32372311
 51
113.6762869
  0
LWPOLYLINE
  5
224
100
AcDbEntity
  8
MST_1_1
 62
   137
  6
CONTINUOUS
100
AcDbPolyline
 90
        9
 70
     0
 43
0.0
 10
-88.40467736
 20
-23.19151874
 10
-88.43727784
 20
-23.15891837
 10
-88.46988263
 20
-23.12631347
 10
-88.50249045
 20
-23.09370565
 10
-88.53509978
 20
-23.06109632
 10
-88.5677091
 20
-23.02848699
 10
-88.60031692
 20
-22.99587918
 10
-88.63292182
 20
-22.96327439
 10
-88.66552219
 20
-22.93067391
  0
ARC
  5
225
100
AcDbEntity
  8
MST_1_1
 62
   137
  6
CONTINUOUS
100
AcDbCircle
 10
-88.48418806
 20
-23.01018461
 30
0.0
 40
0.19800004
100
AcDbArc
 50
156.32369345
 51
293.67631657
  0
CIRCLE
  5
226
100
AcDbEntity
  8
MST_1_1
 62
   137
  6
CONTINUOUS
100
AcDbCircle
 10
-86.9285532
 20
-51.45454975
 30
0.0
 40
1.89428533
  0
CIRCLE
  5
227
100
AcDbEntity
  8
MST_1_1
 62
   137
  6
CONTINUOUS
100
AcDbCircle
 10
-86.9285532
 20
-51.45454975
 30
0.0
 40
1.06049438
  0
CIRCLE
  5
228
100
AcDbEntity
  8
MST_1_1
 62
   137
  6
CONTINUOUS
100
AcDbCircle
 10
-86.9285532
 20
-51.45454975
 30
0.0
 40
1.89428533
  0
CIRCLE
  5
229
100
AcDbEntity
  8
MST_1_1
 62
   137
  6
CONTINUOUS
100
AcDbCircle
 10
-86.9285532
 20
-51.45454975
 30
0.0
 40
1.06049438
  0
CIRCLE
  5
22A
100
AcDbEntity
  8
MST_1_1
 62
   137
  6
CONTINUOUS
100
AcDbCircle
 10
-86.9285532
 20
-51.45454975
 30
0.0
 40
1.89428533
  0
CIRCLE
  5
22B
100
AcDbEntity
  8
MST_1_1
 62
   137
  6
CONTINUOUS
100
AcDbCircle
 10
-86.9285532
 20
-51.45454975
 30
0.0
 40
1.06049438
  0
CIRCLE
  5
22C
100
AcDbEntity
  8
MST_1_1
 62
   137
  6
CONTINUOUS
100
AcDbCircle
 10
-86.9285532
 20
-51.45454975
 30
0.0
 40
1.59428533
  0
CIRCLE
  5
22D
100
AcDbEntity
  8
MST_1_1
 62
   137
  6
CONTINUOUS
100
AcDbCircle
 10
-86.9285532
 20
-51.45454975
 30
0.0
 40
1.99428533
  0
CIRCLE
  5
22E
100
AcDbEntity
  8
MST_1_1
 62
   137
  6
CONTINUOUS
100
AcDbCircle
 10
-86.9285532
 20
-51.45454975
 30
0.0
 40
1.125
  0
CIRCLE
  5
22F
100
AcDbEntity
  8
MST_1_1
 62
   137
  6
CONTINUOUS
100
AcDbCircle
 10
-86.9285532
 20
-51.45454975
 30
0.0
 40
4.0
  0
ARC
  5
230
100
AcDbEntity
  8
MST_1_1
 62
   137
  6
CONTINUOUS
100
AcDbCircle
 10
-88.30055318
 20
-51.45454975
 30
0.0
 40
0.303
100
AcDbArc
 50
104.00039951
 51
255.99961051
  0
ARC
  5
231
100
AcDbEntity
  8
MST_1_1
 62
   137
  6
CONTINUOUS
100
AcDbCircle
 10
-88.53127076
 20
-52.37987918
 30
0.0
 40
0.65065883
100
AcDbArc
 50
344.00042282
 51
75.99958535
  0
ARC
  5
232
100
AcDbEntity
  8
MST_1_1
 62
   137
  6
CONTINUOUS
100
AcDbCircle
 10
-87.61455317
 20
-52.64273659
 30
0.0
 40
0.30299999
100
AcDbArc
 50
164.00040911
 51
315.99959504
  0
ARC
  5
233
100
AcDbEntity
  8
MST_1_1
 62
   137
  6
CONTINUOUS
100
AcDbCircle
 10
-86.9285532
 20
-53.3052085
 30
0.0
 40
0.65065875
100
AcDbArc
 50
44.00040429
 51
135.99959571
  0
ARC
  5
234
100
AcDbEntity
  8
MST_1_1
 62
   137
  6
CONTINUOUS
100
AcDbCircle
 10
-86.2425532
 20
-52.64273664
 30
0.0
 40
0.30299998
100
AcDbArc
 50
224.00041508
 51
15.9996008
  0
ARC
  5
235
100
AcDbEntity
  8
MST_1_1
 62
   137
  6
CONTINUOUS
100
AcDbCircle
 10
-85.55655322
 20
-51.45454975
 30
0.0
 40
0.303
100
AcDbArc
 50
284.00040953
 51
75.99960049
  0
ARC
  5
236
100
AcDbEntity
  8
MST_1_1
 62
   137
  6
CONTINUOUS
100
AcDbCircle
 10
-85.32583564
 20
-50.52922031
 30
0.0
 40
0.65065883
100
AcDbArc
 50
164.00041281
 51
255.99959537
  0
ARC
  5
237
100
AcDbEntity
  8
MST_1_1
 62
   137
  6
CONTINUOUS
100
AcDbCircle
 10
-86.24255323
 20
-50.2663629
 30
0.0
 40
0.30299999
100
AcDbArc
 50
344.00041913
 51
135.99958502
  0
ARC
  5
238
100
AcDbEntity
  8
MST_1_1
 62
   137
  6
CONTINUOUS
100
AcDbCircle
 10
-86.9285532
 20
-49.603891
 30
0.0
 40
0.65065875
100
AcDbArc
 50
224.00041431
 51
315.99960573
  0
ARC
  5
239
100
AcDbEntity
  8
MST_1_1
 62
   137
  6
CONTINUOUS
100
AcDbCircle
 10
-87.6145532
 20
-50.26636285
 30
0.0
 40
0.30299998
100
AcDbArc
 50
44.00040506
 51
195.99961082
  0
ARC
  5
23A
100
AcDbEntity
  8
MST_1_1
 62
   137
  6
CONTINUOUS
100
AcDbCircle
 10
-88.53127075
 20
-50.52922031
 30
0.0
 40
0.65065883
100
AcDbArc
 50
284.00042461
 51
15.99958726
  0
LWPOLYLINE
  5
23B
100
AcDbEntity
  8
MST_1_1
 62
   137
  6
CONTINUOUS
100
AcDbPolyline
 90
        9
 70
     0
 43
0.0
 10
-88.2190231
 20
-53.69961387
 10
-88.20995714
 20
-53.69054791
 10
-88.20088477
 20
-53.68147544
 10
-88.19180612
 20
-53.6723969
 10
-88.18272107
 20
-53.66331185
 10
-88.17362985
 20
-53.65422051
 10
-88.16453223
 20
-53.64512289
 10
-88.15542843
 20
-53.63601921
 10
-88.14631847
 20
-53.62690925
  0
ARC
  5
23C
100
AcDbEntity
  8
MST_1_1
 62
   137
  6
CONTINUOUS
100
AcDbCircle
 10
-87.99416314
 20
-53.50020975
 30
0.0
 40
0.19800002
100
AcDbArc
 50
50.21591721
 51
219.78410477
  0
LWPOLYLINE
  5
23D
100
AcDbEntity
  8
MST_1_1
 62
   137
  6
CONTINUOUS
100
AcDbPolyline
 90
        9
 70
     0
 43
0.0
 10
-87.86746367
 20
-53.34805439
 10
-87.85839241
 20
-53.33898307
 10
-87.84931632
 20
-53.32990698
 10
-87.8402354
 20
-53.32082612
 10
-87.8311496
 20
-53.31174037
 10
-87.82205907
 20
-53.30264973
 10
-87.81296378
 20
-53.29355444
 10
-87.80386371
 20
-53.28445448
 10
-87.79475898
 20
-53.27534976
  0
LWPOLYLINE
  5
23E
100
AcDbEntity
  8
MST_1_1
 62
   137
  6
CONTINUOUS
100
AcDbPolyline
 90
        9
 70
     0
 43
0.0
 10
-87.79475898
 20
-53.27534976
 10
-87.84910846
 20
-53.22100022
 10
-87.9035101
 20
-53.16659864
 10
-87.95795731
 20
-53.11215143
 10
-88.01244318
 20
-53.05766556
 10
-88.06696117
 20
-53.00314757
 10
-88.12150443
 20
-52.94860431
 10
-88.17606631
 20
-52.89404243
 10
-88.23063995
 20
-52.83946879
  0
LWPOLYLINE
  5
23F
100
AcDbEntity
  8
MST_1_1
 62
   137
  6
CONTINUOUS
100
AcDbPolyline
 90
        9
 70
     0
 43
0.0
 10
-88.23063995
 20
-52.83946879
 10
-88.23386197
 20
-52.8426907
 10
-88.2370833
 20
-52.84591215
 10
-88.24030417
 20
-52.84913289
 10
-88.24352445
 20
-52.85235317
 10
-88.24674403
 20
-52.85557287
 10
-88.24996315
 20
-52.85879187
 10
-88.25318156
 20
-52.86201041
 10
-88.25639952
 20
-52.86522824
  0
LWPOLYLINE
  5
240
100
AcDbEntity
  8
MST_1_1
 62
   137
  6
CONTINUOUS
100
AcDbPolyline
 90
       25
 70
     0
 43
0.0
 10
-88.25639952
 20
-52.86522828
 10
-88.25909184
 20
-52.86108129
 10
-88.26185562
 20
-52.85698931
 10
-88.26469013
 20
-52.85295308
 10
-88.2675946
 20
-52.84897337
 10
-88.2705683
 20
-52.84505092
 10
-88.27361049
 20
-52.84118646
 10
-88.27672041
 20
-52.83738076
 10
-88.27989733
 20
-52.83363455
 10
-88.2831405
 20
-52.82994858
 10
-88.28644918
 20
-52.8263236
 10
-88.28982261
 20
-52.82276036
 10
-88.29326006
 20
-52.81925961
 10
-88.29676078
 20
-52.81582208
 10
-88.30032404
 20
-52.81244853
 10
-88.30394907
 20
-52.8091397
 10
-88.30763514
 20
-52.80589635
 10
-88.3113815
 20
-52.80271921
 10
-88.31518742
 20
-52.79960903
 10
-88.31905214
 20
-52.79656657
 10
-88.32297491
 20
-52.79359257
 10
-88.32695501
 20
-52.79068777
 10
-88.33099167
 20
-52.78785292
 10
-88.33508416
 20
-52.78508877
 10
-88.33923174
 20
-52.78239606
  0
LWPOLYLINE
  5
241
100
AcDbEntity
  8
MST_1_1
 62
   137
  6
CONTINUOUS
100
AcDbPolyline
 90
        9
 70
     0
 43
0.0
 10
-88.33923169
 20
-52.78239606
 10
-88.33601386
 20
-52.77917811
 10
-88.33279532
 20
-52.77595969
 10
-88.32957632
 20
-52.77274058
 10
-88.32635663
 20
-52.76952099
 10
-88.32313635
 20
-52.76630071
 10
-88.3199156
 20
-52.76307985
 10
-88.31669415
 20
-52.75985852
 10
-88.31347224
 20
-52.7566365
  0
LWPOLYLINE
  5
242
100
AcDbEntity
  8
MST_1_1
 62
   137
  6
CONTINUOUS
100
AcDbPolyline
 90
        9
 70
     0
 43
0.0
 10
-88.31347224
 20
-52.7566365
 10
-88.36804588
 20
-52.70206286
 10
-88.42260777
 20
-52.64750097
 10
-88.47715102
 20
-52.59295772
 10
-88.53166902
 20
-52.53843972
 10
-88.58615488
 20
-52.48395386
 10
-88.64060209
 20
-52.42950665
 10
-88.69500367
 20
-52.37510501
 10
-88.74935321
 20
-52.32075553
  0
LWPOLYLINE
  5
243
100
AcDbEntity
  8
MST_1_1
 62
   137
  6
CONTINUOUS
100
AcDbPolyline
 90
        9
 70
     0
 43
0.0
 10
-88.74935321
 20
-52.32075553
 10
-88.75845794
 20
-52.32986025
 10
-88.76755789
 20
-52.33896032
 10
-88.77665319
 20
-52.34805562
 10
-88.78574383
 20
-52.35714614
 10
-88.79482958
 20
-52.36623195
 10
-88.80391044
 20
-52.37531287
 10
-88.81298652
 20
-52.38438896
 10
-88.82205784
 20
-52.39346021
  0
ARC
  5
244
100
AcDbEntity
  8
MST_1_1
 62
   137
  6
CONTINUOUS
100
AcDbCircle
 10
-88.97421321
 20
-52.52015967
 30
0.0
 40
0.19800002
100
AcDbArc
 50
230.21591956
 51
39.7840785
  0
LWPOLYLINE
  5
245
100
AcDbEntity
  8
MST_1_1
 62
   137
  6
CONTINUOUS
100
AcDbPolyline
 90
        9
 70
     0
 43
0.0
 10
-89.1009127
 20
-52.67231502
 10
-89.11002266
 20
-52.68142498
 10
-89.11912634
 20
-52.69052877
 10
-89.12822397
 20
-52.6996264
 10
-89.1373153
 20
-52.70871762
 10
-89.14640036
 20
-52.71780267
 10
-89.15547889
 20
-52.72688132
 10
-89.16455137
 20
-52.73595368
 10
-89.17361733
 20
-52.74501964
  0
LWPOLYLINE
  5
246
100
AcDbEntity
  8
MST_1_1
 62
   137
  6
CONTINUOUS
100
AcDbPolyline
 90
        9
 70
     0
 43
0.0
 10
-89.17361733
 20
-52.74501964
 10
-89.11927559
 20
-52.79936115
 10
-89.0648789
 20
-52.85375796
 10
-89.01043401
 20
-52.90820296
 10
-88.95594792
 20
-52.96268894
 10
-88.90142806
 20
-53.01720879
 10
-88.84688143
 20
-53.07175543
 10
-88.79231512
 20
-53.12632173
 10
-88.73773624
 20
-53.18090061
  0
LWPOLYLINE
  5
247
100
AcDbEntity
  8
MST_1_1
 62
   137
  6
CONTINUOUS
100
AcDbPolyline
 90
        9
 70
     0
 43
0.0
 10
-88.73773624
 20
-53.18090061
 10
-88.7345191
 20
-53.17768347
 10
-88.73130115
 20
-53.17446552
 10
-88.72808239
 20
-53.17124675
 10
-88.7248628
 20
-53.16802717
 10
-88.72164252
 20
-53.16480689
 10
-88.71842143
 20
-53.16158568
 10
-88.7151994
 20
-53.15836377
 10
-88.71197667
 20
-53.15514104
  0
LWPOLYLINE
  5
248
100
AcDbEntity
  8
MST_1_1
 62
   137
  6
CONTINUOUS
100
AcDbPolyline
 90
       25
 70
     0
 43
0.0
 10
-88.71197672
 20
-53.15514105
 10
-88.7092846
 20
-53.15928771
 10
-88.70652096
 20
-53.16337944
 10
-88.70368654
 20
-53.16741547
 10
-88.7007821
 20
-53.17139505
 10
-88.69780838
 20
-53.17531744
 10
-88.69476615
 20
-53.17918187
 10
-88.69165614
 20
-53.1829876
 10
-88.68847911
 20
-53.18673386
 10
-88.68523581
 20
-53.19041992
 10
-88.681927
 20
-53.19404501
 10
-88.67855341
 20
-53.19760839
 10
-88.67511581
 20
-53.20110929
 10
-88.67161494
 20
-53.20454697
 10
-88.66805156
 20
-53.20792068
 10
-88.66442641
 20
-53.21122965
 10
-88.66074024
 20
-53.21447314
 10
-88.65699381
 20
-53.21765039
 10
-88.65318787
 20
-53.22076065
 10
-88.64932317
 20
-53.22380317
 10
-88.64540046
 20
-53.22677719
 10
-88.64142048
 20
-53.22968197
 10
-88.637384
 20
-53.23251674
 10
-88.63329175
 20
-53.23528076
 10
-88.6291445
 20
-53.23797327
  0
LWPOLYLINE
  5
249
100
AcDbEntity
  8
MST_1_1
 62
   137
  6
CONTINUOUS
100
AcDbPolyline
 90
        9
 70
     0
 43
0.0
 10
-88.6291445
 20
-53.23797322
 10
-88.63236722
 20
-53.24119595
 10
-88.63558913
 20
-53.24441797
 10
-88.63881034
 20
-53.24763907
 10
-88.64203062
 20
-53.25085935
 10
-88.64525021
 20
-53.25407893
 10
-88.64846897
 20
-53.2572977
 10
-88.65168693
 20
-53.26051565
 10
-88.65490406
 20
-53.26373279
  0
LWPOLYLINE
  5
24A
100
AcDbEntity
  8
MST_1_1
 62
   137
  6
CONTINUOUS
100
AcDbPolyline
 90
        9
 70
     0
 43
0.0
 10
-88.65490406
 20
-53.26373279
 10
-88.60032518
 20
-53.31831167
 10
-88.54575888
 20
-53.37287798
 10
-88.49121225
 20
-53.42742461
 10
-88.43669239
 20
-53.48194446
 10
-88.38220641
 20
-53.53643056
 10
-88.32776141
 20
-53.59087544
 10
-88.2733646
 20
-53.64527213
 10
-88.2190231
 20
-53.69961387
  0
CIRCLE
  5
24B
100
AcDbEntity
  8
MST_1_1
 62
   137
  6
CONTINUOUS
100
AcDbCircle
 10
-86.9285532
 20
-51.45454975
 30
0.0
 40
3.66283472
  0
ARC
  5
24C
100
AcDbEntity
  8
MST_1_1
 62
   137
  6
CONTINUOUS
100
AcDbCircle
 10
-85.32583564
 20
-52.37987918
 30
0.0
 40
0.65065883
100
AcDbArc
 50
104.00041459
 51
195.99959727
  0
LWPOLYLINE
  5
24D
100
AcDbEntity
  8
MST_1_1
 62
   137
  6
CONTINUOUS
100
AcDbPolyline
 90
        9
 70
     0
 43
0.0
 10
-88.42523212
 20
-52.74669998
 10
-88.46095823
 20
-52.71097387
 10
-88.4966769
 20
-52.6752552
 10
-88.53238637
 20
-52.63954573
 10
-88.56808466
 20
-52.60384744
 10
-88.60376991
 20
-52.56816219
 10
-88.63944015
 20
-52.53249183
 10
-88.67509362
 20
-52.49683836
 10
-88.71072835
 20
-52.46120363
  0
ARC
  5
24E
100
AcDbEntity
  8
MST_1_1
 62
   137
  6
CONTINUOUS
100
AcDbCircle
 10
-88.48418823
 20
-53.01018401
 30
0.0
 40
0.26999936
100
AcDbArc
 50
77.38747914
 51
127.33780242
  0
LINE
  5
24F
100
AcDbEntity
  8
MST_1_1
 62
   137
  6
CONTINUOUS
100
AcDbLine
 10
-88.26951813
 20
-53.17394293
 30
0.0
 11
-88.64794639
 21
-52.79551467
 31
0.0
  0
ARC
  5
250
100
AcDbEntity
  8
MST_1_1
 62
   137
  6
CONTINUOUS
100
AcDbCircle
 10
-88.48418758
 20
-53.01018475
 30
0.0
 40
0.26999948
100
AcDbArc
 50
322.66221884
 51
12.61250962
  0
LWPOLYLINE
  5
251
100
AcDbEntity
  8
MST_1_1
 62
   137
  6
CONTINUOUS
100
AcDbPolyline
 90
        9
 70
     0
 43
0.0
 10
-87.93520708
 20
-53.2367249
 10
-87.97084181
 20
-53.20109017
 10
-88.00649528
 20
-53.1654367
 10
-88.04216564
 20
-53.12976646
 10
-88.07785089
 20
-53.09408121
 10
-88.11354918
 20
-53.05838291
 10
-88.14925865
 20
-53.02267345
 10
-88.18497732
 20
-52.98695478
 10
-88.22070343
 20
-52.95122866
  0
ARC
  5
252
100
AcDbEntity
  8
MST_1_1
 62
   137
  6
CONTINUOUS
100
AcDbCircle
 10
-87.99416302
 20
-53.50020969
 30
0.0
 40
0.27000007
100
AcDbArc
 50
77.38755048
 51
192.61243885
  0
LWPOLYLINE
  5
253
100
AcDbEntity
  8
MST_1_1
 62
   137
  6
CONTINUOUS
100
AcDbPolyline
 90
        9
 70
     0
 43
0.0
 10
-88.54314407
 20
-53.27366942
 10
-88.50741633
 20
-53.30939717
 10
-88.47169627
 20
-53.34511723
 10
-88.43598587
 20
-53.38082763
 10
-88.40028699
 20
-53.4165265
 10
-88.36460185
 20
-53.45221152
 10
-88.32893231
 20
-53.48788118
 10
-88.29328024
 20
-53.52353314
 10
-88.25764784
 20
-53.55916554
  0
ARC
  5
254
100
AcDbEntity
  8
MST_1_1
 62
   137
  6
CONTINUOUS
100
AcDbCircle
 10
-88.4841883
 20
-53.01018383
 30
0.0
 40
0.27000082
100
AcDbArc
 50
257.38763285
 51
307.33766874
  0
LWPOLYLINE
  5
255
100
AcDbEntity
  8
MST_1_1
 62
   137
  6
CONTINUOUS
100
AcDbPolyline
 90
        9
 70
     0
 43
0.0
 10
-88.69885818
 20
-52.84642635
 10
-88.65157039
 20
-52.89371402
 10
-88.6042691
 20
-52.94101532
 10
-88.55695885
 20
-52.98832569
 10
-88.50964394
 20
-53.03564048
 10
-88.46232914
 20
-53.0829554
 10
-88.41501877
 20
-53.13026565
 10
-88.36771748
 20
-53.17756694
 10
-88.32042981
 20
-53.22485473
  0
ARC
  5
256
100
AcDbEntity
  8
MST_1_1
 62
   137
  6
CONTINUOUS
100
AcDbCircle
 10
-88.48418802
 20
-53.01018468
 30
0.0
 40
0.27000013
100
AcDbArc
 50
142.662273
 51
192.61245546
  0
LWPOLYLINE
  5
257
100
AcDbEntity
  8
MST_1_1
 62
   137
  6
CONTINUOUS
100
AcDbPolyline
 90
        9
 70
     0
 43
0.0
 10
-89.03316899
 20
-52.78364438
 10
-88.99753659
 20
-52.81927679
 10
-88.96188463
 20
-52.85492886
 10
-88.92621498
 20
-52.8905984
 10
-88.89052996
 20
-52.92628354
 10
-88.85483108
 20
-52.96198241
 10
-88.81912068
 20
-52.99769281
 10
-88.78340062
 20
-53.03341288
 10
-88.74767287
 20
-53.06914062
  0
ARC
  5
258
100
AcDbEntity
  8
MST_1_1
 62
   137
  6
CONTINUOUS
100
AcDbCircle
 10
-88.97421289
 20
-52.52015983
 30
0.0
 40
0.26999988
100
AcDbArc
 50
257.38751638
 51
12.61251432
  0
LWPOLYLINE
  5
259
100
AcDbEntity
  8
MST_1_1
 62
   137
  6
CONTINUOUS
100
AcDbPolyline
 90
        9
 70
     0
 43
0.0
 10
-88.56369883
 20
-52.82885055
 10
-88.53109835
 20
-52.86145103
 10
-88.49849344
 20
-52.89405594
 10
-88.46588574
 20
-52.92666375
 10
-88.43327642
 20
-52.95927296
 10
-88.4006672
 20
-52.99188229
 10
-88.36805939
 20
-53.02448999
 10
-88.33545448
 20
-53.0570949
 10
-88.302854
 20
-53.08969538
  0
ARC
  5
25A
100
AcDbEntity
  8
MST_1_1
 62
   137
  6
CONTINUOUS
100
AcDbCircle
 10
-88.48418818
 20
-53.01018473
 30
0.0
 40
0.19800007
100
AcDbArc
 50
336.32372311
 51
113.6762869
  0
LWPOLYLINE
  5
25B
100
AcDbEntity
  8
MST_1_1
 62
   137
  6
CONTINUOUS
100
AcDbPolyline
 90
        9
 70
     0
 43
0.0
 10
-88.40467736
 20
-53.19151874
 10
-88.43727784
 20
-53.15891837
 10
-88.46988263
 20
-53.12631347
 10
-88.50249045
 20
-53.09370565
 10
-88.53509978
 20
-53.06109632
 10
-88.5677091
 20
-53.02848699
 10
-88.60031692
 20
-52.99587918
 10
-88.63292182
 20
-52.96327439
 10
-88.66552219
 20
-52.93067391
  0
ARC
  5
25C
100
AcDbEntity
  8
MST_1_1
 62
   137
  6
CONTINUOUS
100
AcDbCircle
 10
-88.48418806
 20
-53.01018461
 30
0.0
 40
0.19800004
100
AcDbArc
 50
156.32369345
 51
293.67631657
  0
CIRCLE
  5
25D
100
AcDbEntity
  8
MST_1_1
 62
   137
  6
CONTINUOUS
100
AcDbCircle
 10
-86.9285532
 20
-81.45454975
 30
0.0
 40
1.89428533
  0
CIRCLE
  5
25E
100
AcDbEntity
  8
MST_1_1
 62
   137
  6
CONTINUOUS
100
AcDbCircle
 10
-86.9285532
 20
-81.45454975
 30
0.0
 40
1.06049438
  0
CIRCLE
  5
25F
100
AcDbEntity
  8
MST_1_1
 62
   137
  6
CONTINUOUS
100
AcDbCircle
 10
-86.9285532
 20
-81.45454975
 30
0.0
 40
1.89428533
  0
CIRCLE
  5
260
100
AcDbEntity
  8
MST_1_1
 62
   137
  6
CONTINUOUS
100
AcDbCircle
 10
-86.9285532
 20
-81.45454975
 30
0.0
 40
1.06049438
  0
CIRCLE
  5
261
100
AcDbEntity
  8
MST_1_1
 62
   137
  6
CONTINUOUS
100
AcDbCircle
 10
-86.9285532
 20
-81.45454975
 30
0.0
 40
1.89428533
  0
CIRCLE
  5
262
100
AcDbEntity
  8
MST_1_1
 62
   137
  6
CONTINUOUS
100
AcDbCircle
 10
-86.9285532
 20
-81.45454975
 30
0.0
 40
1.06049438
  0
CIRCLE
  5
263
100
AcDbEntity
  8
MST_1_1
 62
   137
  6
CONTINUOUS
100
AcDbCircle
 10
-86.9285532
 20
-81.45454975
 30
0.0
 40
1.59428533
  0
CIRCLE
  5
264
100
AcDbEntity
  8
MST_1_1
 62
   137
  6
CONTINUOUS
100
AcDbCircle
 10
-86.9285532
 20
-81.45454975
 30
0.0
 40
1.99428533
  0
CIRCLE
  5
265
100
AcDbEntity
  8
MST_1_1
 62
   137
  6
CONTINUOUS
100
AcDbCircle
 10
-86.9285532
 20
-81.45454975
 30
0.0
 40
1.125
  0
CIRCLE
  5
266
100
AcDbEntity
  8
MST_1_1
 62
   137
  6
CONTINUOUS
100
AcDbCircle
 10
-86.9285532
 20
-81.45454975
 30
0.0
 40
4.0
  0
ARC
  5
267
100
AcDbEntity
  8
MST_1_1
 62
   137
  6
CONTINUOUS
100
AcDbCircle
 10
-88.30055318
 20
-81.45454975
 30
0.0
 40
0.303
100
AcDbArc
 50
104.00039951
 51
255.99961051
  0
ARC
  5
268
100
AcDbEntity
  8
MST_1_1
 62
   137
  6
CONTINUOUS
100
AcDbCircle
 10
-88.53127076
 20
-82.37987918
 30
0.0
 40
0.65065883
100
AcDbArc
 50
344.00042282
 51
75.99958535
  0
ARC
  5
269
100
AcDbEntity
  8
MST_1_1
 62
   137
  6
CONTINUOUS
100
AcDbCircle
 10
-87.61455317
 20
-82.64273659
 30
0.0
 40
0.30299999
100
AcDbArc
 50
164.00040911
 51
315.99959504
  0
ARC
  5
26A
100
AcDbEntity
  8
MST_1_1
 62
   137
  6
CONTINUOUS
100
AcDbCircle
 10
-86.9285532
 20
-83.3052085
 30
0.0
 40
0.65065875
100
AcDbArc
 50
44.00040429
 51
135.99959571
  0
ARC
  5
26B
100
AcDbEntity
  8
MST_1_1
 62
   137
  6
CONTINUOUS
100
AcDbCircle
 10
-86.2425532
 20
-82.64273664
 30
0.0
 40
0.30299998
100
AcDbArc
 50
224.00041508
 51
15.9996008
  0
ARC
  5
26C
100
AcDbEntity
  8
MST_1_1
 62
   137
  6
CONTINUOUS
100
AcDbCircle
 10
-85.55655322
 20
-81.45454975
 30
0.0
 40
0.303
100
AcDbArc
 50
284.00040953
 51
75.99960049
  0
ARC
  5
26D
100
AcDbEntity
  8
MST_1_1
 62
   137
  6
CONTINUOUS
100
AcDbCircle
 10
-85.32583564
 20
-80.52922031
 30
0.0
 40
0.65065883
100
AcDbArc
 50
164.00041281
 51
255.99959537
  0
ARC
  5
26E
100
AcDbEntity
  8
MST_1_1
 62
   137
  6
CONTINUOUS
100
AcDbCircle
 10
-86.24255323
 20
-80.2663629
 30
0.0
 40
0.30299999
100
AcDbArc
 50
344.00041913
 51
135.99958502
  0
ARC
  5
26F
100
AcDbEntity
  8
MST_1_1
 62
   137
  6
CONTINUOUS
100
AcDbCircle
 10
-86.9285532
 20
-79.603891
 30
0.0
 40
0.65065875
100
AcDbArc
 50
224.00041431
 51
315.99960573
  0
ARC
  5
270
100
AcDbEntity
  8
MST_1_1
 62
   137
  6
CONTINUOUS
100
AcDbCircle
 10
-87.6145532
 20
-80.26636285
 30
0.0
 40
0.30299998
100
AcDbArc
 50
44.00040506
 51
195.99961082
  0
ARC
  5
271
100
AcDbEntity
  8
MST_1_1
 62
   137
  6
CONTINUOUS
100
AcDbCircle
 10
-88.53127075
 20
-80.52922031
 30
0.0
 40
0.65065883
100
AcDbArc
 50
284.00042461
 51
15.99958726
  0
LWPOLYLINE
  5
272
100
AcDbEntity
  8
MST_1_1
 62
   137
  6
CONTINUOUS
100
AcDbPolyline
 90
        9
 70
     0
 43
0.0
 10
-88.2190231
 20
-83.69961387
 10
-88.20995714
 20
-83.69054791
 10
-88.20088477
 20
-83.68147544
 10
-88.19180612
 20
-83.6723969
 10
-88.18272107
 20
-83.66331185
 10
-88.17362985
 20
-83.65422051
 10
-88.16453223
 20
-83.64512289
 10
-88.15542843
 20
-83.63601921
 10
-88.14631847
 20
-83.62690925
  0
ARC
  5
273
100
AcDbEntity
  8
MST_1_1
 62
   137
  6
CONTINUOUS
100
AcDbCircle
 10
-87.99416314
 20
-83.50020975
 30
0.0
 40
0.19800002
100
AcDbArc
 50
50.21591721
 51
219.78410477
  0
LWPOLYLINE
  5
274
100
AcDbEntity
  8
MST_1_1
 62
   137
  6
CONTINUOUS
100
AcDbPolyline
 90
        9
 70
     0
 43
0.0
 10
-87.86746367
 20
-83.34805439
 10
-87.85839241
 20
-83.33898307
 10
-87.84931632
 20
-83.32990698
 10
-87.8402354
 20
-83.32082612
 10
-87.8311496
 20
-83.31174037
 10
-87.82205907
 20
-83.30264973
 10
-87.81296378
 20
-83.29355444
 10
-87.80386371
 20
-83.28445448
 10
-87.79475898
 20
-83.27534976
  0
LWPOLYLINE
  5
275
100
AcDbEntity
  8
MST_1_1
 62
   137
  6
CONTINUOUS
100
AcDbPolyline
 90
        9
 70
     0
 43
0.0
 10
-87.79475898
 20
-83.27534976
 10
-87.84910846
 20
-83.22100022
 10
-87.9035101
 20
-83.16659864
 10
-87.95795731
 20
-83.11215143
 10
-88.01244318
 20
-83.05766556
 10
-88.06696117
 20
-83.00314757
 10
-88.12150443
 20
-82.94860431
 10
-88.17606631
 20
-82.89404243
 10
-88.23063995
 20
-82.83946879
  0
LWPOLYLINE
  5
276
100
AcDbEntity
  8
MST_1_1
 62
   137
  6
CONTINUOUS
100
AcDbPolyline
 90
        9
 70
     0
 43
0.0
 10
-88.23063995
 20
-82.83946879
 10
-88.23386197
 20
-82.8426907
 10
-88.2370833
 20
-82.84591215
 10
-88.24030417
 20
-82.84913289
 10
-88.24352445
 20
-82.85235317
 10
-88.24674403
 20
-82.85557287
 10
-88.24996315
 20
-82.85879187
 10
-88.25318156
 20
-82.86201041
 10
-88.25639952
 20
-82.86522824
  0
LWPOLYLINE
  5
277
100
AcDbEntity
  8
MST_1_1
 62
   137
  6
CONTINUOUS
100
AcDbPolyline
 90
       25
 70
     0
 43
0.0
 10
-88.25639952
 20
-82.86522828
 10
-88.25909184
 20
-82.86108129
 10
-88.26185562
 20
-82.85698931
 10
-88.26469013
 20
-82.85295308
 10
-88.2675946
 20
-82.84897337
 10
-88.2705683
 20
-82.84505092
 10
-88.27361049
 20
-82.84118646
 10
-88.27672041
 20
-82.83738076
 10
-88.27989733
 20
-82.83363455
 10
-88.2831405
 20
-82.82994858
 10
-88.28644918
 20
-82.8263236
 10
-88.28982261
 20
-82.82276036
 10
-88.29326006
 20
-82.81925961
 10
-88.29676078
 20
-82.81582208
 10
-88.30032404
 20
-82.81244853
 10
-88.30394907
 20
-82.8091397
 10
-88.30763514
 20
-82.80589635
 10
-88.3113815
 20
-82.80271921
 10
-88.31518742
 20
-82.79960903
 10
-88.31905214
 20
-82.79656657
 10
-88.32297491
 20
-82.79359257
 10
-88.32695501
 20
-82.79068777
 10
-88.33099167
 20
-82.78785292
 10
-88.33508416
 20
-82.78508877
 10
-88.33923174
 20
-82.78239606
  0
LWPOLYLINE
  5
278
100
AcDbEntity
  8
MST_1_1
 62
   137
  6
CONTINUOUS
100
AcDbPolyline
 90
        9
 70
     0
 43
0.0
 10
-88.33923169
 20
-82.78239606
 10
-88.33601386
 20
-82.77917811
 10
-88.33279532
 20
-82.77595969
 10
-88.32957632
 20
-82.77274058
 10
-88.32635663
 20
-82.76952099
 10
-88.32313635
 20
-82.76630071
 10
-88.3199156
 20
-82.76307985
 10
-88.31669415
 20
-82.75985852
 10
-88.31347224
 20
-82.7566365
  0
LWPOLYLINE
  5
279
100
AcDbEntity
  8
MST_1_1
 62
   137
  6
CONTINUOUS
100
AcDbPolyline
 90
        9
 70
     0
 43
0.0
 10
-88.31347224
 20
-82.7566365
 10
-88.36804588
 20
-82.70206286
 10
-88.42260777
 20
-82.64750097
 10
-88.47715102
 20
-82.59295772
 10
-88.53166902
 20
-82.53843972
 10
-88.58615488
 20
-82.48395386
 10
-88.64060209
 20
-82.42950665
 10
-88.69500367
 20
-82.37510501
 10
-88.74935321
 20
-82.32075553
  0
LWPOLYLINE
  5
27A
100
AcDbEntity
  8
MST_1_1
 62
   137
  6
CONTINUOUS
100
AcDbPolyline
 90
        9
 70
     0
 43
0.0
 10
-88.74935321
 20
-82.32075553
 10
-88.75845794
 20
-82.32986025
 10
-88.76755789
 20
-82.33896032
 10
-88.77665319
 20
-82.34805562
 10
-88.78574383
 20
-82.35714614
 10
-88.79482958
 20
-82.36623195
 10
-88.80391044
 20
-82.37531287
 10
-88.81298652
 20
-82.38438896
 10
-88.82205784
 20
-82.39346021
  0
ARC
  5
27B
100
AcDbEntity
  8
MST_1_1
 62
   137
  6
CONTINUOUS
100
AcDbCircle
 10
-88.97421321
 20
-82.52015967
 30
0.0
 40
0.19800002
100
AcDbArc
 50
230.21591956
 51
39.7840785
  0
LWPOLYLINE
  5
27C
100
AcDbEntity
  8
MST_1_1
 62
   137
  6
CONTINUOUS
100
AcDbPolyline
 90
        9
 70
     0
 43
0.0
 10
-89.1009127
 20
-82.67231502
 10
-89.11002266
 20
-82.68142498
 10
-89.11912634
 20
-82.69052877
 10
-89.12822397
 20
-82.6996264
 10
-89.1373153
 20
-82.70871762
 10
-89.14640036
 20
-82.71780267
 10
-89.15547889
 20
-82.72688132
 10
-89.16455137
 20
-82.73595368
 10
-89.17361733
 20
-82.74501964
  0
LWPOLYLINE
  5
27D
100
AcDbEntity
  8
MST_1_1
 62
   137
  6
CONTINUOUS
100
AcDbPolyline
 90
        9
 70
     0
 43
0.0
 10
-89.17361733
 20
-82.74501964
 10
-89.11927559
 20
-82.79936115
 10
-89.0648789
 20
-82.85375796
 10
-89.01043401
 20
-82.90820296
 10
-88.95594792
 20
-82.96268894
 10
-88.90142806
 20
-83.01720879
 10
-88.84688143
 20
-83.07175543
 10
-88.79231512
 20
-83.12632173
 10
-88.73773624
 20
-83.18090061
  0
LWPOLYLINE
  5
27E
100
AcDbEntity
  8
MST_1_1
 62
   137
  6
CONTINUOUS
100
AcDbPolyline
 90
        9
 70
     0
 43
0.0
 10
-88.73773624
 20
-83.18090061
 10
-88.7345191
 20
-83.17768347
 10
-88.73130115
 20
-83.17446552
 10
-88.72808239
 20
-83.17124675
 10
-88.7248628
 20
-83.16802717
 10
-88.72164252
 20
-83.16480689
 10
-88.71842143
 20
-83.16158568
 10
-88.7151994
 20
-83.15836377
 10
-88.71197667
 20
-83.15514104
  0
LWPOLYLINE
  5
27F
100
AcDbEntity
  8
MST_1_1
 62
   137
  6
CONTINUOUS
100
AcDbPolyline
 90
       25
 70
     0
 43
0.0
 10
-88.71197672
 20
-83.15514105
 10
-88.7092846
 20
-83.15928771
 10
-88.70652096
 20
-83.16337944
 10
-88.70368654
 20
-83.16741547
 10
-88.7007821
 20
-83.17139505
 10
-88.69780838
 20
-83.17531744
 10
-88.69476615
 20
-83.17918187
 10
-88.69165614
 20
-83.1829876
 10
-88.68847911
 20
-83.18673386
 10
-88.68523581
 20
-83.19041992
 10
-88.681927
 20
-83.19404501
 10
-88.67855341
 20
-83.19760839
 10
-88.67511581
 20
-83.20110929
 10
-88.67161494
 20
-83.20454697
 10
-88.66805156
 20
-83.20792068
 10
-88.66442641
 20
-83.21122965
 10
-88.66074024
 20
-83.21447314
 10
-88.65699381
 20
-83.21765039
 10
-88.65318787
 20
-83.22076065
 10
-88.64932317
 20
-83.22380317
 10
-88.64540046
 20
-83.22677719
 10
-88.64142048
 20
-83.22968197
 10
-88.637384
 20
-83.23251674
 10
-88.63329175
 20
-83.23528076
 10
-88.6291445
 20
-83.23797327
  0
LWPOLYLINE
  5
280
100
AcDbEntity
  8
MST_1_1
 62
   137
  6
CONTINUOUS
100
AcDbPolyline
 90
        9
 70
     0
 43
0.0
 10
-88.6291445
 20
-83.23797322
 10
-88.63236722
 20
-83.24119595
 10
-88.63558913
 20
-83.24441797
 10
-88.63881034
 20
-83.24763907
 10
-88.64203062
 20
-83.25085935
 10
-88.64525021
 20
-83.25407893
 10
-88.64846897
 20
-83.2572977
 10
-88.65168693
 20
-83.26051565
 10
-88.65490406
 20
-83.26373279
  0
LWPOLYLINE
  5
281
100
AcDbEntity
  8
MST_1_1
 62
   137
  6
CONTINUOUS
100
AcDbPolyline
 90
        9
 70
     0
 43
0.0
 10
-88.65490406
 20
-83.26373279
 10
-88.60032518
 20
-83.31831167
 10
-88.54575888
 20
-83.37287798
 10
-88.49121225
 20
-83.42742461
 10
-88.43669239
 20
-83.48194446
 10
-88.38220641
 20
-83.53643056
 10
-88.32776141
 20
-83.59087544
 10
-88.2733646
 20
-83.64527213
 10
-88.2190231
 20
-83.69961387
  0
CIRCLE
  5
282
100
AcDbEntity
  8
MST_1_1
 62
   137
  6
CONTINUOUS
100
AcDbCircle
 10
-86.9285532
 20
-81.45454975
 30
0.0
 40
3.66283472
  0
ARC
  5
283
100
AcDbEntity
  8
MST_1_1
 62
   137
  6
CONTINUOUS
100
AcDbCircle
 10
-85.32583564
 20
-82.37987918
 30
0.0
 40
0.65065883
100
AcDbArc
 50
104.00041459
 51
195.99959727
  0
LWPOLYLINE
  5
284
100
AcDbEntity
  8
MST_1_1
 62
   137
  6
CONTINUOUS
100
AcDbPolyline
 90
        9
 70
     0
 43
0.0
 10
-88.42523212
 20
-82.74669998
 10
-88.46095823
 20
-82.71097387
 10
-88.4966769
 20
-82.6752552
 10
-88.53238637
 20
-82.63954573
 10
-88.56808466
 20
-82.60384744
 10
-88.60376991
 20
-82.56816219
 10
-88.63944015
 20
-82.53249183
 10
-88.67509362
 20
-82.49683836
 10
-88.71072835
 20
-82.46120363
  0
ARC
  5
285
100
AcDbEntity
  8
MST_1_1
 62
   137
  6
CONTINUOUS
100
AcDbCircle
 10
-88.48418823
 20
-83.01018401
 30
0.0
 40
0.26999936
100
AcDbArc
 50
77.38747914
 51
127.33780242
  0
LINE
  5
286
100
AcDbEntity
  8
MST_1_1
 62
   137
  6
CONTINUOUS
100
AcDbLine
 10
-88.26951813
 20
-83.17394293
 30
0.0
 11
-88.64794639
 21
-82.79551467
 31
0.0
  0
ARC
  5
287
100
AcDbEntity
  8
MST_1_1
 62
   137
  6
CONTINUOUS
100
AcDbCircle
 10
-88.48418758
 20
-83.01018475
 30
0.0
 40
0.26999948
100
AcDbArc
 50
322.66221884
 51
12.61250962
  0
LWPOLYLINE
  5
288
100
AcDbEntity
  8
MST_1_1
 62
   137
  6
CONTINUOUS
100
AcDbPolyline
 90
        9
 70
     0
 43
0.0
 10
-87.93520708
 20
-83.2367249
 10
-87.97084181
 20
-83.20109017
 10
-88.00649528
 20
-83.1654367
 10
-88.04216564
 20
-83.12976646
 10
-88.07785089
 20
-83.09408121
 10
-88.11354918
 20
-83.05838291
 10
-88.14925865
 20
-83.02267345
 10
-88.18497732
 20
-82.98695478
 10
-88.22070343
 20
-82.95122866
  0
ARC
  5
289
100
AcDbEntity
  8
MST_1_1
 62
   137
  6
CONTINUOUS
100
AcDbCircle
 10
-87.99416302
 20
-83.50020969
 30
0.0
 40
0.27000007
100
AcDbArc
 50
77.38755048
 51
192.61243885
  0
LWPOLYLINE
  5
28A
100
AcDbEntity
  8
MST_1_1
 62
   137
  6
CONTINUOUS
100
AcDbPolyline
 90
        9
 70
     0
 43
0.0
 10
-88.54314407
 20
-83.27366942
 10
-88.50741633
 20
-83.30939717
 10
-88.47169627
 20
-83.34511723
 10
-88.43598587
 20
-83.38082763
 10
-88.40028699
 20
-83.4165265
 10
-88.36460185
 20
-83.45221152
 10
-88.32893231
 20
-83.48788118
 10
-88.29328024
 20
-83.52353314
 10
-88.25764784
 20
-83.55916554
  0
ARC
  5
28B
100
AcDbEntity
  8
MST_1_1
 62
   137
  6
CONTINUOUS
100
AcDbCircle
 10
-88.4841883
 20
-83.01018383
 30
0.0
 40
0.27000082
100
AcDbArc
 50
257.38763285
 51
307.33766874
  0
LWPOLYLINE
  5
28C
100
AcDbEntity
  8
MST_1_1
 62
   137
  6
CONTINUOUS
100
AcDbPolyline
 90
        9
 70
     0
 43
0.0
 10
-88.69885818
 20
-82.84642635
 10
-88.65157039
 20
-82.89371402
 10
-88.6042691
 20
-82.94101532
 10
-88.55695885
 20
-82.98832569
 10
-88.50964394
 20
-83.03564048
 10
-88.46232914
 20
-83.0829554
 10
-88.41501877
 20
-83.13026565
 10
-88.36771748
 20
-83.17756694
 10
-88.32042981
 20
-83.22485473
  0
ARC
  5
28D
100
AcDbEntity
  8
MST_1_1
 62
   137
  6
CONTINUOUS
100
AcDbCircle
 10
-88.48418802
 20
-83.01018468
 30
0.0
 40
0.27000013
100
AcDbArc
 50
142.662273
 51
192.61245546
  0
LWPOLYLINE
  5
28E
100
AcDbEntity
  8
MST_1_1
 62
   137
  6
CONTINUOUS
100
AcDbPolyline
 90
        9
 70
     0
 43
0.0
 10
-89.03316899
 20
-82.78364438
 10
-88.99753659
 20
-82.81927679
 10
-88.96188463
 20
-82.85492886
 10
-88.92621498
 20
-82.8905984
 10
-88.89052996
 20
-82.92628354
 10
-88.85483108
 20
-82.96198241
 10
-88.81912068
 20
-82.99769281
 10
-88.78340062
 20
-83.03341288
 10
-88.74767287
 20
-83.06914062
  0
ARC
  5
28F
100
AcDbEntity
  8
MST_1_1
 62
   137
  6
CONTINUOUS
100
AcDbCircle
 10
-88.97421289
 20
-82.52015983
 30
0.0
 40
0.26999988
100
AcDbArc
 50
257.38751638
 51
12.61251432
  0
LWPOLYLINE
  5
290
100
AcDbEntity
  8
MST_1_1
 62
   137
  6
CONTINUOUS
100
AcDbPolyline
 90
        9
 70
     0
 43
0.0
 10
-88.56369883
 20
-82.82885055
 10
-88.53109835
 20
-82.86145103
 10
-88.49849344
 20
-82.89405594
 10
-88.46588574
 20
-82.92666375
 10
-88.43327642
 20
-82.95927296
 10
-88.4006672
 20
-82.99188229
 10
-88.36805939
 20
-83.02448999
 10
-88.33545448
 20
-83.0570949
 10
-88.302854
 20
-83.08969538
  0
ARC
  5
291
100
AcDbEntity
  8
MST_1_1
 62
   137
  6
CONTINUOUS
100
AcDbCircle
 10
-88.48418818
 20
-83.01018473
 30
0.0
 40
0.19800007
100
AcDbArc
 50
336.32372311
 51
113.6762869
  0
LWPOLYLINE
  5
292
100
AcDbEntity
  8
MST_1_1
 62
   137
  6
CONTINUOUS
100
AcDbPolyline
 90
        9
 70
     0
 43
0.0
 10
-88.40467736
 20
-83.19151874
 10
-88.43727784
 20
-83.15891837
 10
-88.46988263
 20
-83.12631347
 10
-88.50249045
 20
-83.09370565
 10
-88.53509978
 20
-83.06109632
 10
-88.5677091
 20
-83.02848699
 10
-88.60031692
 20
-82.99587918
 10
-88.63292182
 20
-82.96327439
 10
-88.66552219
 20
-82.93067391
  0
ARC
  5
293
100
AcDbEntity
  8
MST_1_1
 62
   137
  6
CONTINUOUS
100
AcDbCircle
 10
-88.48418806
 20
-83.01018461
 30
0.0
 40
0.19800004
100
AcDbArc
 50
156.32369345
 51
293.67631657
  0
CIRCLE
  5
294
100
AcDbEntity
  8
MST_1_1
 62
   137
  6
CONTINUOUS
100
AcDbCircle
 10
-86.9285532
 20
-111.45454975
 30
0.0
 40
1.89428533
  0
CIRCLE
  5
295
100
AcDbEntity
  8
MST_1_1
 62
   137
  6
CONTINUOUS
100
AcDbCircle
 10
-86.9285532
 20
-111.45454975
 30
0.0
 40
1.06049438
  0
CIRCLE
  5
296
100
AcDbEntity
  8
MST_1_1
 62
   137
  6
CONTINUOUS
100
AcDbCircle
 10
-86.9285532
 20
-111.45454975
 30
0.0
 40
1.89428533
  0
CIRCLE
  5
297
100
AcDbEntity
  8
MST_1_1
 62
   137
  6
CONTINUOUS
100
AcDbCircle
 10
-86.9285532
 20
-111.45454975
 30
0.0
 40
1.06049438
  0
CIRCLE
  5
298
100
AcDbEntity
  8
MST_1_1
 62
   137
  6
CONTINUOUS
100
AcDbCircle
 10
-86.9285532
 20
-111.45454975
 30
0.0
 40
1.89428533
  0
CIRCLE
  5
299
100
AcDbEntity
  8
MST_1_1
 62
   137
  6
CONTINUOUS
100
AcDbCircle
 10
-86.9285532
 20
-111.45454975
 30
0.0
 40
1.06049438
  0
CIRCLE
  5
29A
100
AcDbEntity
  8
MST_1_1
 62
   137
  6
CONTINUOUS
100
AcDbCircle
 10
-86.9285532
 20
-111.45454975
 30
0.0
 40
1.59428533
  0
CIRCLE
  5
29B
100
AcDbEntity
  8
MST_1_1
 62
   137
  6
CONTINUOUS
100
AcDbCircle
 10
-86.9285532
 20
-111.45454975
 30
0.0
 40
1.99428533
  0
CIRCLE
  5
29C
100
AcDbEntity
  8
MST_1_1
 62
   137
  6
CONTINUOUS
100
AcDbCircle
 10
-86.9285532
 20
-111.45454975
 30
0.0
 40
1.125
  0
CIRCLE
  5
29D
100
AcDbEntity
  8
MST_1_1
 62
   137
  6
CONTINUOUS
100
AcDbCircle
 10
-86.9285532
 20
-111.45454975
 30
0.0
 40
4.0
  0
ARC
  5
29E
100
AcDbEntity
  8
MST_1_1
 62
   137
  6
CONTINUOUS
100
AcDbCircle
 10
-88.30055318
 20
-111.45454975
 30
0.0
 40
0.303
100
AcDbArc
 50
104.00039951
 51
255.99961051
  0
ARC
  5
29F
100
AcDbEntity
  8
MST_1_1
 62
   137
  6
CONTINUOUS
100
AcDbCircle
 10
-88.53127076
 20
-112.37987918
 30
0.0
 40
0.65065883
100
AcDbArc
 50
344.00042282
 51
75.99958535
  0
ARC
  5
2A0
100
AcDbEntity
  8
MST_1_1
 62
   137
  6
CONTINUOUS
100
AcDbCircle
 10
-87.61455317
 20
-112.64273659
 30
0.0
 40
0.30299999
100
AcDbArc
 50
164.00040911
 51
315.99959504
  0
ARC
  5
2A1
100
AcDbEntity
  8
MST_1_1
 62
   137
  6
CONTINUOUS
100
AcDbCircle
 10
-86.9285532
 20
-113.3052085
 30
0.0
 40
0.65065875
100
AcDbArc
 50
44.00040429
 51
135.99959571
  0
ARC
  5
2A2
100
AcDbEntity
  8
MST_1_1
 62
   137
  6
CONTINUOUS
100
AcDbCircle
 10
-86.2425532
 20
-112.64273664
 30
0.0
 40
0.30299998
100
AcDbArc
 50
224.00041508
 51
15.9996008
  0
ARC
  5
2A3
100
AcDbEntity
  8
MST_1_1
 62
   137
  6
CONTINUOUS
100
AcDbCircle
 10
-85.55655322
 20
-111.45454975
 30
0.0
 40
0.303
100
AcDbArc
 50
284.00040953
 51
75.99960049
  0
ARC
  5
2A4
100
AcDbEntity
  8
MST_1_1
 62
   137
  6
CONTINUOUS
100
AcDbCircle
 10
-85.32583564
 20
-110.52922031
 30
0.0
 40
0.65065883
100
AcDbArc
 50
164.00041281
 51
255.99959537
  0
ARC
  5
2A5
100
AcDbEntity
  8
MST_1_1
 62
   137
  6
CONTINUOUS
100
AcDbCircle
 10
-86.24255323
 20
-110.2663629
 30
0.0
 40
0.30299999
100
AcDbArc
 50
344.00041913
 51
135.99958502
  0
ARC
  5
2A6
100
AcDbEntity
  8
MST_1_1
 62
   137
  6
CONTINUOUS
100
AcDbCircle
 10
-86.9285532
 20
-109.603891
 30
0.0
 40
0.65065875
100
AcDbArc
 50
224.00041431
 51
315.99960573
  0
ARC
  5
2A7
100
AcDbEntity
  8
MST_1_1
 62
   137
  6
CONTINUOUS
100
AcDbCircle
 10
-87.6145532
 20
-110.26636285
 30
0.0
 40
0.30299998
100
AcDbArc
 50
44.00040506
 51
195.99961082
  0
ARC
  5
2A8
100
AcDbEntity
  8
MST_1_1
 62
   137
  6
CONTINUOUS
100
AcDbCircle
 10
-88.53127075
 20
-110.52922031
 30
0.0
 40
0.65065883
100
AcDbArc
 50
284.00042461
 51
15.99958726
  0
LWPOLYLINE
  5
2A9
100
AcDbEntity
  8
MST_1_1
 62
   137
  6
CONTINUOUS
100
AcDbPolyline
 90
        9
 70
     0
 43
0.0
 10
-88.2190231
 20
-113.69961387
 10
-88.20995714
 20
-113.69054791
 10
-88.20088477
 20
-113.68147544
 10
-88.19180612
 20
-113.6723969
 10
-88.18272107
 20
-113.66331185
 10
-88.17362985
 20
-113.65422051
 10
-88.16453223
 20
-113.64512289
 10
-88.15542843
 20
-113.63601921
 10
-88.14631847
 20
-113.62690925
  0
ARC
  5
2AA
100
AcDbEntity
  8
MST_1_1
 62
   137
  6
CONTINUOUS
100
AcDbCircle
 10
-87.99416314
 20
-113.50020975
 30
0.0
 40
0.19800002
100
AcDbArc
 50
50.21591721
 51
219.78410477
  0
LWPOLYLINE
  5
2AB
100
AcDbEntity
  8
MST_1_1
 62
   137
  6
CONTINUOUS
100
AcDbPolyline
 90
        9
 70
     0
 43
0.0
 10
-87.86746367
 20
-113.34805439
 10
-87.85839241
 20
-113.33898307
 10
-87.84931632
 20
-113.32990698
 10
-87.8402354
 20
-113.32082612
 10
-87.8311496
 20
-113.31174037
 10
-87.82205907
 20
-113.30264973
 10
-87.81296378
 20
-113.29355444
 10
-87.80386371
 20
-113.28445448
 10
-87.79475898
 20
-113.27534976
  0
LWPOLYLINE
  5
2AC
100
AcDbEntity
  8
MST_1_1
 62
   137
  6
CONTINUOUS
100
AcDbPolyline
 90
        9
 70
     0
 43
0.0
 10
-87.79475898
 20
-113.27534976
 10
-87.84910846
 20
-113.22100022
 10
-87.9035101
 20
-113.16659864
 10
-87.95795731
 20
-113.11215143
 10
-88.01244318
 20
-113.05766556
 10
-88.06696117
 20
-113.00314757
 10
-88.12150443
 20
-112.94860431
 10
-88.17606631
 20
-112.89404243
 10
-88.23063995
 20
-112.83946879
  0
LWPOLYLINE
  5
2AD
100
AcDbEntity
  8
MST_1_1
 62
   137
  6
CONTINUOUS
100
AcDbPolyline
 90
        9
 70
     0
 43
0.0
 10
-88.23063995
 20
-112.83946879
 10
-88.23386197
 20
-112.8426907
 10
-88.2370833
 20
-112.84591215
 10
-88.24030417
 20
-112.84913289
 10
-88.24352445
 20
-112.85235317
 10
-88.24674403
 20
-112.85557287
 10
-88.24996315
 20
-112.85879187
 10
-88.25318156
 20
-112.86201041
 10
-88.25639952
 20
-112.86522824
  0
LWPOLYLINE
  5
2AE
100
AcDbEntity
  8
MST_1_1
 62
   137
  6
CONTINUOUS
100
AcDbPolyline
 90
       25
 70
     0
 43
0.0
 10
-88.25639952
 20
-112.86522828
 10
-88.25909184
 20
-112.86108129
 10
-88.26185562
 20
-112.85698931
 10
-88.26469013
 20
-112.85295308
 10
-88.2675946
 20
-112.84897337
 10
-88.2705683
 20
-112.84505092
 10
-88.27361049
 20
-112.84118646
 10
-88.27672041
 20
-112.83738076
 10
-88.27989733
 20
-112.83363455
 10
-88.2831405
 20
-112.82994858
 10
-88.28644918
 20
-112.8263236
 10
-88.28982261
 20
-112.82276036
 10
-88.29326006
 20
-112.81925961
 10
-88.29676078
 20
-112.81582208
 10
-88.30032404
 20
-112.81244853
 10
-88.30394907
 20
-112.8091397
 10
-88.30763514
 20
-112.80589635
 10
-88.3113815
 20
-112.80271921
 10
-88.31518742
 20
-112.79960903
 10
-88.31905214
 20
-112.79656657
 10
-88.32297491
 20
-112.79359257
 10
-88.32695501
 20
-112.79068777
 10
-88.33099167
 20
-112.78785292
 10
-88.33508416
 20
-112.78508877
 10
-88.33923174
 20
-112.78239606
  0
LWPOLYLINE
  5
2AF
100
AcDbEntity
  8
MST_1_1
 62
   137
  6
CONTINUOUS
100
AcDbPolyline
 90
        9
 70
     0
 43
0.0
 10
-88.33923169
 20
-112.78239606
 10
-88.33601386
 20
-112.77917811
 10
-88.33279532
 20
-112.77595969
 10
-88.32957632
 20
-112.77274058
 10
-88.32635663
 20
-112.76952099
 10
-88.32313635
 20
-112.76630071
 10
-88.3199156
 20
-112.76307985
 10
-88.31669415
 20
-112.75985852
 10
-88.31347224
 20
-112.7566365
  0
LWPOLYLINE
  5
2B0
100
AcDbEntity
  8
MST_1_1
 62
   137
  6
CONTINUOUS
100
AcDbPolyline
 90
        9
 70
     0
 43
0.0
 10
-88.31347224
 20
-112.7566365
 10
-88.36804588
 20
-112.70206286
 10
-88.42260777
 20
-112.64750097
 10
-88.47715102
 20
-112.59295772
 10
-88.53166902
 20
-112.53843972
 10
-88.58615488
 20
-112.48395386
 10
-88.64060209
 20
-112.42950665
 10
-88.69500367
 20
-112.37510501
 10
-88.74935321
 20
-112.32075553
  0
LWPOLYLINE
  5
2B1
100
AcDbEntity
  8
MST_1_1
 62
   137
  6
CONTINUOUS
100
AcDbPolyline
 90
        9
 70
     0
 43
0.0
 10
-88.74935321
 20
-112.32075553
 10
-88.75845794
 20
-112.32986025
 10
-88.76755789
 20
-112.33896032
 10
-88.77665319
 20
-112.34805562
 10
-88.78574383
 20
-112.35714614
 10
-88.79482958
 20
-112.36623195
 10
-88.80391044
 20
-112.37531287
 10
-88.81298652
 20
-112.38438896
 10
-88.82205784
 20
-112.39346021
  0
ARC
  5
2B2
100
AcDbEntity
  8
MST_1_1
 62
   137
  6
CONTINUOUS
100
AcDbCircle
 10
-88.97421321
 20
-112.52015967
 30
0.0
 40
0.19800002
100
AcDbArc
 50
230.21591956
 51
39.7840785
  0
LWPOLYLINE
  5
2B3
100
AcDbEntity
  8
MST_1_1
 62
   137
  6
CONTINUOUS
100
AcDbPolyline
 90
        9
 70
     0
 43
0.0
 10
-89.1009127
 20
-112.67231502
 10
-89.11002266
 20
-112.68142498
 10
-89.11912634
 20
-112.69052877
 10
-89.12822397
 20
-112.6996264
 10
-89.1373153
 20
-112.70871762
 10
-89.14640036
 20
-112.71780267
 10
-89.15547889
 20
-112.72688132
 10
-89.16455137
 20
-112.73595368
 10
-89.17361733
 20
-112.74501964
  0
LWPOLYLINE
  5
2B4
100
AcDbEntity
  8
MST_1_1
 62
   137
  6
CONTINUOUS
100
AcDbPolyline
 90
        9
 70
     0
 43
0.0
 10
-89.17361733
 20
-112.74501964
 10
-89.11927559
 20
-112.79936115
 10
-89.0648789
 20
-112.85375796
 10
-89.01043401
 20
-112.90820296
 10
-88.95594792
 20
-112.96268894
 10
-88.90142806
 20
-113.01720879
 10
-88.84688143
 20
-113.07175543
 10
-88.79231512
 20
-113.12632173
 10
-88.73773624
 20
-113.18090061
  0
LWPOLYLINE
  5
2B5
100
AcDbEntity
  8
MST_1_1
 62
   137
  6
CONTINUOUS
100
AcDbPolyline
 90
        9
 70
     0
 43
0.0
 10
-88.73773624
 20
-113.18090061
 10
-88.7345191
 20
-113.17768347
 10
-88.73130115
 20
-113.17446552
 10
-88.72808239
 20
-113.17124675
 10
-88.7248628
 20
-113.16802717
 10
-88.72164252
 20
-113.16480689
 10
-88.71842143
 20
-113.16158568
 10
-88.7151994
 20
-113.15836377
 10
-88.71197667
 20
-113.15514104
  0
LWPOLYLINE
  5
2B6
100
AcDbEntity
  8
MST_1_1
 62
   137
  6
CONTINUOUS
100
AcDbPolyline
 90
       25
 70
     0
 43
0.0
 10
-88.71197672
 20
-113.15514105
 10
-88.7092846
 20
-113.15928771
 10
-88.70652096
 20
-113.16337944
 10
-88.70368654
 20
-113.16741547
 10
-88.7007821
 20
-113.17139505
 10
-88.69780838
 20
-113.17531744
 10
-88.69476615
 20
-113.17918187
 10
-88.69165614
 20
-113.1829876
 10
-88.68847911
 20
-113.18673386
 10
-88.68523581
 20
-113.19041992
 10
-88.681927
 20
-113.19404501
 10
-88.67855341
 20
-113.19760839
 10
-88.67511581
 20
-113.20110929
 10
-88.67161494
 20
-113.20454697
 10
-88.66805156
 20
-113.20792068
 10
-88.66442641
 20
-113.21122965
 10
-88.66074024
 20
-113.21447314
 10
-88.65699381
 20
-113.21765039
 10
-88.65318787
 20
-113.22076065
 10
-88.64932317
 20
-113.22380317
 10
-88.64540046
 20
-113.22677719
 10
-88.64142048
 20
-113.22968197
 10
-88.637384
 20
-113.23251674
 10
-88.63329175
 20
-113.23528076
 10
-88.6291445
 20
-113.23797327
  0
LWPOLYLINE
  5
2B7
100
AcDbEntity
  8
MST_1_1
 62
   137
  6
CONTINUOUS
100
AcDbPolyline
 90
        9
 70
     0
 43
0.0
 10
-88.6291445
 20
-113.23797322
 10
-88.63236722
 20
-113.24119595
 10
-88.63558913
 20
-113.24441797
 10
-88.63881034
 20
-113.24763907
 10
-88.64203062
 20
-113.25085935
 10
-88.64525021
 20
-113.25407893
 10
-88.64846897
 20
-113.2572977
 10
-88.65168693
 20
-113.26051565
 10
-88.65490406
 20
-113.26373279
  0
LWPOLYLINE
  5
2B8
100
AcDbEntity
  8
MST_1_1
 62
   137
  6
CONTINUOUS
100
AcDbPolyline
 90
        9
 70
     0
 43
0.0
 10
-88.65490406
 20
-113.26373279
 10
-88.60032518
 20
-113.31831167
 10
-88.54575888
 20
-113.37287798
 10
-88.49121225
 20
-113.42742461
 10
-88.43669239
 20
-113.48194446
 10
-88.38220641
 20
-113.53643056
 10
-88.32776141
 20
-113.59087544
 10
-88.2733646
 20
-113.64527213
 10
-88.2190231
 20
-113.69961387
  0
CIRCLE
  5
2B9
100
AcDbEntity
  8
MST_1_1
 62
   137
  6
CONTINUOUS
100
AcDbCircle
 10
-86.9285532
 20
-111.45454975
 30
0.0
 40
3.66283472
  0
ARC
  5
2BA
100
AcDbEntity
  8
MST_1_1
 62
   137
  6
CONTINUOUS
100
AcDbCircle
 10
-85.32583564
 20
-112.37987918
 30
0.0
 40
0.65065883
100
AcDbArc
 50
104.00041459
 51
195.99959727
  0
LWPOLYLINE
  5
2BB
100
AcDbEntity
  8
MST_1_1
 62
   137
  6
CONTINUOUS
100
AcDbPolyline
 90
        9
 70
     0
 43
0.0
 10
-88.42523212
 20
-112.74669998
 10
-88.46095823
 20
-112.71097387
 10
-88.4966769
 20
-112.6752552
 10
-88.53238637
 20
-112.63954573
 10
-88.56808466
 20
-112.60384744
 10
-88.60376991
 20
-112.56816219
 10
-88.63944015
 20
-112.53249183
 10
-88.67509362
 20
-112.49683836
 10
-88.71072835
 20
-112.46120363
  0
ARC
  5
2BC
100
AcDbEntity
  8
MST_1_1
 62
   137
  6
CONTINUOUS
100
AcDbCircle
 10
-88.48418823
 20
-113.01018401
 30
0.0
 40
0.26999936
100
AcDbArc
 50
77.38747914
 51
127.33780242
  0
LINE
  5
2BD
100
AcDbEntity
  8
MST_1_1
 62
   137
  6
CONTINUOUS
100
AcDbLine
 10
-88.26951813
 20
-113.17394293
 30
0.0
 11
-88.64794639
 21
-112.79551467
 31
0.0
  0
ARC
  5
2BE
100
AcDbEntity
  8
MST_1_1
 62
   137
  6
CONTINUOUS
100
AcDbCircle
 10
-88.48418758
 20
-113.01018475
 30
0.0
 40
0.26999948
100
AcDbArc
 50
322.66221884
 51
12.61250962
  0
LWPOLYLINE
  5
2BF
100
AcDbEntity
  8
MST_1_1
 62
   137
  6
CONTINUOUS
100
AcDbPolyline
 90
        9
 70
     0
 43
0.0
 10
-87.93520708
 20
-113.2367249
 10
-87.97084181
 20
-113.20109017
 10
-88.00649528
 20
-113.1654367
 10
-88.04216564
 20
-113.12976646
 10
-88.07785089
 20
-113.09408121
 10
-88.11354918
 20
-113.05838291
 10
-88.14925865
 20
-113.02267345
 10
-88.18497732
 20
-112.98695478
 10
-88.22070343
 20
-112.95122866
  0
ARC
  5
2C0
100
AcDbEntity
  8
MST_1_1
 62
   137
  6
CONTINUOUS
100
AcDbCircle
 10
-87.99416302
 20
-113.50020969
 30
0.0
 40
0.27000007
100
AcDbArc
 50
77.38755048
 51
192.61243885
  0
LWPOLYLINE
  5
2C1
100
AcDbEntity
  8
MST_1_1
 62
   137
  6
CONTINUOUS
100
AcDbPolyline
 90
        9
 70
     0
 43
0.0
 10
-88.54314407
 20
-113.27366942
 10
-88.50741633
 20
-113.30939717
 10
-88.47169627
 20
-113.34511723
 10
-88.43598587
 20
-113.38082763
 10
-88.40028699
 20
-113.4165265
 10
-88.36460185
 20
-113.45221152
 10
-88.32893231
 20
-113.48788118
 10
-88.29328024
 20
-113.52353314
 10
-88.25764784
 20
-113.55916554
  0
ARC
  5
2C2
100
AcDbEntity
  8
MST_1_1
 62
   137
  6
CONTINUOUS
100
AcDbCircle
 10
-88.4841883
 20
-113.01018383
 30
0.0
 40
0.27000082
100
AcDbArc
 50
257.38763285
 51
307.33766874
  0
LWPOLYLINE
  5
2C3
100
AcDbEntity
  8
MST_1_1
 62
   137
  6
CONTINUOUS
100
AcDbPolyline
 90
        9
 70
     0
 43
0.0
 10
-88.69885818
 20
-112.84642635
 10
-88.65157039
 20
-112.89371402
 10
-88.6042691
 20
-112.94101532
 10
-88.55695885
 20
-112.98832569
 10
-88.50964394
 20
-113.03564048
 10
-88.46232914
 20
-113.0829554
 10
-88.41501877
 20
-113.13026565
 10
-88.36771748
 20
-113.17756694
 10
-88.32042981
 20
-113.22485473
  0
ARC
  5
2C4
100
AcDbEntity
  8
MST_1_1
 62
   137
  6
CONTINUOUS
100
AcDbCircle
 10
-88.48418802
 20
-113.01018468
 30
0.0
 40
0.27000013
100
AcDbArc
 50
142.662273
 51
192.61245546
  0
LWPOLYLINE
  5
2C5
100
AcDbEntity
  8
MST_1_1
 62
   137
  6
CONTINUOUS
100
AcDbPolyline
 90
        9
 70
     0
 43
0.0
 10
-89.03316899
 20
-112.78364438
 10
-88.99753659
 20
-112.81927679
 10
-88.96188463
 20
-112.85492886
 10
-88.92621498
 20
-112.8905984
 10
-88.89052996
 20
-112.92628354
 10
-88.85483108
 20
-112.96198241
 10
-88.81912068
 20
-112.99769281
 10
-88.78340062
 20
-113.03341288
 10
-88.74767287
 20
-113.06914062
  0
ARC
  5
2C6
100
AcDbEntity
  8
MST_1_1
 62
   137
  6
CONTINUOUS
100
AcDbCircle
 10
-88.97421289
 20
-112.52015983
 30
0.0
 40
0.26999988
100
AcDbArc
 50
257.38751638
 51
12.61251432
  0
LWPOLYLINE
  5
2C7
100
AcDbEntity
  8
MST_1_1
 62
   137
  6
CONTINUOUS
100
AcDbPolyline
 90
        9
 70
     0
 43
0.0
 10
-88.56369883
 20
-112.82885055
 10
-88.53109835
 20
-112.86145103
 10
-88.49849344
 20
-112.89405594
 10
-88.46588574
 20
-112.92666375
 10
-88.43327642
 20
-112.95927296
 10
-88.4006672
 20
-112.99188229
 10
-88.36805939
 20
-113.02448999
 10
-88.33545448
 20
-113.0570949
 10
-88.302854
 20
-113.08969538
  0
ARC
  5
2C8
100
AcDbEntity
  8
MST_1_1
 62
   137
  6
CONTINUOUS
100
AcDbCircle
 10
-88.48418818
 20
-113.01018473
 30
0.0
 40
0.19800007
100
AcDbArc
 50
336.32372311
 51
113.6762869
  0
LWPOLYLINE
  5
2C9
100
AcDbEntity
  8
MST_1_1
 62
   137
  6
CONTINUOUS
100
AcDbPolyline
 90
        9
 70
     0
 43
0.0
 10
-88.40467736
 20
-113.19151874
 10
-88.43727784
 20
-113.15891837
 10
-88.46988263
 20
-113.12631347
 10
-88.50249045
 20
-113.09370565
 10
-88.53509978
 20
-113.06109632
 10
-88.5677091
 20
-113.02848699
 10
-88.60031692
 20
-112.99587918
 10
-88.63292182
 20
-112.96327439
 10
-88.66552219
 20
-112.93067391
  0
ARC
  5
2CA
100
AcDbEntity
  8
MST_1_1
 62
   137
  6
CONTINUOUS
100
AcDbCircle
 10
-88.48418806
 20
-113.01018461
 30
0.0
 40
0.19800004
100
AcDbArc
 50
156.32369345
 51
293.67631657
  0
CIRCLE
  5
2CB
100
AcDbEntity
  8
MST_1_1
 62
   137
  6
CONTINUOUS
100
AcDbCircle
 10
-86.9285532
 20
-141.45454975
 30
0.0
 40
1.89428533
  0
CIRCLE
  5
2CC
100
AcDbEntity
  8
MST_1_1
 62
   137
  6
CONTINUOUS
100
AcDbCircle
 10
-86.9285532
 20
-141.45454975
 30
0.0
 40
1.06049438
  0
CIRCLE
  5
2CD
100
AcDbEntity
  8
MST_1_1
 62
   137
  6
CONTINUOUS
100
AcDbCircle
 10
-86.9285532
 20
-141.45454975
 30
0.0
 40
1.89428533
  0
CIRCLE
  5
2CE
100
AcDbEntity
  8
MST_1_1
 62
   137
  6
CONTINUOUS
100
AcDbCircle
 10
-86.9285532
 20
-141.45454975
 30
0.0
 40
1.06049438
  0
CIRCLE
  5
2CF
100
AcDbEntity
  8
MST_1_1
 62
   137
  6
CONTINUOUS
100
AcDbCircle
 10
-86.9285532
 20
-141.45454975
 30
0.0
 40
1.89428533
  0
CIRCLE
  5
2D0
100
AcDbEntity
  8
MST_1_1
 62
   137
  6
CONTINUOUS
100
AcDbCircle
 10
-86.9285532
 20
-141.45454975
 30
0.0
 40
1.06049438
  0
CIRCLE
  5
2D1
100
AcDbEntity
  8
MST_1_1
 62
   137
  6
CONTINUOUS
100
AcDbCircle
 10
-86.9285532
 20
-141.45454975
 30
0.0
 40
1.59428533
  0
CIRCLE
  5
2D2
100
AcDbEntity
  8
MST_1_1
 62
   137
  6
CONTINUOUS
100
AcDbCircle
 10
-86.9285532
 20
-141.45454975
 30
0.0
 40
1.99428533
  0
CIRCLE
  5
2D3
100
AcDbEntity
  8
MST_1_1
 62
   137
  6
CONTINUOUS
100
AcDbCircle
 10
-86.9285532
 20
-141.45454975
 30
0.0
 40
1.125
  0
CIRCLE
  5
2D4
100
AcDbEntity
  8
MST_1_1
 62
   137
  6
CONTINUOUS
100
AcDbCircle
 10
-86.9285532
 20
-141.45454975
 30
0.0
 40
4.0
  0
ARC
  5
2D5
100
AcDbEntity
  8
MST_1_1
 62
   137
  6
CONTINUOUS
100
AcDbCircle
 10
-88.30055318
 20
-141.45454975
 30
0.0
 40
0.303
100
AcDbArc
 50
104.00039951
 51
255.99961051
  0
ARC
  5
2D6
100
AcDbEntity
  8
MST_1_1
 62
   137
  6
CONTINUOUS
100
AcDbCircle
 10
-88.53127076
 20
-142.37987918
 30
0.0
 40
0.65065883
100
AcDbArc
 50
344.00042282
 51
75.99958535
  0
ARC
  5
2D7
100
AcDbEntity
  8
MST_1_1
 62
   137
  6
CONTINUOUS
100
AcDbCircle
 10
-87.61455317
 20
-142.64273659
 30
0.0
 40
0.30299999
100
AcDbArc
 50
164.00040911
 51
315.99959504
  0
ARC
  5
2D8
100
AcDbEntity
  8
MST_1_1
 62
   137
  6
CONTINUOUS
100
AcDbCircle
 10
-86.9285532
 20
-143.3052085
 30
0.0
 40
0.65065875
100
AcDbArc
 50
44.00040429
 51
135.99959571
  0
ARC
  5
2D9
100
AcDbEntity
  8
MST_1_1
 62
   137
  6
CONTINUOUS
100
AcDbCircle
 10
-86.2425532
 20
-142.64273664
 30
0.0
 40
0.30299998
100
AcDbArc
 50
224.00041508
 51
15.9996008
  0
ARC
  5
2DA
100
AcDbEntity
  8
MST_1_1
 62
   137
  6
CONTINUOUS
100
AcDbCircle
 10
-85.55655322
 20
-141.45454975
 30
0.0
 40
0.303
100
AcDbArc
 50
284.00040953
 51
75.99960049
  0
ARC
  5
2DB
100
AcDbEntity
  8
MST_1_1
 62
   137
  6
CONTINUOUS
100
AcDbCircle
 10
-85.32583564
 20
-140.52922031
 30
0.0
 40
0.65065883
100
AcDbArc
 50
164.00041281
 51
255.99959537
  0
ARC
  5
2DC
100
AcDbEntity
  8
MST_1_1
 62
   137
  6
CONTINUOUS
100
AcDbCircle
 10
-86.24255323
 20
-140.2663629
 30
0.0
 40
0.30299999
100
AcDbArc
 50
344.00041913
 51
135.99958502
  0
ARC
  5
2DD
100
AcDbEntity
  8
MST_1_1
 62
   137
  6
CONTINUOUS
100
AcDbCircle
 10
-86.9285532
 20
-139.603891
 30
0.0
 40
0.65065875
100
AcDbArc
 50
224.00041431
 51
315.99960573
  0
ARC
  5
2DE
100
AcDbEntity
  8
MST_1_1
 62
   137
  6
CONTINUOUS
100
AcDbCircle
 10
-87.6145532
 20
-140.26636285
 30
0.0
 40
0.30299998
100
AcDbArc
 50
44.00040506
 51
195.99961082
  0
ARC
  5
2DF
100
AcDbEntity
  8
MST_1_1
 62
   137
  6
CONTINUOUS
100
AcDbCircle
 10
-88.53127075
 20
-140.52922031
 30
0.0
 40
0.65065883
100
AcDbArc
 50
284.00042461
 51
15.99958726
  0
LWPOLYLINE
  5
2E0
100
AcDbEntity
  8
MST_1_1
 62
   137
  6
CONTINUOUS
100
AcDbPolyline
 90
        9
 70
     0
 43
0.0
 10
-88.2190231
 20
-143.69961387
 10
-88.20995714
 20
-143.69054791
 10
-88.20088477
 20
-143.68147544
 10
-88.19180612
 20
-143.6723969
 10
-88.18272107
 20
-143.66331185
 10
-88.17362985
 20
-143.65422051
 10
-88.16453223
 20
-143.64512289
 10
-88.15542843
 20
-143.63601921
 10
-88.14631847
 20
-143.62690925
  0
ARC
  5
2E1
100
AcDbEntity
  8
MST_1_1
 62
   137
  6
CONTINUOUS
100
AcDbCircle
 10
-87.99416314
 20
-143.50020975
 30
0.0
 40
0.19800002
100
AcDbArc
 50
50.21591721
 51
219.78410477
  0
LWPOLYLINE
  5
2E2
100
AcDbEntity
  8
MST_1_1
 62
   137
  6
CONTINUOUS
100
AcDbPolyline
 90
        9
 70
     0
 43
0.0
 10
-87.86746367
 20
-143.34805439
 10
-87.85839241
 20
-143.33898307
 10
-87.84931632
 20
-143.32990698
 10
-87.8402354
 20
-143.32082612
 10
-87.8311496
 20
-143.31174037
 10
-87.82205907
 20
-143.30264973
 10
-87.81296378
 20
-143.29355444
 10
-87.80386371
 20
-143.28445448
 10
-87.79475898
 20
-143.27534976
  0
LWPOLYLINE
  5
2E3
100
AcDbEntity
  8
MST_1_1
 62
   137
  6
CONTINUOUS
100
AcDbPolyline
 90
        9
 70
     0
 43
0.0
 10
-87.79475898
 20
-143.27534976
 10
-87.84910846
 20
-143.22100022
 10
-87.9035101
 20
-143.16659864
 10
-87.95795731
 20
-143.11215143
 10
-88.01244318
 20
-143.05766556
 10
-88.06696117
 20
-143.00314757
 10
-88.12150443
 20
-142.94860431
 10
-88.17606631
 20
-142.89404243
 10
-88.23063995
 20
-142.83946879
  0
LWPOLYLINE
  5
2E4
100
AcDbEntity
  8
MST_1_1
 62
   137
  6
CONTINUOUS
100
AcDbPolyline
 90
        9
 70
     0
 43
0.0
 10
-88.23063995
 20
-142.83946879
 10
-88.23386197
 20
-142.8426907
 10
-88.2370833
 20
-142.84591215
 10
-88.24030417
 20
-142.84913289
 10
-88.24352445
 20
-142.85235317
 10
-88.24674403
 20
-142.85557287
 10
-88.24996315
 20
-142.85879187
 10
-88.25318156
 20
-142.86201041
 10
-88.25639952
 20
-142.86522824
  0
LWPOLYLINE
  5
2E5
100
AcDbEntity
  8
MST_1_1
 62
   137
  6
CONTINUOUS
100
AcDbPolyline
 90
       25
 70
     0
 43
0.0
 10
-88.25639952
 20
-142.86522828
 10
-88.25909184
 20
-142.86108129
 10
-88.26185562
 20
-142.85698931
 10
-88.26469013
 20
-142.85295308
 10
-88.2675946
 20
-142.84897337
 10
-88.2705683
 20
-142.84505092
 10
-88.27361049
 20
-142.84118646
 10
-88.27672041
 20
-142.83738076
 10
-88.27989733
 20
-142.83363455
 10
-88.2831405
 20
-142.82994858
 10
-88.28644918
 20
-142.8263236
 10
-88.28982261
 20
-142.82276036
 10
-88.29326006
 20
-142.81925961
 10
-88.29676078
 20
-142.81582208
 10
-88.30032404
 20
-142.81244853
 10
-88.30394907
 20
-142.8091397
 10
-88.30763514
 20
-142.80589635
 10
-88.3113815
 20
-142.80271921
 10
-88.31518742
 20
-142.79960903
 10
-88.31905214
 20
-142.79656657
 10
-88.32297491
 20
-142.79359257
 10
-88.32695501
 20
-142.79068777
 10
-88.33099167
 20
-142.78785292
 10
-88.33508416
 20
-142.78508877
 10
-88.33923174
 20
-142.78239606
  0
LWPOLYLINE
  5
2E6
100
AcDbEntity
  8
MST_1_1
 62
   137
  6
CONTINUOUS
100
AcDbPolyline
 90
        9
 70
     0
 43
0.0
 10
-88.33923169
 20
-142.78239606
 10
-88.33601386
 20
-142.77917811
 10
-88.33279532
 20
-142.77595969
 10
-88.32957632
 20
-142.77274058
 10
-88.32635663
 20
-142.76952099
 10
-88.32313635
 20
-142.76630071
 10
-88.3199156
 20
-142.76307985
 10
-88.31669415
 20
-142.75985852
 10
-88.31347224
 20
-142.7566365
  0
LWPOLYLINE
  5
2E7
100
AcDbEntity
  8
MST_1_1
 62
   137
  6
CONTINUOUS
100
AcDbPolyline
 90
        9
 70
     0
 43
0.0
 10
-88.31347224
 20
-142.7566365
 10
-88.36804588
 20
-142.70206286
 10
-88.42260777
 20
-142.64750097
 10
-88.47715102
 20
-142.59295772
 10
-88.53166902
 20
-142.53843972
 10
-88.58615488
 20
-142.48395386
 10
-88.64060209
 20
-142.42950665
 10
-88.69500367
 20
-142.37510501
 10
-88.74935321
 20
-142.32075553
  0
LWPOLYLINE
  5
2E8
100
AcDbEntity
  8
MST_1_1
 62
   137
  6
CONTINUOUS
100
AcDbPolyline
 90
        9
 70
     0
 43
0.0
 10
-88.74935321
 20
-142.32075553
 10
-88.75845794
 20
-142.32986025
 10
-88.76755789
 20
-142.33896032
 10
-88.77665319
 20
-142.34805562
 10
-88.78574383
 20
-142.35714614
 10
-88.79482958
 20
-142.36623195
 10
-88.80391044
 20
-142.37531287
 10
-88.81298652
 20
-142.38438896
 10
-88.82205784
 20
-142.39346021
  0
ARC
  5
2E9
100
AcDbEntity
  8
MST_1_1
 62
   137
  6
CONTINUOUS
100
AcDbCircle
 10
-88.97421321
 20
-142.52015967
 30
0.0
 40
0.19800002
100
AcDbArc
 50
230.21591956
 51
39.7840785
  0
LWPOLYLINE
  5
2EA
100
AcDbEntity
  8
MST_1_1
 62
   137
  6
CONTINUOUS
100
AcDbPolyline
 90
        9
 70
     0
 43
0.0
 10
-89.1009127
 20
-142.67231502
 10
-89.11002266
 20
-142.68142498
 10
-89.11912634
 20
-142.69052877
 10
-89.12822397
 20
-142.6996264
 10
-89.1373153
 20
-142.70871762
 10
-89.14640036
 20
-142.71780267
 10
-89.15547889
 20
-142.72688132
 10
-89.16455137
 20
-142.73595368
 10
-89.17361733
 20
-142.74501964
  0
LWPOLYLINE
  5
2EB
100
AcDbEntity
  8
MST_1_1
 62
   137
  6
CONTINUOUS
100
AcDbPolyline
 90
        9
 70
     0
 43
0.0
 10
-89.17361733
 20
-142.74501964
 10
-89.11927559
 20
-142.79936115
 10
-89.0648789
 20
-142.85375796
 10
-89.01043401
 20
-142.90820296
 10
-88.95594792
 20
-142.96268894
 10
-88.90142806
 20
-143.01720879
 10
-88.84688143
 20
-143.07175543
 10
-88.79231512
 20
-143.12632173
 10
-88.73773624
 20
-143.18090061
  0
LWPOLYLINE
  5
2EC
100
AcDbEntity
  8
MST_1_1
 62
   137
  6
CONTINUOUS
100
AcDbPolyline
 90
        9
 70
     0
 43
0.0
 10
-88.73773624
 20
-143.18090061
 10
-88.7345191
 20
-143.17768347
 10
-88.73130115
 20
-143.17446552
 10
-88.72808239
 20
-143.17124675
 10
-88.7248628
 20
-143.16802717
 10
-88.72164252
 20
-143.16480689
 10
-88.71842143
 20
-143.16158568
 10
-88.7151994
 20
-143.15836377
 10
-88.71197667
 20
-143.15514104
  0
LWPOLYLINE
  5
2ED
100
AcDbEntity
  8
MST_1_1
 62
   137
  6
CONTINUOUS
100
AcDbPolyline
 90
       25
 70
     0
 43
0.0
 10
-88.71197672
 20
-143.15514105
 10
-88.7092846
 20
-143.15928771
 10
-88.70652096
 20
-143.16337944
 10
-88.70368654
 20
-143.16741547
 10
-88.7007821
 20
-143.17139505
 10
-88.69780838
 20
-143.17531744
 10
-88.69476615
 20
-143.17918187
 10
-88.69165614
 20
-143.1829876
 10
-88.68847911
 20
-143.18673386
 10
-88.68523581
 20
-143.19041992
 10
-88.681927
 20
-143.19404501
 10
-88.67855341
 20
-143.19760839
 10
-88.67511581
 20
-143.20110929
 10
-88.67161494
 20
-143.20454697
 10
-88.66805156
 20
-143.20792068
 10
-88.66442641
 20
-143.21122965
 10
-88.66074024
 20
-143.21447314
 10
-88.65699381
 20
-143.21765039
 10
-88.65318787
 20
-143.22076065
 10
-88.64932317
 20
-143.22380317
 10
-88.64540046
 20
-143.22677719
 10
-88.64142048
 20
-143.22968197
 10
-88.637384
 20
-143.23251674
 10
-88.63329175
 20
-143.23528076
 10
-88.6291445
 20
-143.23797327
  0
LWPOLYLINE
  5
2EE
100
AcDbEntity
  8
MST_1_1
 62
   137
  6
CONTINUOUS
100
AcDbPolyline
 90
        9
 70
     0
 43
0.0
 10
-88.6291445
 20
-143.23797322
 10
-88.63236722
 20
-143.24119595
 10
-88.63558913
 20
-143.24441797
 10
-88.63881034
 20
-143.24763907
 10
-88.64203062
 20
-143.25085935
 10
-88.64525021
 20
-143.25407893
 10
-88.64846897
 20
-143.2572977
 10
-88.65168693
 20
-143.26051565
 10
-88.65490406
 20
-143.26373279
  0
LWPOLYLINE
  5
2EF
100
AcDbEntity
  8
MST_1_1
 62
   137
  6
CONTINUOUS
100
AcDbPolyline
 90
        9
 70
     0
 43
0.0
 10
-88.65490406
 20
-143.26373279
 10
-88.60032518
 20
-143.31831167
 10
-88.54575888
 20
-143.37287798
 10
-88.49121225
 20
-143.42742461
 10
-88.43669239
 20
-143.48194446
 10
-88.38220641
 20
-143.53643056
 10
-88.32776141
 20
-143.59087544
 10
-88.2733646
 20
-143.64527213
 10
-88.2190231
 20
-143.69961387
  0
CIRCLE
  5
2F0
100
AcDbEntity
  8
MST_1_1
 62
   137
  6
CONTINUOUS
100
AcDbCircle
 10
-86.9285532
 20
-141.45454975
 30
0.0
 40
3.66283472
  0
ARC
  5
2F1
100
AcDbEntity
  8
MST_1_1
 62
   137
  6
CONTINUOUS
100
AcDbCircle
 10
-85.32583564
 20
-142.37987918
 30
0.0
 40
0.65065883
100
AcDbArc
 50
104.00041459
 51
195.99959727
  0
LWPOLYLINE
  5
2F2
100
AcDbEntity
  8
MST_1_1
 62
   137
  6
CONTINUOUS
100
AcDbPolyline
 90
        9
 70
     0
 43
0.0
 10
-88.42523212
 20
-142.74669998
 10
-88.46095823
 20
-142.71097387
 10
-88.4966769
 20
-142.6752552
 10
-88.53238637
 20
-142.63954573
 10
-88.56808466
 20
-142.60384744
 10
-88.60376991
 20
-142.56816219
 10
-88.63944015
 20
-142.53249183
 10
-88.67509362
 20
-142.49683836
 10
-88.71072835
 20
-142.46120363
  0
ARC
  5
2F3
100
AcDbEntity
  8
MST_1_1
 62
   137
  6
CONTINUOUS
100
AcDbCircle
 10
-88.48418823
 20
-143.01018401
 30
0.0
 40
0.26999936
100
AcDbArc
 50
77.38747914
 51
127.33780242
  0
LINE
  5
2F4
100
AcDbEntity
  8
MST_1_1
 62
   137
  6
CONTINUOUS
100
AcDbLine
 10
-88.26951813
 20
-143.17394293
 30
0.0
 11
-88.64794639
 21
-142.79551467
 31
0.0
  0
ARC
  5
2F5
100
AcDbEntity
  8
MST_1_1
 62
   137
  6
CONTINUOUS
100
AcDbCircle
 10
-88.48418758
 20
-143.01018475
 30
0.0
 40
0.26999948
100
AcDbArc
 50
322.66221884
 51
12.61250962
  0
LWPOLYLINE
  5
2F6
100
AcDbEntity
  8
MST_1_1
 62
   137
  6
CONTINUOUS
100
AcDbPolyline
 90
        9
 70
     0
 43
0.0
 10
-87.93520708
 20
-143.2367249
 10
-87.97084181
 20
-143.20109017
 10
-88.00649528
 20
-143.1654367
 10
-88.04216564
 20
-143.12976646
 10
-88.07785089
 20
-143.09408121
 10
-88.11354918
 20
-143.05838291
 10
-88.14925865
 20
-143.02267345
 10
-88.18497732
 20
-142.98695478
 10
-88.22070343
 20
-142.95122866
  0
ARC
  5
2F7
100
AcDbEntity
  8
MST_1_1
 62
   137
  6
CONTINUOUS
100
AcDbCircle
 10
-87.99416302
 20
-143.50020969
 30
0.0
 40
0.27000007
100
AcDbArc
 50
77.38755048
 51
192.61243885
  0
LWPOLYLINE
  5
2F8
100
AcDbEntity
  8
MST_1_1
 62
   137
  6
CONTINUOUS
100
AcDbPolyline
 90
        9
 70
     0
 43
0.0
 10
-88.54314407
 20
-143.27366942
 10
-88.50741633
 20
-143.30939717
 10
-88.47169627
 20
-143.34511723
 10
-88.43598587
 20
-143.38082763
 10
-88.40028699
 20
-143.4165265
 10
-88.36460185
 20
-143.45221152
 10
-88.32893231
 20
-143.48788118
 10
-88.29328024
 20
-143.52353314
 10
-88.25764784
 20
-143.55916554
  0
ARC
  5
2F9
100
AcDbEntity
  8
MST_1_1
 62
   137
  6
CONTINUOUS
100
AcDbCircle
 10
-88.4841883
 20
-143.01018383
 30
0.0
 40
0.27000082
100
AcDbArc
 50
257.38763285
 51
307.33766874
  0
LWPOLYLINE
  5
2FA
100
AcDbEntity
  8
MST_1_1
 62
   137
  6
CONTINUOUS
100
AcDbPolyline
 90
        9
 70
     0
 43
0.0
 10
-88.69885818
 20
-142.84642635
 10
-88.65157039
 20
-142.89371402
 10
-88.6042691
 20
-142.94101532
 10
-88.55695885
 20
-142.98832569
 10
-88.50964394
 20
-143.03564048
 10
-88.46232914
 20
-143.0829554
 10
-88.41501877
 20
-143.13026565
 10
-88.36771748
 20
-143.17756694
 10
-88.32042981
 20
-143.22485473
  0
ARC
  5
2FB
100
AcDbEntity
  8
MST_1_1
 62
   137
  6
CONTINUOUS
100
AcDbCircle
 10
-88.48418802
 20
-143.01018468
 30
0.0
 40
0.27000013
100
AcDbArc
 50
142.662273
 51
192.61245546
  0
LWPOLYLINE
  5
2FC
100
AcDbEntity
  8
MST_1_1
 62
   137
  6
CONTINUOUS
100
AcDbPolyline
 90
        9
 70
     0
 43
0.0
 10
-89.03316899
 20
-142.78364438
 10
-88.99753659
 20
-142.81927679
 10
-88.96188463
 20
-142.85492886
 10
-88.92621498
 20
-142.8905984
 10
-88.89052996
 20
-142.92628354
 10
-88.85483108
 20
-142.96198241
 10
-88.81912068
 20
-142.99769281
 10
-88.78340062
 20
-143.03341288
 10
-88.74767287
 20
-143.06914062
  0
ARC
  5
2FD
100
AcDbEntity
  8
MST_1_1
 62
   137
  6
CONTINUOUS
100
AcDbCircle
 10
-88.97421289
 20
-142.52015983
 30
0.0
 40
0.26999988
100
AcDbArc
 50
257.38751638
 51
12.61251432
  0
LWPOLYLINE
  5
2FE
100
AcDbEntity
  8
MST_1_1
 62
   137
  6
CONTINUOUS
100
AcDbPolyline
 90
        9
 70
     0
 43
0.0
 10
-88.56369883
 20
-142.82885055
 10
-88.53109835
 20
-142.86145103
 10
-88.49849344
 20
-142.89405594
 10
-88.46588574
 20
-142.92666375
 10
-88.43327642
 20
-142.95927296
 10
-88.4006672
 20
-142.99188229
 10
-88.36805939
 20
-143.02448999
 10
-88.33545448
 20
-143.0570949
 10
-88.302854
 20
-143.08969538
  0
ARC
  5
2FF
100
AcDbEntity
  8
MST_1_1
 62
   137
  6
CONTINUOUS
100
AcDbCircle
 10
-88.48418818
 20
-143.01018473
 30
0.0
 40
0.19800007
100
AcDbArc
 50
336.32372311
 51
113.6762869
  0
LWPOLYLINE
  5
300
100
AcDbEntity
  8
MST_1_1
 62
   137
  6
CONTINUOUS
100
AcDbPolyline
 90
        9
 70
     0
 43
0.0
 10
-88.40467736
 20
-143.19151874
 10
-88.43727784
 20
-143.15891837
 10
-88.46988263
 20
-143.12631347
 10
-88.50249045
 20
-143.09370565
 10
-88.53509978
 20
-143.06109632
 10
-88.5677091
 20
-143.02848699
 10
-88.60031692
 20
-142.99587918
 10
-88.63292182
 20
-142.96327439
 10
-88.66552219
 20
-142.93067391
  0
ARC
  5
301
100
AcDbEntity
  8
MST_1_1
 62
   137
  6
CONTINUOUS
100
AcDbCircle
 10
-88.48418806
 20
-143.01018461
 30
0.0
 40
0.19800004
100
AcDbArc
 50
156.32369345
 51
293.67631657
  0
CIRCLE
  5
302
100
AcDbEntity
  8
MST_1_1
 62
   137
  6
CONTINUOUS
100
AcDbCircle
 10
-86.9285532
 20
-171.45454975
 30
0.0
 40
1.89428533
  0
CIRCLE
  5
303
100
AcDbEntity
  8
MST_1_1
 62
   137
  6
CONTINUOUS
100
AcDbCircle
 10
-86.9285532
 20
-171.45454975
 30
0.0
 40
1.06049438
  0
CIRCLE
  5
304
100
AcDbEntity
  8
MST_1_1
 62
   137
  6
CONTINUOUS
100
AcDbCircle
 10
-86.9285532
 20
-171.45454975
 30
0.0
 40
1.89428533
  0
CIRCLE
  5
305
100
AcDbEntity
  8
MST_1_1
 62
   137
  6
CONTINUOUS
100
AcDbCircle
 10
-86.9285532
 20
-171.45454975
 30
0.0
 40
1.06049438
  0
CIRCLE
  5
306
100
AcDbEntity
  8
MST_1_1
 62
   137
  6
CONTINUOUS
100
AcDbCircle
 10
-86.9285532
 20
-171.45454975
 30
0.0
 40
1.89428533
  0
CIRCLE
  5
307
100
AcDbEntity
  8
MST_1_1
 62
   137
  6
CONTINUOUS
100
AcDbCircle
 10
-86.9285532
 20
-171.45454975
 30
0.0
 40
1.06049438
  0
CIRCLE
  5
308
100
AcDbEntity
  8
MST_1_1
 62
   137
  6
CONTINUOUS
100
AcDbCircle
 10
-86.9285532
 20
-171.45454975
 30
0.0
 40
1.59428533
  0
CIRCLE
  5
309
100
AcDbEntity
  8
MST_1_1
 62
   137
  6
CONTINUOUS
100
AcDbCircle
 10
-86.9285532
 20
-171.45454975
 30
0.0
 40
1.99428533
  0
CIRCLE
  5
30A
100
AcDbEntity
  8
MST_1_1
 62
   137
  6
CONTINUOUS
100
AcDbCircle
 10
-86.9285532
 20
-171.45454975
 30
0.0
 40
1.125
  0
CIRCLE
  5
30B
100
AcDbEntity
  8
MST_1_1
 62
   137
  6
CONTINUOUS
100
AcDbCircle
 10
-86.9285532
 20
-171.45454975
 30
0.0
 40
4.0
  0
ARC
  5
30C
100
AcDbEntity
  8
MST_1_1
 62
   137
  6
CONTINUOUS
100
AcDbCircle
 10
-88.30055318
 20
-171.45454975
 30
0.0
 40
0.303
100
AcDbArc
 50
104.00039951
 51
255.99961051
  0
ARC
  5
30D
100
AcDbEntity
  8
MST_1_1
 62
   137
  6
CONTINUOUS
100
AcDbCircle
 10
-88.53127076
 20
-172.37987918
 30
0.0
 40
0.65065883
100
AcDbArc
 50
344.00042282
 51
75.99958535
  0
ARC
  5
30E
100
AcDbEntity
  8
MST_1_1
 62
   137
  6
CONTINUOUS
100
AcDbCircle
 10
-87.61455317
 20
-172.64273659
 30
0.0
 40
0.30299999
100
AcDbArc
 50
164.00040911
 51
315.99959504
  0
ARC
  5
30F
100
AcDbEntity
  8
MST_1_1
 62
   137
  6
CONTINUOUS
100
AcDbCircle
 10
-86.9285532
 20
-173.3052085
 30
0.0
 40
0.65065875
100
AcDbArc
 50
44.00040429
 51
135.99959571
  0
ARC
  5
310
100
AcDbEntity
  8
MST_1_1
 62
   137
  6
CONTINUOUS
100
AcDbCircle
 10
-86.2425532
 20
-172.64273664
 30
0.0
 40
0.30299998
100
AcDbArc
 50
224.00041508
 51
15.9996008
  0
ARC
  5
311
100
AcDbEntity
  8
MST_1_1
 62
   137
  6
CONTINUOUS
100
AcDbCircle
 10
-85.55655322
 20
-171.45454975
 30
0.0
 40
0.303
100
AcDbArc
 50
284.00040953
 51
75.99960049
  0
ARC
  5
312
100
AcDbEntity
  8
MST_1_1
 62
   137
  6
CONTINUOUS
100
AcDbCircle
 10
-85.32583564
 20
-170.52922031
 30
0.0
 40
0.65065883
100
AcDbArc
 50
164.00041281
 51
255.99959537
  0
ARC
  5
313
100
AcDbEntity
  8
MST_1_1
 62
   137
  6
CONTINUOUS
100
AcDbCircle
 10
-86.24255323
 20
-170.2663629
 30
0.0
 40
0.30299999
100
AcDbArc
 50
344.00041913
 51
135.99958502
  0
ARC
  5
314
100
AcDbEntity
  8
MST_1_1
 62
   137
  6
CONTINUOUS
100
AcDbCircle
 10
-86.9285532
 20
-169.603891
 30
0.0
 40
0.65065875
100
AcDbArc
 50
224.00041431
 51
315.99960573
  0
ARC
  5
315
100
AcDbEntity
  8
MST_1_1
 62
   137
  6
CONTINUOUS
100
AcDbCircle
 10
-87.6145532
 20
-170.26636285
 30
0.0
 40
0.30299998
100
AcDbArc
 50
44.00040506
 51
195.99961082
  0
ARC
  5
316
100
AcDbEntity
  8
MST_1_1
 62
   137
  6
CONTINUOUS
100
AcDbCircle
 10
-88.53127075
 20
-170.52922031
 30
0.0
 40
0.65065883
100
AcDbArc
 50
284.00042461
 51
15.99958726
  0
LWPOLYLINE
  5
317
100
AcDbEntity
  8
MST_1_1
 62
   137
  6
CONTINUOUS
100
AcDbPolyline
 90
        9
 70
     0
 43
0.0
 10
-88.2190231
 20
-173.69961387
 10
-88.20995714
 20
-173.69054791
 10
-88.20088477
 20
-173.68147544
 10
-88.19180612
 20
-173.6723969
 10
-88.18272107
 20
-173.66331185
 10
-88.17362985
 20
-173.65422051
 10
-88.16453223
 20
-173.64512289
 10
-88.15542843
 20
-173.63601921
 10
-88.14631847
 20
-173.62690925
  0
ARC
  5
318
100
AcDbEntity
  8
MST_1_1
 62
   137
  6
CONTINUOUS
100
AcDbCircle
 10
-87.99416314
 20
-173.50020975
 30
0.0
 40
0.19800002
100
AcDbArc
 50
50.21591721
 51
219.78410477
  0
LWPOLYLINE
  5
319
100
AcDbEntity
  8
MST_1_1
 62
   137
  6
CONTINUOUS
100
AcDbPolyline
 90
        9
 70
     0
 43
0.0
 10
-87.86746367
 20
-173.34805439
 10
-87.85839241
 20
-173.33898307
 10
-87.84931632
 20
-173.32990698
 10
-87.8402354
 20
-173.32082612
 10
-87.8311496
 20
-173.31174037
 10
-87.82205907
 20
-173.30264973
 10
-87.81296378
 20
-173.29355444
 10
-87.80386371
 20
-173.28445448
 10
-87.79475898
 20
-173.27534976
  0
LWPOLYLINE
  5
31A
100
AcDbEntity
  8
MST_1_1
 62
   137
  6
CONTINUOUS
100
AcDbPolyline
 90
        9
 70
     0
 43
0.0
 10
-87.79475898
 20
-173.27534976
 10
-87.84910846
 20
-173.22100022
 10
-87.9035101
 20
-173.16659864
 10
-87.95795731
 20
-173.11215143
 10
-88.01244318
 20
-173.05766556
 10
-88.06696117
 20
-173.00314757
 10
-88.12150443
 20
-172.94860431
 10
-88.17606631
 20
-172.89404243
 10
-88.23063995
 20
-172.83946879
  0
LWPOLYLINE
  5
31B
100
AcDbEntity
  8
MST_1_1
 62
   137
  6
CONTINUOUS
100
AcDbPolyline
 90
        9
 70
     0
 43
0.0
 10
-88.23063995
 20
-172.83946879
 10
-88.23386197
 20
-172.8426907
 10
-88.2370833
 20
-172.84591215
 10
-88.24030417
 20
-172.84913289
 10
-88.24352445
 20
-172.85235317
 10
-88.24674403
 20
-172.85557287
 10
-88.24996315
 20
-172.85879187
 10
-88.25318156
 20
-172.86201041
 10
-88.25639952
 20
-172.86522824
  0
LWPOLYLINE
  5
31C
100
AcDbEntity
  8
MST_1_1
 62
   137
  6
CONTINUOUS
100
AcDbPolyline
 90
       25
 70
     0
 43
0.0
 10
-88.25639952
 20
-172.86522828
 10
-88.25909184
 20
-172.86108129
 10
-88.26185562
 20
-172.85698931
 10
-88.26469013
 20
-172.85295308
 10
-88.2675946
 20
-172.84897337
 10
-88.2705683
 20
-172.84505092
 10
-88.27361049
 20
-172.84118646
 10
-88.27672041
 20
-172.83738076
 10
-88.27989733
 20
-172.83363455
 10
-88.2831405
 20
-172.82994858
 10
-88.28644918
 20
-172.8263236
 10
-88.28982261
 20
-172.82276036
 10
-88.29326006
 20
-172.81925961
 10
-88.29676078
 20
-172.81582208
 10
-88.30032404
 20
-172.81244853
 10
-88.30394907
 20
-172.8091397
 10
-88.30763514
 20
-172.80589635
 10
-88.3113815
 20
-172.80271921
 10
-88.31518742
 20
-172.79960903
 10
-88.31905214
 20
-172.79656657
 10
-88.32297491
 20
-172.79359257
 10
-88.32695501
 20
-172.79068777
 10
-88.33099167
 20
-172.78785292
 10
-88.33508416
 20
-172.78508877
 10
-88.33923174
 20
-172.78239606
  0
LWPOLYLINE
  5
31D
100
AcDbEntity
  8
MST_1_1
 62
   137
  6
CONTINUOUS
100
AcDbPolyline
 90
        9
 70
     0
 43
0.0
 10
-88.33923169
 20
-172.78239606
 10
-88.33601386
 20
-172.77917811
 10
-88.33279532
 20
-172.77595969
 10
-88.32957632
 20
-172.77274058
 10
-88.32635663
 20
-172.76952099
 10
-88.32313635
 20
-172.76630071
 10
-88.3199156
 20
-172.76307985
 10
-88.31669415
 20
-172.75985852
 10
-88.31347224
 20
-172.7566365
  0
LWPOLYLINE
  5
31E
100
AcDbEntity
  8
MST_1_1
 62
   137
  6
CONTINUOUS
100
AcDbPolyline
 90
        9
 70
     0
 43
0.0
 10
-88.31347224
 20
-172.7566365
 10
-88.36804588
 20
-172.70206286
 10
-88.42260777
 20
-172.64750097
 10
-88.47715102
 20
-172.59295772
 10
-88.53166902
 20
-172.53843972
 10
-88.58615488
 20
-172.48395386
 10
-88.64060209
 20
-172.42950665
 10
-88.69500367
 20
-172.37510501
 10
-88.74935321
 20
-172.32075553
  0
LWPOLYLINE
  5
31F
100
AcDbEntity
  8
MST_1_1
 62
   137
  6
CONTINUOUS
100
AcDbPolyline
 90
        9
 70
     0
 43
0.0
 10
-88.74935321
 20
-172.32075553
 10
-88.75845794
 20
-172.32986025
 10
-88.76755789
 20
-172.33896032
 10
-88.77665319
 20
-172.34805562
 10
-88.78574383
 20
-172.35714614
 10
-88.79482958
 20
-172.36623195
 10
-88.80391044
 20
-172.37531287
 10
-88.81298652
 20
-172.38438896
 10
-88.82205784
 20
-172.39346021
  0
ARC
  5
320
100
AcDbEntity
  8
MST_1_1
 62
   137
  6
CONTINUOUS
100
AcDbCircle
 10
-88.97421321
 20
-172.52015967
 30
0.0
 40
0.19800002
100
AcDbArc
 50
230.21591956
 51
39.7840785
  0
LWPOLYLINE
  5
321
100
AcDbEntity
  8
MST_1_1
 62
   137
  6
CONTINUOUS
100
AcDbPolyline
 90
        9
 70
     0
 43
0.0
 10
-89.1009127
 20
-172.67231502
 10
-89.11002266
 20
-172.68142498
 10
-89.11912634
 20
-172.69052877
 10
-89.12822397
 20
-172.6996264
 10
-89.1373153
 20
-172.70871762
 10
-89.14640036
 20
-172.71780267
 10
-89.15547889
 20
-172.72688132
 10
-89.16455137
 20
-172.73595368
 10
-89.17361733
 20
-172.74501964
  0
LWPOLYLINE
  5
322
100
AcDbEntity
  8
MST_1_1
 62
   137
  6
CONTINUOUS
100
AcDbPolyline
 90
        9
 70
     0
 43
0.0
 10
-89.17361733
 20
-172.74501964
 10
-89.11927559
 20
-172.79936115
 10
-89.0648789
 20
-172.85375796
 10
-89.01043401
 20
-172.90820296
 10
-88.95594792
 20
-172.96268894
 10
-88.90142806
 20
-173.01720879
 10
-88.84688143
 20
-173.07175543
 10
-88.79231512
 20
-173.12632173
 10
-88.73773624
 20
-173.18090061
  0
LWPOLYLINE
  5
323
100
AcDbEntity
  8
MST_1_1
 62
   137
  6
CONTINUOUS
100
AcDbPolyline
 90
        9
 70
     0
 43
0.0
 10
-88.73773624
 20
-173.18090061
 10
-88.7345191
 20
-173.17768347
 10
-88.73130115
 20
-173.17446552
 10
-88.72808239
 20
-173.17124675
 10
-88.7248628
 20
-173.16802717
 10
-88.72164252
 20
-173.16480689
 10
-88.71842143
 20
-173.16158568
 10
-88.7151994
 20
-173.15836377
 10
-88.71197667
 20
-173.15514104
  0
LWPOLYLINE
  5
324
100
AcDbEntity
  8
MST_1_1
 62
   137
  6
CONTINUOUS
100
AcDbPolyline
 90
       25
 70
     0
 43
0.0
 10
-88.71197672
 20
-173.15514105
 10
-88.7092846
 20
-173.15928771
 10
-88.70652096
 20
-173.16337944
 10
-88.70368654
 20
-173.16741547
 10
-88.7007821
 20
-173.17139505
 10
-88.69780838
 20
-173.17531744
 10
-88.69476615
 20
-173.17918187
 10
-88.69165614
 20
-173.1829876
 10
-88.68847911
 20
-173.18673386
 10
-88.68523581
 20
-173.19041992
 10
-88.681927
 20
-173.19404501
 10
-88.67855341
 20
-173.19760839
 10
-88.67511581
 20
-173.20110929
 10
-88.67161494
 20
-173.20454697
 10
-88.66805156
 20
-173.20792068
 10
-88.66442641
 20
-173.21122965
 10
-88.66074024
 20
-173.21447314
 10
-88.65699381
 20
-173.21765039
 10
-88.65318787
 20
-173.22076065
 10
-88.64932317
 20
-173.22380317
 10
-88.64540046
 20
-173.22677719
 10
-88.64142048
 20
-173.22968197
 10
-88.637384
 20
-173.23251674
 10
-88.63329175
 20
-173.23528076
 10
-88.6291445
 20
-173.23797327
  0
LWPOLYLINE
  5
325
100
AcDbEntity
  8
MST_1_1
 62
   137
  6
CONTINUOUS
100
AcDbPolyline
 90
        9
 70
     0
 43
0.0
 10
-88.6291445
 20
-173.23797322
 10
-88.63236722
 20
-173.24119595
 10
-88.63558913
 20
-173.24441797
 10
-88.63881034
 20
-173.24763907
 10
-88.64203062
 20
-173.25085935
 10
-88.64525021
 20
-173.25407893
 10
-88.64846897
 20
-173.2572977
 10
-88.65168693
 20
-173.26051565
 10
-88.65490406
 20
-173.26373279
  0
LWPOLYLINE
  5
326
100
AcDbEntity
  8
MST_1_1
 62
   137
  6
CONTINUOUS
100
AcDbPolyline
 90
        9
 70
     0
 43
0.0
 10
-88.65490406
 20
-173.26373279
 10
-88.60032518
 20
-173.31831167
 10
-88.54575888
 20
-173.37287798
 10
-88.49121225
 20
-173.42742461
 10
-88.43669239
 20
-173.48194446
 10
-88.38220641
 20
-173.53643056
 10
-88.32776141
 20
-173.59087544
 10
-88.2733646
 20
-173.64527213
 10
-88.2190231
 20
-173.69961387
  0
CIRCLE
  5
327
100
AcDbEntity
  8
MST_1_1
 62
   137
  6
CONTINUOUS
100
AcDbCircle
 10
-86.9285532
 20
-171.45454975
 30
0.0
 40
3.66283472
  0
ARC
  5
328
100
AcDbEntity
  8
MST_1_1
 62
   137
  6
CONTINUOUS
100
AcDbCircle
 10
-85.32583564
 20
-172.37987918
 30
0.0
 40
0.65065883
100
AcDbArc
 50
104.00041459
 51
195.99959727
  0
LWPOLYLINE
  5
329
100
AcDbEntity
  8
MST_1_1
 62
   137
  6
CONTINUOUS
100
AcDbPolyline
 90
        9
 70
     0
 43
0.0
 10
-88.42523212
 20
-172.74669998
 10
-88.46095823
 20
-172.71097387
 10
-88.4966769
 20
-172.6752552
 10
-88.53238637
 20
-172.63954573
 10
-88.56808466
 20
-172.60384744
 10
-88.60376991
 20
-172.56816219
 10
-88.63944015
 20
-172.53249183
 10
-88.67509362
 20
-172.49683836
 10
-88.71072835
 20
-172.46120363
  0
ARC
  5
32A
100
AcDbEntity
  8
MST_1_1
 62
   137
  6
CONTINUOUS
100
AcDbCircle
 10
-88.48418823
 20
-173.01018401
 30
0.0
 40
0.26999936
100
AcDbArc
 50
77.38747914
 51
127.33780242
  0
LINE
  5
32B
100
AcDbEntity
  8
MST_1_1
 62
   137
  6
CONTINUOUS
100
AcDbLine
 10
-88.26951813
 20
-173.17394293
 30
0.0
 11
-88.64794639
 21
-172.79551467
 31
0.0
  0
ARC
  5
32C
100
AcDbEntity
  8
MST_1_1
 62
   137
  6
CONTINUOUS
100
AcDbCircle
 10
-88.48418758
 20
-173.01018475
 30
0.0
 40
0.26999948
100
AcDbArc
 50
322.66221884
 51
12.61250962
  0
LWPOLYLINE
  5
32D
100
AcDbEntity
  8
MST_1_1
 62
   137
  6
CONTINUOUS
100
AcDbPolyline
 90
        9
 70
     0
 43
0.0
 10
-87.93520708
 20
-173.2367249
 10
-87.97084181
 20
-173.20109017
 10
-88.00649528
 20
-173.1654367
 10
-88.04216564
 20
-173.12976646
 10
-88.07785089
 20
-173.09408121
 10
-88.11354918
 20
-173.05838291
 10
-88.14925865
 20
-173.02267345
 10
-88.18497732
 20
-172.98695478
 10
-88.22070343
 20
-172.95122866
  0
ARC
  5
32E
100
AcDbEntity
  8
MST_1_1
 62
   137
  6
CONTINUOUS
100
AcDbCircle
 10
-87.99416302
 20
-173.50020969
 30
0.0
 40
0.27000007
100
AcDbArc
 50
77.38755048
 51
192.61243885
  0
LWPOLYLINE
  5
32F
100
AcDbEntity
  8
MST_1_1
 62
   137
  6
CONTINUOUS
100
AcDbPolyline
 90
        9
 70
     0
 43
0.0
 10
-88.54314407
 20
-173.27366942
 10
-88.50741633
 20
-173.30939717
 10
-88.47169627
 20
-173.34511723
 10
-88.43598587
 20
-173.38082763
 10
-88.40028699
 20
-173.4165265
 10
-88.36460185
 20
-173.45221152
 10
-88.32893231
 20
-173.48788118
 10
-88.29328024
 20
-173.52353314
 10
-88.25764784
 20
-173.55916554
  0
ARC
  5
330
100
AcDbEntity
  8
MST_1_1
 62
   137
  6
CONTINUOUS
100
AcDbCircle
 10
-88.4841883
 20
-173.01018383
 30
0.0
 40
0.27000082
100
AcDbArc
 50
257.38763285
 51
307.33766874
  0
LWPOLYLINE
  5
331
100
AcDbEntity
  8
MST_1_1
 62
   137
  6
CONTINUOUS
100
AcDbPolyline
 90
        9
 70
     0
 43
0.0
 10
-88.69885818
 20
-172.84642635
 10
-88.65157039
 20
-172.89371402
 10
-88.6042691
 20
-172.94101532
 10
-88.55695885
 20
-172.98832569
 10
-88.50964394
 20
-173.03564048
 10
-88.46232914
 20
-173.0829554
 10
-88.41501877
 20
-173.13026565
 10
-88.36771748
 20
-173.17756694
 10
-88.32042981
 20
-173.22485473
  0
ARC
  5
332
100
AcDbEntity
  8
MST_1_1
 62
   137
  6
CONTINUOUS
100
AcDbCircle
 10
-88.48418802
 20
-173.01018468
 30
0.0
 40
0.27000013
100
AcDbArc
 50
142.662273
 51
192.61245546
  0
LWPOLYLINE
  5
333
100
AcDbEntity
  8
MST_1_1
 62
   137
  6
CONTINUOUS
100
AcDbPolyline
 90
        9
 70
     0
 43
0.0
 10
-89.03316899
 20
-172.78364438
 10
-88.99753659
 20
-172.81927679
 10
-88.96188463
 20
-172.85492886
 10
-88.92621498
 20
-172.8905984
 10
-88.89052996
 20
-172.92628354
 10
-88.85483108
 20
-172.96198241
 10
-88.81912068
 20
-172.99769281
 10
-88.78340062
 20
-173.03341288
 10
-88.74767287
 20
-173.06914062
  0
ARC
  5
334
100
AcDbEntity
  8
MST_1_1
 62
   137
  6
CONTINUOUS
100
AcDbCircle
 10
-88.97421289
 20
-172.52015983
 30
0.0
 40
0.26999988
100
AcDbArc
 50
257.38751638
 51
12.61251432
  0
LWPOLYLINE
  5
335
100
AcDbEntity
  8
MST_1_1
 62
   137
  6
CONTINUOUS
100
AcDbPolyline
 90
        9
 70
     0
 43
0.0
 10
-88.56369883
 20
-172.82885055
 10
-88.53109835
 20
-172.86145103
 10
-88.49849344
 20
-172.89405594
 10
-88.46588574
 20
-172.92666375
 10
-88.43327642
 20
-172.95927296
 10
-88.4006672
 20
-172.99188229
 10
-88.36805939
 20
-173.02448999
 10
-88.33545448
 20
-173.0570949
 10
-88.302854
 20
-173.08969538
  0
ARC
  5
336
100
AcDbEntity
  8
MST_1_1
 62
   137
  6
CONTINUOUS
100
AcDbCircle
 10
-88.48418818
 20
-173.01018473
 30
0.0
 40
0.19800007
100
AcDbArc
 50
336.32372311
 51
113.6762869
  0
LWPOLYLINE
  5
337
100
AcDbEntity
  8
MST_1_1
 62
   137
  6
CONTINUOUS
100
AcDbPolyline
 90
        9
 70
     0
 43
0.0
 10
-88.40467736
 20
-173.19151874
 10
-88.43727784
 20
-173.15891837
 10
-88.46988263
 20
-173.12631347
 10
-88.50249045
 20
-173.09370565
 10
-88.53509978
 20
-173.06109632
 10
-88.5677091
 20
-173.02848699
 10
-88.60031692
 20
-172.99587918
 10
-88.63292182
 20
-172.96327439
 10
-88.66552219
 20
-172.93067391
  0
ARC
  5
338
100
AcDbEntity
  8
MST_1_1
 62
   137
  6
CONTINUOUS
100
AcDbCircle
 10
-88.48418806
 20
-173.01018461
 30
0.0
 40
0.19800004
100
AcDbArc
 50
156.32369345
 51
293.67631657
  0
MTEXT
  5
339
100
AcDbEntity
  8
MST_1_1
 62
     4
100
AcDbMText
 10
-114.01392709
 20
174.41502431
 30
2500.0
 11
1.0
 21
0.0
 31
0.0
 40
20.0
 41
377.85535624
 71
     1
 72
     1
  1
\fTahoma|b0|i0|c0|p18;\H20;\W0.80000001;\C7;Spanplattenschrauben Linsensenkkopf\PHECO-FIX-plus 4.0mm\P35.001
  0
LWPOLYLINE
  5
33A
102
{ACAD_REACTORS
330
33B
102
}
100
AcDbEntity
  8
MST_1_1
 62
    12
100
AcDbPolyline
 90
       46
 70
     1
 43
0.0
 10
419.81083457
 20
184.98077431
 10
419.68001324
 20
184.99141264
 10
419.5558639
 20
185.02220098
 10
419.44005857
 20
185.07144931
 10
419.33426924
 20
185.13746764
 10
419.2401679
 20
185.21856598
 10
419.15942657
 20
185.31305431
 10
419.09371724
 20
185.41924264
 10
419.0447119
 20
185.53544098
 10
419.01408257
 20
185.65995931
 10
419.00350124
 20
185.79110764
 10
419.00350124
 20
185.79110764
 10
419.01408257
 20
185.92231981
 10
419.0447119
 20
186.04692498
 10
419.09371724
 20
186.16322614
 10
419.15942657
 20
186.26952631
 10
419.2401679
 20
186.36412848
 10
419.33426924
 20
186.44533564
 10
419.44005857
 20
186.51145081
 10
419.5558639
 20
186.56077698
 10
419.68001324
 20
186.59161714
 10
419.81083457
 20
186.60227431
 10
419.81083457
 20
186.60227431
 10
419.94148924
 20
186.59161714
 10
420.0655319
 20
186.56077698
 10
420.18128057
 20
186.51145081
 10
420.28705324
 20
186.44533564
 10
420.3811679
 20
186.36412848
 10
420.46194257
 20
186.26952631
 10
420.52769524
 20
186.16322614
 10
420.5767439
 20
186.04692498
 10
420.60740657
 20
185.92231981
 10
420.61800124
 20
185.79110764
 10
420.61800124
 20
185.79110764
 10
420.60740657
 20
185.65995931
 10
420.5767439
 20
185.53544098
 10
420.52769524
 20
185.41924264
 10
420.46194257
 20
185.31305431
 10
420.3811679
 20
185.21856598
 10
420.28705324
 20
185.13746764
 10
420.18128057
 20
185.07144931
 10
420.0655319
 20
185.02220098
 10
419.94148924
 20
184.99141264
 10
419.81083457
 20
184.98077431
 10
419.81083457
 20
184.98077431
 10
419.81083457
 20
184.98077431
  0
HATCH
  5
33B
100
AcDbEntity
  8
MST_1_1
 62
    12
100
AcDbHatch
 10
0.0
 20
0.0
 30
0.0
210
0.0
220
0.0
230
1.0
  2
SOLID
 70
     1
 71
     1
 91
        1
 92
        7
 72
     0
 73
     1
 93
       40
 10
419.81083457
 20
184.98077431
 10
419.68001324
 20
184.99141264
 10
419.5558639
 20
185.02220098
 10
419.44005857
 20
185.07144931
 10
419.33426924
 20
185.13746764
 10
419.2401679
 20
185.21856598
 10
419.15942657
 20
185.31305431
 10
419.09371724
 20
185.41924264
 10
419.0447119
 20
185.53544098
 10
419.01408257
 20
185.65995931
 10
419.00350124
 20
185.79110764
 10
419.01408257
 20
185.92231981
 10
419.0447119
 20
186.04692498
 10
419.09371724
 20
186.16322614
 10
419.15942657
 20
186.26952631
 10
419.2401679
 20
186.36412848
 10
419.33426924
 20
186.44533564
 10
419.44005857
 20
186.51145081
 10
419.5558639
 20
186.56077698
 10
419.68001324
 20
186.59161714
 10
419.81083457
 20
186.60227431
 10
419.94148924
 20
186.59161714
 10
420.0655319
 20
186.56077698
 10
420.18128057
 20
186.51145081
 10
420.28705324
 20
186.44533564
 10
420.3811679
 20
186.36412848
 10
420.46194257
 20
186.26952631
 10
420.52769524
 20
186.16322614
 10
420.5767439
 20
186.04692498
 10
420.60740657
 20
185.92231981
 10
420.61800124
 20
185.79110764
 10
420.60740657
 20
185.65995931
 10
420.5767439
 20
185.53544098
 10
420.52769524
 20
185.41924264
 10
420.46194257
 20
185.31305431
 10
420.3811679
 20
185.21856598
 10
420.28705324
 20
185.13746764
 10
420.18128057
 20
185.07144931
 10
420.0655319
 20
185.02220098
 10
419.94148924
 20
184.99141264
 97
        1
330
33A
 75
     0
 76
     2
 47
0.775229
 98
        1
 10
0.0
 20
0.0
  0
LWPOLYLINE
  5
33C
102
{ACAD_REACTORS
330
33D
102
}
100
AcDbEntity
  8
MST_1_1
 62
    12
100
AcDbPolyline
 90
        8
 70
     1
 43
0.0
 10
352.34583457
 20
184.41502431
 10
418.3136679
 20
184.41502431
 10
418.3136679
 20
184.41502431
 10
418.3136679
 20
167.83377431
 10
418.3136679
 20
167.83377431
 10
352.34583457
 20
167.83377431
 10
352.34583457
 20
167.83377431
 10
352.34583457
 20
184.41502431
  0
HATCH
  5
33D
100
AcDbEntity
  8
MST_1_1
 62
    12
100
AcDbHatch
 10
0.0
 20
0.0
 30
0.0
210
0.0
220
0.0
230
1.0
  2
SOLID
 70
     1
 71
     1
 91
        1
 92
        7
 72
     0
 73
     1
 93
        4
 10
352.34583457
 20
184.41502431
 10
418.3136679
 20
184.41502431
 10
418.3136679
 20
167.83377431
 10
352.34583457
 20
167.83377431
 97
        1
330
33C
 75
     0
 76
     2
 47
0.775229
 98
        1
 10
0.0
 20
0.0
  0
LINE
  5
33E
100
AcDbEntity
  8
MST_1_1
100
AcDbLine
 10
352.34583457
 20
167.83377431
 30
0.0
 11
352.34583457
 21
167.83377431
 31
0.0
  0
LINE
  5
33F
100
AcDbEntity
  8
MST_1_1
100
AcDbLine
 10
352.34583457
 20
167.83377431
 30
0.0
 11
352.34583457
 21
167.83377431
 31
0.0
  0
LINE
  5
340
100
AcDbEntity
  8
MST_1_1
100
AcDbLine
 10
352.34583457
 20
167.83377431
 30
0.0
 11
352.34583457
 21
167.83377431
 31
0.0
  0
LINE
  5
341
100
AcDbEntity
  8
MST_1_1
100
AcDbLine
 10
352.34583457
 20
167.83377431
 30
0.0
 11
352.34583457
 21
167.83377431
 31
0.0
  0
LINE
  5
342
100
AcDbEntity
  8
MST_1_1
100
AcDbLine
 10
352.34583457
 20
167.83377431
 30
0.0
 11
352.34583457
 21
167.83377431
 31
0.0
  0
LINE
  5
343
100
AcDbEntity
  8
MST_1_1
100
AcDbLine
 10
352.34583457
 20
167.83377431
 30
0.0
 11
352.34583457
 21
167.83377431
 31
0.0
  0
LINE
  5
344
100
AcDbEntity
  8
MST_1_1
100
AcDbLine
 10
352.34583457
 20
167.83377431
 30
0.0
 11
352.34583457
 21
167.83377431
 31
0.0
  0
LINE
  5
345
100
AcDbEntity
  8
MST_1_1
100
AcDbLine
 10
352.34583457
 20
167.83377431
 30
0.0
 11
352.34583457
 21
167.83377431
 31
0.0
  0
LINE
  5
346
100
AcDbEntity
  8
MST_1_1
100
AcDbLine
 10
352.34583457
 20
167.83377431
 30
0.0
 11
352.34583457
 21
167.83377431
 31
0.0
  0
LINE
  5
347
100
AcDbEntity
  8
MST_1_1
100
AcDbLine
 10
352.34583457
 20
167.83377431
 30
0.0
 11
352.34583457
 21
167.83377431
 31
0.0
  0
LINE
  5
348
100
AcDbEntity
  8
MST_1_1
100
AcDbLine
 10
352.34583457
 20
167.83377431
 30
0.0
 11
352.34583457
 21
167.83377431
 31
0.0
  0
LWPOLYLINE
  5
349
102
{ACAD_REACTORS
330
34A
102
}
100
AcDbEntity
  8
MST_1_1
 62
   190
100
AcDbPolyline
 90
        8
 70
     1
 43
0.0
 10
385.15233457
 20
183.26535764
 10
417.1671679
 20
183.26535764
 10
417.1671679
 20
183.26535764
 10
417.1671679
 20
168.98160598
 10
417.1671679
 20
168.98160598
 10
385.15233457
 20
168.98160598
 10
385.15233457
 20
168.98160598
 10
385.15233457
 20
183.26535764
  0
HATCH
  5
34A
100
AcDbEntity
  8
MST_1_1
 62
   190
100
AcDbHatch
 10
0.0
 20
0.0
 30
0.0
210
0.0
220
0.0
230
1.0
  2
SOLID
 70
     1
 71
     1
 91
        1
 92
        7
 72
     0
 73
     1
 93
        4
 10
385.15233457
 20
183.26535764
 10
417.1671679
 20
183.26535764
 10
417.1671679
 20
168.98160598
 10
385.15233457
 20
168.98160598
 97
        1
330
349
 75
     0
 76
     2
 47
0.775229
 98
        1
 10
0.0
 20
0.0
  0
LWPOLYLINE
  5
34B
102
{ACAD_REACTORS
330
34C
102
}
100
AcDbEntity
  8
MST_1_1
 62
    12
100
AcDbPolyline
 90
       22
 70
     1
 43
0.0
 10
387.0701679
 20
171.27487431
 10
387.0701679
 20
180.36139098
 10
387.0701679
 20
180.36139098
 10
395.24950124
 20
180.36139098
 10
395.24950124
 20
180.36139098
 10
395.24950124
 20
177.89704098
 10
395.24950124
 20
177.89704098
 10
391.47350124
 20
177.89704098
 10
391.47350124
 20
177.89704098
 10
391.47350124
 20
176.84242431
 10
391.47350124
 20
176.84242431
 10
394.8911679
 20
176.84242431
 10
394.8911679
 20
176.84242431
 10
394.8911679
 20
174.51462431
 10
394.8911679
 20
174.51462431
 10
391.47350124
 20
174.51462431
 10
391.47350124
 20
174.51462431
 10
391.47350124
 20
171.27487431
 10
391.47350124
 20
171.27487431
 10
387.0701679
 20
171.27487431
 10
387.0701679
 20
171.27487431
 10
387.0701679
 20
171.27487431
  0
HATCH
  5
34C
100
AcDbEntity
  8
MST_1_1
 62
    12
100
AcDbHatch
 10
0.0
 20
0.0
 30
0.0
210
0.0
220
0.0
230
1.0
  2
SOLID
 70
     1
 71
     1
 91
        1
 92
        7
 72
     0
 73
     1
 93
       10
 10
387.0701679
 20
171.27487431
 10
387.0701679
 20
180.36139098
 10
395.24950124
 20
180.36139098
 10
395.24950124
 20
177.89704098
 10
391.47350124
 20
177.89704098
 10
391.47350124
 20
176.84242431
 10
394.8911679
 20
176.84242431
 10
394.8911679
 20
174.51462431
 10
391.47350124
 20
174.51462431
 10
391.47350124
 20
171.27487431
 97
        1
330
34B
 75
     0
 76
     2
 47
0.775229
 98
        1
 10
0.0
 20
0.0
  0
LWPOLYLINE
  5
34D
102
{ACAD_REACTORS
330
34E
102
}
100
AcDbEntity
  8
MST_1_1
 62
   190
100
AcDbPolyline
 90
      178
 70
     1
 43
0.0
 10
383.29483457
 20
175.80002431
 10
383.29126257
 20
175.60185759
 10
383.28055857
 20
175.40639058
 10
383.26274057
 20
175.21364296
 10
383.23782657
 20
175.02363444
 10
383.20583457
 20
174.83638473
 10
383.16678257
 20
174.65191351
 10
383.12068857
 20
174.47024049
 10
383.06757057
 20
174.29138538
 10
383.00744657
 20
174.11536786
 10
382.94033457
 20
173.94220764
 10
382.94033457
 20
173.94220764
 10
382.86660157
 20
173.77173378
 10
382.78621057
 20
173.60498671
 10
382.69917357
 20
173.44195824
 10
382.60550257
 20
173.28264018
 10
382.50520957
 20
173.12702431
 10
382.39830657
 20
172.97510244
 10
382.28480557
 20
172.82686638
 10
382.16471857
 20
172.68230791
 10
382.03805757
 20
172.54141884
 10
381.90483457
 20
172.40419098
 10
381.90483457
 20
172.40419098
 10
381.7660959
 20
172.27441019
 10
381.62318524
 20
172.15084271
 10
381.47611057
 20
172.03349583
 10
381.3248799
 20
171.92237684
 10
381.16950124
 20
171.81749306
 10
381.00998257
 20
171.71885178
 10
380.8463319
 20
171.62646029
 10
380.67855724
 20
171.54032591
 10
380.50666657
 20
171.46045593
 10
380.3306679
 20
171.38685764
 10
380.3306679
 20
171.38685764
 10
380.1516199
 20
171.31985951
 10
379.9701039
 20
171.25980258
 10
379.7861619
 20
171.20671304
 10
379.5998359
 20
171.16061711
 10
379.4111679
 20
171.12154098
 10
379.2201999
 20
171.08951084
 10
379.0269739
 20
171.06455291
 10
378.8315319
 20
171.04669338
 10
378.6339159
 20
171.03595844
 10
378.4341679
 20
171.03237431
 10
378.4341679
 20
171.03237431
 10
378.23224757
 20
171.03595844
 10
378.03280524
 20
171.04669338
 10
377.8358689
 20
171.06455291
 10
377.64146657
 20
171.08951084
 10
377.44962624
 20
171.12154098
 10
377.2603759
 20
171.16061711
 10
377.07374357
 20
171.20671304
 10
376.88975724
 20
171.25980258
 10
376.7084449
 20
171.31985951
 10
376.52983457
 20
171.38685764
 10
376.52983457
 20
171.38685764
 10
376.35390807
 20
171.46057328
 10
376.18202257
 20
171.54079671
 10
376.01416907
 20
171.62752274
 10
375.85033857
 20
171.72074618
 10
375.69052207
 20
171.82046181
 10
375.53471057
 20
171.92666444
 10
375.38289507
 20
172.03934888
 10
375.23506657
 20
172.15850991
 10
375.09121607
 20
172.28414234
 10
374.95133457
 20
172.41624098
 10
374.95133457
 20
172.41624098
 10
374.81977574
 20
172.55001586
 10
374.6946239
 20
172.68776004
 10
374.57591607
 20
172.82945783
 10
374.46368924
 20
172.97509351
 10
374.3579804
 20
173.12465139
 10
374.25882657
 20
173.27811578
 10
374.16626474
 20
173.43547096
 10
374.0803319
 20
173.59670124
 10
374.00106507
 20
173.76179093
 10
373.92850124
 20
173.93072431
 10
373.92850124
 20
173.93072431
 10
373.8626834
 20
174.10384696
 10
373.80373857
 20
174.28005151
 10
373.75167974
 20
174.45933286
 10
373.7065199
 20
174.64168591
 10
373.66827207
 20
174.82710556
 10
373.63694924
 20
175.01558671
 10
373.6125644
 20
175.20712426
 10
373.59513057
 20
175.40171311
 10
373.58466074
 20
175.59934816
 10
373.5811679
 20
175.80002431
 10
373.5811679
 20
175.80002431
 10
373.58466074
 20
176.00069634
 10
373.59513057
 20
176.19841858
 10
373.6125644
 20
176.39320021
 10
373.63694924
 20
176.58505044
 10
373.66827207
 20
176.77397848
 10
373.7065199
 20
176.95999351
 10
373.75167974
 20
177.14310474
 10
373.80373857
 20
177.32332138
 10
373.8626834
 20
177.50065261
 10
373.92850124
 20
177.67510764
 10
373.92850124
 20
177.67510764
 10
374.00106507
 20
177.84517409
 10
374.0803319
 20
178.01134724
 10
374.16626474
 20
178.17358779
 10
374.25882657
 20
178.33185644
 10
374.3579804
 20
178.48611389
 10
374.46368924
 20
178.63632084
 10
374.57591607
 20
178.78243799
 10
374.6946239
 20
178.92442604
 10
374.81977574
 20
179.06224569
 10
374.95133457
 20
179.19585764
 10
374.95133457
 20
179.19585764
 10
375.0901384
 20
179.32624948
 10
375.23296524
 20
179.45037231
 10
375.37983807
 20
179.56820714
 10
375.5307799
 20
179.67973498
 10
375.68581374
 20
179.78493681
 10
375.84496257
 20
179.88379364
 10
376.0082494
 20
179.97628648
 10
376.17569724
 20
180.06239631
 10
376.34732907
 20
180.14210414
 10
376.5231679
 20
180.21539098
 10
376.5231679
 20
180.21539098
 10
376.7020819
 20
180.28242256
 10
376.8837199
 20
180.34231964
 10
377.0680759
 20
180.39510073
 10
377.2551439
 20
180.44078431
 10
377.4449179
 20
180.47938889
 10
377.6373919
 20
180.51093298
 10
377.8325599
 20
180.53543506
 10
378.0304159
 20
180.55291364
 10
378.2309539
 20
180.56338723
 10
378.4341679
 20
180.56687431
 10
378.4341679
 20
180.56687431
 10
378.63753957
 20
180.56338723
 10
378.83824124
 20
180.55291364
 10
379.0362529
 20
180.53543506
 10
379.23155457
 20
180.51093298
 10
379.42412624
 20
180.47938889
 10
379.6139479
 20
180.44078431
 10
379.80099957
 20
180.39510073
 10
379.98526124
 20
180.34231964
 10
380.1667129
 20
180.28242256
 10
380.34533457
 20
180.21539098
 10
380.34533457
 20
180.21539098
 10
380.52133724
 20
180.14210414
 10
380.6932559
 20
180.06239631
 10
380.86110657
 20
179.97628648
 10
381.02490524
 20
179.88379364
 10
381.1846679
 20
179.78493681
 10
381.34041057
 20
179.67973498
 10
381.49214924
 20
179.56820714
 10
381.6398999
 20
179.45037231
 10
381.78367857
 20
179.32624948
 10
381.92350124
 20
179.19585764
 10
381.92350124
 20
179.19585764
 10
382.05384607
 20
179.06108313
 10
382.1779599
 20
178.92225551
 10
382.29581174
 20
178.77939869
 10
382.40737057
 20
178.63253658
 10
382.5126054
 20
178.48169306
 10
382.61148524
 20
178.32689204
 10
382.70397907
 20
178.16815743
 10
382.7900559
 20
178.00551311
 10
382.86968474
 20
177.83898299
 10
382.94283457
 20
177.66859098
 10
382.94283457
 20
177.66859098
 10
383.00987657
 20
177.49429906
 10
383.06981057
 20
177.31722164
 10
383.12264857
 20
177.13735623
 10
383.16840257
 20
176.95470031
 10
383.20708457
 20
176.76925139
 10
383.23870657
 20
176.58100698
 10
383.26328057
 20
176.38996456
 10
383.28081857
 20
176.19612164
 10
383.29133257
 20
175.99947573
 10
383.29483457
 20
175.80002431
 10
383.29483457
 20
175.80002431
 10
383.29483457
 20
175.80002431
  0
HATCH
  5
34E
100
AcDbEntity
  8
MST_1_1
 62
   190
100
AcDbHatch
 10
0.0
 20
0.0
 30
0.0
210
0.0
220
0.0
230
1.0
  2
SOLID
 70
     1
 71
     1
 91
        1
 92
        7
 72
     0
 73
     1
 93
      160
 10
383.29483457
 20
175.80002431
 10
383.29126257
 20
175.60185759
 10
383.28055857
 20
175.40639058
 10
383.26274057
 20
175.21364296
 10
383.23782657
 20
175.02363444
 10
383.20583457
 20
174.83638473
 10
383.16678257
 20
174.65191351
 10
383.12068857
 20
174.47024049
 10
383.06757057
 20
174.29138538
 10
383.00744657
 20
174.11536786
 10
382.94033457
 20
173.94220764
 10
382.86660157
 20
173.77173378
 10
382.78621057
 20
173.60498671
 10
382.69917357
 20
173.44195824
 10
382.60550257
 20
173.28264018
 10
382.50520957
 20
173.12702431
 10
382.39830657
 20
172.97510244
 10
382.28480557
 20
172.82686638
 10
382.16471857
 20
172.68230791
 10
382.03805757
 20
172.54141884
 10
381.90483457
 20
172.40419098
 10
381.7660959
 20
172.27441019
 10
381.62318524
 20
172.15084271
 10
381.47611057
 20
172.03349583
 10
381.3248799
 20
171.92237684
 10
381.16950124
 20
171.81749306
 10
381.00998257
 20
171.71885178
 10
380.8463319
 20
171.62646029
 10
380.67855724
 20
171.54032591
 10
380.50666657
 20
171.46045593
 10
380.3306679
 20
171.38685764
 10
380.1516199
 20
171.31985951
 10
379.9701039
 20
171.25980258
 10
379.7861619
 20
171.20671304
 10
379.5998359
 20
171.16061711
 10
379.4111679
 20
171.12154098
 10
379.2201999
 20
171.08951084
 10
379.0269739
 20
171.06455291
 10
378.8315319
 20
171.04669338
 10
378.6339159
 20
171.03595844
 10
378.4341679
 20
171.03237431
 10
378.23224757
 20
171.03595844
 10
378.03280524
 20
171.04669338
 10
377.8358689
 20
171.06455291
 10
377.64146657
 20
171.08951084
 10
377.44962624
 20
171.12154098
 10
377.2603759
 20
171.16061711
 10
377.07374357
 20
171.20671304
 10
376.88975724
 20
171.25980258
 10
376.7084449
 20
171.31985951
 10
376.52983457
 20
171.38685764
 10
376.35390807
 20
171.46057328
 10
376.18202257
 20
171.54079671
 10
376.01416907
 20
171.62752274
 10
375.85033857
 20
171.72074618
 10
375.69052207
 20
171.82046181
 10
375.53471057
 20
171.92666444
 10
375.38289507
 20
172.03934888
 10
375.23506657
 20
172.15850991
 10
375.09121607
 20
172.28414234
 10
374.95133457
 20
172.41624098
 10
374.81977574
 20
172.55001586
 10
374.6946239
 20
172.68776004
 10
374.57591607
 20
172.82945783
 10
374.46368924
 20
172.97509351
 10
374.3579804
 20
173.12465139
 10
374.25882657
 20
173.27811578
 10
374.16626474
 20
173.43547096
 10
374.0803319
 20
173.59670124
 10
374.00106507
 20
173.76179093
 10
373.92850124
 20
173.93072431
 10
373.8626834
 20
174.10384696
 10
373.80373857
 20
174.28005151
 10
373.75167974
 20
174.45933286
 10
373.7065199
 20
174.64168591
 10
373.66827207
 20
174.82710556
 10
373.63694924
 20
175.01558671
 10
373.6125644
 20
175.20712426
 10
373.59513057
 20
175.40171311
 10
373.58466074
 20
175.59934816
 10
373.5811679
 20
175.80002431
 10
373.58466074
 20
176.00069634
 10
373.59513057
 20
176.19841858
 10
373.6125644
 20
176.39320021
 10
373.63694924
 20
176.58505044
 10
373.66827207
 20
176.77397848
 10
373.7065199
 20
176.95999351
 10
373.75167974
 20
177.14310474
 10
373.80373857
 20
177.32332138
 10
373.8626834
 20
177.50065261
 10
373.92850124
 20
177.67510764
 10
374.00106507
 20
177.84517409
 10
374.0803319
 20
178.01134724
 10
374.16626474
 20
178.17358779
 10
374.25882657
 20
178.33185644
 10
374.3579804
 20
178.48611389
 10
374.46368924
 20
178.63632084
 10
374.57591607
 20
178.78243799
 10
374.6946239
 20
178.92442604
 10
374.81977574
 20
179.06224569
 10
374.95133457
 20
179.19585764
 10
375.0901384
 20
179.32624948
 10
375.23296524
 20
179.45037231
 10
375.37983807
 20
179.56820714
 10
375.5307799
 20
179.67973498
 10
375.68581374
 20
179.78493681
 10
375.84496257
 20
179.88379364
 10
376.0082494
 20
179.97628648
 10
376.17569724
 20
180.06239631
 10
376.34732907
 20
180.14210414
 10
376.5231679
 20
180.21539098
 10
376.7020819
 20
180.28242256
 10
376.8837199
 20
180.34231964
 10
377.0680759
 20
180.39510073
 10
377.2551439
 20
180.44078431
 10
377.4449179
 20
180.47938889
 10
377.6373919
 20
180.51093298
 10
377.8325599
 20
180.53543506
 10
378.0304159
 20
180.55291364
 10
378.2309539
 20
180.56338723
 10
378.4341679
 20
180.56687431
 10
378.63753957
 20
180.56338723
 10
378.83824124
 20
180.55291364
 10
379.0362529
 20
180.53543506
 10
379.23155457
 20
180.51093298
 10
379.42412624
 20
180.47938889
 10
379.6139479
 20
180.44078431
 10
379.80099957
 20
180.39510073
 10
379.98526124
 20
180.34231964
 10
380.1667129
 20
180.28242256
 10
380.34533457
 20
180.21539098
 10
380.52133724
 20
180.14210414
 10
380.6932559
 20
180.06239631
 10
380.86110657
 20
179.97628648
 10
381.02490524
 20
179.88379364
 10
381.1846679
 20
179.78493681
 10
381.34041057
 20
179.67973498
 10
381.49214924
 20
179.56820714
 10
381.6398999
 20
179.45037231
 10
381.78367857
 20
179.32624948
 10
381.92350124
 20
179.19585764
 10
382.05384607
 20
179.06108313
 10
382.1779599
 20
178.92225551
 10
382.29581174
 20
178.77939869
 10
382.40737057
 20
178.63253658
 10
382.5126054
 20
178.48169306
 10
382.61148524
 20
178.32689204
 10
382.70397907
 20
178.16815743
 10
382.7900559
 20
178.00551311
 10
382.86968474
 20
177.83898299
 10
382.94283457
 20
177.66859098
 10
383.00987657
 20
177.49429906
 10
383.06981057
 20
177.31722164
 10
383.12264857
 20
177.13735623
 10
383.16840257
 20
176.95470031
 10
383.20708457
 20
176.76925139
 10
383.23870657
 20
176.58100698
 10
383.26328057
 20
176.38996456
 10
383.28081857
 20
176.19612164
 10
383.29133257
 20
175.99947573
 97
        1
330
34D
 75
     0
 76
     2
 47
0.775229
 98
        1
 10
0.0
 20
0.0
  0
LWPOLYLINE
  5
34F
102
{ACAD_REACTORS
330
350
102
}
100
AcDbEntity
  8
MST_1_1
 62
    12
100
AcDbPolyline
 90
       90
 70
     1
 43
0.0
 10
378.4341679
 20
174.08584098
 10
378.56938507
 20
174.09057629
 10
378.69914524
 20
174.10475951
 10
378.8234614
 20
174.12835653
 10
378.94234657
 20
174.16133324
 10
379.05581374
 20
174.20365556
 10
379.1638759
 20
174.25528938
 10
379.26654607
 20
174.31620059
 10
379.36383724
 20
174.38635511
 10
379.4557624
 20
174.46571883
 10
379.54233457
 20
174.55425764
 10
379.54233457
 20
174.55425764
 10
379.62202707
 20
174.65138266
 10
379.69339457
 20
174.75450378
 10
379.75642207
 20
174.86366009
 10
379.81109457
 20
174.97889071
 10
379.85739707
 20
175.10023473
 10
379.89531457
 20
175.22773124
 10
379.92483207
 20
175.36141936
 10
379.94593457
 20
175.50133818
 10
379.95860707
 20
175.64752679
 10
379.96283457
 20
175.80002431
 10
379.96283457
 20
175.80002431
 10
379.95860707
 20
175.95326984
 10
379.94593457
 20
176.10027858
 10
379.92483207
 20
176.24108371
 10
379.89531457
 20
176.37571844
 10
379.85739707
 20
176.50421598
 10
379.81109457
 20
176.62660951
 10
379.75642207
 20
176.74293224
 10
379.69339457
 20
176.85321738
 10
379.62202707
 20
176.95749811
 10
379.54233457
 20
177.05580764
 10
379.54233457
 20
177.05580764
 10
379.4557624
 20
177.14583303
 10
379.36383724
 20
177.22644871
 10
379.26654607
 20
177.29763899
 10
379.1638759
 20
177.35938818
 10
379.05581374
 20
177.41168056
 10
378.94234657
 20
177.45450044
 10
378.8234614
 20
177.48783213
 10
378.69914524
 20
177.51165991
 10
378.56938507
 20
177.52596809
 10
378.4341679
 20
177.53074098
 10
378.4341679
 20
177.53074098
 10
378.2990149
 20
177.52596403
 10
378.1691639
 20
177.51162738
 10
378.0446269
 20
177.48772233
 10
377.9254159
 20
177.45424018
 10
377.8115429
 20
177.41117223
 10
377.7030199
 20
177.35850978
 10
377.5998589
 20
177.29624413
 10
377.5020719
 20
177.22436658
 10
377.4096709
 20
177.14286843
 10
377.3226679
 20
177.05174098
 10
377.3226679
 20
177.05174098
 10
377.24232124
 20
176.95337701
 10
377.17047457
 20
176.84905524
 10
377.1071179
 20
176.73877588
 10
377.05224124
 20
176.62253911
 10
377.00583457
 20
176.50034514
 10
376.9678879
 20
176.37219418
 10
376.93839124
 20
176.23808641
 10
376.91733457
 20
176.09802204
 10
376.9047079
 20
175.95200128
 10
376.90050124
 20
175.80002431
 10
376.90050124
 20
175.80002431
 10
376.9047079
 20
175.64752679
 10
376.91733457
 20
175.50133818
 10
376.93839124
 20
175.36141936
 10
376.9678879
 20
175.22773124
 10
377.00583457
 20
175.10023473
 10
377.05224124
 20
174.97889071
 10
377.1071179
 20
174.86366009
 10
377.17047457
 20
174.75450378
 10
377.24232124
 20
174.65138266
 10
377.3226679
 20
174.55425764
 10
377.3226679
 20
174.55425764
 10
377.4096709
 20
174.46571883
 10
377.5020719
 20
174.38635511
 10
377.5998589
 20
174.31620059
 10
377.7030199
 20
174.25528938
 10
377.8115429
 20
174.20365556
 10
377.9254159
 20
174.16133324
 10
378.0446269
 20
174.12835653
 10
378.1691639
 20
174.10475951
 10
378.2990149
 20
174.09057629
 10
378.4341679
 20
174.08584098
 10
378.4341679
 20
174.08584098
 10
378.4341679
 20
174.08584098
  0
HATCH
  5
350
100
AcDbEntity
  8
MST_1_1
 62
    12
100
AcDbHatch
 10
0.0
 20
0.0
 30
0.0
210
0.0
220
0.0
230
1.0
  2
SOLID
 70
     1
 71
     1
 91
        1
 92
        7
 72
     0
 73
     1
 93
       80
 10
378.4341679
 20
174.08584098
 10
378.56938507
 20
174.09057629
 10
378.69914524
 20
174.10475951
 10
378.8234614
 20
174.12835653
 10
378.94234657
 20
174.16133324
 10
379.05581374
 20
174.20365556
 10
379.1638759
 20
174.25528938
 10
379.26654607
 20
174.31620059
 10
379.36383724
 20
174.38635511
 10
379.4557624
 20
174.46571883
 10
379.54233457
 20
174.55425764
 10
379.62202707
 20
174.65138266
 10
379.69339457
 20
174.75450378
 10
379.75642207
 20
174.86366009
 10
379.81109457
 20
174.97889071
 10
379.85739707
 20
175.10023473
 10
379.89531457
 20
175.22773124
 10
379.92483207
 20
175.36141936
 10
379.94593457
 20
175.50133818
 10
379.95860707
 20
175.64752679
 10
379.96283457
 20
175.80002431
 10
379.95860707
 20
175.95326984
 10
379.94593457
 20
176.10027858
 10
379.92483207
 20
176.24108371
 10
379.89531457
 20
176.37571844
 10
379.85739707
 20
176.50421598
 10
379.81109457
 20
176.62660951
 10
379.75642207
 20
176.74293224
 10
379.69339457
 20
176.85321738
 10
379.62202707
 20
176.95749811
 10
379.54233457
 20
177.05580764
 10
379.4557624
 20
177.14583303
 10
379.36383724
 20
177.22644871
 10
379.26654607
 20
177.29763899
 10
379.1638759
 20
177.35938818
 10
379.05581374
 20
177.41168056
 10
378.94234657
 20
177.45450044
 10
378.8234614
 20
177.48783213
 10
378.69914524
 20
177.51165991
 10
378.56938507
 20
177.52596809
 10
378.4341679
 20
177.53074098
 10
378.2990149
 20
177.52596403
 10
378.1691639
 20
177.51162738
 10
378.0446269
 20
177.48772233
 10
377.9254159
 20
177.45424018
 10
377.8115429
 20
177.41117223
 10
377.7030199
 20
177.35850978
 10
377.5998589
 20
177.29624413
 10
377.5020719
 20
177.22436658
 10
377.4096709
 20
177.14286843
 10
377.3226679
 20
177.05174098
 10
377.24232124
 20
176.95337701
 10
377.17047457
 20
176.84905524
 10
377.1071179
 20
176.73877588
 10
377.05224124
 20
176.62253911
 10
377.00583457
 20
176.50034514
 10
376.9678879
 20
176.37219418
 10
376.93839124
 20
176.23808641
 10
376.91733457
 20
176.09802204
 10
376.9047079
 20
175.95200128
 10
376.90050124
 20
175.80002431
 10
376.9047079
 20
175.64752679
 10
376.91733457
 20
175.50133818
 10
376.93839124
 20
175.36141936
 10
376.9678879
 20
175.22773124
 10
377.00583457
 20
175.10023473
 10
377.05224124
 20
174.97889071
 10
377.1071179
 20
174.86366009
 10
377.17047457
 20
174.75450378
 10
377.24232124
 20
174.65138266
 10
377.3226679
 20
174.55425764
 10
377.4096709
 20
174.46571883
 10
377.5020719
 20
174.38635511
 10
377.5998589
 20
174.31620059
 10
377.7030199
 20
174.25528938
 10
377.8115429
 20
174.20365556
 10
377.9254159
 20
174.16133324
 10
378.0446269
 20
174.12835653
 10
378.1691639
 20
174.10475951
 10
378.2990149
 20
174.09057629
 97
        1
330
34F
 75
     0
 76
     2
 47
0.775229
 98
        1
 10
0.0
 20
0.0
  0
LWPOLYLINE
  5
351
102
{ACAD_REACTORS
330
352
102
}
100
AcDbEntity
  8
MST_1_1
 62
   190
100
AcDbPolyline
 90
       60
 70
     1
 43
0.0
 10
364.79513457
 20
171.27487431
 10
364.79513457
 20
180.36139098
 10
364.79513457
 20
180.36139098
 10
368.90540124
 20
180.36139098
 10
368.90540124
 20
180.36139098
 10
369.254137
 20
180.35349034
 10
369.58607937
 20
180.32979791
 10
369.90122094
 20
180.29032788
 10
370.1995543
 20
180.23509444
 10
370.48107207
 20
180.16411181
 10
370.74576684
 20
180.07739418
 10
370.9936312
 20
179.97495574
 10
371.22465777
 20
179.85681071
 10
371.43883914
 20
179.72297328
 10
371.6361679
 20
179.57345764
 10
371.6361679
 20
179.57345764
 10
371.81537374
 20
179.40886859
 10
371.97569457
 20
179.23030324
 10
372.1171354
 20
179.03779429
 10
372.23970124
 20
178.83137444
 10
372.34339707
 20
178.61107639
 10
372.4282279
 20
178.37693284
 10
372.49419874
 20
178.12897649
 10
372.54131457
 20
177.86724004
 10
372.5695804
 20
177.59175619
 10
372.57900124
 20
177.30255764
 10
372.57900124
 20
177.30255764
 10
372.57421957
 20
177.11207308
 10
372.5598879
 20
176.92842711
 10
372.53602624
 20
176.75163134
 10
372.50265457
 20
176.58169738
 10
372.4597929
 20
176.41863681
 10
372.40746124
 20
176.26246124
 10
372.34567957
 20
176.11318228
 10
372.2744679
 20
175.97081151
 10
372.19384624
 20
175.83536054
 10
372.10383457
 20
175.70684098
 10
372.10383457
 20
175.70684098
 10
372.00539357
 20
175.58624873
 10
371.90044657
 20
175.47621298
 10
371.78895757
 20
175.37672023
 10
371.67089057
 20
175.28775698
 10
371.54620957
 20
175.20930973
 10
371.41487857
 20
175.14136498
 10
371.27686157
 20
175.08390923
 10
371.13212257
 20
175.03692898
 10
370.98062557
 20
175.00041073
 10
370.82233457
 20
174.97434098
 10
370.82233457
 20
174.97434098
 10
373.2486679
 20
171.27487431
 10
373.2486679
 20
171.27487431
 10
369.5881679
 20
171.27487431
 10
369.5881679
 20
171.27487431
 10
367.99818457
 20
174.27219098
 10
367.99818457
 20
174.27219098
 10
367.99818457
 20
171.27487431
 10
367.99818457
 20
171.27487431
 10
364.79513457
 20
171.27487431
 10
364.79513457
 20
171.27487431
 10
364.79513457
 20
171.27487431
  0
HATCH
  5
352
100
AcDbEntity
  8
MST_1_1
 62
   190
100
AcDbHatch
 10
0.0
 20
0.0
 30
0.0
210
0.0
220
0.0
230
1.0
  2
SOLID
 70
     1
 71
     1
 91
        1
 92
        7
 72
     0
 73
     1
 93
       47
 10
364.79513457
 20
171.27487431
 10
364.79513457
 20
180.36139098
 10
368.90540124
 20
180.36139098
 10
369.254137
 20
180.35349034
 10
369.58607937
 20
180.32979791
 10
369.90122094
 20
180.29032788
 10
370.1995543
 20
180.23509444
 10
370.48107207
 20
180.16411181
 10
370.74576684
 20
180.07739418
 10
370.9936312
 20
179.97495574
 10
371.22465777
 20
179.85681071
 10
371.43883914
 20
179.72297328
 10
371.6361679
 20
179.57345764
 10
371.81537374
 20
179.40886859
 10
371.97569457
 20
179.23030324
 10
372.1171354
 20
179.03779429
 10
372.23970124
 20
178.83137444
 10
372.34339707
 20
178.61107639
 10
372.4282279
 20
178.37693284
 10
372.49419874
 20
178.12897649
 10
372.54131457
 20
177.86724004
 10
372.5695804
 20
177.59175619
 10
372.57900124
 20
177.30255764
 10
372.57421957
 20
177.11207308
 10
372.5598879
 20
176.92842711
 10
372.53602624
 20
176.75163134
 10
372.50265457
 20
176.58169738
 10
372.4597929
 20
176.41863681
 10
372.40746124
 20
176.26246124
 10
372.34567957
 20
176.11318228
 10
372.2744679
 20
175.97081151
 10
372.19384624
 20
175.83536054
 10
372.10383457
 20
175.70684098
 10
372.00539357
 20
175.58624873
 10
371.90044657
 20
175.47621298
 10
371.78895757
 20
175.37672023
 10
371.67089057
 20
175.28775698
 10
371.54620957
 20
175.20930973
 10
371.41487857
 20
175.14136498
 10
371.27686157
 20
175.08390923
 10
371.13212257
 20
175.03692898
 10
370.98062557
 20
175.00041073
 10
370.82233457
 20
174.97434098
 10
373.2486679
 20
171.27487431
 10
369.5881679
 20
171.27487431
 10
367.99818457
 20
174.27219098
 10
367.99818457
 20
171.27487431
 97
        1
330
351
 75
     0
 76
     2
 47
0.775229
 98
        1
 10
0.0
 20
0.0
  0
LWPOLYLINE
  5
353
102
{ACAD_REACTORS
330
354
102
}
100
AcDbEntity
  8
MST_1_1
 62
    12
100
AcDbPolyline
 90
       52
 70
     1
 43
0.0
 10
367.99818457
 20
178.02275764
 10
367.99818457
 20
176.24770764
 10
367.99818457
 20
176.24770764
 10
368.50730124
 20
176.24770764
 10
368.50730124
 20
176.24770764
 10
368.59834769
 20
176.24997904
 10
368.68502684
 20
176.25678884
 10
368.76735339
 20
176.26813044
 10
368.84534204
 20
176.28399724
 10
368.91900749
 20
176.30438264
 10
368.98836444
 20
176.32928004
 10
369.05342759
 20
176.35868284
 10
369.11421164
 20
176.39258444
 10
369.17073129
 20
176.43097824
 10
369.22300124
 20
176.47385764
 10
369.22300124
 20
176.47385764
 10
369.2708454
 20
176.52094113
 10
369.31367457
 20
176.57196351
 10
369.35148374
 20
176.62692769
 10
369.3842679
 20
176.68583658
 10
369.41202207
 20
176.74869306
 10
369.43474124
 20
176.81550004
 10
369.4524204
 20
176.88626043
 10
369.46505457
 20
176.96097711
 10
369.47263874
 20
177.03965299
 10
369.4751679
 20
177.12229098
 10
369.4751679
 20
177.12229098
 10
369.47263874
 20
177.20712978
 10
369.46505457
 20
177.28795938
 10
369.4524204
 20
177.36476958
 10
369.43474124
 20
177.43755018
 10
369.41202207
 20
177.50629098
 10
369.3842679
 20
177.57098178
 10
369.35148374
 20
177.63161238
 10
369.31367457
 20
177.68817258
 10
369.2708454
 20
177.74065218
 10
369.22300124
 20
177.78904098
 10
369.22300124
 20
177.78904098
 10
369.17073129
 20
177.83317714
 10
369.11421164
 20
177.87275231
 10
369.05342759
 20
177.90774648
 10
368.98836444
 20
177.93813964
 10
368.91900749
 20
177.96391181
 10
368.84534204
 20
177.98504298
 10
368.76735339
 20
178.00151314
 10
368.68502684
 20
178.01330231
 10
368.59834769
 20
178.02039048
 10
368.50730124
 20
178.02275764
 10
368.50730124
 20
178.02275764
 10
367.99818457
 20
178.02275764
 10
367.99818457
 20
178.02275764
 10
367.99818457
 20
178.02275764
  0
HATCH
  5
354
100
AcDbEntity
  8
MST_1_1
 62
    12
100
AcDbHatch
 10
0.0
 20
0.0
 30
0.0
210
0.0
220
0.0
230
1.0
  2
SOLID
 70
     1
 71
     1
 91
        1
 92
        7
 72
     0
 73
     1
 93
       43
 10
367.99818457
 20
178.02275764
 10
367.99818457
 20
176.24770764
 10
368.50730124
 20
176.24770764
 10
368.59834769
 20
176.24997904
 10
368.68502684
 20
176.25678884
 10
368.76735339
 20
176.26813044
 10
368.84534204
 20
176.28399724
 10
368.91900749
 20
176.30438264
 10
368.98836444
 20
176.32928004
 10
369.05342759
 20
176.35868284
 10
369.11421164
 20
176.39258444
 10
369.17073129
 20
176.43097824
 10
369.22300124
 20
176.47385764
 10
369.2708454
 20
176.52094113
 10
369.31367457
 20
176.57196351
 10
369.35148374
 20
176.62692769
 10
369.3842679
 20
176.68583658
 10
369.41202207
 20
176.74869306
 10
369.43474124
 20
176.81550004
 10
369.4524204
 20
176.88626043
 10
369.46505457
 20
176.96097711
 10
369.47263874
 20
177.03965299
 10
369.4751679
 20
177.12229098
 10
369.47263874
 20
177.20712978
 10
369.46505457
 20
177.28795938
 10
369.4524204
 20
177.36476958
 10
369.43474124
 20
177.43755018
 10
369.41202207
 20
177.50629098
 10
369.3842679
 20
177.57098178
 10
369.35148374
 20
177.63161238
 10
369.31367457
 20
177.68817258
 10
369.2708454
 20
177.74065218
 10
369.22300124
 20
177.78904098
 10
369.17073129
 20
177.83317714
 10
369.11421164
 20
177.87275231
 10
369.05342759
 20
177.90774648
 10
368.98836444
 20
177.93813964
 10
368.91900749
 20
177.96391181
 10
368.84534204
 20
177.98504298
 10
368.76735339
 20
178.00151314
 10
368.68502684
 20
178.01330231
 10
368.59834769
 20
178.02039048
 10
368.50730124
 20
178.02275764
 97
        1
330
353
 75
     0
 76
     2
 47
0.775229
 98
        1
 10
0.0
 20
0.0
  0
LWPOLYLINE
  5
355
102
{ACAD_REACTORS
330
356
102
}
100
AcDbEntity
  8
MST_1_1
 62
   190
100
AcDbPolyline
 90
       56
 70
     1
 43
0.0
 10
355.79553457
 20
171.27487431
 10
355.79553457
 20
180.36139098
 10
355.79553457
 20
180.36139098
 10
359.70025124
 20
180.36139098
 10
359.70025124
 20
180.36139098
 10
360.10102739
 20
180.35344231
 10
360.47967844
 20
180.32959964
 10
360.83620829
 20
180.28986798
 10
361.17062084
 20
180.23425231
 10
361.48291999
 20
180.16275764
 10
361.77310964
 20
180.07538898
 10
362.04119369
 20
179.97215131
 10
362.28717604
 20
179.85304964
 10
362.51106059
 20
179.71808898
 10
362.71285124
 20
179.56727431
 10
362.71285124
 20
179.56727431
 10
362.89390644
 20
179.39891298
 10
363.05591084
 20
179.21202564
 10
363.19886264
 20
179.00659231
 10
363.32276004
 20
178.78259298
 10
363.42760124
 20
178.54000764
 10
363.51338444
 20
178.27881631
 10
363.58010784
 20
177.99899898
 10
363.62776964
 20
177.70053564
 10
363.65636804
 20
177.38340631
 10
363.66590124
 20
177.04759098
 10
363.66590124
 20
177.04759098
 10
363.65733134
 20
176.73459896
 10
363.63162804
 20
176.43893684
 10
363.58880094
 20
176.16061053
 10
363.52885964
 20
175.89962591
 10
363.45181374
 20
175.65598889
 10
363.35767284
 20
175.42970538
 10
363.24644654
 20
175.22078126
 10
363.11814444
 20
175.02922244
 10
362.97277614
 20
174.85503483
 10
362.81035124
 20
174.69822431
 10
362.81035124
 20
174.69822431
 10
362.62859857
 20
174.55766686
 10
362.4267959
 20
174.43185271
 10
362.20493624
 20
174.32079416
 10
361.96301257
 20
174.22450351
 10
361.7010179
 20
174.14299306
 10
361.41894524
 20
174.07627511
 10
361.11678757
 20
174.02436196
 10
360.7945379
 20
173.98726591
 10
360.45218924
 20
173.96499926
 10
360.08973457
 20
173.95757431
 10
360.08973457
 20
173.95757431
 10
359.06678457
 20
173.95757431
 10
359.06678457
 20
173.95757431
 10
359.06678457
 20
171.27487431
 10
359.06678457
 20
171.27487431
 10
355.79553457
 20
171.27487431
 10
355.79553457
 20
171.27487431
 10
355.79553457
 20
171.27487431
  0
HATCH
  5
356
100
AcDbEntity
  8
MST_1_1
 62
   190
100
AcDbHatch
 10
0.0
 20
0.0
 30
0.0
210
0.0
220
0.0
230
1.0
  2
SOLID
 70
     1
 71
     1
 91
        1
 92
        7
 72
     0
 73
     1
 93
       45
 10
355.79553457
 20
171.27487431
 10
355.79553457
 20
180.36139098
 10
359.70025124
 20
180.36139098
 10
360.10102739
 20
180.35344231
 10
360.47967844
 20
180.32959964
 10
360.83620829
 20
180.28986798
 10
361.17062084
 20
180.23425231
 10
361.48291999
 20
180.16275764
 10
361.77310964
 20
180.07538898
 10
362.04119369
 20
179.97215131
 10
362.28717604
 20
179.85304964
 10
362.51106059
 20
179.71808898
 10
362.71285124
 20
179.56727431
 10
362.89390644
 20
179.39891298
 10
363.05591084
 20
179.21202564
 10
363.19886264
 20
179.00659231
 10
363.32276004
 20
178.78259298
 10
363.42760124
 20
178.54000764
 10
363.51338444
 20
178.27881631
 10
363.58010784
 20
177.99899898
 10
363.62776964
 20
177.70053564
 10
363.65636804
 20
177.38340631
 10
363.66590124
 20
177.04759098
 10
363.65733134
 20
176.73459896
 10
363.63162804
 20
176.43893684
 10
363.58880094
 20
176.16061053
 10
363.52885964
 20
175.89962591
 10
363.45181374
 20
175.65598889
 10
363.35767284
 20
175.42970538
 10
363.24644654
 20
175.22078126
 10
363.11814444
 20
175.02922244
 10
362.97277614
 20
174.85503483
 10
362.81035124
 20
174.69822431
 10
362.62859857
 20
174.55766686
 10
362.4267959
 20
174.43185271
 10
362.20493624
 20
174.32079416
 10
361.96301257
 20
174.22450351
 10
361.7010179
 20
174.14299306
 10
361.41894524
 20
174.07627511
 10
361.11678757
 20
174.02436196
 10
360.7945379
 20
173.98726591
 10
360.45218924
 20
173.96499926
 10
360.08973457
 20
173.95757431
 10
359.06678457
 20
173.95757431
 10
359.06678457
 20
171.27487431
 97
        1
330
355
 75
     0
 76
     2
 47
0.775229
 98
        1
 10
0.0
 20
0.0
  0
LWPOLYLINE
  5
357
102
{ACAD_REACTORS
330
358
102
}
100
AcDbEntity
  8
MST_1_1
 62
    12
100
AcDbPolyline
 90
       52
 70
     1
 43
0.0
 10
359.07955124
 20
177.83584098
 10
359.07955124
 20
176.32127431
 10
359.07955124
 20
176.32127431
 10
359.58720124
 20
176.32127431
 10
359.58720124
 20
176.32127431
 10
359.67803935
 20
176.32324261
 10
359.76464417
 20
176.32914071
 10
359.84698639
 20
176.33895841
 10
359.9250367
 20
176.35268551
 10
359.99876582
 20
176.37031181
 10
360.06814444
 20
176.39182711
 10
360.13314325
 20
176.41722121
 10
360.19373297
 20
176.44648391
 10
360.24988429
 20
176.47960501
 10
360.3015679
 20
176.51657431
 10
360.3015679
 20
176.51657431
 10
360.34863665
 20
176.55739168
 10
360.3907699
 20
176.60147924
 10
360.42796315
 20
176.64884521
 10
360.4602119
 20
176.69949778
 10
360.48751165
 20
176.75344514
 10
360.5098579
 20
176.81069551
 10
360.52724615
 20
176.87125708
 10
360.5396719
 20
176.93513804
 10
360.54713065
 20
177.00234661
 10
360.5496179
 20
177.07289098
 10
360.5496179
 20
177.07289098
 10
360.54708414
 20
177.14314866
 10
360.53947577
 20
177.21026444
 10
360.5267822
 20
177.27424243
 10
360.50899284
 20
177.33508671
 10
360.48609707
 20
177.39280139
 10
360.4580843
 20
177.44739058
 10
360.42494394
 20
177.49885836
 10
360.38666537
 20
177.54720884
 10
360.343238
 20
177.59244613
 10
360.29465124
 20
177.63457431
 10
360.29465124
 20
177.63457431
 10
360.24190534
 20
177.67260573
 10
360.18518204
 20
177.70669964
 10
360.12447294
 20
177.73684056
 10
360.05976964
 20
177.76301298
 10
359.99106374
 20
177.78520139
 10
359.91834684
 20
177.80339031
 10
359.84161054
 20
177.81756423
 10
359.76084644
 20
177.82770764
 10
359.67604614
 20
177.83380506
 10
359.58720124
 20
177.83584098
 10
359.58720124
 20
177.83584098
 10
359.07955124
 20
177.83584098
 10
359.07955124
 20
177.83584098
 10
359.07955124
 20
177.83584098
  0
HATCH
  5
358
100
AcDbEntity
  8
MST_1_1
 62
    12
100
AcDbHatch
 10
0.0
 20
0.0
 30
0.0
210
0.0
220
0.0
230
1.0
  2
SOLID
 70
     1
 71
     1
 91
        1
 92
        7
 72
     0
 73
     1
 93
       43
 10
359.07955124
 20
177.83584098
 10
359.07955124
 20
176.32127431
 10
359.58720124
 20
176.32127431
 10
359.67803935
 20
176.32324261
 10
359.76464417
 20
176.32914071
 10
359.84698639
 20
176.33895841
 10
359.9250367
 20
176.35268551
 10
359.99876582
 20
176.37031181
 10
360.06814444
 20
176.39182711
 10
360.13314325
 20
176.41722121
 10
360.19373297
 20
176.44648391
 10
360.24988429
 20
176.47960501
 10
360.3015679
 20
176.51657431
 10
360.34863665
 20
176.55739168
 10
360.3907699
 20
176.60147924
 10
360.42796315
 20
176.64884521
 10
360.4602119
 20
176.69949778
 10
360.48751165
 20
176.75344514
 10
360.5098579
 20
176.81069551
 10
360.52724615
 20
176.87125708
 10
360.5396719
 20
176.93513804
 10
360.54713065
 20
177.00234661
 10
360.5496179
 20
177.07289098
 10
360.54708414
 20
177.14314866
 10
360.53947577
 20
177.21026444
 10
360.5267822
 20
177.27424243
 10
360.50899284
 20
177.33508671
 10
360.48609707
 20
177.39280139
 10
360.4580843
 20
177.44739058
 10
360.42494394
 20
177.49885836
 10
360.38666537
 20
177.54720884
 10
360.343238
 20
177.59244613
 10
360.29465124
 20
177.63457431
 10
360.24190534
 20
177.67260573
 10
360.18518204
 20
177.70669964
 10
360.12447294
 20
177.73684056
 10
360.05976964
 20
177.76301298
 10
359.99106374
 20
177.78520139
 10
359.91834684
 20
177.80339031
 10
359.84161054
 20
177.81756423
 10
359.76084644
 20
177.82770764
 10
359.67604614
 20
177.83380506
 10
359.58720124
 20
177.83584098
 97
        1
330
357
 75
     0
 76
     2
 47
0.775229
 98
        1
 10
0.0
 20
0.0
  0
LWPOLYLINE
  5
359
102
{ACAD_REACTORS
330
35A
102
}
100
AcDbEntity
  8
MST_1_1
 62
    12
100
AcDbPolyline
 90
       10
 70
     1
 43
0.0
 10
396.84200124
 20
171.27487431
 10
396.84200124
 20
180.36139098
 10
396.84200124
 20
180.36139098
 10
401.30983457
 20
180.36139098
 10
401.30983457
 20
180.36139098
 10
401.30983457
 20
171.27487431
 10
401.30983457
 20
171.27487431
 10
396.84200124
 20
171.27487431
 10
396.84200124
 20
171.27487431
 10
396.84200124
 20
171.27487431
  0
HATCH
  5
35A
100
AcDbEntity
  8
MST_1_1
 62
    12
100
AcDbHatch
 10
0.0
 20
0.0
 30
0.0
210
0.0
220
0.0
230
1.0
  2
SOLID
 70
     1
 71
     1
 91
        1
 92
        7
 72
     0
 73
     1
 93
        4
 10
396.84200124
 20
171.27487431
 10
396.84200124
 20
180.36139098
 10
401.30983457
 20
180.36139098
 10
401.30983457
 20
171.27487431
 97
        1
330
359
 75
     0
 76
     2
 47
0.775229
 98
        1
 10
0.0
 20
0.0
  0
LWPOLYLINE
  5
35B
102
{ACAD_REACTORS
330
35C
102
}
100
AcDbEntity
  8
MST_1_1
 62
    12
100
AcDbPolyline
 90
      114
 70
     1
 43
0.0
 10
409.0591679
 20
173.33599098
 10
409.0248139
 20
173.39080933
 10
408.9922559
 20
173.44335978
 10
408.9614999
 20
173.49366543
 10
408.9325519
 20
173.54174938
 10
408.9054179
 20
173.58763473
 10
408.8801039
 20
173.63134458
 10
408.8566159
 20
173.67290203
 10
408.8349599
 20
173.71233018
 10
408.8151419
 20
173.74965213
 10
408.7971679
 20
173.78489098
 10
408.7971679
 20
173.78489098
 10
408.77986524
 20
173.81884214
 10
408.76354657
 20
173.85205231
 10
408.7481959
 20
173.88453148
 10
408.73379724
 20
173.91628964
 10
408.72033457
 20
173.94733681
 10
408.7077919
 20
173.97768298
 10
408.69615324
 20
174.00733814
 10
408.68540257
 20
174.03631231
 10
408.6755239
 20
174.06461548
 10
408.66650124
 20
174.09225764
 10
408.66650124
 20
174.09225764
 10
408.6588369
 20
174.06605366
 10
408.65040657
 20
174.03928978
 10
408.64115424
 20
174.01196309
 10
408.6310239
 20
173.98407071
 10
408.61995957
 20
173.95560973
 10
408.60790524
 20
173.92657724
 10
408.5948049
 20
173.89697036
 10
408.58060257
 20
173.86678618
 10
408.56524224
 20
173.83602179
 10
408.5486679
 20
173.80467431
 10
408.5486679
 20
173.80467431
 10
408.53133157
 20
173.77126833
 10
408.51133724
 20
173.73483044
 10
408.4887069
 20
173.69537576
 10
408.46346257
 20
173.65291938
 10
408.43562624
 20
173.60747639
 10
408.4052199
 20
173.55906191
 10
408.37226557
 20
173.50769103
 10
408.33678524
 20
173.45337884
 10
408.2988009
 20
173.39614046
 10
408.25833457
 20
173.33599098
 10
408.25833457
 20
173.33599098
 10
406.8686679
 20
171.27487431
 10
406.8686679
 20
171.27487431
 10
401.84100124
 20
171.27487431
 10
401.84100124
 20
171.27487431
 10
406.18383457
 20
176.11489098
 10
406.18383457
 20
176.11489098
 10
402.35183457
 20
180.36139098
 10
402.35183457
 20
180.36139098
 10
407.37133457
 20
180.36139098
 10
407.37133457
 20
180.36139098
 10
408.2746679
 20
178.87830764
 10
408.2746679
 20
178.87830764
 10
408.2774939
 20
178.87279456
 10
408.2808559
 20
178.86669698
 10
408.2847299
 20
178.86001739
 10
408.2890919
 20
178.85275831
 10
408.2939179
 20
178.84492223
 10
408.2991839
 20
178.83651164
 10
408.3048659
 20
178.82752906
 10
408.3109399
 20
178.81797698
 10
408.3173819
 20
178.80785789
 10
408.3241679
 20
178.79717431
 10
408.3241679
 20
178.79717431
 10
408.37290324
 20
178.71452139
 10
408.41841057
 20
178.63527298
 10
408.4606919
 20
178.55944456
 10
408.49974924
 20
178.48705164
 10
408.53558457
 20
178.41810973
 10
408.5681999
 20
178.35263431
 10
408.59759724
 20
178.29064089
 10
408.62377857
 20
178.23214498
 10
408.6467459
 20
178.17716206
 10
408.66650124
 20
178.12570764
 10
408.66650124
 20
178.12570764
 10
408.6786149
 20
178.15835094
 10
408.69127057
 20
178.19110004
 10
408.70449024
 20
178.22396874
 10
408.7182959
 20
178.25697084
 10
408.73270957
 20
178.29012014
 10
408.74775324
 20
178.32343044
 10
408.7634489
 20
178.35691554
 10
408.77981857
 20
178.39058924
 10
408.79688424
 20
178.42446534
 10
408.8146679
 20
178.45855764
 10
408.8146679
 20
178.45855764
 10
408.83195424
 20
178.49363999
 10
408.85057857
 20
178.53028044
 10
408.8704889
 20
178.56846909
 10
408.89163324
 20
178.60819604
 10
408.91395957
 20
178.64945139
 10
408.9374159
 20
178.69222524
 10
408.96195024
 20
178.73650769
 10
408.98751057
 20
178.78228884
 10
409.0140449
 20
178.82955879
 10
409.04150124
 20
178.87830764
 10
409.04150124
 20
178.87830764
 10
409.96900124
 20
180.36139098
 10
409.96900124
 20
180.36139098
 10
414.9656679
 20
180.36139098
 10
414.9656679
 20
180.36139098
 10
411.14633457
 20
176.11489098
 10
411.14633457
 20
176.11489098
 10
415.49400124
 20
171.27487431
 10
415.49400124
 20
171.27487431
 10
410.46183457
 20
171.27487431
 10
410.46183457
 20
171.27487431
 10
409.0591679
 20
173.33599098
 10
409.0591679
 20
173.33599098
 10
409.0591679
 20
173.33599098
  0
HATCH
  5
35C
100
AcDbEntity
  8
MST_1_1
 62
    12
100
AcDbHatch
 10
0.0
 20
0.0
 30
0.0
210
0.0
220
0.0
230
1.0
  2
SOLID
 70
     1
 71
     1
 91
        1
 92
        7
 72
     0
 73
     1
 93
       92
 10
409.0591679
 20
173.33599098
 10
409.0248139
 20
173.39080933
 10
408.9922559
 20
173.44335978
 10
408.9614999
 20
173.49366543
 10
408.9325519
 20
173.54174938
 10
408.9054179
 20
173.58763473
 10
408.8801039
 20
173.63134458
 10
408.8566159
 20
173.67290203
 10
408.8349599
 20
173.71233018
 10
408.8151419
 20
173.74965213
 10
408.7971679
 20
173.78489098
 10
408.77986524
 20
173.81884214
 10
408.76354657
 20
173.85205231
 10
408.7481959
 20
173.88453148
 10
408.73379724
 20
173.91628964
 10
408.72033457
 20
173.94733681
 10
408.7077919
 20
173.97768298
 10
408.69615324
 20
174.00733814
 10
408.68540257
 20
174.03631231
 10
408.6755239
 20
174.06461548
 10
408.66650124
 20
174.09225764
 10
408.6588369
 20
174.06605366
 10
408.65040657
 20
174.03928978
 10
408.64115424
 20
174.01196309
 10
408.6310239
 20
173.98407071
 10
408.61995957
 20
173.95560973
 10
408.60790524
 20
173.92657724
 10
408.5948049
 20
173.89697036
 10
408.58060257
 20
173.86678618
 10
408.56524224
 20
173.83602179
 10
408.5486679
 20
173.80467431
 10
408.53133157
 20
173.77126833
 10
408.51133724
 20
173.73483044
 10
408.4887069
 20
173.69537576
 10
408.46346257
 20
173.65291938
 10
408.43562624
 20
173.60747639
 10
408.4052199
 20
173.55906191
 10
408.37226557
 20
173.50769103
 10
408.33678524
 20
173.45337884
 10
408.2988009
 20
173.39614046
 10
408.25833457
 20
173.33599098
 10
406.8686679
 20
171.27487431
 10
401.84100124
 20
171.27487431
 10
406.18383457
 20
176.11489098
 10
402.35183457
 20
180.36139098
 10
407.37133457
 20
180.36139098
 10
408.2746679
 20
178.87830764
 10
408.2774939
 20
178.87279456
 10
408.2808559
 20
178.86669698
 10
408.2847299
 20
178.86001739
 10
408.2890919
 20
178.85275831
 10
408.2939179
 20
178.84492223
 10
408.2991839
 20
178.83651164
 10
408.3048659
 20
178.82752906
 10
408.3109399
 20
178.81797698
 10
408.3173819
 20
178.80785789
 10
408.3241679
 20
178.79717431
 10
408.37290324
 20
178.71452139
 10
408.41841057
 20
178.63527298
 10
408.4606919
 20
178.55944456
 10
408.49974924
 20
178.48705164
 10
408.53558457
 20
178.41810973
 10
408.5681999
 20
178.35263431
 10
408.59759724
 20
178.29064089
 10
408.62377857
 20
178.23214498
 10
408.6467459
 20
178.17716206
 10
408.66650124
 20
178.12570764
 10
408.6786149
 20
178.15835094
 10
408.69127057
 20
178.19110004
 10
408.70449024
 20
178.22396874
 10
408.7182959
 20
178.25697084
 10
408.73270957
 20
178.29012014
 10
408.74775324
 20
178.32343044
 10
408.7634489
 20
178.35691554
 10
408.77981857
 20
178.39058924
 10
408.79688424
 20
178.42446534
 10
408.8146679
 20
178.45855764
 10
408.83195424
 20
178.49363999
 10
408.85057857
 20
178.53028044
 10
408.8704889
 20
178.56846909
 10
408.89163324
 20
178.60819604
 10
408.91395957
 20
178.64945139
 10
408.9374159
 20
178.69222524
 10
408.96195024
 20
178.73650769
 10
408.98751057
 20
178.78228884
 10
409.0140449
 20
178.82955879
 10
409.04150124
 20
178.87830764
 10
409.96900124
 20
180.36139098
 10
414.9656679
 20
180.36139098
 10
411.14633457
 20
176.11489098
 10
415.49400124
 20
171.27487431
 10
410.46183457
 20
171.27487431
 97
        1
330
35B
 75
     0
 76
     2
 47
0.775229
 98
        1
 10
0.0
 20
0.0
  0
LWPOLYLINE
  5
35D
102
{ACAD_REACTORS
330
35E
102
}
100
AcDbEntity
  8
MST_1_1
 62
     7
100
AcDbPolyline
 90
       46
 70
     1
 43
0.0
 10
419.8091679
 20
186.48744098
 10
419.9216984
 20
186.47832748
 10
420.0286119
 20
186.45195298
 10
420.1284414
 20
186.40976648
 10
420.2197199
 20
186.35321698
 10
420.3009804
 20
186.28375348
 10
420.3707559
 20
186.20282498
 10
420.4275794
 20
186.11188048
 10
420.4699839
 20
186.01236898
 10
420.4965024
 20
185.90573948
 10
420.5056679
 20
185.79344098
 10
420.5056679
 20
185.79344098
 10
420.4965024
 20
185.68128731
 10
420.4699839
 20
185.57479164
 10
420.4275794
 20
185.47540198
 10
420.3707559
 20
185.38456631
 10
420.3009804
 20
185.30373264
 10
420.2197199
 20
185.23434898
 10
420.1284414
 20
185.17786331
 10
420.0286119
 20
185.13572364
 10
419.9216984
 20
185.10937798
 10
419.8091679
 20
185.10027431
 10
419.8091679
 20
185.10027431
 10
419.69604707
 20
185.10937798
 10
419.58874124
 20
185.13572364
 10
419.4886854
 20
185.17786331
 10
419.39731457
 20
185.23434898
 10
419.31606374
 20
185.30373264
 10
419.2463679
 20
185.38456631
 10
419.18966207
 20
185.47540198
 10
419.14738124
 20
185.57479164
 10
419.1209604
 20
185.68128731
 10
419.11183457
 20
185.79344098
 10
419.11183457
 20
185.79344098
 10
419.1209604
 20
185.90573948
 10
419.14738124
 20
186.01236898
 10
419.18966207
 20
186.11188048
 10
419.2463679
 20
186.20282498
 10
419.31606374
 20
186.28375348
 10
419.39731457
 20
186.35321698
 10
419.4886854
 20
186.40976648
 10
419.58874124
 20
186.45195298
 10
419.69604707
 20
186.47832748
 10
419.8091679
 20
186.48744098
 10
419.8091679
 20
186.48744098
 10
419.8091679
 20
186.48744098
  0
HATCH
  5
35E
100
AcDbEntity
  8
MST_1_1
 62
     7
100
AcDbHatch
 10
0.0
 20
0.0
 30
0.0
210
0.0
220
0.0
230
1.0
  2
SOLID
 70
     1
 71
     1
 91
        1
 92
        7
 72
     0
 73
     1
 93
       40
 10
419.8091679
 20
186.48744098
 10
419.9216984
 20
186.47832748
 10
420.0286119
 20
186.45195298
 10
420.1284414
 20
186.40976648
 10
420.2197199
 20
186.35321698
 10
420.3009804
 20
186.28375348
 10
420.3707559
 20
186.20282498
 10
420.4275794
 20
186.11188048
 10
420.4699839
 20
186.01236898
 10
420.4965024
 20
185.90573948
 10
420.5056679
 20
185.79344098
 10
420.4965024
 20
185.68128731
 10
420.4699839
 20
185.57479164
 10
420.4275794
 20
185.47540198
 10
420.3707559
 20
185.38456631
 10
420.3009804
 20
185.30373264
 10
420.2197199
 20
185.23434898
 10
420.1284414
 20
185.17786331
 10
420.0286119
 20
185.13572364
 10
419.9216984
 20
185.10937798
 10
419.8091679
 20
185.10027431
 10
419.69604707
 20
185.10937798
 10
419.58874124
 20
185.13572364
 10
419.4886854
 20
185.17786331
 10
419.39731457
 20
185.23434898
 10
419.31606374
 20
185.30373264
 10
419.2463679
 20
185.38456631
 10
419.18966207
 20
185.47540198
 10
419.14738124
 20
185.57479164
 10
419.1209604
 20
185.68128731
 10
419.11183457
 20
185.79344098
 10
419.1209604
 20
185.90573948
 10
419.14738124
 20
186.01236898
 10
419.18966207
 20
186.11188048
 10
419.2463679
 20
186.20282498
 10
419.31606374
 20
186.28375348
 10
419.39731457
 20
186.35321698
 10
419.4886854
 20
186.40976648
 10
419.58874124
 20
186.45195298
 10
419.69604707
 20
186.47832748
 97
        1
330
35D
 75
     0
 76
     2
 47
0.775229
 98
        1
 10
0.0
 20
0.0
  0
LWPOLYLINE
  5
35F
102
{ACAD_REACTORS
330
360
102
}
100
AcDbEntity
  8
MST_1_1
 62
    12
100
AcDbPolyline
 90
       29
 70
     1
 43
0.0
 10
419.48950124
 20
186.27544098
 10
419.48950124
 20
185.36877431
 10
419.48950124
 20
185.36877431
 10
419.6236679
 20
185.36877431
 10
419.6236679
 20
185.36877431
 10
419.6236679
 20
185.77577431
 10
419.6236679
 20
185.77577431
 10
419.80200124
 20
185.77577431
 10
419.80200124
 20
185.77577431
 10
420.06133457
 20
185.37477431
 10
420.06133457
 20
185.37477431
 10
420.19750124
 20
185.37477431
 10
420.19750124
 20
185.37477431
 10
419.9386679
 20
185.78310764
 10
419.9386679
 20
185.78310764
 10
420.0272549
 20
185.80152931
 10
420.0969239
 20
185.84168098
 10
420.1473869
 20
185.89799264
 10
420.1783559
 20
185.96489431
 10
420.1895429
 20
186.03681598
 10
420.1806599
 20
186.10818764
 10
420.1514189
 20
186.17343931
 10
420.1015319
 20
186.22700098
 10
420.0307109
 20
186.26330264
 10
419.9386679
 20
186.27677431
 10
419.9386679
 20
186.27677431
 10
419.48950124
 20
186.27544098
 10
419.48950124
 20
186.27544098
 10
419.48950124
 20
186.27544098
  0
HATCH
  5
360
100
AcDbEntity
  8
MST_1_1
 62
    12
100
AcDbHatch
 10
0.0
 20
0.0
 30
0.0
210
0.0
220
0.0
230
1.0
  2
SOLID
 70
     1
 71
     1
 91
        1
 92
        7
 72
     0
 73
     1
 93
       18
 10
419.48950124
 20
186.27544098
 10
419.48950124
 20
185.36877431
 10
419.6236679
 20
185.36877431
 10
419.6236679
 20
185.77577431
 10
419.80200124
 20
185.77577431
 10
420.06133457
 20
185.37477431
 10
420.19750124
 20
185.37477431
 10
419.9386679
 20
185.78310764
 10
420.0272549
 20
185.80152931
 10
420.0969239
 20
185.84168098
 10
420.1473869
 20
185.89799264
 10
420.1783559
 20
185.96489431
 10
420.1895429
 20
186.03681598
 10
420.1806599
 20
186.10818764
 10
420.1514189
 20
186.17343931
 10
420.1015319
 20
186.22700098
 10
420.0307109
 20
186.26330264
 10
419.9386679
 20
186.27677431
 97
        1
330
35F
 75
     0
 76
     2
 47
0.775229
 98
        1
 10
0.0
 20
0.0
  0
LWPOLYLINE
  5
361
102
{ACAD_REACTORS
330
362
102
}
100
AcDbEntity
  8
MST_1_1
 62
     7
100
AcDbPolyline
 90
       19
 70
     1
 43
0.0
 10
419.6236679
 20
186.17227431
 10
419.6236679
 20
185.88160764
 10
419.6236679
 20
185.88160764
 10
419.92500124
 20
185.88244098
 10
419.92500124
 20
185.88244098
 10
419.97797974
 20
185.89429131
 10
420.01944924
 20
185.91866364
 10
420.04931074
 20
185.95228998
 10
420.06746524
 20
185.99190231
 10
420.07381374
 20
186.03423264
 10
420.06825724
 20
186.07601298
 10
420.05069674
 20
186.11397531
 10
420.02103324
 20
186.14485164
 10
419.97916774
 20
186.16537398
 10
419.92500124
 20
186.17227431
 10
419.92500124
 20
186.17227431
 10
419.6236679
 20
186.17227431
 10
419.6236679
 20
186.17227431
 10
419.6236679
 20
186.17227431
  0
HATCH
  5
362
100
AcDbEntity
  8
MST_1_1
 62
     7
100
AcDbHatch
 10
0.0
 20
0.0
 30
0.0
210
0.0
220
0.0
230
1.0
  2
SOLID
 70
     1
 71
     1
 91
        1
 92
        7
 72
     0
 73
     1
 93
       13
 10
419.6236679
 20
186.17227431
 10
419.6236679
 20
185.88160764
 10
419.92500124
 20
185.88244098
 10
419.97797974
 20
185.89429131
 10
420.01944924
 20
185.91866364
 10
420.04931074
 20
185.95228998
 10
420.06746524
 20
185.99190231
 10
420.07381374
 20
186.03423264
 10
420.06825724
 20
186.07601298
 10
420.05069674
 20
186.11397531
 10
420.02103324
 20
186.14485164
 10
419.97916774
 20
186.16537398
 10
419.92500124
 20
186.17227431
 97
        1
330
361
 75
     0
 76
     2
 47
0.775229
 98
        1
 10
0.0
 20
0.0
  0
TEXT
  5
363
100
AcDbEntity
  8
MST_1_1
 62
     7
100
AcDbText
 10
42.93749597
 20
28.54545025
 30
0.0
 40
5.0
  1
40
  7
ARIAL
 50
89.9999975
 41
0.8
 51
0.0
100
AcDbText
  0
TEXT
  5
364
100
AcDbEntity
  8
MST_1_1
 62
     7
100
AcDbText
 10
37.93749597
 20
18.54545025
 30
0.0
 40
5.0
  1
35
  7
ARIAL
 50
89.9999975
 41
0.8
 51
0.0
100
AcDbText
  0
TEXT
  5
365
100
AcDbEntity
  8
MST_1_1
 62
     7
100
AcDbText
 10
32.93749597
 20
28.54545025
 30
0.0
 40
5.0
  1
30
  7
ARIAL
 50
89.9999975
 41
0.8
 51
0.0
100
AcDbText
  0
TEXT
  5
366
100
AcDbEntity
  8
MST_1_1
 62
     7
100
AcDbText
 10
27.93749597
 20
18.54545025
 30
0.0
 40
5.0
  1
25
  7
ARIAL
 50
89.9999975
 41
0.8
 51
0.0
100
AcDbText
  0
TEXT
  5
367
100
AcDbEntity
  8
MST_1_1
 62
     7
100
AcDbText
 10
18.93749597
 20
18.54545025
 30
0.0
 40
5.0
  1
16
  7
ARIAL
 50
89.9999975
 41
0.8
 51
0.0
100
AcDbText
  0
TEXT
  5
368
100
AcDbEntity
  8
MST_1_1
 62
     7
100
AcDbText
 10
14.93749597
 20
28.54545025
 30
0.0
 40
5.0
  1
12
  7
ARIAL
 50
89.9999975
 41
0.8
 51
0.0
100
AcDbText
  0
TEXT
  5
369
100
AcDbEntity
  8
MST_1_1
 62
     7
100
AcDbText
 10
-78.39621808
 20
6.04545025
 30
0.0
 40
5.0
  1
HECO-FIX-plus LSK 4.0x12
  7
ARIAL
 50
0.0
 41
0.8
 51
0.0
100
AcDbText
  0
TEXT
  5
36A
100
AcDbEntity
  8
MST_1_1
 62
     7
100
AcDbText
 10
-78.39621808
 20
-23.95454975
 30
0.0
 40
5.0
  1
HECO-FIX-plus LSK 4.0x16
  7
ARIAL
 50
0.0
 41
0.8
 51
0.0
100
AcDbText
  0
TEXT
  5
36B
100
AcDbEntity
  8
MST_1_1
 62
     7
100
AcDbText
 10
-78.39621808
 20
-53.95454975
 30
0.0
 40
5.0
  1
HECO-FIX-plus LSK 4.0x25
  7
ARIAL
 50
0.0
 41
0.8
 51
0.0
100
AcDbText
  0
TEXT
  5
36C
100
AcDbEntity
  8
MST_1_1
 62
     7
100
AcDbText
 10
-78.39621808
 20
-83.95454975
 30
0.0
 40
5.0
  1
HECO-FIX-plus LSK 4.0x30
  7
ARIAL
 50
0.0
 41
0.8
 51
0.0
100
AcDbText
  0
TEXT
  5
36D
100
AcDbEntity
  8
MST_1_1
 62
     7
100
AcDbText
 10
-78.39621808
 20
-113.95454975
 30
0.0
 40
5.0
  1
HECO-FIX-plus LSK 4.0x35
  7
ARIAL
 50
0.0
 41
0.8
 51
0.0
100
AcDbText
  0
TEXT
  5
36E
100
AcDbEntity
  8
MST_1_1
 62
     7
100
AcDbText
 10
-78.39621808
 20
-143.95454975
 30
0.0
 40
5.0
  1
HECO-FIX-plus LSK 4.0x40
  7
ARIAL
 50
0.0
 41
0.8
 51
0.0
100
AcDbText
  0
TEXT
  5
36F
100
AcDbEntity
  8
MST_1_1
 62
     7
100
AcDbText
 10
-78.39621808
 20
-173.95454975
 30
0.0
 40
5.0
  1
HECO-FIX-plus LSK 4.0x45
  7
ARIAL
 50
0.0
 41
0.8
 51
0.0
100
AcDbText
  0
TEXT
  5
370
100
AcDbEntity
  8
MST_1_1
 62
     7
100
AcDbText
 10
47.93749597
 20
18.54545025
 30
0.0
 40
5.0
  1
45
  7
ARIAL
 50
89.9999975
 41
0.8
 51
0.0
100
AcDbText
  0
TEXT
  5
371
100
AcDbEntity
  8
MST_1_1
 62
     7
100
AcDbText
 10
-126.761272
 20
6.04545025
 30
0.0
 40
5.0
  1
T-Drive T15
  7
ARIAL
 50
0.0
 41
0.8
 51
0.0
100
AcDbText
  0
TEXT
  5
372
100
AcDbEntity
  8
MST_1_1
 62
     7
100
AcDbText
 10
-126.761272
 20
-23.95454975
 30
0.0
 40
5.0
  1
T-Drive T15
  7
ARIAL
 50
0.0
 41
0.8
 51
0.0
100
AcDbText
  0
TEXT
  5
373
100
AcDbEntity
  8
MST_1_1
 62
     7
100
AcDbText
 10
-126.761272
 20
-53.95454975
 30
0.0
 40
5.0
  1
T-Drive T15
  7
ARIAL
 50
0.0
 41
0.8
 51
0.0
100
AcDbText
  0
TEXT
  5
374
100
AcDbEntity
  8
MST_1_1
 62
     7
100
AcDbText
 10
-126.761272
 20
-83.95454975
 30
0.0
 40
5.0
  1
T-Drive T15
  7
ARIAL
 50
0.0
 41
0.8
 51
0.0
100
AcDbText
  0
TEXT
  5
375
100
AcDbEntity
  8
MST_1_1
 62
     7
100
AcDbText
 10
-126.761272
 20
-113.95454975
 30
0.0
 40
5.0
  1
T-Drive T15
  7
ARIAL
 50
0.0
 41
0.8
 51
0.0
100
AcDbText
  0
TEXT
  5
376
100
AcDbEntity
  8
MST_1_1
 62
     7
100
AcDbText
 10
-126.761272
 20
-143.95454975
 30
0.0
 40
5.0
  1
T-Drive T15
  7
ARIAL
 50
0.0
 41
0.8
 51
0.0
100
AcDbText
  0
TEXT
  5
377
100
AcDbEntity
  8
MST_1_1
 62
     7
100
AcDbText
 10
-126.761272
 20
-173.95454975
 30
0.0
 40
5.0
  1
T-Drive T15
  7
ARIAL
 50
0.0
 41
0.8
 51
0.0
100
AcDbText
  0
ENDSEC
  0
SECTION
  2
OBJECTS
  0
DICTIONARY
  5
1
100
AcDbDictionary
  3
ACAD_GROUP
350
2
  3
ACAD_MLINESTYLE
350
3
  0
DICTIONARY
  5
2
102
{CDWK_REACTORS
330
1
102
}
100
AcDbDictionary
  0
DICTIONARY
  5
3
102
{CDWK_REACTORS
330
1
102
}
100
AcDbDictionary
  3
STANDARD
350
4
  0
MLINESTYLE
  5
4
102
{CDWK_REACTORS
330
3
102
}
100
AcDbMlineStyle
  2
STANDARD
 70
     0
  3

 62
     0
 51
90.0
 52
90.0
 71
     2
 49
0.5
 62
   256
  6
BYLAYER
 49
-0.5
 62
   256
  6
BYLAYER
  0
ENDSEC
  0
EOF
