  0
SECTION
  2
HEADER
  9
$ACADVER
  1
AC1012
  9
$DWGCODEPAGE
  3
ANSI_1252
  9
$INSBASE
 10
0.0
 20
0.0
 30
0.0
  9
$EXTMIN
 10
-141.03739038
 20
-399.41560461
  9
$EXTMAX
 10
285.46462905
 20
187.29529521
  9
$LIMMIN
 10
-141.03739038
 20
-399.41560461
  9
$LIMMAX
 10
285.46462905
 20
187.29529521
  9
$ORTHOMODE
 70
     0
  9
$REGENMODE
 70
     1
  9
$FILLMODE
 70
     1
  9
$QTEXTMODE
 70
     0
  9
$MIRRTEXT
 70
     1
  9
$DRAGMODE
 70
     2
  9
$LTSCALE
 40
1.0
  9
$OSMODE
 70
     0
  9
$ATTMODE
 70
     1
  9
$TEXTSIZE
 40
3.5
  9
$TRACEWID
 40
1.0
  9
$TEXTSTYLE
  7
STANDARD
  9
$CLAYER
  8
0
  9
$CELTYPE
  6
BYLAYER
  9
$CECOLOR
 62
   256
  9
$DIMSCALE
 40
1.0
  9
$DIMASZ
 40
2.0
  9
$DIMEXO
 40
5.0
  9
$DIMDLI
 40
10.0
  9
$DIMRND
 40
0.0
  9
$DIMDLE
 40
2.0
  9
$DIMEXE
 40
2.0
  9
$DIMTP
 40
0.0
  9
$DIMTM
 40
0.0
  9
$DIMTXT
 40
2.5
  9
$DIMCEN
 40
1.5
  9
$DIMTSZ
 40
0.0
  9
$DIMTOL
 70
     0
  9
$DIMLIM
 70
     0
  9
$DIMTIH
 70
     1
  9
$DIMTOH
 70
     0
  9
$DIMSE1
 70
     0
  9
$DIMSE2
 70
     0
  9
$DIMTAD
 70
     1
  9
$DIMZIN
 70
     8
  9
$DIMBLK
  1

  9
$DIMASO
 70
     1
  9
$DIMSHO
 70
     1
  9
$DIMPOST
  1

  9
$DIMAPOST
  1

  9
$DIMALT
 70
     0
  9
$DIMALTD
 70
     2
  9
$DIMALTF
 40
25.4
  9
$DIMLFAC
 40
1.0
  9
$DIMTOFL
 70
     0
  9
$DIMTVP
 40
0.0
  9
$DIMTIX
 70
     0
  9
$DIMSOXD
 70
     0
  9
$DIMSAH
 70
     0
  9
$DIMBLK1
  1

  9
$DIMBLK2
  1

  9
$DIMSTYLE
  2
*UNNAMED
  9
$DIMCLRD
 70
     9
  9
$DIMCLRE
 70
     9
  9
$DIMCLRT
 70
     7
  9
$DIMTFAC
 40
1.0
  9
$DIMGAP
 40
0.09
  9
$DIMUNIT
 70
     2
  9
$LUNITS
 70
     2
  9
$LUPREC
 70
     6
  9
$AXISMODE
 70
     0
  9
$AXISUNIT
 10
0.0
 20
0.0
  9
$SKETCHINC
 40
0.1
  9
$FILLETRAD
 40
0.0
  9
$AUNITS
 70
     0
  9
$AUPREC
 70
     0
  9
$MENU
  1
ACAD
  9
$ELEVATION
 40
0.0
  9
$PELEVATION
 40
0.0
  9
$THICKNESS
 40
0.0
  9
$LIMCHECK
 70
     0
  9
$BLIPMODE
 70
     1
  9
$CHAMFERA
 40
0.0
  9
$CHAMFERB
 40
0.0
  9
$SKPOLY
 70
     1
  9
$TDCREATE
 40
2456119.0000000000
  9
$TDUPDATE
 40
2456119.0000000000
  9
$TDINDWG
 40
0.0
  9
$TDUSRTIMER
 40
0.0
  9
$USRTIMER
 70
     1
  9
$ANGBASE
 50
0.0
  9
$ANGDIR
 70
     0
  9
$PDMODE
 70
     0
  9
$PDSIZE
 40
0.0
  9
$PLINEWID
 40
0.0
  9
$COORDS
 70
     2
  9
$SPLFRAME
 70
     0
  9
$SPLINETYPE
 70
     6
  9
$SPLINESEGS
 70
     8
  9
$ATTDIA
 70
     1
  9
$ATTREQ
 70
     1
  9
$HANDLING
 70
     1
  9
$HANDSEED
  5
     3F2
  9
$SURFTAB1
 70
     6
  9
$SURFTAB2
 70
     6
  9
$SURFTYPE
 70
     6
  9
$SURFU
 70
     6
  9
$SURFV
 70
     6
  9
$UCSNAME
  2

  9
$UCSORG
 10
0.0
 20
0.0
 30
0.0
  9
$UCSXDIR
 10
1.0
 20
0.0
 30
0.0
  9
$UCSYDIR
 10
0.0
 20
1.0
 30
0.0
  9
$PUCSNAME
  2

  9
$PUCSORG
 10
0.0
 20
0.0
 30
0.0
  9
$PUCSXDIR
 10
1.0
 20
0.0
 30
0.0
  9
$PUCSYDIR
 10
0.0
 20
1.0
 30
0.0
  9
$USERI1
 70
     0
  9
$USERI2
 70
     0
  9
$USERI3
 70
     0
  9
$USERI4
 70
     0
  9
$USERI5
 70
     0
  9
$USERR1
 40
0.0
  9
$USERR2
 40
0.0
  9
$USERR3
 40
0.0
  9
$USERR4
 40
0.0
  9
$USERR5
 40
0.0
  9
$WORLDVIEW
 70
     1
  9
$SHADEDGE
 70
     3
  9
$SHADEDIF
 70
    70
  9
$TILEMODE
 70
     1
  9
$MAXACTVP
 70
    16
  9
$PINSBASE
 10
0.0
 20
0.0
 30
0.0
  9
$PLIMCHECK
 70
     0
  9
$PEXTMIN
 10
1.0000000000000E+20
 20
1.0000000000000E+20
 30
1.0000000000000E+20
  9
$PEXTMAX
 10
-1.0000000000000E+20
 20
-1.0000000000000E+20
 30
-1.0000000000000E+20
  9
$PLIMMIN
 10
0.0
 20
0.0
  9
$UNITMODE
 70
     0
  9
$VISRETAIN
 70
     0
  9
$MEASUREMENT
 70
     1
  0
ENDSEC
  0
SECTION
  2
TABLES
  0
TABLE
  2
VPORT
  5
36
100
AcDbSymbolTable
 70
     1
  0
ENDTAB
  0
TABLE
  2
STYLE
  5
37
100
AcDbSymbolTable
 70
     4
  0
STYLE
  5
38
100
AcDbSymbolTableRecord
100
AcDbTextStyleTableRecord
  2
STANDARD
 70
     0
 40
0.0
 41
1.0
 50
0.0
 71
     0
 42
3.5
  3
MONOTXT
  4

  0
STYLE
  5
39
100
AcDbSymbolTableRecord
100
AcDbTextStyleTableRecord
  2
CADWORK1
 70
     0
 40
0.0
 41
1.0
 50
0.0
 71
     0
 42
3.5
  3
MONOTXT
  4

  0
STYLE
  5
3A
100
AcDbSymbolTableRecord
100
AcDbTextStyleTableRecord
  2
MONOTXT
 70
     0
 40
0.0
 41
1.0
 50
0.0
 71
     0
 42
3.5
  3
MONOTXT
  4

  0
STYLE
  5
3B
100
AcDbSymbolTableRecord
100
AcDbTextStyleTableRecord
  2
TAHOMA
 70
     0
 40
0.0
 41
1.0
 50
0.0
 71
     0
 42
3.5
  3

  4

1001
ACAD
1000
Tahoma
1071
        0
  0
STYLE
  5
3C
100
AcDbSymbolTableRecord
100
AcDbTextStyleTableRecord
  2
ARIAL
 70
     0
 40
0.0
 41
1.0
 50
0.0
 71
     0
 42
3.5
  3

  4

1001
ACAD
1000
Arial
1071
        0
  0
ENDTAB
  0
TABLE
  2
LTYPE
  5
3D
100
AcDbSymbolTable
 70
    12
  0
LTYPE
  5
3E
100
AcDbSymbolTableRecord
100
AcDbLinetypeTableRecord
  2
BYBLOCK
 70
    64
  3

 72
    65
 73
     0
 40
0.0
  0
LTYPE
  5
3F
100
AcDbSymbolTableRecord
100
AcDbLinetypeTableRecord
  2
BYLAYER
 70
    64
  3

 72
    65
 73
     0
 40
0.0
  0
LTYPE
  5
40
100
AcDbSymbolTableRecord
100
AcDbLinetypeTableRecord
  2
CONTINUOUS
 70
    64
  3
Solid line
 72
    65
 73
     0
 40
0.0
  0
LTYPE
  5
41
100
AcDbSymbolTableRecord
100
AcDbLinetypeTableRecord
  2
DOT
 70
    64
  3
. . . . . . . . . . . . . . . . . . . . . . . .
 72
    65
 73
     2
 40
2.5
 49
0.0
 74
     0
 49
-2.5
 74
     0
  0
LTYPE
  5
42
100
AcDbSymbolTableRecord
100
AcDbLinetypeTableRecord
  2
DASHED
 70
    64
  3
__ __ __ __ __ __ __ __ __ __ __ __ __ __ __ __
 72
    65
 73
     2
 40
7.5
 49
5.0
 74
     0
 49
-2.5
 74
     0
  0
LTYPE
  5
43
100
AcDbSymbolTableRecord
100
AcDbLinetypeTableRecord
  2
BORDER
 70
    64
  3
 __ __ . __ __ . __ __ . __ __ . __ __ . __ __ .
 72
    65
 73
     6
 40
17.0
 49
5.0
 74
     0
 49
-2.0
 74
     0
 49
5.0
 74
     0
 49
-2.0
 74
     0
 49
1.0
 74
     0
 49
-2.0
 74
     0
  0
LTYPE
  5
44
100
AcDbSymbolTableRecord
100
AcDbLinetypeTableRecord
  2
DAL
 70
    64
  3
Solid line (for MAPS)
 72
    65
 73
     0
 40
0.0
  0
LTYPE
  5
45
100
AcDbSymbolTableRecord
100
AcDbLinetypeTableRecord
  2
MUR
 70
    64
  3
Solid line (for MAPS)
 72
    65
 73
     0
 40
0.0
  0
LTYPE
  5
46
100
AcDbSymbolTableRecord
100
AcDbLinetypeTableRecord
  2
SOM
 70
    64
  3
Solid line (for MAPS)
 72
    65
 73
     0
 40
0.0
  0
LTYPE
  5
47
100
AcDbSymbolTableRecord
100
AcDbLinetypeTableRecord
  2
COL
 70
    64
  3
Solid line (for MAPS)
 72
    65
 73
     0
 40
0.0
  0
LTYPE
  5
48
100
AcDbSymbolTableRecord
100
AcDbLinetypeTableRecord
  2
LGN
 70
    64
  3
Solid line (for MAPS)
 72
    65
 73
     0
 40
0.0
  0
LTYPE
  5
49
100
AcDbSymbolTableRecord
100
AcDbLinetypeTableRecord
  2
PNT
 70
    64
  3
Solid line (for MAPS)
 72
    65
 73
     0
 40
0.0
  0
ENDTAB
  0
TABLE
  2
LAYER
  5
4A
100
AcDbSymbolTable
 70
     1
  0
LAYER
  5
4B
100
AcDbSymbolTableRecord
100
AcDbLayerTableRecord
  2
0
 70
     0
 62
     1
  6
CONTINUOUS
  0
LAYER
  5
4C
100
AcDbSymbolTableRecord
100
AcDbLayerTableRecord
  2
MST_1_1
 70
     0
 62
     7
  6
CONTINUOUS
  0
ENDTAB
  0
TABLE
  2
VIEW
  5
4D
100
AcDbSymbolTable
 70
     0
  0
ENDTAB
  0
TABLE
  2
UCS
  5
4E
100
AcDbSymbolTable
 70
     0
  0
ENDTAB
  0
TABLE
  2
APPID
  5
4F
100
AcDbSymbolTable
 70
     1
  0
APPID
  5
50
100
AcDbSymbolTableRecord
100
AcDbRegAppTableRecord
  2
ACAD
 70
     0
  0
ENDTAB
  0
TABLE
  2
DIMSTYLE
  5
51
100
AcDbSymbolTable
 70
     0
  0
ENDTAB
  0
TABLE
  2
BLOCK_RECORD
  5
52
100
AcDbSymbolTable
 70
     0
  0
BLOCK_RECORD
  5
53
100
AcDbSymbolTableRecord
100
AcDbBlockTableRecord
  2
*MODEL_SPACE
  0
BLOCK_RECORD
  5
54
100
AcDbSymbolTableRecord
100
AcDbBlockTableRecord
  2
*PAPER_SPACE
  0
BLOCK_RECORD
  5
55
100
AcDbSymbolTableRecord
100
AcDbBlockTableRecord
  2
CDWK_EXTR_0
  0
BLOCK_RECORD
  5
56
100
AcDbSymbolTableRecord
100
AcDbBlockTableRecord
  2
CDWK_EXTR_1D
  0
BLOCK_RECORD
  5
57
100
AcDbSymbolTableRecord
100
AcDbBlockTableRecord
  2
CDWK_EXTR_1G
  0
BLOCK_RECORD
  5
58
100
AcDbSymbolTableRecord
100
AcDbBlockTableRecord
  2
CDWK_EXTR_2
  0
BLOCK_RECORD
  5
59
100
AcDbSymbolTableRecord
100
AcDbBlockTableRecord
  2
CDWK_EXTR_3
  0
BLOCK_RECORD
  5
5A
100
AcDbSymbolTableRecord
100
AcDbBlockTableRecord
  2
CDWK_EXTR_4
  0
BLOCK_RECORD
  5
5B
100
AcDbSymbolTableRecord
100
AcDbBlockTableRecord
  2
CDWK_PTTYP0
  0
ENDTAB
  0
ENDSEC
  0
SECTION
  2
BLOCKS
  0
BLOCK
  5
5C
100
AcDbEntity
  8
0
100
AcDbBlockBegin
  2
*MODEL_SPACE
 70
     0
 10
0.0
 20
0.0
 30
0.0
  3
*MODEL_SPACE
  1

  0
ENDBLK
  5
5D
100
AcDbEntity
100
AcDbBlockEnd
  0
BLOCK
  5
5E
100
AcDbEntity
  8
0
100
AcDbBlockBegin
  2
*PAPER_SPACE
 70
     0
 10
0.0
 20
0.0
 30
0.0
  3
*PAPER_SPACE
  1

  0
ENDBLK
  5
5F
100
AcDbEntity
100
AcDbBlockEnd
  0
BLOCK
  5
60
100
AcDbEntity
  8
0
100
AcDbBlockBegin
  2
CDWK_EXTR_0
 70
     0
 10
0.0
 20
0.0
 30
0.0
  3
CDWK_EXTR_0
  1

  4
Cadwork line-extremity
  0
LINE
  5
61
100
AcDbEntity
  8
0
 62
     0
100
AcDbLine
 10
0.0
 20
0.0
 30
0.0
 11
2.0
 21
0.5
 31
0.0
  0
LINE
  5
62
100
AcDbEntity
  8
0
 62
     0
100
AcDbLine
 10
0.0
 20
0.0
 30
0.0
 11
2.0
 21
-0.5
 31
0.0
  0
LINE
  5
63
100
AcDbEntity
  8
0
 62
     0
100
AcDbLine
 10
2.0
 20
0.5
 30
0.0
 11
2.0
 21
-0.5
 31
0.0
  0
ENDBLK
  5
64
100
AcDbEntity
100
AcDbBlockEnd
  0
BLOCK
  5
65
100
AcDbEntity
  8
0
100
AcDbBlockBegin
  2
CDWK_EXTR_1D
 70
     0
 10
0.0
 20
0.0
 30
0.0
  3
CDWK_EXTR_1D
  1

  4
Cadwork line-extremity
  0
LINE
  5
66
100
AcDbEntity
  8
0
 62
     0
100
AcDbLine
 10
0.0
 20
0.0
 30
0.0
 11
0.0
 21
1.0
 31
0.0
  0
LINE
  5
67
100
AcDbEntity
  8
0
 62
     0
100
AcDbLine
 10
0.0
 20
1.0
 30
0.0
 11
0.5
 21
1.5
 31
0.0
  0
LINE
  5
68
100
AcDbEntity
  8
0
 62
     0
100
AcDbLine
 10
0.5
 20
1.5
 30
0.0
 11
1.5
 21
1.5
 31
0.0
  0
ENDBLK
  5
69
100
AcDbEntity
100
AcDbBlockEnd
  0
BLOCK
  5
6A
100
AcDbEntity
  8
0
100
AcDbBlockBegin
  2
CDWK_EXTR_1G
 70
     0
 10
0.0
 20
0.0
 30
0.0
  3
CDWK_EXTR_1G
  1

  4
Cadwork line-extremity
  0
LINE
  5
6B
100
AcDbEntity
  8
0
 62
     0
100
AcDbLine
 10
0.0
 20
0.0
 30
0.0
 11
0.0
 21
-1.0
 31
0.0
  0
LINE
  5
6C
100
AcDbEntity
  8
0
 62
     0
100
AcDbLine
 10
0.0
 20
-1.0
 30
0.0
 11
0.5
 21
-1.5
 31
0.0
  0
LINE
  5
6D
100
AcDbEntity
  8
0
 62
     0
100
AcDbLine
 10
0.5
 20
-1.5
 30
0.0
 11
1.5
 21
-1.5
 31
0.0
  0
ENDBLK
  5
6E
100
AcDbEntity
100
AcDbBlockEnd
  0
BLOCK
  5
6F
100
AcDbEntity
  8
0
100
AcDbBlockBegin
  2
CDWK_EXTR_2
 70
     0
 10
0.0
 20
0.0
 30
0.0
  3
CDWK_EXTR_2
  1

  4
Cadwork line-extremity
  0
SOLID
  5
70
100
AcDbEntity
  8
0
 62
     0
100
AcDbTrace
 10
0.0
 20
0.0
 11
2.0
 21
0.5
 12
2.0
 22
-0.5
 13
2.0
 23
-0.5
  0
ENDBLK
  5
71
100
AcDbEntity
100
AcDbBlockEnd
  0
BLOCK
  5
72
100
AcDbEntity
  8
0
100
AcDbBlockBegin
  2
CDWK_EXTR_3
 70
     0
 10
0.0
 20
0.0
 30
0.0
  3
CDWK_EXTR_3
  1

  4
Cadwork line-extremity
  0
SOLID
  5
73
100
AcDbEntity
  8
0
 62
     0
100
AcDbTrace
 10
0.0
 20
0.0
 11
2.0
 21
0.5
 12
2.0
 22
-0.5
 13
2.0
 23
-0.5
  0
LINE
  5
74
100
AcDbEntity
  8
0
 62
     0
100
AcDbLine
 10
0.0
 20
1.0
 30
0.0
 11
0.0
 21
-1.0
 31
0.0
  0
ENDBLK
  5
75
100
AcDbEntity
100
AcDbBlockEnd
  0
BLOCK
  5
76
100
AcDbEntity
  8
0
100
AcDbBlockBegin
  2
CDWK_EXTR_4
 70
     0
 10
0.0
 20
0.0
 30
0.0
  3
CDWK_EXTR_4
  1

  4
Cadwork line-extremity
  0
POLYLINE
  5
77
100
AcDbEntity
  8
0
 62
     0
100
AcDb2dPolyline
 70
     1
 66
     1
 10
0.0
 20
0.0
 30
0.0
 40
0.5
 41
0.5
  0
VERTEX
  5
78
100
AcDbEntity
  8
0
100
AcDbVertex
100
AcDb2dVertex
 10
-0.25
 20
0.0
 30
0.0
 42
1.0
  0
VERTEX
  5
79
100
AcDbEntity
  8
0
100
AcDbVertex
100
AcDb2dVertex
 10
0.25
 20
0.0
 30
0.0
 42
1.0
  0
SEQEND
  5
7A
100
AcDbEntity
  0
ENDBLK
  5
7B
100
AcDbEntity
100
AcDbBlockEnd
  0
BLOCK
  5
7C
100
AcDbEntity
  8
0
100
AcDbBlockBegin
  2
CDWK_PTTYP0
 70
     0
 10
0.0
 20
0.0
 30
0.0
  3
CDWK_PTTYP0
  1

  4
Cadwork point
  0
POINT
  5
7D
100
AcDbEntity
  8
0
 62
     0
100
AcDbPoint
 10
0.0
 20
0.0
 30
0.0
  0
ENDBLK
  5
7E
100
AcDbEntity
100
AcDbBlockEnd
  0
ENDSEC
  0
SECTION
  2
ENTITIES
  0
LINE
  5
7F
100
AcDbEntity
  8
MST_1_1
 62
     7
  6
DASHED
100
AcDbLine
 10
-2.06250403
 20
28.54545025
 30
0.0
 11
-2.06250403
 21
-216.45454975
 31
0.0
  0
LINE
  5
80
100
AcDbEntity
  8
MST_1_1
 62
     7
  6
DASHED
100
AcDbLine
 10
47.93749597
 20
28.54545025
 30
0.0
 11
47.93749597
 21
-216.45454975
 31
0.0
  0
LINE
  5
81
100
AcDbEntity
  8
MST_1_1
 62
     7
  6
DASHED
100
AcDbLine
 10
37.93749597
 20
28.54545025
 30
0.0
 11
37.93749597
 21
-186.45454975
 31
0.0
  0
LINE
  5
82
100
AcDbEntity
  8
MST_1_1
 62
     7
  6
DASHED
100
AcDbLine
 10
32.93749597
 20
18.54545025
 30
0.0
 11
32.93749597
 21
-156.45454975
 31
0.0
  0
LINE
  5
83
100
AcDbEntity
  8
MST_1_1
 62
     7
  6
DASHED
100
AcDbLine
 10
27.93749597
 20
28.54545025
 30
0.0
 11
27.93749597
 21
-126.45454975
 31
0.0
  0
LWPOLYLINE
  5
84
100
AcDbEntity
  8
MST_1_1
 62
     1
  6
BORDER
100
AcDbPolyline
 90
        3
 70
     0
 43
0.0
 10
22.93749597
 20
-81.45454975
 10
-2.06250403
 20
-81.45454975
 10
-7.06250403
 20
-81.45454975
  0
LINE
  5
85
100
AcDbEntity
  8
MST_1_1
 62
   137
  6
CONTINUOUS
100
AcDbLine
 10
-2.06250403
 20
-81.45454975
 30
0.0
 11
-2.06250403
 21
-77.95454975
 31
0.0
  0
LINE
  5
86
100
AcDbEntity
  8
MST_1_1
 62
   137
  6
CONTINUOUS
100
AcDbLine
 10
-2.06250403
 20
-77.95454975
 30
0.0
 11
-1.97500406
 21
-77.95454975
 31
0.0
  0
LWPOLYLINE
  5
87
100
AcDbEntity
  8
MST_1_1
 62
   137
  6
CONTINUOUS
100
AcDbPolyline
 90
        6
 70
     0
 43
0.0
 38
2500.0
 10
1.6926037
 20
-79.70454963
 10
1.53749597
 20
-80.37454975
 10
2.84888413
 20
-83.20454975
 10
3.00399192
 20
-82.53454975
 10
1.6926037
 20
-79.70454963
 10
2.84888413
 20
-83.20454975
  0
LINE
  5
88
100
AcDbEntity
  8
MST_1_1
 62
   137
  6
CONTINUOUS
100
AcDbLine
 10
0.03749597
 20
-80.37454975
 30
2500.0
 11
1.53749597
 21
-80.37454975
 31
2500.0
  0
LWPOLYLINE
  5
89
100
AcDbEntity
  8
MST_1_1
 62
   137
  6
CONTINUOUS
100
AcDbPolyline
 90
        4
 70
     0
 43
0.0
 38
2500.0
 10
0.53841414
 20
-82.53454975
 10
0.84888413
 20
-83.20454975
 10
1.00399192
 20
-82.53454975
 10
0.7713414
 20
-82.03248561
  0
LINE
  5
8A
100
AcDbEntity
  8
MST_1_1
 62
   137
  6
CONTINUOUS
100
AcDbLine
 10
0.59047038
 20
-82.42234489
 30
2500.0
 11
0.84888413
 21
-83.20454975
 31
2500.0
  0
LINE
  5
8B
100
AcDbEntity
  8
MST_1_1
 62
   137
  6
CONTINUOUS
100
AcDbLine
 10
0.53841414
 20
-82.53454975
 30
2500.0
 11
0.7713414
 21
-82.03248561
 31
2500.0
  0
LINE
  5
8C
100
AcDbEntity
  8
MST_1_1
 62
   137
  6
CONTINUOUS
100
AcDbLine
 10
2.53841414
 20
-82.53454975
 30
2500.0
 11
1.00399192
 21
-82.53454975
 31
2500.0
  0
LINE
  5
8D
100
AcDbEntity
  8
MST_1_1
 62
   137
  6
CONTINUOUS
100
AcDbLine
 10
0.53841414
 20
-82.53454975
 30
2500.0
 11
0.03749597
 21
-82.53454975
 31
2500.0
  0
LINE
  5
8E
100
AcDbEntity
  8
MST_1_1
 62
     7
  6
DASHED
100
AcDbLine
 10
22.93749597
 20
18.54545025
 30
0.0
 11
22.93749597
 21
-96.45454975
 31
0.0
  0
LINE
  5
8F
100
AcDbEntity
  8
MST_1_1
 62
     7
  6
DASHED
100
AcDbLine
 10
17.93749597
 20
28.54545025
 30
0.0
 11
17.93749597
 21
-66.45454975
 31
0.0
  0
LINE
  5
90
100
AcDbEntity
  8
MST_1_1
 62
     7
  6
DASHED
100
AcDbLine
 10
13.93749597
 20
18.54545025
 30
0.0
 11
13.93749597
 21
-36.45454975
 31
0.0
  0
LINE
  5
91
100
AcDbEntity
  8
MST_1_1
 62
     7
  6
DASHED
100
AcDbLine
 10
9.93749597
 20
28.54545025
 30
0.0
 11
9.93749597
 21
-6.45454975
 31
0.0
  0
LINE
  5
92
100
AcDbEntity
  8
MST_1_1
 62
   137
  6
CONTINUOUS
100
AcDbLine
 10
-1.97500406
 20
-77.95454975
 30
0.0
 11
0.03749597
 21
-80.37454975
 31
0.0
  0
LINE
  5
93
100
AcDbEntity
  8
MST_1_1
 62
   137
  6
CONTINUOUS
100
AcDbLine
 10
0.03749597
 20
-82.53454975
 30
0.0
 11
-1.97500406
 21
-84.95454975
 31
0.0
  0
LINE
  5
94
100
AcDbEntity
  8
MST_1_1
 62
   137
  6
CONTINUOUS
100
AcDbLine
 10
-1.97500406
 20
-84.95454975
 30
0.0
 11
-2.06250403
 21
-84.95454975
 31
0.0
  0
LINE
  5
95
100
AcDbEntity
  8
MST_1_1
 62
   137
  6
CONTINUOUS
100
AcDbLine
 10
-2.06250403
 20
-84.95454975
 30
0.0
 11
-2.06250403
 21
-81.45454975
 31
0.0
  0
LWPOLYLINE
  5
96
100
AcDbEntity
  8
MST_1_1
 62
   137
  6
CONTINUOUS
100
AcDbPolyline
 90
        6
 70
     0
 43
0.0
 38
2500.0
 10
3.6926037
 20
-79.70454963
 10
3.53749597
 20
-80.37454975
 10
4.84888413
 20
-83.20454975
 10
5.00399192
 20
-82.53454975
 10
3.6926037
 20
-79.70454963
 10
4.84888413
 20
-83.20454975
  0
LWPOLYLINE
  5
97
100
AcDbEntity
  8
MST_1_1
 62
   137
  6
CONTINUOUS
100
AcDbPolyline
 90
        6
 70
     0
 43
0.0
 38
2500.0
 10
5.6926037
 20
-79.70454963
 10
5.53749597
 20
-80.37454975
 10
6.84888413
 20
-83.20454975
 10
7.00399192
 20
-82.53454975
 10
5.6926037
 20
-79.70454963
 10
6.84888413
 20
-83.20454975
  0
LWPOLYLINE
  5
98
100
AcDbEntity
  8
MST_1_1
 62
   137
  6
CONTINUOUS
100
AcDbPolyline
 90
        6
 70
     0
 43
0.0
 38
2500.0
 10
7.6926037
 20
-79.70454963
 10
7.53749597
 20
-80.37454975
 10
8.84888413
 20
-83.20454975
 10
9.00399192
 20
-82.53454975
 10
7.6926037
 20
-79.70454963
 10
8.84888413
 20
-83.20454975
  0
LWPOLYLINE
  5
99
100
AcDbEntity
  8
MST_1_1
 62
   137
  6
CONTINUOUS
100
AcDbPolyline
 90
        6
 70
     0
 43
0.0
 38
2500.0
 10
9.6926037
 20
-79.70454963
 10
9.53749597
 20
-80.37454975
 10
10.84888413
 20
-83.20454975
 10
11.00399192
 20
-82.53454975
 10
9.6926037
 20
-79.70454963
 10
10.84888413
 20
-83.20454975
  0
LWPOLYLINE
  5
9A
100
AcDbEntity
  8
MST_1_1
 62
   137
  6
CONTINUOUS
100
AcDbPolyline
 90
        6
 70
     0
 43
0.0
 38
2500.0
 10
11.6926037
 20
-79.70454963
 10
11.53749597
 20
-80.37454975
 10
12.84888413
 20
-83.20454975
 10
13.00399192
 20
-82.53454975
 10
11.6926037
 20
-79.70454963
 10
12.84888413
 20
-83.20454975
  0
LWPOLYLINE
  5
9B
100
AcDbEntity
  8
MST_1_1
 62
   137
  6
CONTINUOUS
100
AcDbPolyline
 90
        6
 70
     0
 43
0.0
 38
2500.0
 10
13.6926037
 20
-79.70454963
 10
13.53749597
 20
-80.37454975
 10
14.84888413
 20
-83.20454975
 10
15.00399192
 20
-82.53454975
 10
13.6926037
 20
-79.70454963
 10
14.84888413
 20
-83.20454975
  0
LWPOLYLINE
  5
9C
100
AcDbEntity
  8
MST_1_1
 62
   137
  6
CONTINUOUS
100
AcDbPolyline
 90
        6
 70
     0
 43
0.0
 38
2500.0
 10
15.6926037
 20
-79.70454963
 10
15.53749597
 20
-80.37454975
 10
16.84888413
 20
-83.20454975
 10
16.98035934
 20
-82.48355021
 10
15.6926037
 20
-79.70454963
 10
16.84888413
 20
-83.20454975
  0
LWPOLYLINE
  5
9D
100
AcDbEntity
  8
MST_1_1
 62
   137
  6
CONTINUOUS
100
AcDbPolyline
 90
        6
 70
     0
 43
0.0
 38
2500.0
 10
17.66313323
 20
-79.93223895
 10
17.53749597
 20
-80.47493905
 10
18.62046341
 20
-82.81200289
 10
18.74610067
 20
-82.26930279
 10
17.66313323
 20
-79.93223895
 10
18.59972038
 20
-82.76723905
  0
LINE
  5
9E
100
AcDbEntity
  8
MST_1_1
 62
   251
  6
CONTINUOUS
100
AcDbLine
 10
3.00399192
 20
-82.53454975
 30
2500.0
 11
4.53841414
 21
-82.53454975
 31
2500.0
  0
LINE
  5
9F
100
AcDbEntity
  8
MST_1_1
 62
   251
  6
CONTINUOUS
100
AcDbLine
 10
5.00399192
 20
-82.53454975
 30
2500.0
 11
6.53841414
 21
-82.53454975
 31
2500.0
  0
LINE
  5
A0
100
AcDbEntity
  8
MST_1_1
 62
   251
  6
CONTINUOUS
100
AcDbLine
 10
7.00399192
 20
-82.53454975
 30
2500.0
 11
8.53841414
 21
-82.53454975
 31
2500.0
  0
LINE
  5
A1
100
AcDbEntity
  8
MST_1_1
 62
   251
  6
CONTINUOUS
100
AcDbLine
 10
9.00399192
 20
-82.53454975
 30
2500.0
 11
10.53841414
 21
-82.53454975
 31
2500.0
  0
LINE
  5
A2
100
AcDbEntity
  8
MST_1_1
 62
   251
  6
CONTINUOUS
100
AcDbLine
 10
11.00399192
 20
-82.53454975
 30
2500.0
 11
12.53841414
 21
-82.53454975
 31
2500.0
  0
LINE
  5
A3
100
AcDbEntity
  8
MST_1_1
 62
   251
  6
CONTINUOUS
100
AcDbLine
 10
13.00399192
 20
-82.53454975
 30
2500.0
 11
14.53841414
 21
-82.53454975
 31
2500.0
  0
LINE
  5
A4
100
AcDbEntity
  8
MST_1_1
 62
   251
  6
CONTINUOUS
100
AcDbLine
 10
15.00399192
 20
-82.53454975
 30
2500.0
 11
16.0051232
 21
-82.53012698
 31
2500.0
  0
LINE
  5
A5
100
AcDbEntity
  8
MST_1_1
 62
   251
  6
CONTINUOUS
100
AcDbLine
 10
3.53749597
 20
-80.37454975
 30
2500.0
 11
2.00307375
 21
-80.37454975
 31
2500.0
  0
LINE
  5
A6
100
AcDbEntity
  8
MST_1_1
 62
   251
  6
CONTINUOUS
100
AcDbLine
 10
5.53749597
 20
-80.37454975
 30
2500.0
 11
4.00307375
 21
-80.37454975
 31
2500.0
  0
LINE
  5
A7
100
AcDbEntity
  8
MST_1_1
 62
   251
  6
CONTINUOUS
100
AcDbLine
 10
7.53749597
 20
-80.37454975
 30
2500.0
 11
6.00307375
 21
-80.37454975
 31
2500.0
  0
LINE
  5
A8
100
AcDbEntity
  8
MST_1_1
 62
   251
  6
CONTINUOUS
100
AcDbLine
 10
9.53749597
 20
-80.37454975
 30
2500.0
 11
8.00307375
 21
-80.37454975
 31
2500.0
  0
LINE
  5
A9
100
AcDbEntity
  8
MST_1_1
 62
   251
  6
CONTINUOUS
100
AcDbLine
 10
11.53749597
 20
-80.37454975
 30
2500.0
 11
10.00307375
 21
-80.37454975
 31
2500.0
  0
LINE
  5
AA
100
AcDbEntity
  8
MST_1_1
 62
   251
  6
CONTINUOUS
100
AcDbLine
 10
13.53749597
 20
-80.37454975
 30
2500.0
 11
12.00307375
 21
-80.37454975
 31
2500.0
  0
LINE
  5
AB
100
AcDbEntity
  8
MST_1_1
 62
   251
  6
CONTINUOUS
100
AcDbLine
 10
15.53749597
 20
-80.37454975
 30
2500.0
 11
14.00307375
 21
-80.37454975
 31
2500.0
  0
ARC
  5
AC
100
AcDbEntity
  8
MST_1_1
 62
   251
  6
CONTINUOUS
100
AcDbCircle
 10
15.59286399
 20
-99.24411945
 30
2500.0
 40
18.86965093
100
AcDbArc
 50
84.08482032
 51
88.74811714
  0
LWPOLYLINE
  5
AD
100
AcDbEntity
  8
MST_1_1
 62
   251
  6
CONTINUOUS
100
AcDbPolyline
 90
        3
 70
     0
 43
0.0
 38
2500.0
 10
22.93749597
 20
-81.45454975
 10
19.22017637
 20
-80.72638926
 42
0.01723995
 10
17.9357159
 20
-80.52047741
  0
ARC
  5
AE
100
AcDbEntity
  8
MST_1_1
 62
   251
  6
CONTINUOUS
100
AcDbCircle
 10
15.59286399
 20
-63.66498005
 30
2500.0
 40
18.86965093
100
AcDbArc
 50
271.25189287
 51
272.83975061
  0
LWPOLYLINE
  5
AF
100
AcDbEntity
  8
MST_1_1
 62
   251
  6
CONTINUOUS
100
AcDbPolyline
 90
        3
 70
     0
 43
0.0
 38
2500.0
 10
22.93749597
 20
-81.45454975
 10
19.22017637
 20
-82.18271023
 42
-0.0063851
 10
18.74610067
 20
-82.26930279
  0
ARC
  5
B0
100
AcDbEntity
  8
MST_1_1
 62
   251
  6
CONTINUOUS
100
AcDbCircle
 10
15.59286399
 20
-63.66498005
 30
2500.0
 40
18.86965093
100
AcDbArc
 50
274.21680449
 51
278.53995004
  0
LWPOLYLINE
  5
B1
100
AcDbEntity
  8
MST_1_1
 62
   137
  6
CONTINUOUS
100
AcDbPolyline
 90
        6
 70
     0
 43
0.0
 38
2500.0
 10
19.62041656
 20
-80.43036478
 10
19.53749597
 20
-80.78854684
 10
20.25225448
 20
-82.33100898
 10
20.33155291
 20
-81.96501023
 10
19.62041656
 20
-80.43036478
 10
20.23856408
 20
-82.30146484
  0
LWPOLYLINE
  5
B2
100
AcDbEntity
  8
MST_1_1
 62
     1
  6
BORDER
100
AcDbPolyline
 90
        3
 70
     0
 43
0.0
 10
17.93749597
 20
-51.45454975
 10
-2.06250403
 20
-51.45454975
 10
-7.06250403
 20
-51.45454975
  0
LINE
  5
B3
100
AcDbEntity
  8
MST_1_1
 62
   137
  6
CONTINUOUS
100
AcDbLine
 10
-2.06250403
 20
-51.45454975
 30
0.0
 11
-2.06250403
 21
-47.95454975
 31
0.0
  0
LINE
  5
B4
100
AcDbEntity
  8
MST_1_1
 62
   137
  6
CONTINUOUS
100
AcDbLine
 10
-2.06250403
 20
-47.95454975
 30
0.0
 11
-1.97500406
 21
-47.95454975
 31
0.0
  0
LWPOLYLINE
  5
B5
100
AcDbEntity
  8
MST_1_1
 62
   137
  6
CONTINUOUS
100
AcDbPolyline
 90
        6
 70
     0
 43
0.0
 38
2500.0
 10
2.6926037
 20
-49.70454963
 10
2.53749597
 20
-50.37454975
 10
3.84888413
 20
-53.20454975
 10
4.00399192
 20
-52.53454975
 10
2.6926037
 20
-49.70454963
 10
3.84888413
 20
-53.20454975
  0
LINE
  5
B6
100
AcDbEntity
  8
MST_1_1
 62
   137
  6
CONTINUOUS
100
AcDbLine
 10
0.03749597
 20
-50.37454975
 30
2500.0
 11
2.53749597
 21
-50.37454975
 31
2500.0
  0
LWPOLYLINE
  5
B7
100
AcDbEntity
  8
MST_1_1
 62
   137
  6
CONTINUOUS
100
AcDbPolyline
 90
        4
 70
     0
 43
0.0
 38
2500.0
 10
1.53841414
 20
-52.53454975
 10
1.84888413
 20
-53.20454975
 10
2.00399192
 20
-52.53454975
 10
1.7713414
 20
-52.03248561
  0
LINE
  5
B8
100
AcDbEntity
  8
MST_1_1
 62
   137
  6
CONTINUOUS
100
AcDbLine
 10
1.59047038
 20
-52.42234489
 30
2500.0
 11
1.84888413
 21
-53.20454975
 31
2500.0
  0
LINE
  5
B9
100
AcDbEntity
  8
MST_1_1
 62
   137
  6
CONTINUOUS
100
AcDbLine
 10
1.53841414
 20
-52.53454975
 30
2500.0
 11
1.7713414
 21
-52.03248561
 31
2500.0
  0
LINE
  5
BA
100
AcDbEntity
  8
MST_1_1
 62
   137
  6
CONTINUOUS
100
AcDbLine
 10
3.53841414
 20
-52.53454975
 30
2500.0
 11
2.00399192
 21
-52.53454975
 31
2500.0
  0
LINE
  5
BB
100
AcDbEntity
  8
MST_1_1
 62
   137
  6
CONTINUOUS
100
AcDbLine
 10
1.53841414
 20
-52.53454975
 30
2500.0
 11
0.03749597
 21
-52.53454975
 31
2500.0
  0
LINE
  5
BC
100
AcDbEntity
  8
MST_1_1
 62
   137
  6
CONTINUOUS
100
AcDbLine
 10
-1.97500406
 20
-47.95454975
 30
0.0
 11
0.03749597
 21
-50.37454975
 31
0.0
  0
LINE
  5
BD
100
AcDbEntity
  8
MST_1_1
 62
   137
  6
CONTINUOUS
100
AcDbLine
 10
0.03749597
 20
-52.53454975
 30
0.0
 11
-1.97500406
 21
-54.95454975
 31
0.0
  0
LINE
  5
BE
100
AcDbEntity
  8
MST_1_1
 62
   137
  6
CONTINUOUS
100
AcDbLine
 10
-1.97500406
 20
-54.95454975
 30
0.0
 11
-2.06250403
 21
-54.95454975
 31
0.0
  0
LINE
  5
BF
100
AcDbEntity
  8
MST_1_1
 62
   137
  6
CONTINUOUS
100
AcDbLine
 10
-2.06250403
 20
-54.95454975
 30
0.0
 11
-2.06250403
 21
-51.45454975
 31
0.0
  0
LWPOLYLINE
  5
C0
100
AcDbEntity
  8
MST_1_1
 62
   137
  6
CONTINUOUS
100
AcDbPolyline
 90
        6
 70
     0
 43
0.0
 38
2500.0
 10
6.6926037
 20
-49.70454963
 10
6.53749597
 20
-50.37454975
 10
7.84888413
 20
-53.20454975
 10
8.00399192
 20
-52.53454975
 10
6.6926037
 20
-49.70454963
 10
7.84888413
 20
-53.20454975
  0
LWPOLYLINE
  5
C1
100
AcDbEntity
  8
MST_1_1
 62
   137
  6
CONTINUOUS
100
AcDbPolyline
 90
        6
 70
     0
 43
0.0
 38
2500.0
 10
8.6926037
 20
-49.70454963
 10
8.53749597
 20
-50.37454975
 10
9.84888413
 20
-53.20454975
 10
10.00399192
 20
-52.53454975
 10
8.6926037
 20
-49.70454963
 10
9.84888413
 20
-53.20454975
  0
LWPOLYLINE
  5
C2
100
AcDbEntity
  8
MST_1_1
 62
   137
  6
CONTINUOUS
100
AcDbPolyline
 90
        6
 70
     0
 43
0.0
 38
2500.0
 10
10.6926037
 20
-49.70454963
 10
10.53749597
 20
-50.37454975
 10
11.84888413
 20
-53.20454975
 10
11.98035934
 20
-52.48355021
 10
10.6926037
 20
-49.70454963
 10
11.84888413
 20
-53.20454975
  0
LWPOLYLINE
  5
C3
100
AcDbEntity
  8
MST_1_1
 62
   137
  6
CONTINUOUS
100
AcDbPolyline
 90
        6
 70
     0
 43
0.0
 38
2500.0
 10
12.66313323
 20
-49.93223895
 10
12.53749597
 20
-50.47493905
 10
13.62046341
 20
-52.81200289
 10
13.74610067
 20
-52.26930279
 10
12.66313323
 20
-49.93223895
 10
13.59972038
 20
-52.76723905
  0
LINE
  5
C4
100
AcDbEntity
  8
MST_1_1
 62
   251
  6
CONTINUOUS
100
AcDbLine
 10
6.00399192
 20
-52.53454975
 30
2500.0
 11
7.53841414
 21
-52.53454975
 31
2500.0
  0
LINE
  5
C5
100
AcDbEntity
  8
MST_1_1
 62
   251
  6
CONTINUOUS
100
AcDbLine
 10
8.00399192
 20
-52.53454975
 30
2500.0
 11
9.53841414
 21
-52.53454975
 31
2500.0
  0
LINE
  5
C6
100
AcDbEntity
  8
MST_1_1
 62
   251
  6
CONTINUOUS
100
AcDbLine
 10
10.00399192
 20
-52.53454975
 30
2500.0
 11
11.0051232
 21
-52.53012698
 31
2500.0
  0
LINE
  5
C7
100
AcDbEntity
  8
MST_1_1
 62
   251
  6
CONTINUOUS
100
AcDbLine
 10
6.53749597
 20
-50.37454975
 30
2500.0
 11
5.00307375
 21
-50.37454975
 31
2500.0
  0
LINE
  5
C8
100
AcDbEntity
  8
MST_1_1
 62
   251
  6
CONTINUOUS
100
AcDbLine
 10
8.53749597
 20
-50.37454975
 30
2500.0
 11
7.00307375
 21
-50.37454975
 31
2500.0
  0
LINE
  5
C9
100
AcDbEntity
  8
MST_1_1
 62
   251
  6
CONTINUOUS
100
AcDbLine
 10
10.53749597
 20
-50.37454975
 30
2500.0
 11
9.00307375
 21
-50.37454975
 31
2500.0
  0
ARC
  5
CA
100
AcDbEntity
  8
MST_1_1
 62
   251
  6
CONTINUOUS
100
AcDbCircle
 10
10.59286399
 20
-69.24411945
 30
2500.0
 40
18.86965093
100
AcDbArc
 50
84.08482032
 51
88.74811714
  0
LWPOLYLINE
  5
CB
100
AcDbEntity
  8
MST_1_1
 62
   251
  6
CONTINUOUS
100
AcDbPolyline
 90
        3
 70
     0
 43
0.0
 38
2500.0
 10
17.93749597
 20
-51.45454975
 10
14.22017637
 20
-50.72638926
 42
0.01723995
 10
12.9357159
 20
-50.52047741
  0
ARC
  5
CC
100
AcDbEntity
  8
MST_1_1
 62
   251
  6
CONTINUOUS
100
AcDbCircle
 10
10.59286399
 20
-33.66498005
 30
2500.0
 40
18.86965093
100
AcDbArc
 50
271.25189287
 51
272.83975061
  0
LWPOLYLINE
  5
CD
100
AcDbEntity
  8
MST_1_1
 62
   251
  6
CONTINUOUS
100
AcDbPolyline
 90
        3
 70
     0
 43
0.0
 38
2500.0
 10
17.93749597
 20
-51.45454975
 10
14.22017637
 20
-52.18271023
 42
-0.0063851
 10
13.74610067
 20
-52.26930279
  0
ARC
  5
CE
100
AcDbEntity
  8
MST_1_1
 62
   251
  6
CONTINUOUS
100
AcDbCircle
 10
10.59286399
 20
-33.66498005
 30
2500.0
 40
18.86965093
100
AcDbArc
 50
274.21680449
 51
278.53995004
  0
LWPOLYLINE
  5
CF
100
AcDbEntity
  8
MST_1_1
 62
   137
  6
CONTINUOUS
100
AcDbPolyline
 90
        6
 70
     0
 43
0.0
 38
2500.0
 10
14.62041656
 20
-50.43036478
 10
14.53749597
 20
-50.78854684
 10
15.25225448
 20
-52.33100898
 10
15.33155291
 20
-51.96501023
 10
14.62041656
 20
-50.43036478
 10
15.23856408
 20
-52.30146484
  0
LWPOLYLINE
  5
D0
100
AcDbEntity
  8
MST_1_1
 62
     1
  6
BORDER
100
AcDbPolyline
 90
        3
 70
     0
 43
0.0
 10
13.93749597
 20
-21.45454975
 10
-2.06250403
 20
-21.45454975
 10
-7.06250403
 20
-21.45454975
  0
LINE
  5
D1
100
AcDbEntity
  8
MST_1_1
 62
   137
  6
CONTINUOUS
100
AcDbLine
 10
-2.06250403
 20
-21.45454975
 30
0.0
 11
-2.06250403
 21
-17.95454975
 31
0.0
  0
LINE
  5
D2
100
AcDbEntity
  8
MST_1_1
 62
   137
  6
CONTINUOUS
100
AcDbLine
 10
-2.06250403
 20
-17.95454975
 30
0.0
 11
-1.97500406
 21
-17.95454975
 31
0.0
  0
LWPOLYLINE
  5
D3
100
AcDbEntity
  8
MST_1_1
 62
   137
  6
CONTINUOUS
100
AcDbPolyline
 90
        6
 70
     0
 43
0.0
 38
2500.0
 10
2.6926037
 20
-19.70454963
 10
2.53749597
 20
-20.37454975
 10
3.84888413
 20
-23.20454975
 10
4.00399192
 20
-22.53454975
 10
2.6926037
 20
-19.70454963
 10
3.84888413
 20
-23.20454975
  0
LINE
  5
D4
100
AcDbEntity
  8
MST_1_1
 62
   137
  6
CONTINUOUS
100
AcDbLine
 10
0.03749597
 20
-20.37454975
 30
2500.0
 11
2.53749597
 21
-20.37454975
 31
2500.0
  0
LWPOLYLINE
  5
D5
100
AcDbEntity
  8
MST_1_1
 62
   137
  6
CONTINUOUS
100
AcDbPolyline
 90
        4
 70
     0
 43
0.0
 38
2500.0
 10
1.53841414
 20
-22.53454975
 10
1.84888413
 20
-23.20454975
 10
2.00399192
 20
-22.53454975
 10
1.7713414
 20
-22.03248561
  0
LINE
  5
D6
100
AcDbEntity
  8
MST_1_1
 62
   137
  6
CONTINUOUS
100
AcDbLine
 10
1.59047038
 20
-22.42234489
 30
2500.0
 11
1.84888413
 21
-23.20454975
 31
2500.0
  0
LINE
  5
D7
100
AcDbEntity
  8
MST_1_1
 62
   137
  6
CONTINUOUS
100
AcDbLine
 10
1.53841414
 20
-22.53454975
 30
2500.0
 11
1.7713414
 21
-22.03248561
 31
2500.0
  0
LINE
  5
D8
100
AcDbEntity
  8
MST_1_1
 62
   137
  6
CONTINUOUS
100
AcDbLine
 10
3.53841414
 20
-22.53454975
 30
2500.0
 11
2.00399192
 21
-22.53454975
 31
2500.0
  0
LINE
  5
D9
100
AcDbEntity
  8
MST_1_1
 62
   137
  6
CONTINUOUS
100
AcDbLine
 10
1.53841414
 20
-22.53454975
 30
2500.0
 11
0.03749597
 21
-22.53454975
 31
2500.0
  0
LINE
  5
DA
100
AcDbEntity
  8
MST_1_1
 62
   137
  6
CONTINUOUS
100
AcDbLine
 10
-1.97500406
 20
-17.95454975
 30
0.0
 11
0.03749597
 21
-20.37454975
 31
0.0
  0
LINE
  5
DB
100
AcDbEntity
  8
MST_1_1
 62
   137
  6
CONTINUOUS
100
AcDbLine
 10
0.03749597
 20
-22.53454975
 30
0.0
 11
-1.97500406
 21
-24.95454975
 31
0.0
  0
LINE
  5
DC
100
AcDbEntity
  8
MST_1_1
 62
   137
  6
CONTINUOUS
100
AcDbLine
 10
-1.97500406
 20
-24.95454975
 30
0.0
 11
-2.06250403
 21
-24.95454975
 31
0.0
  0
LINE
  5
DD
100
AcDbEntity
  8
MST_1_1
 62
   137
  6
CONTINUOUS
100
AcDbLine
 10
-2.06250403
 20
-24.95454975
 30
0.0
 11
-2.06250403
 21
-21.45454975
 31
0.0
  0
LWPOLYLINE
  5
DE
100
AcDbEntity
  8
MST_1_1
 62
   137
  6
CONTINUOUS
100
AcDbPolyline
 90
        6
 70
     0
 43
0.0
 38
2500.0
 10
4.6926037
 20
-19.70454963
 10
4.53749597
 20
-20.37454975
 10
5.84888413
 20
-23.20454975
 10
6.00399192
 20
-22.53454975
 10
4.6926037
 20
-19.70454963
 10
5.84888413
 20
-23.20454975
  0
LWPOLYLINE
  5
DF
100
AcDbEntity
  8
MST_1_1
 62
   137
  6
CONTINUOUS
100
AcDbPolyline
 90
        6
 70
     0
 43
0.0
 38
2500.0
 10
6.6926037
 20
-19.70454963
 10
6.53749597
 20
-20.37454975
 10
7.84888413
 20
-23.20454975
 10
7.98035934
 20
-22.48355021
 10
6.6926037
 20
-19.70454963
 10
7.84888413
 20
-23.20454975
  0
LWPOLYLINE
  5
E0
100
AcDbEntity
  8
MST_1_1
 62
   137
  6
CONTINUOUS
100
AcDbPolyline
 90
        6
 70
     0
 43
0.0
 38
2500.0
 10
8.66313323
 20
-19.93223895
 10
8.53749597
 20
-20.47493905
 10
9.62046341
 20
-22.81200289
 10
9.74610067
 20
-22.26930279
 10
8.66313323
 20
-19.93223895
 10
9.59972038
 20
-22.76723905
  0
LINE
  5
E1
100
AcDbEntity
  8
MST_1_1
 62
   251
  6
CONTINUOUS
100
AcDbLine
 10
4.00399192
 20
-22.53454975
 30
2500.0
 11
5.53841414
 21
-22.53454975
 31
2500.0
  0
LINE
  5
E2
100
AcDbEntity
  8
MST_1_1
 62
   251
  6
CONTINUOUS
100
AcDbLine
 10
6.00399192
 20
-22.53454975
 30
2500.0
 11
7.0051232
 21
-22.53012698
 31
2500.0
  0
LINE
  5
E3
100
AcDbEntity
  8
MST_1_1
 62
   251
  6
CONTINUOUS
100
AcDbLine
 10
4.53749597
 20
-20.37454975
 30
2500.0
 11
3.00307375
 21
-20.37454975
 31
2500.0
  0
LINE
  5
E4
100
AcDbEntity
  8
MST_1_1
 62
   251
  6
CONTINUOUS
100
AcDbLine
 10
6.53749597
 20
-20.37454975
 30
2500.0
 11
5.00307375
 21
-20.37454975
 31
2500.0
  0
ARC
  5
E5
100
AcDbEntity
  8
MST_1_1
 62
   251
  6
CONTINUOUS
100
AcDbCircle
 10
6.59286399
 20
-39.24411945
 30
2500.0
 40
18.86965093
100
AcDbArc
 50
84.08482032
 51
88.74811714
  0
LWPOLYLINE
  5
E6
100
AcDbEntity
  8
MST_1_1
 62
   251
  6
CONTINUOUS
100
AcDbPolyline
 90
        3
 70
     0
 43
0.0
 38
2500.0
 10
13.93749597
 20
-21.45454975
 10
10.22017637
 20
-20.72638926
 42
0.01723995
 10
8.9357159
 20
-20.52047741
  0
ARC
  5
E7
100
AcDbEntity
  8
MST_1_1
 62
   251
  6
CONTINUOUS
100
AcDbCircle
 10
6.59286399
 20
-3.66498005
 30
2500.0
 40
18.86965093
100
AcDbArc
 50
271.25189287
 51
272.83975061
  0
LWPOLYLINE
  5
E8
100
AcDbEntity
  8
MST_1_1
 62
   251
  6
CONTINUOUS
100
AcDbPolyline
 90
        3
 70
     0
 43
0.0
 38
2500.0
 10
13.93749597
 20
-21.45454975
 10
10.22017637
 20
-22.18271023
 42
-0.0063851
 10
9.74610067
 20
-22.26930279
  0
ARC
  5
E9
100
AcDbEntity
  8
MST_1_1
 62
   251
  6
CONTINUOUS
100
AcDbCircle
 10
6.59286399
 20
-3.66498005
 30
2500.0
 40
18.86965093
100
AcDbArc
 50
274.21680449
 51
278.53995004
  0
LWPOLYLINE
  5
EA
100
AcDbEntity
  8
MST_1_1
 62
   137
  6
CONTINUOUS
100
AcDbPolyline
 90
        6
 70
     0
 43
0.0
 38
2500.0
 10
10.62041656
 20
-20.43036478
 10
10.53749597
 20
-20.78854684
 10
11.25225448
 20
-22.33100898
 10
11.33155291
 20
-21.96501023
 10
10.62041656
 20
-20.43036478
 10
11.23856408
 20
-22.30146484
  0
LWPOLYLINE
  5
EB
100
AcDbEntity
  8
MST_1_1
 62
     1
  6
BORDER
100
AcDbPolyline
 90
        3
 70
     0
 43
0.0
 10
9.93749597
 20
8.54545025
 10
-2.06250403
 20
8.54545025
 10
-7.06250403
 20
8.54545025
  0
LINE
  5
EC
100
AcDbEntity
  8
MST_1_1
 62
   137
  6
CONTINUOUS
100
AcDbLine
 10
-2.06250403
 20
8.54545025
 30
0.0
 11
-2.06250403
 21
12.04545025
 31
0.0
  0
LINE
  5
ED
100
AcDbEntity
  8
MST_1_1
 62
   137
  6
CONTINUOUS
100
AcDbLine
 10
-2.06250403
 20
12.04545025
 30
0.0
 11
-1.97500406
 21
12.04545025
 31
0.0
  0
LWPOLYLINE
  5
EE
100
AcDbEntity
  8
MST_1_1
 62
   137
  6
CONTINUOUS
100
AcDbPolyline
 90
        6
 70
     0
 43
0.0
 38
2500.0
 10
2.66897112
 20
10.34644991
 10
2.51386339
 20
9.67644979
 10
3.82525155
 20
6.84644979
 10
3.98035934
 20
7.51644979
 10
2.66897112
 20
10.34644991
 10
3.82525155
 20
6.84644979
  0
LINE
  5
EF
100
AcDbEntity
  8
MST_1_1
 62
   137
  6
CONTINUOUS
100
AcDbLine
 10
0.03749597
 20
9.62545025
 30
2500.0
 11
2.51386339
 21
9.67644979
 31
2500.0
  0
LWPOLYLINE
  5
F0
100
AcDbEntity
  8
MST_1_1
 62
   137
  6
CONTINUOUS
100
AcDbPolyline
 90
        4
 70
     0
 43
0.0
 38
2500.0
 10
1.53841414
 20
7.46545025
 10
1.84888413
 20
6.79545025
 10
2.00399192
 20
7.46545025
 10
1.7713414
 20
7.96751439
  0
LINE
  5
F1
100
AcDbEntity
  8
MST_1_1
 62
   137
  6
CONTINUOUS
100
AcDbLine
 10
1.59047038
 20
7.57765511
 30
2500.0
 11
1.84888413
 21
6.79545025
 31
2500.0
  0
LINE
  5
F2
100
AcDbEntity
  8
MST_1_1
 62
   137
  6
CONTINUOUS
100
AcDbLine
 10
1.53841414
 20
7.46545025
 30
2500.0
 11
1.7713414
 21
7.96751439
 31
2500.0
  0
LINE
  5
F3
100
AcDbEntity
  8
MST_1_1
 62
   137
  6
CONTINUOUS
100
AcDbLine
 10
3.53841414
 20
7.46545025
 30
2500.0
 11
2.00399192
 21
7.46545025
 31
2500.0
  0
LINE
  5
F4
100
AcDbEntity
  8
MST_1_1
 62
   137
  6
CONTINUOUS
100
AcDbLine
 10
1.53841414
 20
7.46545025
 30
2500.0
 11
0.03749597
 21
7.46545025
 31
2500.0
  0
LINE
  5
F5
100
AcDbEntity
  8
MST_1_1
 62
   137
  6
CONTINUOUS
100
AcDbLine
 10
-1.97500406
 20
12.04545025
 30
0.0
 11
0.03749597
 21
9.62545025
 31
0.0
  0
LINE
  5
F6
100
AcDbEntity
  8
MST_1_1
 62
   137
  6
CONTINUOUS
100
AcDbLine
 10
0.03749597
 20
7.46545025
 30
0.0
 11
-1.97500406
 21
5.04545025
 31
0.0
  0
LINE
  5
F7
100
AcDbEntity
  8
MST_1_1
 62
   137
  6
CONTINUOUS
100
AcDbLine
 10
-1.97500406
 20
5.04545025
 30
0.0
 11
-2.06250403
 21
5.04545025
 31
0.0
  0
LINE
  5
F8
100
AcDbEntity
  8
MST_1_1
 62
   137
  6
CONTINUOUS
100
AcDbLine
 10
-2.06250403
 20
5.04545025
 30
0.0
 11
-2.06250403
 21
8.54545025
 31
0.0
  0
LWPOLYLINE
  5
F9
100
AcDbEntity
  8
MST_1_1
 62
   137
  6
CONTINUOUS
100
AcDbPolyline
 90
        6
 70
     0
 43
0.0
 38
2500.0
 10
4.66313323
 20
10.06776105
 10
4.53749597
 20
9.52506095
 10
5.62046341
 20
7.18799711
 10
5.74610067
 20
7.73069721
 10
4.66313323
 20
10.06776105
 10
5.59972038
 20
7.23276095
  0
ARC
  5
FA
100
AcDbEntity
  8
MST_1_1
 62
   251
  6
CONTINUOUS
100
AcDbCircle
 10
2.59286399
 20
-9.24411945
 30
2500.0
 40
18.86965093
100
AcDbArc
 50
84.08482032
 51
88.74811714
  0
LWPOLYLINE
  5
FB
100
AcDbEntity
  8
MST_1_1
 62
   251
  6
CONTINUOUS
100
AcDbPolyline
 90
        3
 70
     0
 43
0.0
 38
2500.0
 10
9.93749597
 20
8.54545025
 10
6.22017637
 20
9.27361074
 42
0.01723995
 10
4.9357159
 20
9.47952259
  0
LWPOLYLINE
  5
FC
100
AcDbEntity
  8
MST_1_1
 62
   251
  6
CONTINUOUS
100
AcDbPolyline
 90
        3
 70
     0
 43
0.0
 38
2500.0
 10
9.93749597
 20
8.54545025
 10
6.22017637
 20
7.81728977
 42
-0.0063851
 10
5.74610067
 20
7.73069721
  0
ARC
  5
FD
100
AcDbEntity
  8
MST_1_1
 62
   251
  6
CONTINUOUS
100
AcDbCircle
 10
2.59286399
 20
26.33501995
 30
2500.0
 40
18.86965093
100
AcDbArc
 50
274.21680449
 51
278.53995004
  0
LWPOLYLINE
  5
FE
100
AcDbEntity
  8
MST_1_1
 62
   137
  6
CONTINUOUS
100
AcDbPolyline
 90
        6
 70
     0
 43
0.0
 38
2500.0
 10
6.62041656
 20
9.56963522
 10
6.53749597
 20
9.21145316
 10
7.25225448
 20
7.66899102
 10
7.33155291
 20
8.03498977
 10
6.62041656
 20
9.56963522
 10
7.23856408
 20
7.69853516
  0
LWPOLYLINE
  5
FF
100
AcDbEntity
  8
MST_1_1
 62
   137
  6
CONTINUOUS
100
AcDbPolyline
 90
        6
 70
     0
 43
0.0
 38
2500.0
 10
4.6926037
 20
-49.70454963
 10
4.53749597
 20
-50.37454975
 10
5.84888413
 20
-53.20454975
 10
6.00399192
 20
-52.53454975
 10
4.6926037
 20
-49.70454963
 10
5.84888413
 20
-53.20454975
  0
LINE
  5
100
100
AcDbEntity
  8
MST_1_1
 62
   251
  6
CONTINUOUS
100
AcDbLine
 10
4.00399192
 20
-52.53454975
 30
2500.0
 11
5.53841414
 21
-52.53454975
 31
2500.0
  0
LINE
  5
101
100
AcDbEntity
  8
MST_1_1
 62
   251
  6
CONTINUOUS
100
AcDbLine
 10
4.53749597
 20
-50.37454975
 30
2500.0
 11
3.00307375
 21
-50.37454975
 31
2500.0
  0
LWPOLYLINE
  5
102
100
AcDbEntity
  8
MST_1_1
 62
     1
  6
BORDER
100
AcDbPolyline
 90
        3
 70
     0
 43
0.0
 10
27.93749597
 20
-111.45454975
 10
-2.06250403
 20
-111.45454975
 10
-7.06250403
 20
-111.45454975
  0
LINE
  5
103
100
AcDbEntity
  8
MST_1_1
 62
   137
  6
CONTINUOUS
100
AcDbLine
 10
-2.06250403
 20
-111.45454975
 30
0.0
 11
-2.06250403
 21
-107.95454975
 31
0.0
  0
LINE
  5
104
100
AcDbEntity
  8
MST_1_1
 62
   137
  6
CONTINUOUS
100
AcDbLine
 10
-2.06250403
 20
-107.95454975
 30
0.0
 11
-1.97500406
 21
-107.95454975
 31
0.0
  0
LWPOLYLINE
  5
105
100
AcDbEntity
  8
MST_1_1
 62
   137
  6
CONTINUOUS
100
AcDbPolyline
 90
        6
 70
     0
 43
0.0
 38
2500.0
 10
2.6926037
 20
-109.70454963
 10
2.53749597
 20
-110.37454975
 10
3.84888413
 20
-113.20454975
 10
4.00399192
 20
-112.53454975
 10
2.6926037
 20
-109.70454963
 10
3.84888413
 20
-113.20454975
  0
LINE
  5
106
100
AcDbEntity
  8
MST_1_1
 62
   137
  6
CONTINUOUS
100
AcDbLine
 10
0.03749597
 20
-110.37454975
 30
2500.0
 11
2.53749597
 21
-110.37454975
 31
2500.0
  0
LWPOLYLINE
  5
107
100
AcDbEntity
  8
MST_1_1
 62
   137
  6
CONTINUOUS
100
AcDbPolyline
 90
        4
 70
     0
 43
0.0
 38
2500.0
 10
1.53841414
 20
-112.53454975
 10
1.84888413
 20
-113.20454975
 10
2.00399192
 20
-112.53454975
 10
1.7713414
 20
-112.03248561
  0
LINE
  5
108
100
AcDbEntity
  8
MST_1_1
 62
   137
  6
CONTINUOUS
100
AcDbLine
 10
1.59047038
 20
-112.42234489
 30
2500.0
 11
1.84888413
 21
-113.20454975
 31
2500.0
  0
LINE
  5
109
100
AcDbEntity
  8
MST_1_1
 62
   137
  6
CONTINUOUS
100
AcDbLine
 10
1.53841414
 20
-112.53454975
 30
2500.0
 11
1.7713414
 21
-112.03248561
 31
2500.0
  0
LINE
  5
10A
100
AcDbEntity
  8
MST_1_1
 62
   137
  6
CONTINUOUS
100
AcDbLine
 10
3.53841414
 20
-112.53454975
 30
2500.0
 11
2.00399192
 21
-112.53454975
 31
2500.0
  0
LINE
  5
10B
100
AcDbEntity
  8
MST_1_1
 62
   137
  6
CONTINUOUS
100
AcDbLine
 10
1.53841414
 20
-112.53454975
 30
2500.0
 11
0.03749597
 21
-112.53454975
 31
2500.0
  0
LINE
  5
10C
100
AcDbEntity
  8
MST_1_1
 62
   137
  6
CONTINUOUS
100
AcDbLine
 10
-1.97500406
 20
-107.95454975
 30
0.0
 11
0.03749597
 21
-110.37454975
 31
0.0
  0
LINE
  5
10D
100
AcDbEntity
  8
MST_1_1
 62
   137
  6
CONTINUOUS
100
AcDbLine
 10
0.03749597
 20
-112.53454975
 30
0.0
 11
-1.97500406
 21
-114.95454975
 31
0.0
  0
LINE
  5
10E
100
AcDbEntity
  8
MST_1_1
 62
   137
  6
CONTINUOUS
100
AcDbLine
 10
-1.97500406
 20
-114.95454975
 30
0.0
 11
-2.06250403
 21
-114.95454975
 31
0.0
  0
LINE
  5
10F
100
AcDbEntity
  8
MST_1_1
 62
   137
  6
CONTINUOUS
100
AcDbLine
 10
-2.06250403
 20
-114.95454975
 30
0.0
 11
-2.06250403
 21
-111.45454975
 31
0.0
  0
LWPOLYLINE
  5
110
100
AcDbEntity
  8
MST_1_1
 62
   137
  6
CONTINUOUS
100
AcDbPolyline
 90
        6
 70
     0
 43
0.0
 38
2500.0
 10
4.6926037
 20
-109.70454963
 10
4.53749597
 20
-110.37454975
 10
5.84888413
 20
-113.20454975
 10
6.00399192
 20
-112.53454975
 10
4.6926037
 20
-109.70454963
 10
5.84888413
 20
-113.20454975
  0
LWPOLYLINE
  5
111
100
AcDbEntity
  8
MST_1_1
 62
   137
  6
CONTINUOUS
100
AcDbPolyline
 90
        6
 70
     0
 43
0.0
 38
2500.0
 10
6.6926037
 20
-109.70454963
 10
6.53749597
 20
-110.37454975
 10
7.84888413
 20
-113.20454975
 10
8.00399192
 20
-112.53454975
 10
6.6926037
 20
-109.70454963
 10
7.84888413
 20
-113.20454975
  0
LWPOLYLINE
  5
112
100
AcDbEntity
  8
MST_1_1
 62
   137
  6
CONTINUOUS
100
AcDbPolyline
 90
        6
 70
     0
 43
0.0
 38
2500.0
 10
8.6926037
 20
-109.70454963
 10
8.53749597
 20
-110.37454975
 10
9.84888413
 20
-113.20454975
 10
10.00399192
 20
-112.53454975
 10
8.6926037
 20
-109.70454963
 10
9.84888413
 20
-113.20454975
  0
LWPOLYLINE
  5
113
100
AcDbEntity
  8
MST_1_1
 62
   137
  6
CONTINUOUS
100
AcDbPolyline
 90
        6
 70
     0
 43
0.0
 38
2500.0
 10
10.6926037
 20
-109.70454963
 10
10.53749597
 20
-110.37454975
 10
11.84888413
 20
-113.20454975
 10
12.00399192
 20
-112.53454975
 10
10.6926037
 20
-109.70454963
 10
11.84888413
 20
-113.20454975
  0
LWPOLYLINE
  5
114
100
AcDbEntity
  8
MST_1_1
 62
   137
  6
CONTINUOUS
100
AcDbPolyline
 90
        6
 70
     0
 43
0.0
 38
2500.0
 10
12.6926037
 20
-109.70454963
 10
12.53749597
 20
-110.37454975
 10
13.84888413
 20
-113.20454975
 10
14.00399192
 20
-112.53454975
 10
12.6926037
 20
-109.70454963
 10
13.84888413
 20
-113.20454975
  0
LWPOLYLINE
  5
115
100
AcDbEntity
  8
MST_1_1
 62
   137
  6
CONTINUOUS
100
AcDbPolyline
 90
        6
 70
     0
 43
0.0
 38
2500.0
 10
18.6926037
 20
-109.70454963
 10
18.53749597
 20
-110.37454975
 10
19.84888413
 20
-113.20454975
 10
20.00399192
 20
-112.53454975
 10
18.6926037
 20
-109.70454963
 10
19.84888413
 20
-113.20454975
  0
LWPOLYLINE
  5
116
100
AcDbEntity
  8
MST_1_1
 62
   137
  6
CONTINUOUS
100
AcDbPolyline
 90
        6
 70
     0
 43
0.0
 38
2500.0
 10
20.6926037
 20
-109.70454963
 10
20.53749597
 20
-110.37454975
 10
21.84888413
 20
-113.20454975
 10
21.98035934
 20
-112.48355021
 10
20.6926037
 20
-109.70454963
 10
21.84888413
 20
-113.20454975
  0
LWPOLYLINE
  5
117
100
AcDbEntity
  8
MST_1_1
 62
   137
  6
CONTINUOUS
100
AcDbPolyline
 90
        6
 70
     0
 43
0.0
 38
2500.0
 10
22.66313323
 20
-109.93223895
 10
22.53749597
 20
-110.47493905
 10
23.62046341
 20
-112.81200289
 10
23.74610067
 20
-112.26930279
 10
22.66313323
 20
-109.93223895
 10
23.59972038
 20
-112.76723905
  0
LINE
  5
118
100
AcDbEntity
  8
MST_1_1
 62
   251
  6
CONTINUOUS
100
AcDbLine
 10
4.00399192
 20
-112.53454975
 30
2500.0
 11
5.53841414
 21
-112.53454975
 31
2500.0
  0
LINE
  5
119
100
AcDbEntity
  8
MST_1_1
 62
   251
  6
CONTINUOUS
100
AcDbLine
 10
6.00399192
 20
-112.53454975
 30
2500.0
 11
7.53841414
 21
-112.53454975
 31
2500.0
  0
LINE
  5
11A
100
AcDbEntity
  8
MST_1_1
 62
   251
  6
CONTINUOUS
100
AcDbLine
 10
8.00399192
 20
-112.53454975
 30
2500.0
 11
9.53841414
 21
-112.53454975
 31
2500.0
  0
LINE
  5
11B
100
AcDbEntity
  8
MST_1_1
 62
   251
  6
CONTINUOUS
100
AcDbLine
 10
10.00399192
 20
-112.53454975
 30
2500.0
 11
11.53841414
 21
-112.53454975
 31
2500.0
  0
LINE
  5
11C
100
AcDbEntity
  8
MST_1_1
 62
   251
  6
CONTINUOUS
100
AcDbLine
 10
12.00399192
 20
-112.53454975
 30
2500.0
 11
13.53841414
 21
-112.53454975
 31
2500.0
  0
LINE
  5
11D
100
AcDbEntity
  8
MST_1_1
 62
   251
  6
CONTINUOUS
100
AcDbLine
 10
18.00399192
 20
-112.53454975
 30
2500.0
 11
19.53841414
 21
-112.53454975
 31
2500.0
  0
LINE
  5
11E
100
AcDbEntity
  8
MST_1_1
 62
   251
  6
CONTINUOUS
100
AcDbLine
 10
20.00399192
 20
-112.53454975
 30
2500.0
 11
21.0051232
 21
-112.53012698
 31
2500.0
  0
LINE
  5
11F
100
AcDbEntity
  8
MST_1_1
 62
   251
  6
CONTINUOUS
100
AcDbLine
 10
4.53749597
 20
-110.37454975
 30
2500.0
 11
3.00307375
 21
-110.37454975
 31
2500.0
  0
LINE
  5
120
100
AcDbEntity
  8
MST_1_1
 62
   251
  6
CONTINUOUS
100
AcDbLine
 10
6.53749597
 20
-110.37454975
 30
2500.0
 11
5.00307375
 21
-110.37454975
 31
2500.0
  0
LINE
  5
121
100
AcDbEntity
  8
MST_1_1
 62
   251
  6
CONTINUOUS
100
AcDbLine
 10
8.53749597
 20
-110.37454975
 30
2500.0
 11
7.00307375
 21
-110.37454975
 31
2500.0
  0
LINE
  5
122
100
AcDbEntity
  8
MST_1_1
 62
   251
  6
CONTINUOUS
100
AcDbLine
 10
10.53749597
 20
-110.37454975
 30
2500.0
 11
9.00307375
 21
-110.37454975
 31
2500.0
  0
LINE
  5
123
100
AcDbEntity
  8
MST_1_1
 62
   251
  6
CONTINUOUS
100
AcDbLine
 10
12.53749597
 20
-110.37454975
 30
2500.0
 11
11.00307375
 21
-110.37454975
 31
2500.0
  0
LINE
  5
124
100
AcDbEntity
  8
MST_1_1
 62
   251
  6
CONTINUOUS
100
AcDbLine
 10
18.53749597
 20
-110.37454975
 30
2500.0
 11
17.00307375
 21
-110.37454975
 31
2500.0
  0
LINE
  5
125
100
AcDbEntity
  8
MST_1_1
 62
   251
  6
CONTINUOUS
100
AcDbLine
 10
20.53749597
 20
-110.37454975
 30
2500.0
 11
19.00307375
 21
-110.37454975
 31
2500.0
  0
ARC
  5
126
100
AcDbEntity
  8
MST_1_1
 62
   251
  6
CONTINUOUS
100
AcDbCircle
 10
20.59286399
 20
-129.24411945
 30
2500.0
 40
18.86965093
100
AcDbArc
 50
84.08482032
 51
88.74811714
  0
LWPOLYLINE
  5
127
100
AcDbEntity
  8
MST_1_1
 62
   251
  6
CONTINUOUS
100
AcDbPolyline
 90
        3
 70
     0
 43
0.0
 38
2500.0
 10
27.93749597
 20
-111.45454975
 10
24.22017637
 20
-110.72638926
 42
0.01723995
 10
22.9357159
 20
-110.52047741
  0
ARC
  5
128
100
AcDbEntity
  8
MST_1_1
 62
   251
  6
CONTINUOUS
100
AcDbCircle
 10
20.59286399
 20
-93.66498005
 30
2500.0
 40
18.86965093
100
AcDbArc
 50
271.25189287
 51
272.83975061
  0
LWPOLYLINE
  5
129
100
AcDbEntity
  8
MST_1_1
 62
   251
  6
CONTINUOUS
100
AcDbPolyline
 90
        3
 70
     0
 43
0.0
 38
2500.0
 10
27.93749597
 20
-111.45454975
 10
24.22017637
 20
-112.18271023
 42
-0.0063851
 10
23.74610067
 20
-112.26930279
  0
ARC
  5
12A
100
AcDbEntity
  8
MST_1_1
 62
   251
  6
CONTINUOUS
100
AcDbCircle
 10
20.59286399
 20
-93.66498005
 30
2500.0
 40
18.86965093
100
AcDbArc
 50
274.21680449
 51
278.53995004
  0
LWPOLYLINE
  5
12B
100
AcDbEntity
  8
MST_1_1
 62
   137
  6
CONTINUOUS
100
AcDbPolyline
 90
        6
 70
     0
 43
0.0
 38
2500.0
 10
24.62041656
 20
-110.43036478
 10
24.53749597
 20
-110.78854684
 10
25.25225448
 20
-112.33100898
 10
25.33155291
 20
-111.96501023
 10
24.62041656
 20
-110.43036478
 10
25.23856408
 20
-112.30146484
  0
LWPOLYLINE
  5
12C
100
AcDbEntity
  8
MST_1_1
 62
     1
  6
BORDER
100
AcDbPolyline
 90
        3
 70
     0
 43
0.0
 10
32.93749597
 20
-141.45454975
 10
-2.06250403
 20
-141.45454975
 10
-7.06250403
 20
-141.45454975
  0
LINE
  5
12D
100
AcDbEntity
  8
MST_1_1
 62
   137
  6
CONTINUOUS
100
AcDbLine
 10
-2.06250403
 20
-141.45454975
 30
0.0
 11
-2.06250403
 21
-137.95454975
 31
0.0
  0
LINE
  5
12E
100
AcDbEntity
  8
MST_1_1
 62
   137
  6
CONTINUOUS
100
AcDbLine
 10
-2.06250403
 20
-137.95454975
 30
0.0
 11
-1.97500406
 21
-137.95454975
 31
0.0
  0
LWPOLYLINE
  5
12F
100
AcDbEntity
  8
MST_1_1
 62
   137
  6
CONTINUOUS
100
AcDbPolyline
 90
        6
 70
     0
 43
0.0
 38
2500.0
 10
1.6926037
 20
-139.70454963
 10
1.53749597
 20
-140.37454975
 10
2.84888413
 20
-143.20454975
 10
3.00399192
 20
-142.53454975
 10
1.6926037
 20
-139.70454963
 10
2.84888413
 20
-143.20454975
  0
LINE
  5
130
100
AcDbEntity
  8
MST_1_1
 62
   137
  6
CONTINUOUS
100
AcDbLine
 10
0.03749597
 20
-140.37454975
 30
2500.0
 11
1.53749597
 21
-140.37454975
 31
2500.0
  0
LWPOLYLINE
  5
131
100
AcDbEntity
  8
MST_1_1
 62
   137
  6
CONTINUOUS
100
AcDbPolyline
 90
        4
 70
     0
 43
0.0
 38
2500.0
 10
0.53841414
 20
-142.53454975
 10
0.84888413
 20
-143.20454975
 10
1.00399192
 20
-142.53454975
 10
0.7713414
 20
-142.03248561
  0
LINE
  5
132
100
AcDbEntity
  8
MST_1_1
 62
   137
  6
CONTINUOUS
100
AcDbLine
 10
0.59047038
 20
-142.42234489
 30
2500.0
 11
0.84888413
 21
-143.20454975
 31
2500.0
  0
LINE
  5
133
100
AcDbEntity
  8
MST_1_1
 62
   137
  6
CONTINUOUS
100
AcDbLine
 10
0.53841414
 20
-142.53454975
 30
2500.0
 11
0.7713414
 21
-142.03248561
 31
2500.0
  0
LINE
  5
134
100
AcDbEntity
  8
MST_1_1
 62
   137
  6
CONTINUOUS
100
AcDbLine
 10
2.53841414
 20
-142.53454975
 30
2500.0
 11
1.00399192
 21
-142.53454975
 31
2500.0
  0
LINE
  5
135
100
AcDbEntity
  8
MST_1_1
 62
   137
  6
CONTINUOUS
100
AcDbLine
 10
0.53841414
 20
-142.53454975
 30
2500.0
 11
0.03749597
 21
-142.53454975
 31
2500.0
  0
LINE
  5
136
100
AcDbEntity
  8
MST_1_1
 62
   137
  6
CONTINUOUS
100
AcDbLine
 10
-1.97500406
 20
-137.95454975
 30
0.0
 11
0.03749597
 21
-140.37454975
 31
0.0
  0
LINE
  5
137
100
AcDbEntity
  8
MST_1_1
 62
   137
  6
CONTINUOUS
100
AcDbLine
 10
0.03749597
 20
-142.53454975
 30
0.0
 11
-1.97500406
 21
-144.95454975
 31
0.0
  0
LINE
  5
138
100
AcDbEntity
  8
MST_1_1
 62
   137
  6
CONTINUOUS
100
AcDbLine
 10
-1.97500406
 20
-144.95454975
 30
0.0
 11
-2.06250403
 21
-144.95454975
 31
0.0
  0
LINE
  5
139
100
AcDbEntity
  8
MST_1_1
 62
   137
  6
CONTINUOUS
100
AcDbLine
 10
-2.06250403
 20
-144.95454975
 30
0.0
 11
-2.06250403
 21
-141.45454975
 31
0.0
  0
LWPOLYLINE
  5
13A
100
AcDbEntity
  8
MST_1_1
 62
   137
  6
CONTINUOUS
100
AcDbPolyline
 90
        6
 70
     0
 43
0.0
 38
2500.0
 10
3.6926037
 20
-139.70454963
 10
3.53749597
 20
-140.37454975
 10
4.84888413
 20
-143.20454975
 10
5.00399192
 20
-142.53454975
 10
3.6926037
 20
-139.70454963
 10
4.84888413
 20
-143.20454975
  0
LWPOLYLINE
  5
13B
100
AcDbEntity
  8
MST_1_1
 62
   137
  6
CONTINUOUS
100
AcDbPolyline
 90
        6
 70
     0
 43
0.0
 38
2500.0
 10
5.6926037
 20
-139.70454963
 10
5.53749597
 20
-140.37454975
 10
6.84888413
 20
-143.20454975
 10
7.00399192
 20
-142.53454975
 10
5.6926037
 20
-139.70454963
 10
6.84888413
 20
-143.20454975
  0
LWPOLYLINE
  5
13C
100
AcDbEntity
  8
MST_1_1
 62
   137
  6
CONTINUOUS
100
AcDbPolyline
 90
        6
 70
     0
 43
0.0
 38
2500.0
 10
7.6926037
 20
-139.70454963
 10
7.53749597
 20
-140.37454975
 10
8.84888413
 20
-143.20454975
 10
9.00399192
 20
-142.53454975
 10
7.6926037
 20
-139.70454963
 10
8.84888413
 20
-143.20454975
  0
LWPOLYLINE
  5
13D
100
AcDbEntity
  8
MST_1_1
 62
   137
  6
CONTINUOUS
100
AcDbPolyline
 90
        6
 70
     0
 43
0.0
 38
2500.0
 10
9.6926037
 20
-139.70454963
 10
9.53749597
 20
-140.37454975
 10
10.84888413
 20
-143.20454975
 10
11.00399192
 20
-142.53454975
 10
9.6926037
 20
-139.70454963
 10
10.84888413
 20
-143.20454975
  0
LWPOLYLINE
  5
13E
100
AcDbEntity
  8
MST_1_1
 62
   137
  6
CONTINUOUS
100
AcDbPolyline
 90
        6
 70
     0
 43
0.0
 38
2500.0
 10
21.6926037
 20
-139.70454963
 10
21.53749597
 20
-140.37454975
 10
22.84888413
 20
-143.20454975
 10
23.00399192
 20
-142.53454975
 10
21.6926037
 20
-139.70454963
 10
22.84888413
 20
-143.20454975
  0
LWPOLYLINE
  5
13F
100
AcDbEntity
  8
MST_1_1
 62
   137
  6
CONTINUOUS
100
AcDbPolyline
 90
        6
 70
     0
 43
0.0
 38
2500.0
 10
23.6926037
 20
-139.70454963
 10
23.53749597
 20
-140.37454975
 10
24.84888413
 20
-143.20454975
 10
25.00399192
 20
-142.53454975
 10
23.6926037
 20
-139.70454963
 10
24.84888413
 20
-143.20454975
  0
LWPOLYLINE
  5
140
100
AcDbEntity
  8
MST_1_1
 62
   137
  6
CONTINUOUS
100
AcDbPolyline
 90
        6
 70
     0
 43
0.0
 38
2500.0
 10
25.6926037
 20
-139.70454963
 10
25.53749597
 20
-140.37454975
 10
26.84888413
 20
-143.20454975
 10
26.98035934
 20
-142.48355021
 10
25.6926037
 20
-139.70454963
 10
26.84888413
 20
-143.20454975
  0
LWPOLYLINE
  5
141
100
AcDbEntity
  8
MST_1_1
 62
   137
  6
CONTINUOUS
100
AcDbPolyline
 90
        6
 70
     0
 43
0.0
 38
2500.0
 10
27.66313323
 20
-139.93223895
 10
27.53749597
 20
-140.47493905
 10
28.62046341
 20
-142.81200289
 10
28.74610067
 20
-142.26930279
 10
27.66313323
 20
-139.93223895
 10
28.59972038
 20
-142.76723905
  0
LINE
  5
142
100
AcDbEntity
  8
MST_1_1
 62
   251
  6
CONTINUOUS
100
AcDbLine
 10
3.00399192
 20
-142.53454975
 30
2500.0
 11
4.53841414
 21
-142.53454975
 31
2500.0
  0
LINE
  5
143
100
AcDbEntity
  8
MST_1_1
 62
   251
  6
CONTINUOUS
100
AcDbLine
 10
5.00399192
 20
-142.53454975
 30
2500.0
 11
6.53841414
 21
-142.53454975
 31
2500.0
  0
LINE
  5
144
100
AcDbEntity
  8
MST_1_1
 62
   251
  6
CONTINUOUS
100
AcDbLine
 10
7.00399192
 20
-142.53454975
 30
2500.0
 11
8.53841414
 21
-142.53454975
 31
2500.0
  0
LINE
  5
145
100
AcDbEntity
  8
MST_1_1
 62
   251
  6
CONTINUOUS
100
AcDbLine
 10
9.00399192
 20
-142.53454975
 30
2500.0
 11
10.53841414
 21
-142.53454975
 31
2500.0
  0
LINE
  5
146
100
AcDbEntity
  8
MST_1_1
 62
   251
  6
CONTINUOUS
100
AcDbLine
 10
21.00399192
 20
-142.53454975
 30
2500.0
 11
22.53841414
 21
-142.53454975
 31
2500.0
  0
LINE
  5
147
100
AcDbEntity
  8
MST_1_1
 62
   251
  6
CONTINUOUS
100
AcDbLine
 10
23.00399192
 20
-142.53454975
 30
2500.0
 11
24.53841414
 21
-142.53454975
 31
2500.0
  0
LINE
  5
148
100
AcDbEntity
  8
MST_1_1
 62
   251
  6
CONTINUOUS
100
AcDbLine
 10
25.00399192
 20
-142.53454975
 30
2500.0
 11
26.0051232
 21
-142.53012698
 31
2500.0
  0
LINE
  5
149
100
AcDbEntity
  8
MST_1_1
 62
   251
  6
CONTINUOUS
100
AcDbLine
 10
3.53749597
 20
-140.37454975
 30
2500.0
 11
2.00307375
 21
-140.37454975
 31
2500.0
  0
LINE
  5
14A
100
AcDbEntity
  8
MST_1_1
 62
   251
  6
CONTINUOUS
100
AcDbLine
 10
5.53749597
 20
-140.37454975
 30
2500.0
 11
4.00307375
 21
-140.37454975
 31
2500.0
  0
LINE
  5
14B
100
AcDbEntity
  8
MST_1_1
 62
   251
  6
CONTINUOUS
100
AcDbLine
 10
7.53749597
 20
-140.37454975
 30
2500.0
 11
6.00307375
 21
-140.37454975
 31
2500.0
  0
LINE
  5
14C
100
AcDbEntity
  8
MST_1_1
 62
   251
  6
CONTINUOUS
100
AcDbLine
 10
9.53749597
 20
-140.37454975
 30
2500.0
 11
8.00307375
 21
-140.37454975
 31
2500.0
  0
LINE
  5
14D
100
AcDbEntity
  8
MST_1_1
 62
   251
  6
CONTINUOUS
100
AcDbLine
 10
21.53749597
 20
-140.37454975
 30
2500.0
 11
20.00307375
 21
-140.37454975
 31
2500.0
  0
LINE
  5
14E
100
AcDbEntity
  8
MST_1_1
 62
   251
  6
CONTINUOUS
100
AcDbLine
 10
23.53749597
 20
-140.37454975
 30
2500.0
 11
22.00307375
 21
-140.37454975
 31
2500.0
  0
LINE
  5
14F
100
AcDbEntity
  8
MST_1_1
 62
   251
  6
CONTINUOUS
100
AcDbLine
 10
25.53749597
 20
-140.37454975
 30
2500.0
 11
24.00307375
 21
-140.37454975
 31
2500.0
  0
ARC
  5
150
100
AcDbEntity
  8
MST_1_1
 62
   251
  6
CONTINUOUS
100
AcDbCircle
 10
25.59286399
 20
-159.24411945
 30
2500.0
 40
18.86965093
100
AcDbArc
 50
84.08482032
 51
88.74811714
  0
LWPOLYLINE
  5
151
100
AcDbEntity
  8
MST_1_1
 62
   251
  6
CONTINUOUS
100
AcDbPolyline
 90
        3
 70
     0
 43
0.0
 38
2500.0
 10
32.93749597
 20
-141.45454975
 10
29.22017637
 20
-140.72638926
 42
0.01723995
 10
27.9357159
 20
-140.52047741
  0
ARC
  5
152
100
AcDbEntity
  8
MST_1_1
 62
   251
  6
CONTINUOUS
100
AcDbCircle
 10
25.59286399
 20
-123.66498005
 30
2500.0
 40
18.86965093
100
AcDbArc
 50
271.25189287
 51
272.83975061
  0
LWPOLYLINE
  5
153
100
AcDbEntity
  8
MST_1_1
 62
   251
  6
CONTINUOUS
100
AcDbPolyline
 90
        3
 70
     0
 43
0.0
 38
2500.0
 10
32.93749597
 20
-141.45454975
 10
29.22017637
 20
-142.18271023
 42
-0.0063851
 10
28.74610067
 20
-142.26930279
  0
ARC
  5
154
100
AcDbEntity
  8
MST_1_1
 62
   251
  6
CONTINUOUS
100
AcDbCircle
 10
25.59286399
 20
-123.66498005
 30
2500.0
 40
18.86965093
100
AcDbArc
 50
274.21680449
 51
278.53995004
  0
LWPOLYLINE
  5
155
100
AcDbEntity
  8
MST_1_1
 62
   137
  6
CONTINUOUS
100
AcDbPolyline
 90
        6
 70
     0
 43
0.0
 38
2500.0
 10
29.62041656
 20
-140.43036478
 10
29.53749597
 20
-140.78854684
 10
30.25225448
 20
-142.33100898
 10
30.33155291
 20
-141.96501023
 10
29.62041656
 20
-140.43036478
 10
30.23856408
 20
-142.30146484
  0
LWPOLYLINE
  5
156
100
AcDbEntity
  8
MST_1_1
 62
     1
  6
BORDER
100
AcDbPolyline
 90
        3
 70
     0
 43
0.0
 10
37.93749597
 20
-171.45454975
 10
-2.06250403
 20
-171.45454975
 10
-7.06250403
 20
-171.45454975
  0
LINE
  5
157
100
AcDbEntity
  8
MST_1_1
 62
   137
  6
CONTINUOUS
100
AcDbLine
 10
-2.06250403
 20
-171.45454975
 30
0.0
 11
-2.06250403
 21
-167.95454975
 31
0.0
  0
LINE
  5
158
100
AcDbEntity
  8
MST_1_1
 62
   137
  6
CONTINUOUS
100
AcDbLine
 10
-2.06250403
 20
-167.95454975
 30
0.0
 11
-1.97500406
 21
-167.95454975
 31
0.0
  0
LWPOLYLINE
  5
159
100
AcDbEntity
  8
MST_1_1
 62
   137
  6
CONTINUOUS
100
AcDbPolyline
 90
        6
 70
     0
 43
0.0
 38
2500.0
 10
2.6926037
 20
-169.70454963
 10
2.53749597
 20
-170.37454975
 10
3.84888413
 20
-173.20454975
 10
4.00399192
 20
-172.53454975
 10
2.6926037
 20
-169.70454963
 10
3.84888413
 20
-173.20454975
  0
LINE
  5
15A
100
AcDbEntity
  8
MST_1_1
 62
   137
  6
CONTINUOUS
100
AcDbLine
 10
0.03749597
 20
-170.37454975
 30
2500.0
 11
2.53749597
 21
-170.37454975
 31
2500.0
  0
LWPOLYLINE
  5
15B
100
AcDbEntity
  8
MST_1_1
 62
   137
  6
CONTINUOUS
100
AcDbPolyline
 90
        4
 70
     0
 43
0.0
 38
2500.0
 10
1.53841414
 20
-172.53454975
 10
1.84888413
 20
-173.20454975
 10
2.00399192
 20
-172.53454975
 10
1.7713414
 20
-172.03248561
  0
LINE
  5
15C
100
AcDbEntity
  8
MST_1_1
 62
   137
  6
CONTINUOUS
100
AcDbLine
 10
1.59047038
 20
-172.42234489
 30
2500.0
 11
1.84888413
 21
-173.20454975
 31
2500.0
  0
LINE
  5
15D
100
AcDbEntity
  8
MST_1_1
 62
   137
  6
CONTINUOUS
100
AcDbLine
 10
1.53841414
 20
-172.53454975
 30
2500.0
 11
1.7713414
 21
-172.03248561
 31
2500.0
  0
LINE
  5
15E
100
AcDbEntity
  8
MST_1_1
 62
   137
  6
CONTINUOUS
100
AcDbLine
 10
3.53841414
 20
-172.53454975
 30
2500.0
 11
2.00399192
 21
-172.53454975
 31
2500.0
  0
LINE
  5
15F
100
AcDbEntity
  8
MST_1_1
 62
   137
  6
CONTINUOUS
100
AcDbLine
 10
1.53841414
 20
-172.53454975
 30
2500.0
 11
0.03749597
 21
-172.53454975
 31
2500.0
  0
LINE
  5
160
100
AcDbEntity
  8
MST_1_1
 62
   137
  6
CONTINUOUS
100
AcDbLine
 10
-1.97500406
 20
-167.95454975
 30
0.0
 11
0.03749597
 21
-170.37454975
 31
0.0
  0
LINE
  5
161
100
AcDbEntity
  8
MST_1_1
 62
   137
  6
CONTINUOUS
100
AcDbLine
 10
0.03749597
 20
-172.53454975
 30
0.0
 11
-1.97500406
 21
-174.95454975
 31
0.0
  0
LINE
  5
162
100
AcDbEntity
  8
MST_1_1
 62
   137
  6
CONTINUOUS
100
AcDbLine
 10
-1.97500406
 20
-174.95454975
 30
0.0
 11
-2.06250403
 21
-174.95454975
 31
0.0
  0
LINE
  5
163
100
AcDbEntity
  8
MST_1_1
 62
   137
  6
CONTINUOUS
100
AcDbLine
 10
-2.06250403
 20
-174.95454975
 30
0.0
 11
-2.06250403
 21
-171.45454975
 31
0.0
  0
LWPOLYLINE
  5
164
100
AcDbEntity
  8
MST_1_1
 62
   137
  6
CONTINUOUS
100
AcDbPolyline
 90
        6
 70
     0
 43
0.0
 38
2500.0
 10
4.6926037
 20
-169.70454963
 10
4.53749597
 20
-170.37454975
 10
5.84888413
 20
-173.20454975
 10
6.00399192
 20
-172.53454975
 10
4.6926037
 20
-169.70454963
 10
5.84888413
 20
-173.20454975
  0
LWPOLYLINE
  5
165
100
AcDbEntity
  8
MST_1_1
 62
   137
  6
CONTINUOUS
100
AcDbPolyline
 90
        6
 70
     0
 43
0.0
 38
2500.0
 10
6.6926037
 20
-169.70454963
 10
6.53749597
 20
-170.37454975
 10
7.84888413
 20
-173.20454975
 10
8.00399192
 20
-172.53454975
 10
6.6926037
 20
-169.70454963
 10
7.84888413
 20
-173.20454975
  0
LWPOLYLINE
  5
166
100
AcDbEntity
  8
MST_1_1
 62
   137
  6
CONTINUOUS
100
AcDbPolyline
 90
        6
 70
     0
 43
0.0
 38
2500.0
 10
8.6926037
 20
-169.70454963
 10
8.53749597
 20
-170.37454975
 10
9.84888413
 20
-173.20454975
 10
10.00399192
 20
-172.53454975
 10
8.6926037
 20
-169.70454963
 10
9.84888413
 20
-173.20454975
  0
LWPOLYLINE
  5
167
100
AcDbEntity
  8
MST_1_1
 62
   137
  6
CONTINUOUS
100
AcDbPolyline
 90
        6
 70
     0
 43
0.0
 38
2500.0
 10
10.6926037
 20
-169.70454963
 10
10.53749597
 20
-170.37454975
 10
11.84888413
 20
-173.20454975
 10
12.00399192
 20
-172.53454975
 10
10.6926037
 20
-169.70454963
 10
11.84888413
 20
-173.20454975
  0
LWPOLYLINE
  5
168
100
AcDbEntity
  8
MST_1_1
 62
   137
  6
CONTINUOUS
100
AcDbPolyline
 90
        6
 70
     0
 43
0.0
 38
2500.0
 10
26.6926037
 20
-169.70454963
 10
26.53749597
 20
-170.37454975
 10
27.84888413
 20
-173.20454975
 10
28.00399192
 20
-172.53454975
 10
26.6926037
 20
-169.70454963
 10
27.84888413
 20
-173.20454975
  0
LWPOLYLINE
  5
169
100
AcDbEntity
  8
MST_1_1
 62
   137
  6
CONTINUOUS
100
AcDbPolyline
 90
        6
 70
     0
 43
0.0
 38
2500.0
 10
28.6926037
 20
-169.70454963
 10
28.53749597
 20
-170.37454975
 10
29.84888413
 20
-173.20454975
 10
30.00399192
 20
-172.53454975
 10
28.6926037
 20
-169.70454963
 10
29.84888413
 20
-173.20454975
  0
LWPOLYLINE
  5
16A
100
AcDbEntity
  8
MST_1_1
 62
   137
  6
CONTINUOUS
100
AcDbPolyline
 90
        6
 70
     0
 43
0.0
 38
2500.0
 10
30.6926037
 20
-169.70454963
 10
30.53749597
 20
-170.37454975
 10
31.84888413
 20
-173.20454975
 10
31.98035934
 20
-172.48355021
 10
30.6926037
 20
-169.70454963
 10
31.84888413
 20
-173.20454975
  0
LWPOLYLINE
  5
16B
100
AcDbEntity
  8
MST_1_1
 62
   137
  6
CONTINUOUS
100
AcDbPolyline
 90
        6
 70
     0
 43
0.0
 38
2500.0
 10
32.66313323
 20
-169.93223895
 10
32.53749597
 20
-170.47493905
 10
33.62046341
 20
-172.81200289
 10
33.74610067
 20
-172.26930279
 10
32.66313323
 20
-169.93223895
 10
33.59972038
 20
-172.76723905
  0
LINE
  5
16C
100
AcDbEntity
  8
MST_1_1
 62
   251
  6
CONTINUOUS
100
AcDbLine
 10
4.00399192
 20
-172.53454975
 30
2500.0
 11
5.53841414
 21
-172.53454975
 31
2500.0
  0
LINE
  5
16D
100
AcDbEntity
  8
MST_1_1
 62
   251
  6
CONTINUOUS
100
AcDbLine
 10
6.00399192
 20
-172.53454975
 30
2500.0
 11
7.53841414
 21
-172.53454975
 31
2500.0
  0
LINE
  5
16E
100
AcDbEntity
  8
MST_1_1
 62
   251
  6
CONTINUOUS
100
AcDbLine
 10
8.00399192
 20
-172.53454975
 30
2500.0
 11
9.53841414
 21
-172.53454975
 31
2500.0
  0
LINE
  5
16F
100
AcDbEntity
  8
MST_1_1
 62
   251
  6
CONTINUOUS
100
AcDbLine
 10
10.00399192
 20
-172.53454975
 30
2500.0
 11
11.53841414
 21
-172.53454975
 31
2500.0
  0
LINE
  5
170
100
AcDbEntity
  8
MST_1_1
 62
   251
  6
CONTINUOUS
100
AcDbLine
 10
26.00399192
 20
-172.53454975
 30
2500.0
 11
27.53841414
 21
-172.53454975
 31
2500.0
  0
LINE
  5
171
100
AcDbEntity
  8
MST_1_1
 62
   251
  6
CONTINUOUS
100
AcDbLine
 10
28.00399192
 20
-172.53454975
 30
2500.0
 11
29.53841414
 21
-172.53454975
 31
2500.0
  0
LINE
  5
172
100
AcDbEntity
  8
MST_1_1
 62
   251
  6
CONTINUOUS
100
AcDbLine
 10
30.00399192
 20
-172.53454975
 30
2500.0
 11
31.0051232
 21
-172.53012698
 31
2500.0
  0
LINE
  5
173
100
AcDbEntity
  8
MST_1_1
 62
   251
  6
CONTINUOUS
100
AcDbLine
 10
4.53749597
 20
-170.37454975
 30
2500.0
 11
3.00307375
 21
-170.37454975
 31
2500.0
  0
LINE
  5
174
100
AcDbEntity
  8
MST_1_1
 62
   251
  6
CONTINUOUS
100
AcDbLine
 10
6.53749597
 20
-170.37454975
 30
2500.0
 11
5.00307375
 21
-170.37454975
 31
2500.0
  0
LINE
  5
175
100
AcDbEntity
  8
MST_1_1
 62
   251
  6
CONTINUOUS
100
AcDbLine
 10
8.53749597
 20
-170.37454975
 30
2500.0
 11
7.00307375
 21
-170.37454975
 31
2500.0
  0
LINE
  5
176
100
AcDbEntity
  8
MST_1_1
 62
   251
  6
CONTINUOUS
100
AcDbLine
 10
10.53749597
 20
-170.37454975
 30
2500.0
 11
9.00307375
 21
-170.37454975
 31
2500.0
  0
LINE
  5
177
100
AcDbEntity
  8
MST_1_1
 62
   251
  6
CONTINUOUS
100
AcDbLine
 10
26.53749597
 20
-170.37454975
 30
2500.0
 11
25.00307375
 21
-170.37454975
 31
2500.0
  0
LINE
  5
178
100
AcDbEntity
  8
MST_1_1
 62
   251
  6
CONTINUOUS
100
AcDbLine
 10
28.53749597
 20
-170.37454975
 30
2500.0
 11
27.00307375
 21
-170.37454975
 31
2500.0
  0
LINE
  5
179
100
AcDbEntity
  8
MST_1_1
 62
   251
  6
CONTINUOUS
100
AcDbLine
 10
30.53749597
 20
-170.37454975
 30
2500.0
 11
29.00307375
 21
-170.37454975
 31
2500.0
  0
ARC
  5
17A
100
AcDbEntity
  8
MST_1_1
 62
   251
  6
CONTINUOUS
100
AcDbCircle
 10
30.59286399
 20
-189.24411945
 30
2500.0
 40
18.86965093
100
AcDbArc
 50
84.08482032
 51
88.74811714
  0
LWPOLYLINE
  5
17B
100
AcDbEntity
  8
MST_1_1
 62
   251
  6
CONTINUOUS
100
AcDbPolyline
 90
        3
 70
     0
 43
0.0
 38
2500.0
 10
37.93749597
 20
-171.45454975
 10
34.22017637
 20
-170.72638926
 42
0.01723995
 10
32.9357159
 20
-170.52047741
  0
ARC
  5
17C
100
AcDbEntity
  8
MST_1_1
 62
   251
  6
CONTINUOUS
100
AcDbCircle
 10
30.59286399
 20
-153.66498005
 30
2500.0
 40
18.86965093
100
AcDbArc
 50
271.25189287
 51
272.83975061
  0
LWPOLYLINE
  5
17D
100
AcDbEntity
  8
MST_1_1
 62
   251
  6
CONTINUOUS
100
AcDbPolyline
 90
        3
 70
     0
 43
0.0
 38
2500.0
 10
37.93749597
 20
-171.45454975
 10
34.22017637
 20
-172.18271023
 42
-0.0063851
 10
33.74610067
 20
-172.26930279
  0
ARC
  5
17E
100
AcDbEntity
  8
MST_1_1
 62
   251
  6
CONTINUOUS
100
AcDbCircle
 10
30.59286399
 20
-153.66498005
 30
2500.0
 40
18.86965093
100
AcDbArc
 50
274.21680449
 51
278.53995004
  0
LWPOLYLINE
  5
17F
100
AcDbEntity
  8
MST_1_1
 62
   137
  6
CONTINUOUS
100
AcDbPolyline
 90
        6
 70
     0
 43
0.0
 38
2500.0
 10
34.62041656
 20
-170.43036478
 10
34.53749597
 20
-170.78854684
 10
35.25225448
 20
-172.33100898
 10
35.33155291
 20
-171.96501023
 10
34.62041656
 20
-170.43036478
 10
35.23856408
 20
-172.30146484
  0
LWPOLYLINE
  5
180
100
AcDbEntity
  8
MST_1_1
 62
     1
  6
BORDER
100
AcDbPolyline
 90
        3
 70
     0
 43
0.0
 10
47.93749597
 20
-201.45454975
 10
-2.06250403
 20
-201.45454975
 10
-7.06250403
 20
-201.45454975
  0
LINE
  5
181
100
AcDbEntity
  8
MST_1_1
 62
   137
  6
CONTINUOUS
100
AcDbLine
 10
-2.06250403
 20
-201.45454975
 30
0.0
 11
-2.06250403
 21
-197.95454975
 31
0.0
  0
LINE
  5
182
100
AcDbEntity
  8
MST_1_1
 62
   137
  6
CONTINUOUS
100
AcDbLine
 10
-2.06250403
 20
-197.95454975
 30
0.0
 11
-1.97500406
 21
-197.95454975
 31
0.0
  0
LWPOLYLINE
  5
183
100
AcDbEntity
  8
MST_1_1
 62
   137
  6
CONTINUOUS
100
AcDbPolyline
 90
        6
 70
     0
 43
0.0
 38
2500.0
 10
2.6926037
 20
-199.70454963
 10
2.53749597
 20
-200.37454975
 10
3.84888413
 20
-203.20454975
 10
4.00399192
 20
-202.53454975
 10
2.6926037
 20
-199.70454963
 10
3.84888413
 20
-203.20454975
  0
LINE
  5
184
100
AcDbEntity
  8
MST_1_1
 62
   137
  6
CONTINUOUS
100
AcDbLine
 10
0.03749597
 20
-200.37454975
 30
2500.0
 11
2.53749597
 21
-200.37454975
 31
2500.0
  0
LWPOLYLINE
  5
185
100
AcDbEntity
  8
MST_1_1
 62
   137
  6
CONTINUOUS
100
AcDbPolyline
 90
        4
 70
     0
 43
0.0
 38
2500.0
 10
1.53841414
 20
-202.53454975
 10
1.84888413
 20
-203.20454975
 10
2.00399192
 20
-202.53454975
 10
1.7713414
 20
-202.03248561
  0
LINE
  5
186
100
AcDbEntity
  8
MST_1_1
 62
   137
  6
CONTINUOUS
100
AcDbLine
 10
1.59047038
 20
-202.42234489
 30
2500.0
 11
1.84888413
 21
-203.20454975
 31
2500.0
  0
LINE
  5
187
100
AcDbEntity
  8
MST_1_1
 62
   137
  6
CONTINUOUS
100
AcDbLine
 10
1.53841414
 20
-202.53454975
 30
2500.0
 11
1.7713414
 21
-202.03248561
 31
2500.0
  0
LINE
  5
188
100
AcDbEntity
  8
MST_1_1
 62
   137
  6
CONTINUOUS
100
AcDbLine
 10
3.53841414
 20
-202.53454975
 30
2500.0
 11
2.00399192
 21
-202.53454975
 31
2500.0
  0
LINE
  5
189
100
AcDbEntity
  8
MST_1_1
 62
   137
  6
CONTINUOUS
100
AcDbLine
 10
1.53841414
 20
-202.53454975
 30
2500.0
 11
0.03749597
 21
-202.53454975
 31
2500.0
  0
LINE
  5
18A
100
AcDbEntity
  8
MST_1_1
 62
   137
  6
CONTINUOUS
100
AcDbLine
 10
-1.97500406
 20
-197.95454975
 30
0.0
 11
0.03749597
 21
-200.37454975
 31
0.0
  0
LINE
  5
18B
100
AcDbEntity
  8
MST_1_1
 62
   137
  6
CONTINUOUS
100
AcDbLine
 10
0.03749597
 20
-202.53454975
 30
0.0
 11
-1.97500406
 21
-204.95454975
 31
0.0
  0
LINE
  5
18C
100
AcDbEntity
  8
MST_1_1
 62
   137
  6
CONTINUOUS
100
AcDbLine
 10
-1.97500406
 20
-204.95454975
 30
0.0
 11
-2.06250403
 21
-204.95454975
 31
0.0
  0
LINE
  5
18D
100
AcDbEntity
  8
MST_1_1
 62
   137
  6
CONTINUOUS
100
AcDbLine
 10
-2.06250403
 20
-204.95454975
 30
0.0
 11
-2.06250403
 21
-201.45454975
 31
0.0
  0
LWPOLYLINE
  5
18E
100
AcDbEntity
  8
MST_1_1
 62
   137
  6
CONTINUOUS
100
AcDbPolyline
 90
        6
 70
     0
 43
0.0
 38
2500.0
 10
4.6926037
 20
-199.70454963
 10
4.53749597
 20
-200.37454975
 10
5.84888413
 20
-203.20454975
 10
6.00399192
 20
-202.53454975
 10
4.6926037
 20
-199.70454963
 10
5.84888413
 20
-203.20454975
  0
LWPOLYLINE
  5
18F
100
AcDbEntity
  8
MST_1_1
 62
   137
  6
CONTINUOUS
100
AcDbPolyline
 90
        6
 70
     0
 43
0.0
 38
2500.0
 10
6.6926037
 20
-199.70454963
 10
6.53749597
 20
-200.37454975
 10
7.84888413
 20
-203.20454975
 10
8.00399192
 20
-202.53454975
 10
6.6926037
 20
-199.70454963
 10
7.84888413
 20
-203.20454975
  0
LWPOLYLINE
  5
190
100
AcDbEntity
  8
MST_1_1
 62
   137
  6
CONTINUOUS
100
AcDbPolyline
 90
        6
 70
     0
 43
0.0
 38
2500.0
 10
8.6926037
 20
-199.70454963
 10
8.53749597
 20
-200.37454975
 10
9.84888413
 20
-203.20454975
 10
10.00399192
 20
-202.53454975
 10
8.6926037
 20
-199.70454963
 10
9.84888413
 20
-203.20454975
  0
LWPOLYLINE
  5
191
100
AcDbEntity
  8
MST_1_1
 62
   137
  6
CONTINUOUS
100
AcDbPolyline
 90
        6
 70
     0
 43
0.0
 38
2500.0
 10
34.6926037
 20
-199.70454963
 10
34.53749597
 20
-200.37454975
 10
35.84888413
 20
-203.20454975
 10
36.00399192
 20
-202.53454975
 10
34.6926037
 20
-199.70454963
 10
35.84888413
 20
-203.20454975
  0
LWPOLYLINE
  5
192
100
AcDbEntity
  8
MST_1_1
 62
   137
  6
CONTINUOUS
100
AcDbPolyline
 90
        6
 70
     0
 43
0.0
 38
2500.0
 10
36.6926037
 20
-199.70454963
 10
36.53749597
 20
-200.37454975
 10
37.84888413
 20
-203.20454975
 10
38.00399192
 20
-202.53454975
 10
36.6926037
 20
-199.70454963
 10
37.84888413
 20
-203.20454975
  0
LWPOLYLINE
  5
193
100
AcDbEntity
  8
MST_1_1
 62
   137
  6
CONTINUOUS
100
AcDbPolyline
 90
        6
 70
     0
 43
0.0
 38
2500.0
 10
38.6926037
 20
-199.70454963
 10
38.53749597
 20
-200.37454975
 10
39.84888413
 20
-203.20454975
 10
40.00399192
 20
-202.53454975
 10
38.6926037
 20
-199.70454963
 10
39.84888413
 20
-203.20454975
  0
LWPOLYLINE
  5
194
100
AcDbEntity
  8
MST_1_1
 62
   137
  6
CONTINUOUS
100
AcDbPolyline
 90
        6
 70
     0
 43
0.0
 38
2500.0
 10
40.6926037
 20
-199.70454963
 10
40.53749597
 20
-200.37454975
 10
41.84888413
 20
-203.20454975
 10
41.98035934
 20
-202.48355021
 10
40.6926037
 20
-199.70454963
 10
41.84888413
 20
-203.20454975
  0
LWPOLYLINE
  5
195
100
AcDbEntity
  8
MST_1_1
 62
   137
  6
CONTINUOUS
100
AcDbPolyline
 90
        6
 70
     0
 43
0.0
 38
2500.0
 10
42.66313323
 20
-199.93223895
 10
42.53749597
 20
-200.47493905
 10
43.62046341
 20
-202.81200289
 10
43.74610067
 20
-202.26930279
 10
42.66313323
 20
-199.93223895
 10
43.59972038
 20
-202.76723905
  0
LINE
  5
196
100
AcDbEntity
  8
MST_1_1
 62
   251
  6
CONTINUOUS
100
AcDbLine
 10
4.00399192
 20
-202.53454975
 30
2500.0
 11
5.53841414
 21
-202.53454975
 31
2500.0
  0
LINE
  5
197
100
AcDbEntity
  8
MST_1_1
 62
   251
  6
CONTINUOUS
100
AcDbLine
 10
6.00399192
 20
-202.53454975
 30
2500.0
 11
7.53841414
 21
-202.53454975
 31
2500.0
  0
LINE
  5
198
100
AcDbEntity
  8
MST_1_1
 62
   251
  6
CONTINUOUS
100
AcDbLine
 10
8.00399192
 20
-202.53454975
 30
2500.0
 11
9.53841414
 21
-202.53454975
 31
2500.0
  0
LINE
  5
199
100
AcDbEntity
  8
MST_1_1
 62
   251
  6
CONTINUOUS
100
AcDbLine
 10
34.00399192
 20
-202.53454975
 30
2500.0
 11
35.53841414
 21
-202.53454975
 31
2500.0
  0
LINE
  5
19A
100
AcDbEntity
  8
MST_1_1
 62
   251
  6
CONTINUOUS
100
AcDbLine
 10
36.00399192
 20
-202.53454975
 30
2500.0
 11
37.53841414
 21
-202.53454975
 31
2500.0
  0
LINE
  5
19B
100
AcDbEntity
  8
MST_1_1
 62
   251
  6
CONTINUOUS
100
AcDbLine
 10
38.00399192
 20
-202.53454975
 30
2500.0
 11
39.53841414
 21
-202.53454975
 31
2500.0
  0
LINE
  5
19C
100
AcDbEntity
  8
MST_1_1
 62
   251
  6
CONTINUOUS
100
AcDbLine
 10
40.00399192
 20
-202.53454975
 30
2500.0
 11
41.0051232
 21
-202.53012698
 31
2500.0
  0
LINE
  5
19D
100
AcDbEntity
  8
MST_1_1
 62
   251
  6
CONTINUOUS
100
AcDbLine
 10
4.53749597
 20
-200.37454975
 30
2500.0
 11
3.00307375
 21
-200.37454975
 31
2500.0
  0
LINE
  5
19E
100
AcDbEntity
  8
MST_1_1
 62
   251
  6
CONTINUOUS
100
AcDbLine
 10
6.53749597
 20
-200.37454975
 30
2500.0
 11
5.00307375
 21
-200.37454975
 31
2500.0
  0
LINE
  5
19F
100
AcDbEntity
  8
MST_1_1
 62
   251
  6
CONTINUOUS
100
AcDbLine
 10
8.53749597
 20
-200.37454975
 30
2500.0
 11
7.00307375
 21
-200.37454975
 31
2500.0
  0
LINE
  5
1A0
100
AcDbEntity
  8
MST_1_1
 62
   251
  6
CONTINUOUS
100
AcDbLine
 10
34.53749597
 20
-200.37454975
 30
2500.0
 11
33.00307375
 21
-200.37454975
 31
2500.0
  0
LINE
  5
1A1
100
AcDbEntity
  8
MST_1_1
 62
   251
  6
CONTINUOUS
100
AcDbLine
 10
36.53749597
 20
-200.37454975
 30
2500.0
 11
35.00307375
 21
-200.37454975
 31
2500.0
  0
LINE
  5
1A2
100
AcDbEntity
  8
MST_1_1
 62
   251
  6
CONTINUOUS
100
AcDbLine
 10
38.53749597
 20
-200.37454975
 30
2500.0
 11
37.00307375
 21
-200.37454975
 31
2500.0
  0
LINE
  5
1A3
100
AcDbEntity
  8
MST_1_1
 62
   251
  6
CONTINUOUS
100
AcDbLine
 10
40.53749597
 20
-200.37454975
 30
2500.0
 11
39.00307375
 21
-200.37454975
 31
2500.0
  0
ARC
  5
1A4
100
AcDbEntity
  8
MST_1_1
 62
   251
  6
CONTINUOUS
100
AcDbCircle
 10
40.59286399
 20
-219.24411945
 30
2500.0
 40
18.86965093
100
AcDbArc
 50
84.08482032
 51
88.74811714
  0
LWPOLYLINE
  5
1A5
100
AcDbEntity
  8
MST_1_1
 62
   251
  6
CONTINUOUS
100
AcDbPolyline
 90
        3
 70
     0
 43
0.0
 38
2500.0
 10
47.93749597
 20
-201.45454975
 10
44.22017637
 20
-200.72638926
 42
0.01723995
 10
42.9357159
 20
-200.52047741
  0
ARC
  5
1A6
100
AcDbEntity
  8
MST_1_1
 62
   251
  6
CONTINUOUS
100
AcDbCircle
 10
40.59286399
 20
-183.66498005
 30
2500.0
 40
18.86965093
100
AcDbArc
 50
271.25189287
 51
272.83975061
  0
LWPOLYLINE
  5
1A7
100
AcDbEntity
  8
MST_1_1
 62
   251
  6
CONTINUOUS
100
AcDbPolyline
 90
        3
 70
     0
 43
0.0
 38
2500.0
 10
47.93749597
 20
-201.45454975
 10
44.22017637
 20
-202.18271023
 42
-0.0063851
 10
43.74610067
 20
-202.26930279
  0
ARC
  5
1A8
100
AcDbEntity
  8
MST_1_1
 62
   251
  6
CONTINUOUS
100
AcDbCircle
 10
40.59286399
 20
-183.66498005
 30
2500.0
 40
18.86965093
100
AcDbArc
 50
274.21680449
 51
278.53995004
  0
LWPOLYLINE
  5
1A9
100
AcDbEntity
  8
MST_1_1
 62
   137
  6
CONTINUOUS
100
AcDbPolyline
 90
        6
 70
     0
 43
0.0
 38
2500.0
 10
44.62041656
 20
-200.43036478
 10
44.53749597
 20
-200.78854684
 10
45.25225448
 20
-202.33100898
 10
45.33155291
 20
-201.96501023
 10
44.62041656
 20
-200.43036478
 10
45.23856408
 20
-202.30146484
  0
LWPOLYLINE
  5
1AA
100
AcDbEntity
  8
MST_1_1
 62
   137
  6
CONTINUOUS
100
AcDbPolyline
 90
        6
 70
     0
 43
0.0
 38
2500.0
 10
14.6926037
 20
-109.70454963
 10
14.53749597
 20
-110.37454975
 10
15.84888413
 20
-113.20454975
 10
16.00399192
 20
-112.53454975
 10
14.6926037
 20
-109.70454963
 10
15.84888413
 20
-113.20454975
  0
LWPOLYLINE
  5
1AB
100
AcDbEntity
  8
MST_1_1
 62
   137
  6
CONTINUOUS
100
AcDbPolyline
 90
        6
 70
     0
 43
0.0
 38
2500.0
 10
16.6926037
 20
-109.70454963
 10
16.53749597
 20
-110.37454975
 10
17.84888413
 20
-113.20454975
 10
18.00399192
 20
-112.53454975
 10
16.6926037
 20
-109.70454963
 10
17.84888413
 20
-113.20454975
  0
LINE
  5
1AC
100
AcDbEntity
  8
MST_1_1
 62
   251
  6
CONTINUOUS
100
AcDbLine
 10
14.00399192
 20
-112.53454975
 30
2500.0
 11
15.53841414
 21
-112.53454975
 31
2500.0
  0
LINE
  5
1AD
100
AcDbEntity
  8
MST_1_1
 62
   251
  6
CONTINUOUS
100
AcDbLine
 10
16.00399192
 20
-112.53454975
 30
2500.0
 11
17.53841414
 21
-112.53454975
 31
2500.0
  0
LINE
  5
1AE
100
AcDbEntity
  8
MST_1_1
 62
   251
  6
CONTINUOUS
100
AcDbLine
 10
14.53749597
 20
-110.37454975
 30
2500.0
 11
13.00307375
 21
-110.37454975
 31
2500.0
  0
LINE
  5
1AF
100
AcDbEntity
  8
MST_1_1
 62
   251
  6
CONTINUOUS
100
AcDbLine
 10
16.53749597
 20
-110.37454975
 30
2500.0
 11
15.00307375
 21
-110.37454975
 31
2500.0
  0
LWPOLYLINE
  5
1B0
100
AcDbEntity
  8
MST_1_1
 62
   137
  6
CONTINUOUS
100
AcDbPolyline
 90
        6
 70
     0
 43
0.0
 38
2500.0
 10
17.6926037
 20
-139.70454963
 10
17.53749597
 20
-140.37454975
 10
18.84888413
 20
-143.20454975
 10
19.00399192
 20
-142.53454975
 10
17.6926037
 20
-139.70454963
 10
18.84888413
 20
-143.20454975
  0
LWPOLYLINE
  5
1B1
100
AcDbEntity
  8
MST_1_1
 62
   137
  6
CONTINUOUS
100
AcDbPolyline
 90
        6
 70
     0
 43
0.0
 38
2500.0
 10
19.6926037
 20
-139.70454963
 10
19.53749597
 20
-140.37454975
 10
20.84888413
 20
-143.20454975
 10
21.00399192
 20
-142.53454975
 10
19.6926037
 20
-139.70454963
 10
20.84888413
 20
-143.20454975
  0
LINE
  5
1B2
100
AcDbEntity
  8
MST_1_1
 62
   251
  6
CONTINUOUS
100
AcDbLine
 10
17.00399192
 20
-142.53454975
 30
2500.0
 11
18.53841414
 21
-142.53454975
 31
2500.0
  0
LINE
  5
1B3
100
AcDbEntity
  8
MST_1_1
 62
   251
  6
CONTINUOUS
100
AcDbLine
 10
19.00399192
 20
-142.53454975
 30
2500.0
 11
20.53841414
 21
-142.53454975
 31
2500.0
  0
LINE
  5
1B4
100
AcDbEntity
  8
MST_1_1
 62
   251
  6
CONTINUOUS
100
AcDbLine
 10
17.53749597
 20
-140.37454975
 30
2500.0
 11
16.00307375
 21
-140.37454975
 31
2500.0
  0
LINE
  5
1B5
100
AcDbEntity
  8
MST_1_1
 62
   251
  6
CONTINUOUS
100
AcDbLine
 10
19.53749597
 20
-140.37454975
 30
2500.0
 11
18.00307375
 21
-140.37454975
 31
2500.0
  0
LWPOLYLINE
  5
1B6
100
AcDbEntity
  8
MST_1_1
 62
   137
  6
CONTINUOUS
100
AcDbPolyline
 90
        6
 70
     0
 43
0.0
 38
2500.0
 10
13.6926037
 20
-139.70454963
 10
13.53749597
 20
-140.37454975
 10
14.84888413
 20
-143.20454975
 10
15.00399192
 20
-142.53454975
 10
13.6926037
 20
-139.70454963
 10
14.84888413
 20
-143.20454975
  0
LWPOLYLINE
  5
1B7
100
AcDbEntity
  8
MST_1_1
 62
   137
  6
CONTINUOUS
100
AcDbPolyline
 90
        6
 70
     0
 43
0.0
 38
2500.0
 10
15.6926037
 20
-139.70454963
 10
15.53749597
 20
-140.37454975
 10
16.84888413
 20
-143.20454975
 10
17.00399192
 20
-142.53454975
 10
15.6926037
 20
-139.70454963
 10
16.84888413
 20
-143.20454975
  0
LINE
  5
1B8
100
AcDbEntity
  8
MST_1_1
 62
   251
  6
CONTINUOUS
100
AcDbLine
 10
13.00399192
 20
-142.53454975
 30
2500.0
 11
14.53841414
 21
-142.53454975
 31
2500.0
  0
LINE
  5
1B9
100
AcDbEntity
  8
MST_1_1
 62
   251
  6
CONTINUOUS
100
AcDbLine
 10
15.00399192
 20
-142.53454975
 30
2500.0
 11
16.53841414
 21
-142.53454975
 31
2500.0
  0
LINE
  5
1BA
100
AcDbEntity
  8
MST_1_1
 62
   251
  6
CONTINUOUS
100
AcDbLine
 10
13.53749597
 20
-140.37454975
 30
2500.0
 11
12.00307375
 21
-140.37454975
 31
2500.0
  0
LINE
  5
1BB
100
AcDbEntity
  8
MST_1_1
 62
   251
  6
CONTINUOUS
100
AcDbLine
 10
15.53749597
 20
-140.37454975
 30
2500.0
 11
14.00307375
 21
-140.37454975
 31
2500.0
  0
LWPOLYLINE
  5
1BC
100
AcDbEntity
  8
MST_1_1
 62
   137
  6
CONTINUOUS
100
AcDbPolyline
 90
        6
 70
     0
 43
0.0
 38
2500.0
 10
11.6926037
 20
-139.70454963
 10
11.53749597
 20
-140.37454975
 10
12.84888413
 20
-143.20454975
 10
13.00399192
 20
-142.53454975
 10
11.6926037
 20
-139.70454963
 10
12.84888413
 20
-143.20454975
  0
LINE
  5
1BD
100
AcDbEntity
  8
MST_1_1
 62
   251
  6
CONTINUOUS
100
AcDbLine
 10
11.00399192
 20
-142.53454975
 30
2500.0
 11
12.53841414
 21
-142.53454975
 31
2500.0
  0
LINE
  5
1BE
100
AcDbEntity
  8
MST_1_1
 62
   251
  6
CONTINUOUS
100
AcDbLine
 10
11.53749597
 20
-140.37454975
 30
2500.0
 11
10.00307375
 21
-140.37454975
 31
2500.0
  0
LWPOLYLINE
  5
1BF
100
AcDbEntity
  8
MST_1_1
 62
   137
  6
CONTINUOUS
100
AcDbPolyline
 90
        6
 70
     0
 43
0.0
 38
2500.0
 10
20.6926037
 20
-169.70454963
 10
20.53749597
 20
-170.37454975
 10
21.84888413
 20
-173.20454975
 10
22.00399192
 20
-172.53454975
 10
20.6926037
 20
-169.70454963
 10
21.84888413
 20
-173.20454975
  0
LWPOLYLINE
  5
1C0
100
AcDbEntity
  8
MST_1_1
 62
   137
  6
CONTINUOUS
100
AcDbPolyline
 90
        6
 70
     0
 43
0.0
 38
2500.0
 10
22.6926037
 20
-169.70454963
 10
22.53749597
 20
-170.37454975
 10
23.84888413
 20
-173.20454975
 10
24.00399192
 20
-172.53454975
 10
22.6926037
 20
-169.70454963
 10
23.84888413
 20
-173.20454975
  0
LWPOLYLINE
  5
1C1
100
AcDbEntity
  8
MST_1_1
 62
   137
  6
CONTINUOUS
100
AcDbPolyline
 90
        6
 70
     0
 43
0.0
 38
2500.0
 10
24.6926037
 20
-169.70454963
 10
24.53749597
 20
-170.37454975
 10
25.84888413
 20
-173.20454975
 10
26.00399192
 20
-172.53454975
 10
24.6926037
 20
-169.70454963
 10
25.84888413
 20
-173.20454975
  0
LINE
  5
1C2
100
AcDbEntity
  8
MST_1_1
 62
   251
  6
CONTINUOUS
100
AcDbLine
 10
20.00399192
 20
-172.53454975
 30
2500.0
 11
21.53841414
 21
-172.53454975
 31
2500.0
  0
LINE
  5
1C3
100
AcDbEntity
  8
MST_1_1
 62
   251
  6
CONTINUOUS
100
AcDbLine
 10
22.00399192
 20
-172.53454975
 30
2500.0
 11
23.53841414
 21
-172.53454975
 31
2500.0
  0
LINE
  5
1C4
100
AcDbEntity
  8
MST_1_1
 62
   251
  6
CONTINUOUS
100
AcDbLine
 10
24.00399192
 20
-172.53454975
 30
2500.0
 11
25.53841414
 21
-172.53454975
 31
2500.0
  0
LINE
  5
1C5
100
AcDbEntity
  8
MST_1_1
 62
   251
  6
CONTINUOUS
100
AcDbLine
 10
20.53749597
 20
-170.37454975
 30
2500.0
 11
19.00307375
 21
-170.37454975
 31
2500.0
  0
LINE
  5
1C6
100
AcDbEntity
  8
MST_1_1
 62
   251
  6
CONTINUOUS
100
AcDbLine
 10
22.53749597
 20
-170.37454975
 30
2500.0
 11
21.00307375
 21
-170.37454975
 31
2500.0
  0
LINE
  5
1C7
100
AcDbEntity
  8
MST_1_1
 62
   251
  6
CONTINUOUS
100
AcDbLine
 10
24.53749597
 20
-170.37454975
 30
2500.0
 11
23.00307375
 21
-170.37454975
 31
2500.0
  0
LWPOLYLINE
  5
1C8
100
AcDbEntity
  8
MST_1_1
 62
   137
  6
CONTINUOUS
100
AcDbPolyline
 90
        6
 70
     0
 43
0.0
 38
2500.0
 10
14.6926037
 20
-169.70454963
 10
14.53749597
 20
-170.37454975
 10
15.84888413
 20
-173.20454975
 10
16.00399192
 20
-172.53454975
 10
14.6926037
 20
-169.70454963
 10
15.84888413
 20
-173.20454975
  0
LWPOLYLINE
  5
1C9
100
AcDbEntity
  8
MST_1_1
 62
   137
  6
CONTINUOUS
100
AcDbPolyline
 90
        6
 70
     0
 43
0.0
 38
2500.0
 10
16.6926037
 20
-169.70454963
 10
16.53749597
 20
-170.37454975
 10
17.84888413
 20
-173.20454975
 10
18.00399192
 20
-172.53454975
 10
16.6926037
 20
-169.70454963
 10
17.84888413
 20
-173.20454975
  0
LWPOLYLINE
  5
1CA
100
AcDbEntity
  8
MST_1_1
 62
   137
  6
CONTINUOUS
100
AcDbPolyline
 90
        6
 70
     0
 43
0.0
 38
2500.0
 10
18.6926037
 20
-169.70454963
 10
18.53749597
 20
-170.37454975
 10
19.84888413
 20
-173.20454975
 10
20.00399192
 20
-172.53454975
 10
18.6926037
 20
-169.70454963
 10
19.84888413
 20
-173.20454975
  0
LINE
  5
1CB
100
AcDbEntity
  8
MST_1_1
 62
   251
  6
CONTINUOUS
100
AcDbLine
 10
14.00399192
 20
-172.53454975
 30
2500.0
 11
15.53841414
 21
-172.53454975
 31
2500.0
  0
LINE
  5
1CC
100
AcDbEntity
  8
MST_1_1
 62
   251
  6
CONTINUOUS
100
AcDbLine
 10
16.00399192
 20
-172.53454975
 30
2500.0
 11
17.53841414
 21
-172.53454975
 31
2500.0
  0
LINE
  5
1CD
100
AcDbEntity
  8
MST_1_1
 62
   251
  6
CONTINUOUS
100
AcDbLine
 10
18.00399192
 20
-172.53454975
 30
2500.0
 11
19.53841414
 21
-172.53454975
 31
2500.0
  0
LINE
  5
1CE
100
AcDbEntity
  8
MST_1_1
 62
   251
  6
CONTINUOUS
100
AcDbLine
 10
14.53749597
 20
-170.37454975
 30
2500.0
 11
13.00307375
 21
-170.37454975
 31
2500.0
  0
LINE
  5
1CF
100
AcDbEntity
  8
MST_1_1
 62
   251
  6
CONTINUOUS
100
AcDbLine
 10
16.53749597
 20
-170.37454975
 30
2500.0
 11
15.00307375
 21
-170.37454975
 31
2500.0
  0
LINE
  5
1D0
100
AcDbEntity
  8
MST_1_1
 62
   251
  6
CONTINUOUS
100
AcDbLine
 10
18.53749597
 20
-170.37454975
 30
2500.0
 11
17.00307375
 21
-170.37454975
 31
2500.0
  0
LWPOLYLINE
  5
1D1
100
AcDbEntity
  8
MST_1_1
 62
   137
  6
CONTINUOUS
100
AcDbPolyline
 90
        6
 70
     0
 43
0.0
 38
2500.0
 10
12.6926037
 20
-169.70454963
 10
12.53749597
 20
-170.37454975
 10
13.84888413
 20
-173.20454975
 10
14.00399192
 20
-172.53454975
 10
12.6926037
 20
-169.70454963
 10
13.84888413
 20
-173.20454975
  0
LINE
  5
1D2
100
AcDbEntity
  8
MST_1_1
 62
   251
  6
CONTINUOUS
100
AcDbLine
 10
12.00399192
 20
-172.53454975
 30
2500.0
 11
13.53841414
 21
-172.53454975
 31
2500.0
  0
LINE
  5
1D3
100
AcDbEntity
  8
MST_1_1
 62
   251
  6
CONTINUOUS
100
AcDbLine
 10
12.53749597
 20
-170.37454975
 30
2500.0
 11
11.00307375
 21
-170.37454975
 31
2500.0
  0
LWPOLYLINE
  5
1D4
100
AcDbEntity
  8
MST_1_1
 62
   137
  6
CONTINUOUS
100
AcDbPolyline
 90
        6
 70
     0
 43
0.0
 38
2500.0
 10
28.6926037
 20
-199.70454963
 10
28.53749597
 20
-200.37454975
 10
29.84888413
 20
-203.20454975
 10
30.00399192
 20
-202.53454975
 10
28.6926037
 20
-199.70454963
 10
29.84888413
 20
-203.20454975
  0
LWPOLYLINE
  5
1D5
100
AcDbEntity
  8
MST_1_1
 62
   137
  6
CONTINUOUS
100
AcDbPolyline
 90
        6
 70
     0
 43
0.0
 38
2500.0
 10
30.6926037
 20
-199.70454963
 10
30.53749597
 20
-200.37454975
 10
31.84888413
 20
-203.20454975
 10
32.00399192
 20
-202.53454975
 10
30.6926037
 20
-199.70454963
 10
31.84888413
 20
-203.20454975
  0
LWPOLYLINE
  5
1D6
100
AcDbEntity
  8
MST_1_1
 62
   137
  6
CONTINUOUS
100
AcDbPolyline
 90
        6
 70
     0
 43
0.0
 38
2500.0
 10
32.6926037
 20
-199.70454963
 10
32.53749597
 20
-200.37454975
 10
33.84888413
 20
-203.20454975
 10
34.00399192
 20
-202.53454975
 10
32.6926037
 20
-199.70454963
 10
33.84888413
 20
-203.20454975
  0
LINE
  5
1D7
100
AcDbEntity
  8
MST_1_1
 62
   251
  6
CONTINUOUS
100
AcDbLine
 10
28.00399192
 20
-202.53454975
 30
2500.0
 11
29.53841414
 21
-202.53454975
 31
2500.0
  0
LINE
  5
1D8
100
AcDbEntity
  8
MST_1_1
 62
   251
  6
CONTINUOUS
100
AcDbLine
 10
30.00399192
 20
-202.53454975
 30
2500.0
 11
31.53841414
 21
-202.53454975
 31
2500.0
  0
LINE
  5
1D9
100
AcDbEntity
  8
MST_1_1
 62
   251
  6
CONTINUOUS
100
AcDbLine
 10
32.00399192
 20
-202.53454975
 30
2500.0
 11
33.53841414
 21
-202.53454975
 31
2500.0
  0
LINE
  5
1DA
100
AcDbEntity
  8
MST_1_1
 62
   251
  6
CONTINUOUS
100
AcDbLine
 10
28.53749597
 20
-200.37454975
 30
2500.0
 11
27.00307375
 21
-200.37454975
 31
2500.0
  0
LINE
  5
1DB
100
AcDbEntity
  8
MST_1_1
 62
   251
  6
CONTINUOUS
100
AcDbLine
 10
30.53749597
 20
-200.37454975
 30
2500.0
 11
29.00307375
 21
-200.37454975
 31
2500.0
  0
LINE
  5
1DC
100
AcDbEntity
  8
MST_1_1
 62
   251
  6
CONTINUOUS
100
AcDbLine
 10
32.53749597
 20
-200.37454975
 30
2500.0
 11
31.00307375
 21
-200.37454975
 31
2500.0
  0
LWPOLYLINE
  5
1DD
100
AcDbEntity
  8
MST_1_1
 62
   137
  6
CONTINUOUS
100
AcDbPolyline
 90
        6
 70
     0
 43
0.0
 38
2500.0
 10
22.6926037
 20
-199.70454963
 10
22.53749597
 20
-200.37454975
 10
23.84888413
 20
-203.20454975
 10
24.00399192
 20
-202.53454975
 10
22.6926037
 20
-199.70454963
 10
23.84888413
 20
-203.20454975
  0
LWPOLYLINE
  5
1DE
100
AcDbEntity
  8
MST_1_1
 62
   137
  6
CONTINUOUS
100
AcDbPolyline
 90
        6
 70
     0
 43
0.0
 38
2500.0
 10
24.6926037
 20
-199.70454963
 10
24.53749597
 20
-200.37454975
 10
25.84888413
 20
-203.20454975
 10
26.00399192
 20
-202.53454975
 10
24.6926037
 20
-199.70454963
 10
25.84888413
 20
-203.20454975
  0
LWPOLYLINE
  5
1DF
100
AcDbEntity
  8
MST_1_1
 62
   137
  6
CONTINUOUS
100
AcDbPolyline
 90
        6
 70
     0
 43
0.0
 38
2500.0
 10
26.6926037
 20
-199.70454963
 10
26.53749597
 20
-200.37454975
 10
27.84888413
 20
-203.20454975
 10
28.00399192
 20
-202.53454975
 10
26.6926037
 20
-199.70454963
 10
27.84888413
 20
-203.20454975
  0
LINE
  5
1E0
100
AcDbEntity
  8
MST_1_1
 62
   251
  6
CONTINUOUS
100
AcDbLine
 10
22.00399192
 20
-202.53454975
 30
2500.0
 11
23.53841414
 21
-202.53454975
 31
2500.0
  0
LINE
  5
1E1
100
AcDbEntity
  8
MST_1_1
 62
   251
  6
CONTINUOUS
100
AcDbLine
 10
24.00399192
 20
-202.53454975
 30
2500.0
 11
25.53841414
 21
-202.53454975
 31
2500.0
  0
LINE
  5
1E2
100
AcDbEntity
  8
MST_1_1
 62
   251
  6
CONTINUOUS
100
AcDbLine
 10
26.00399192
 20
-202.53454975
 30
2500.0
 11
27.53841414
 21
-202.53454975
 31
2500.0
  0
LINE
  5
1E3
100
AcDbEntity
  8
MST_1_1
 62
   251
  6
CONTINUOUS
100
AcDbLine
 10
22.53749597
 20
-200.37454975
 30
2500.0
 11
21.00307375
 21
-200.37454975
 31
2500.0
  0
LINE
  5
1E4
100
AcDbEntity
  8
MST_1_1
 62
   251
  6
CONTINUOUS
100
AcDbLine
 10
24.53749597
 20
-200.37454975
 30
2500.0
 11
23.00307375
 21
-200.37454975
 31
2500.0
  0
LINE
  5
1E5
100
AcDbEntity
  8
MST_1_1
 62
   251
  6
CONTINUOUS
100
AcDbLine
 10
26.53749597
 20
-200.37454975
 30
2500.0
 11
25.00307375
 21
-200.37454975
 31
2500.0
  0
LWPOLYLINE
  5
1E6
100
AcDbEntity
  8
MST_1_1
 62
   137
  6
CONTINUOUS
100
AcDbPolyline
 90
        6
 70
     0
 43
0.0
 38
2500.0
 10
16.6926037
 20
-199.70454963
 10
16.53749597
 20
-200.37454975
 10
17.84888413
 20
-203.20454975
 10
18.00399192
 20
-202.53454975
 10
16.6926037
 20
-199.70454963
 10
17.84888413
 20
-203.20454975
  0
LWPOLYLINE
  5
1E7
100
AcDbEntity
  8
MST_1_1
 62
   137
  6
CONTINUOUS
100
AcDbPolyline
 90
        6
 70
     0
 43
0.0
 38
2500.0
 10
18.6926037
 20
-199.70454963
 10
18.53749597
 20
-200.37454975
 10
19.84888413
 20
-203.20454975
 10
20.00399192
 20
-202.53454975
 10
18.6926037
 20
-199.70454963
 10
19.84888413
 20
-203.20454975
  0
LWPOLYLINE
  5
1E8
100
AcDbEntity
  8
MST_1_1
 62
   137
  6
CONTINUOUS
100
AcDbPolyline
 90
        6
 70
     0
 43
0.0
 38
2500.0
 10
20.6926037
 20
-199.70454963
 10
20.53749597
 20
-200.37454975
 10
21.84888413
 20
-203.20454975
 10
22.00399192
 20
-202.53454975
 10
20.6926037
 20
-199.70454963
 10
21.84888413
 20
-203.20454975
  0
LINE
  5
1E9
100
AcDbEntity
  8
MST_1_1
 62
   251
  6
CONTINUOUS
100
AcDbLine
 10
16.00399192
 20
-202.53454975
 30
2500.0
 11
17.53841414
 21
-202.53454975
 31
2500.0
  0
LINE
  5
1EA
100
AcDbEntity
  8
MST_1_1
 62
   251
  6
CONTINUOUS
100
AcDbLine
 10
18.00399192
 20
-202.53454975
 30
2500.0
 11
19.53841414
 21
-202.53454975
 31
2500.0
  0
LINE
  5
1EB
100
AcDbEntity
  8
MST_1_1
 62
   251
  6
CONTINUOUS
100
AcDbLine
 10
20.00399192
 20
-202.53454975
 30
2500.0
 11
21.53841414
 21
-202.53454975
 31
2500.0
  0
LINE
  5
1EC
100
AcDbEntity
  8
MST_1_1
 62
   251
  6
CONTINUOUS
100
AcDbLine
 10
16.53749597
 20
-200.37454975
 30
2500.0
 11
15.00307375
 21
-200.37454975
 31
2500.0
  0
LINE
  5
1ED
100
AcDbEntity
  8
MST_1_1
 62
   251
  6
CONTINUOUS
100
AcDbLine
 10
18.53749597
 20
-200.37454975
 30
2500.0
 11
17.00307375
 21
-200.37454975
 31
2500.0
  0
LINE
  5
1EE
100
AcDbEntity
  8
MST_1_1
 62
   251
  6
CONTINUOUS
100
AcDbLine
 10
20.53749597
 20
-200.37454975
 30
2500.0
 11
19.00307375
 21
-200.37454975
 31
2500.0
  0
LWPOLYLINE
  5
1EF
100
AcDbEntity
  8
MST_1_1
 62
   137
  6
CONTINUOUS
100
AcDbPolyline
 90
        6
 70
     0
 43
0.0
 38
2500.0
 10
10.6926037
 20
-199.70454963
 10
10.53749597
 20
-200.37454975
 10
11.84888413
 20
-203.20454975
 10
12.00399192
 20
-202.53454975
 10
10.6926037
 20
-199.70454963
 10
11.84888413
 20
-203.20454975
  0
LWPOLYLINE
  5
1F0
100
AcDbEntity
  8
MST_1_1
 62
   137
  6
CONTINUOUS
100
AcDbPolyline
 90
        6
 70
     0
 43
0.0
 38
2500.0
 10
12.6926037
 20
-199.70454963
 10
12.53749597
 20
-200.37454975
 10
13.84888413
 20
-203.20454975
 10
14.00399192
 20
-202.53454975
 10
12.6926037
 20
-199.70454963
 10
13.84888413
 20
-203.20454975
  0
LWPOLYLINE
  5
1F1
100
AcDbEntity
  8
MST_1_1
 62
   137
  6
CONTINUOUS
100
AcDbPolyline
 90
        6
 70
     0
 43
0.0
 38
2500.0
 10
14.6926037
 20
-199.70454963
 10
14.53749597
 20
-200.37454975
 10
15.84888413
 20
-203.20454975
 10
16.00399192
 20
-202.53454975
 10
14.6926037
 20
-199.70454963
 10
15.84888413
 20
-203.20454975
  0
LINE
  5
1F2
100
AcDbEntity
  8
MST_1_1
 62
   251
  6
CONTINUOUS
100
AcDbLine
 10
10.00399192
 20
-202.53454975
 30
2500.0
 11
11.53841414
 21
-202.53454975
 31
2500.0
  0
LINE
  5
1F3
100
AcDbEntity
  8
MST_1_1
 62
   251
  6
CONTINUOUS
100
AcDbLine
 10
12.00399192
 20
-202.53454975
 30
2500.0
 11
13.53841414
 21
-202.53454975
 31
2500.0
  0
LINE
  5
1F4
100
AcDbEntity
  8
MST_1_1
 62
   251
  6
CONTINUOUS
100
AcDbLine
 10
14.00399192
 20
-202.53454975
 30
2500.0
 11
15.53841414
 21
-202.53454975
 31
2500.0
  0
LINE
  5
1F5
100
AcDbEntity
  8
MST_1_1
 62
   251
  6
CONTINUOUS
100
AcDbLine
 10
10.53749597
 20
-200.37454975
 30
2500.0
 11
9.00307375
 21
-200.37454975
 31
2500.0
  0
LINE
  5
1F6
100
AcDbEntity
  8
MST_1_1
 62
   251
  6
CONTINUOUS
100
AcDbLine
 10
12.53749597
 20
-200.37454975
 30
2500.0
 11
11.00307375
 21
-200.37454975
 31
2500.0
  0
LINE
  5
1F7
100
AcDbEntity
  8
MST_1_1
 62
   251
  6
CONTINUOUS
100
AcDbLine
 10
14.53749597
 20
-200.37454975
 30
2500.0
 11
13.00307375
 21
-200.37454975
 31
2500.0
  0
CIRCLE
  5
1F8
100
AcDbEntity
  8
MST_1_1
 62
   137
  6
CONTINUOUS
100
AcDbCircle
 10
-85.69866458
 20
8.54545025
 30
0.0
 40
1.89428533
  0
CIRCLE
  5
1F9
100
AcDbEntity
  8
MST_1_1
 62
   137
  6
CONTINUOUS
100
AcDbCircle
 10
-85.69866458
 20
8.54545025
 30
0.0
 40
1.06049438
  0
CIRCLE
  5
1FA
100
AcDbEntity
  8
MST_1_1
 62
   137
  6
CONTINUOUS
100
AcDbCircle
 10
-85.69866458
 20
8.54545025
 30
0.0
 40
1.89428533
  0
CIRCLE
  5
1FB
100
AcDbEntity
  8
MST_1_1
 62
   137
  6
CONTINUOUS
100
AcDbCircle
 10
-85.69866458
 20
8.54545025
 30
0.0
 40
1.06049438
  0
CIRCLE
  5
1FC
100
AcDbEntity
  8
MST_1_1
 62
   137
  6
CONTINUOUS
100
AcDbCircle
 10
-85.69866458
 20
8.54545025
 30
0.0
 40
1.89428533
  0
CIRCLE
  5
1FD
100
AcDbEntity
  8
MST_1_1
 62
   137
  6
CONTINUOUS
100
AcDbCircle
 10
-85.69866458
 20
8.54545025
 30
0.0
 40
1.06049438
  0
CIRCLE
  5
1FE
100
AcDbEntity
  8
MST_1_1
 62
   137
  6
CONTINUOUS
100
AcDbCircle
 10
-85.69866458
 20
8.54545025
 30
0.0
 40
1.59428533
  0
CIRCLE
  5
1FF
100
AcDbEntity
  8
MST_1_1
 62
   137
  6
CONTINUOUS
100
AcDbCircle
 10
-85.69866458
 20
8.54545025
 30
0.0
 40
1.99428533
  0
CIRCLE
  5
200
100
AcDbEntity
  8
MST_1_1
 62
   137
  6
CONTINUOUS
100
AcDbCircle
 10
-85.69866458
 20
8.54545025
 30
0.0
 40
1.125
  0
CIRCLE
  5
201
100
AcDbEntity
  8
MST_1_1
 62
   137
  6
CONTINUOUS
100
AcDbCircle
 10
-85.69866458
 20
8.54545025
 30
0.0
 40
3.5
  0
ARC
  5
202
100
AcDbEntity
  8
MST_1_1
 62
   137
  6
CONTINUOUS
100
AcDbCircle
 10
-87.07066456
 20
8.54545025
 30
0.0
 40
0.303
100
AcDbArc
 50
104.00039951
 51
255.99961051
  0
ARC
  5
203
100
AcDbEntity
  8
MST_1_1
 62
   137
  6
CONTINUOUS
100
AcDbCircle
 10
-87.30138213
 20
7.62012082
 30
0.0
 40
0.65065883
100
AcDbArc
 50
344.00042282
 51
75.99958535
  0
ARC
  5
204
100
AcDbEntity
  8
MST_1_1
 62
   137
  6
CONTINUOUS
100
AcDbCircle
 10
-86.38466455
 20
7.35726341
 30
0.0
 40
0.30299999
100
AcDbArc
 50
164.00040911
 51
315.99959504
  0
ARC
  5
205
100
AcDbEntity
  8
MST_1_1
 62
   137
  6
CONTINUOUS
100
AcDbCircle
 10
-85.69866458
 20
6.6947915
 30
0.0
 40
0.65065875
100
AcDbArc
 50
44.00040429
 51
135.99959571
  0
ARC
  5
206
100
AcDbEntity
  8
MST_1_1
 62
   137
  6
CONTINUOUS
100
AcDbCircle
 10
-85.01266458
 20
7.35726336
 30
0.0
 40
0.30299998
100
AcDbArc
 50
224.00041508
 51
15.9996008
  0
ARC
  5
207
100
AcDbEntity
  8
MST_1_1
 62
   137
  6
CONTINUOUS
100
AcDbCircle
 10
-84.32666459
 20
8.54545025
 30
0.0
 40
0.303
100
AcDbArc
 50
284.00040953
 51
75.99960049
  0
ARC
  5
208
100
AcDbEntity
  8
MST_1_1
 62
   137
  6
CONTINUOUS
100
AcDbCircle
 10
-84.09594702
 20
9.47077969
 30
0.0
 40
0.65065883
100
AcDbArc
 50
164.00041281
 51
255.99959537
  0
ARC
  5
209
100
AcDbEntity
  8
MST_1_1
 62
   137
  6
CONTINUOUS
100
AcDbCircle
 10
-85.0126646
 20
9.7336371
 30
0.0
 40
0.30299999
100
AcDbArc
 50
344.00041913
 51
135.99958502
  0
ARC
  5
20A
100
AcDbEntity
  8
MST_1_1
 62
   137
  6
CONTINUOUS
100
AcDbCircle
 10
-85.69866458
 20
10.396109
 30
0.0
 40
0.65065875
100
AcDbArc
 50
224.00041431
 51
315.99960573
  0
ARC
  5
20B
100
AcDbEntity
  8
MST_1_1
 62
   137
  6
CONTINUOUS
100
AcDbCircle
 10
-86.38466458
 20
9.73363715
 30
0.0
 40
0.30299998
100
AcDbArc
 50
44.00040506
 51
195.99961082
  0
ARC
  5
20C
100
AcDbEntity
  8
MST_1_1
 62
   137
  6
CONTINUOUS
100
AcDbCircle
 10
-87.30138213
 20
9.47077969
 30
0.0
 40
0.65065883
100
AcDbArc
 50
284.00042461
 51
15.99958726
  0
LWPOLYLINE
  5
20D
100
AcDbEntity
  8
MST_1_1
 62
   137
  6
CONTINUOUS
100
AcDbPolyline
 90
        9
 70
     0
 43
0.0
 10
-86.98913447
 20
6.30038613
 10
-86.98006851
 20
6.30945209
 10
-86.97099615
 20
6.31852456
 10
-86.9619175
 20
6.3276031
 10
-86.95283245
 20
6.33668815
 10
-86.94374123
 20
6.34577949
 10
-86.9346436
 20
6.35487711
 10
-86.92553981
 20
6.36398079
 10
-86.91642984
 20
6.37309075
  0
ARC
  5
20E
100
AcDbEntity
  8
MST_1_1
 62
   137
  6
CONTINUOUS
100
AcDbCircle
 10
-86.76427451
 20
6.49979025
 30
0.0
 40
0.19800002
100
AcDbArc
 50
50.21591721
 51
219.78410477
  0
LWPOLYLINE
  5
20F
100
AcDbEntity
  8
MST_1_1
 62
   137
  6
CONTINUOUS
100
AcDbPolyline
 90
        9
 70
     0
 43
0.0
 10
-86.63757504
 20
6.65194561
 10
-86.62850379
 20
6.66101693
 10
-86.6194277
 20
6.67009302
 10
-86.61034678
 20
6.67917388
 10
-86.60126097
 20
6.68825963
 10
-86.59217045
 20
6.69735027
 10
-86.58307515
 20
6.70644556
 10
-86.57397508
 20
6.71554552
 10
-86.56487036
 20
6.72465024
  0
LWPOLYLINE
  5
210
100
AcDbEntity
  8
MST_1_1
 62
   137
  6
CONTINUOUS
100
AcDbPolyline
 90
        9
 70
     0
 43
0.0
 10
-86.56487036
 20
6.72465024
 10
-86.61921984
 20
6.77899978
 10
-86.67362148
 20
6.83340136
 10
-86.72806869
 20
6.88784857
 10
-86.78255455
 20
6.94233444
 10
-86.83707255
 20
6.99685243
 10
-86.8916158
 20
7.05139569
 10
-86.94617768
 20
7.10595757
 10
-87.00075133
 20
7.16053121
  0
LWPOLYLINE
  5
211
100
AcDbEntity
  8
MST_1_1
 62
   137
  6
CONTINUOUS
100
AcDbPolyline
 90
        9
 70
     0
 43
0.0
 10
-87.00075133
 20
7.16053121
 10
-87.00397335
 20
7.1573093
 10
-87.00719468
 20
7.15408785
 10
-87.01041554
 20
7.15086711
 10
-87.01363582
 20
7.14764683
 10
-87.01685541
 20
7.14442713
 10
-87.02007452
 20
7.14120813
 10
-87.02329294
 20
7.13798959
 10
-87.02651089
 20
7.13477176
  0
LWPOLYLINE
  5
212
100
AcDbEntity
  8
MST_1_1
 62
   137
  6
CONTINUOUS
100
AcDbPolyline
 90
       25
 70
     0
 43
0.0
 10
-87.02651089
 20
7.13477172
 10
-87.02920322
 20
7.13891871
 10
-87.031967
 20
7.14301069
 10
-87.0348015
 20
7.14704692
 10
-87.03770598
 20
7.15102663
 10
-87.04067968
 20
7.15494908
 10
-87.04372187
 20
7.15881354
 10
-87.04683179
 20
7.16261924
 10
-87.05000871
 20
7.16636545
 10
-87.05325188
 20
7.17005142
 10
-87.05656055
 20
7.1736764
 10
-87.05993399
 20
7.17723964
 10
-87.06337144
 20
7.18074039
 10
-87.06687216
 20
7.18417792
 10
-87.07043541
 20
7.18755147
 10
-87.07406045
 20
7.1908603
 10
-87.07774652
 20
7.19410365
 10
-87.08149288
 20
7.19728079
 10
-87.08529879
 20
7.20039097
 10
-87.08916351
 20
7.20343343
 10
-87.09308629
 20
7.20640743
 10
-87.09706638
 20
7.20931223
 10
-87.10110305
 20
7.21214708
 10
-87.10519554
 20
7.21491123
 10
-87.10934311
 20
7.21760394
  0
LWPOLYLINE
  5
213
100
AcDbEntity
  8
MST_1_1
 62
   137
  6
CONTINUOUS
100
AcDbPolyline
 90
        9
 70
     0
 43
0.0
 10
-87.10934307
 20
7.21760394
 10
-87.10612524
 20
7.22082189
 10
-87.1029067
 20
7.22404031
 10
-87.0996877
 20
7.22725942
 10
-87.096468
 20
7.23047901
 10
-87.09324772
 20
7.23369929
 10
-87.09002698
 20
7.23692015
 10
-87.08680553
 20
7.24014148
 10
-87.08358362
 20
7.2433635
  0
LWPOLYLINE
  5
214
100
AcDbEntity
  8
MST_1_1
 62
   137
  6
CONTINUOUS
100
AcDbPolyline
 90
        9
 70
     0
 43
0.0
 10
-87.08358362
 20
7.2433635
 10
-87.13815726
 20
7.29793714
 10
-87.19271914
 20
7.35249903
 10
-87.2472624
 20
7.40704228
 10
-87.30178039
 20
7.46156028
 10
-87.35626626
 20
7.51604614
 10
-87.41071347
 20
7.57049335
 10
-87.46511505
 20
7.62489499
 10
-87.51946459
 20
7.67924447
  0
LWPOLYLINE
  5
215
100
AcDbEntity
  8
MST_1_1
 62
   137
  6
CONTINUOUS
100
AcDbPolyline
 90
        9
 70
     0
 43
0.0
 10
-87.51946459
 20
7.67924447
 10
-87.52856931
 20
7.67013975
 10
-87.53766927
 20
7.66103968
 10
-87.54676456
 20
7.65194438
 10
-87.5558552
 20
7.64285386
 10
-87.56494095
 20
7.63376805
 10
-87.57402181
 20
7.62468713
 10
-87.5830979
 20
7.61561104
 10
-87.59216922
 20
7.60653979
  0
ARC
  5
216
100
AcDbEntity
  8
MST_1_1
 62
   137
  6
CONTINUOUS
100
AcDbCircle
 10
-87.74432458
 20
7.47984033
 30
0.0
 40
0.19800002
100
AcDbArc
 50
230.21591956
 51
39.7840785
  0
LWPOLYLINE
  5
217
100
AcDbEntity
  8
MST_1_1
 62
   137
  6
CONTINUOUS
100
AcDbPolyline
 90
        9
 70
     0
 43
0.0
 10
-87.87102408
 20
7.32768498
 10
-87.88013404
 20
7.31857502
 10
-87.88923772
 20
7.30947123
 10
-87.89833534
 20
7.3003736
 10
-87.90742668
 20
7.29128238
 10
-87.91651173
 20
7.28219733
 10
-87.92559026
 20
7.27311868
 10
-87.93466274
 20
7.26404632
 10
-87.9437287
 20
7.25498036
  0
LWPOLYLINE
  5
218
100
AcDbEntity
  8
MST_1_1
 62
   137
  6
CONTINUOUS
100
AcDbPolyline
 90
        9
 70
     0
 43
0.0
 10
-87.9437287
 20
7.25498036
 10
-87.88938696
 20
7.20063885
 10
-87.83499027
 20
7.14624204
 10
-87.78054539
 20
7.09179704
 10
-87.72605929
 20
7.03731106
 10
-87.67153944
 20
6.98279121
 10
-87.6169928
 20
6.92824457
 10
-87.5624265
 20
6.87367827
 10
-87.50784762
 20
6.81909939
  0
LWPOLYLINE
  5
219
100
AcDbEntity
  8
MST_1_1
 62
   137
  6
CONTINUOUS
100
AcDbPolyline
 90
        9
 70
     0
 43
0.0
 10
-87.50784762
 20
6.81909939
 10
-87.50463048
 20
6.82231653
 10
-87.50141253
 20
6.82553448
 10
-87.49819376
 20
6.82875325
 10
-87.49497418
 20
6.83197283
 10
-87.4917539
 20
6.83519311
 10
-87.4885328
 20
6.83841432
 10
-87.48531078
 20
6.84163623
 10
-87.48208805
 20
6.84485896
  0
LWPOLYLINE
  5
21A
100
AcDbEntity
  8
MST_1_1
 62
   137
  6
CONTINUOUS
100
AcDbPolyline
 90
       25
 70
     0
 43
0.0
 10
-87.4820881
 20
6.84485895
 10
-87.47939598
 20
6.84071229
 10
-87.47663233
 20
6.83662056
 10
-87.47379791
 20
6.83258453
 10
-87.47089347
 20
6.82860495
 10
-87.46791976
 20
6.82468256
 10
-87.46487752
 20
6.82081813
 10
-87.46176751
 20
6.8170124
 10
-87.45859049
 20
6.81326614
 10
-87.45534719
 20
6.80958008
 10
-87.45203837
 20
6.80595499
 10
-87.44866479
 20
6.80239161
 10
-87.44522719
 20
6.79889071
 10
-87.44172632
 20
6.79545303
 10
-87.43816293
 20
6.79207932
 10
-87.43453778
 20
6.78877035
 10
-87.43085162
 20
6.78552686
 10
-87.42710519
 20
6.78234961
 10
-87.42329925
 20
6.77923935
 10
-87.41943455
 20
6.77619683
 10
-87.41551183
 20
6.77322281
 10
-87.41153186
 20
6.77031803
 10
-87.40749537
 20
6.76748326
 10
-87.40340313
 20
6.76471924
 10
-87.39925588
 20
6.76202673
  0
LWPOLYLINE
  5
21B
100
AcDbEntity
  8
MST_1_1
 62
   137
  6
CONTINUOUS
100
AcDbPolyline
 90
        9
 70
     0
 43
0.0
 10
-87.39925587
 20
6.76202678
 10
-87.4024786
 20
6.75880405
 10
-87.40570051
 20
6.75558203
 10
-87.40892172
 20
6.75236093
 10
-87.412142
 20
6.74914065
 10
-87.41536158
 20
6.74592107
 10
-87.41858035
 20
6.7427023
 10
-87.4217983
 20
6.73948435
 10
-87.42501544
 20
6.73626721
  0
LWPOLYLINE
  5
21C
100
AcDbEntity
  8
MST_1_1
 62
   137
  6
CONTINUOUS
100
AcDbPolyline
 90
        9
 70
     0
 43
0.0
 10
-87.42501544
 20
6.73626721
 10
-87.37043656
 20
6.68168833
 10
-87.31587026
 20
6.62712202
 10
-87.26132362
 20
6.57257539
 10
-87.20680377
 20
6.51805554
 10
-87.15231779
 20
6.46356944
 10
-87.09787279
 20
6.40912456
 10
-87.04347598
 20
6.35472787
 10
-86.98913447
 20
6.30038613
  0
CIRCLE
  5
21D
100
AcDbEntity
  8
MST_1_1
 62
   137
  6
CONTINUOUS
100
AcDbCircle
 10
-85.69866458
 20
8.54545025
 30
0.0
 40
3.28320262
  0
ARC
  5
21E
100
AcDbEntity
  8
MST_1_1
 62
   137
  6
CONTINUOUS
100
AcDbCircle
 10
-84.09594702
 20
7.62012082
 30
0.0
 40
0.65065883
100
AcDbArc
 50
104.00041459
 51
195.99959727
  0
LWPOLYLINE
  5
21F
100
AcDbEntity
  8
MST_1_1
 62
   137
  6
CONTINUOUS
100
AcDbPolyline
 90
        9
 70
     0
 43
0.0
 10
-87.19534349
 20
7.25330002
 10
-87.23106961
 20
7.28902613
 10
-87.26678828
 20
7.3247448
 10
-87.30249774
 20
7.36045427
 10
-87.33819604
 20
7.39615256
 10
-87.37388129
 20
7.43183781
 10
-87.40955153
 20
7.46750817
 10
-87.445205
 20
7.50316164
 10
-87.48083973
 20
7.53879637
  0
ARC
  5
220
100
AcDbEntity
  8
MST_1_1
 62
   137
  6
CONTINUOUS
100
AcDbCircle
 10
-87.25429961
 20
6.98981599
 30
0.0
 40
0.26999936
100
AcDbArc
 50
77.38747914
 51
127.33780242
  0
LINE
  5
221
100
AcDbEntity
  8
MST_1_1
 62
   137
  6
CONTINUOUS
100
AcDbLine
 10
-87.0396295
 20
6.82605707
 30
0.0
 11
-87.41805776
 21
7.20448533
 31
0.0
  0
ARC
  5
222
100
AcDbEntity
  8
MST_1_1
 62
   137
  6
CONTINUOUS
100
AcDbCircle
 10
-87.25429896
 20
6.98981525
 30
0.0
 40
0.26999948
100
AcDbArc
 50
322.66221884
 51
12.61250962
  0
LWPOLYLINE
  5
223
100
AcDbEntity
  8
MST_1_1
 62
   137
  6
CONTINUOUS
100
AcDbPolyline
 90
        9
 70
     0
 43
0.0
 10
-86.70531846
 20
6.7632751
 10
-86.74095319
 20
6.79890983
 10
-86.77660666
 20
6.8345633
 10
-86.81227701
 20
6.87023354
 10
-86.84796227
 20
6.90591879
 10
-86.88366056
 20
6.94161709
 10
-86.91937003
 20
6.97732655
 10
-86.9550887
 20
7.01304522
 10
-86.99081481
 20
7.04877134
  0
ARC
  5
224
100
AcDbEntity
  8
MST_1_1
 62
   137
  6
CONTINUOUS
100
AcDbCircle
 10
-86.7642744
 20
6.49979031
 30
0.0
 40
0.27000007
100
AcDbArc
 50
77.38755048
 51
192.61243885
  0
LWPOLYLINE
  5
225
100
AcDbEntity
  8
MST_1_1
 62
   137
  6
CONTINUOUS
100
AcDbPolyline
 90
        9
 70
     0
 43
0.0
 10
-87.31325545
 20
6.72633058
 10
-87.2775277
 20
6.69060283
 10
-87.24180764
 20
6.65488277
 10
-87.20609724
 20
6.61917237
 10
-87.17039837
 20
6.5834735
 10
-87.13471323
 20
6.54778848
 10
-87.09904369
 20
6.51211882
 10
-87.06339162
 20
6.47646686
 10
-87.02775921
 20
6.44083446
  0
ARC
  5
226
100
AcDbEntity
  8
MST_1_1
 62
   137
  6
CONTINUOUS
100
AcDbCircle
 10
-87.25429968
 20
6.98981617
 30
0.0
 40
0.27000082
100
AcDbArc
 50
257.38763285
 51
307.33766874
  0
LWPOLYLINE
  5
227
100
AcDbEntity
  8
MST_1_1
 62
   137
  6
CONTINUOUS
100
AcDbPolyline
 90
        9
 70
     0
 43
0.0
 10
-87.46896956
 20
7.15357365
 10
-87.42168177
 20
7.10628598
 10
-87.37438048
 20
7.05898468
 10
-87.32707022
 20
7.01167431
 10
-87.27975531
 20
6.96435952
 10
-87.23244052
 20
6.9170446
 10
-87.18513014
 20
6.86973435
 10
-87.13782885
 20
6.82243306
 10
-87.09054118
 20
6.77514527
  0
ARC
  5
228
100
AcDbEntity
  8
MST_1_1
 62
   137
  6
CONTINUOUS
100
AcDbCircle
 10
-87.2542994
 20
6.98981532
 30
0.0
 40
0.27000013
100
AcDbArc
 50
142.662273
 51
192.61245546
  0
LWPOLYLINE
  5
229
100
AcDbEntity
  8
MST_1_1
 62
   137
  6
CONTINUOUS
100
AcDbPolyline
 90
        9
 70
     0
 43
0.0
 10
-87.80328037
 20
7.21635562
 10
-87.76764797
 20
7.18072321
 10
-87.73199601
 20
7.14507114
 10
-87.69632635
 20
7.1094016
 10
-87.66064133
 20
7.07371646
 10
-87.62494246
 20
7.03801759
 10
-87.58923206
 20
7.00230719
 10
-87.55351199
 20
6.96658712
 10
-87.51778425
 20
6.93085938
  0
ARC
  5
22A
100
AcDbEntity
  8
MST_1_1
 62
   137
  6
CONTINUOUS
100
AcDbCircle
 10
-87.74432427
 20
7.47984017
 30
0.0
 40
0.26999988
100
AcDbArc
 50
257.38751638
 51
12.61251432
  0
LWPOLYLINE
  5
22B
100
AcDbEntity
  8
MST_1_1
 62
   137
  6
CONTINUOUS
100
AcDbPolyline
 90
        9
 70
     0
 43
0.0
 10
-87.33381021
 20
7.17114945
 10
-87.30120972
 20
7.13854897
 10
-87.26860482
 20
7.10594406
 10
-87.23599712
 20
7.07333625
 10
-87.20338779
 20
7.04072704
 10
-87.17077858
 20
7.00811771
 10
-87.13817076
 20
6.97551001
 10
-87.10556586
 20
6.9429051
 10
-87.07296538
 20
6.91030462
  0
ARC
  5
22C
100
AcDbEntity
  8
MST_1_1
 62
   137
  6
CONTINUOUS
100
AcDbCircle
 10
-87.25429956
 20
6.98981527
 30
0.0
 40
0.19800007
100
AcDbArc
 50
336.32372311
 51
113.6762869
  0
LWPOLYLINE
  5
22D
100
AcDbEntity
  8
MST_1_1
 62
   137
  6
CONTINUOUS
100
AcDbPolyline
 90
        9
 70
     0
 43
0.0
 10
-87.17478874
 20
6.80848126
 10
-87.20738922
 20
6.84108163
 10
-87.23999401
 20
6.87368653
 10
-87.27260182
 20
6.90629435
 10
-87.30521115
 20
6.93890368
 10
-87.33782048
 20
6.97151301
 10
-87.3704283
 20
7.00412082
 10
-87.4030332
 20
7.03672561
 10
-87.43563357
 20
7.06932609
  0
ARC
  5
22E
100
AcDbEntity
  8
MST_1_1
 62
   137
  6
CONTINUOUS
100
AcDbCircle
 10
-87.25429944
 20
6.98981539
 30
0.0
 40
0.19800004
100
AcDbArc
 50
156.32369345
 51
293.67631657
  0
CIRCLE
  5
22F
100
AcDbEntity
  8
MST_1_1
 62
   137
  6
CONTINUOUS
100
AcDbCircle
 10
-85.69866458
 20
-21.45454975
 30
0.0
 40
1.89428533
  0
CIRCLE
  5
230
100
AcDbEntity
  8
MST_1_1
 62
   137
  6
CONTINUOUS
100
AcDbCircle
 10
-85.69866458
 20
-21.45454975
 30
0.0
 40
1.06049438
  0
CIRCLE
  5
231
100
AcDbEntity
  8
MST_1_1
 62
   137
  6
CONTINUOUS
100
AcDbCircle
 10
-85.69866458
 20
-21.45454975
 30
0.0
 40
1.89428533
  0
CIRCLE
  5
232
100
AcDbEntity
  8
MST_1_1
 62
   137
  6
CONTINUOUS
100
AcDbCircle
 10
-85.69866458
 20
-21.45454975
 30
0.0
 40
1.06049438
  0
CIRCLE
  5
233
100
AcDbEntity
  8
MST_1_1
 62
   137
  6
CONTINUOUS
100
AcDbCircle
 10
-85.69866458
 20
-21.45454975
 30
0.0
 40
1.89428533
  0
CIRCLE
  5
234
100
AcDbEntity
  8
MST_1_1
 62
   137
  6
CONTINUOUS
100
AcDbCircle
 10
-85.69866458
 20
-21.45454975
 30
0.0
 40
1.06049438
  0
CIRCLE
  5
235
100
AcDbEntity
  8
MST_1_1
 62
   137
  6
CONTINUOUS
100
AcDbCircle
 10
-85.69866458
 20
-21.45454975
 30
0.0
 40
1.59428533
  0
CIRCLE
  5
236
100
AcDbEntity
  8
MST_1_1
 62
   137
  6
CONTINUOUS
100
AcDbCircle
 10
-85.69866458
 20
-21.45454975
 30
0.0
 40
1.99428533
  0
CIRCLE
  5
237
100
AcDbEntity
  8
MST_1_1
 62
   137
  6
CONTINUOUS
100
AcDbCircle
 10
-85.69866458
 20
-21.45454975
 30
0.0
 40
1.125
  0
CIRCLE
  5
238
100
AcDbEntity
  8
MST_1_1
 62
   137
  6
CONTINUOUS
100
AcDbCircle
 10
-85.69866458
 20
-21.45454975
 30
0.0
 40
3.5
  0
ARC
  5
239
100
AcDbEntity
  8
MST_1_1
 62
   137
  6
CONTINUOUS
100
AcDbCircle
 10
-87.07066456
 20
-21.45454975
 30
0.0
 40
0.303
100
AcDbArc
 50
104.00039951
 51
255.99961051
  0
ARC
  5
23A
100
AcDbEntity
  8
MST_1_1
 62
   137
  6
CONTINUOUS
100
AcDbCircle
 10
-87.30138213
 20
-22.37987918
 30
0.0
 40
0.65065883
100
AcDbArc
 50
344.00042282
 51
75.99958535
  0
ARC
  5
23B
100
AcDbEntity
  8
MST_1_1
 62
   137
  6
CONTINUOUS
100
AcDbCircle
 10
-86.38466455
 20
-22.64273659
 30
0.0
 40
0.30299999
100
AcDbArc
 50
164.00040911
 51
315.99959504
  0
ARC
  5
23C
100
AcDbEntity
  8
MST_1_1
 62
   137
  6
CONTINUOUS
100
AcDbCircle
 10
-85.69866458
 20
-23.3052085
 30
0.0
 40
0.65065875
100
AcDbArc
 50
44.00040429
 51
135.99959571
  0
ARC
  5
23D
100
AcDbEntity
  8
MST_1_1
 62
   137
  6
CONTINUOUS
100
AcDbCircle
 10
-85.01266458
 20
-22.64273664
 30
0.0
 40
0.30299998
100
AcDbArc
 50
224.00041508
 51
15.9996008
  0
ARC
  5
23E
100
AcDbEntity
  8
MST_1_1
 62
   137
  6
CONTINUOUS
100
AcDbCircle
 10
-84.32666459
 20
-21.45454975
 30
0.0
 40
0.303
100
AcDbArc
 50
284.00040953
 51
75.99960049
  0
ARC
  5
23F
100
AcDbEntity
  8
MST_1_1
 62
   137
  6
CONTINUOUS
100
AcDbCircle
 10
-84.09594702
 20
-20.52922031
 30
0.0
 40
0.65065883
100
AcDbArc
 50
164.00041281
 51
255.99959537
  0
ARC
  5
240
100
AcDbEntity
  8
MST_1_1
 62
   137
  6
CONTINUOUS
100
AcDbCircle
 10
-85.0126646
 20
-20.2663629
 30
0.0
 40
0.30299999
100
AcDbArc
 50
344.00041913
 51
135.99958502
  0
ARC
  5
241
100
AcDbEntity
  8
MST_1_1
 62
   137
  6
CONTINUOUS
100
AcDbCircle
 10
-85.69866458
 20
-19.603891
 30
0.0
 40
0.65065875
100
AcDbArc
 50
224.00041431
 51
315.99960573
  0
ARC
  5
242
100
AcDbEntity
  8
MST_1_1
 62
   137
  6
CONTINUOUS
100
AcDbCircle
 10
-86.38466458
 20
-20.26636285
 30
0.0
 40
0.30299998
100
AcDbArc
 50
44.00040506
 51
195.99961082
  0
ARC
  5
243
100
AcDbEntity
  8
MST_1_1
 62
   137
  6
CONTINUOUS
100
AcDbCircle
 10
-87.30138213
 20
-20.52922031
 30
0.0
 40
0.65065883
100
AcDbArc
 50
284.00042461
 51
15.99958726
  0
LWPOLYLINE
  5
244
100
AcDbEntity
  8
MST_1_1
 62
   137
  6
CONTINUOUS
100
AcDbPolyline
 90
        9
 70
     0
 43
0.0
 10
-86.98913447
 20
-23.69961387
 10
-86.98006851
 20
-23.69054791
 10
-86.97099615
 20
-23.68147544
 10
-86.9619175
 20
-23.6723969
 10
-86.95283245
 20
-23.66331185
 10
-86.94374123
 20
-23.65422051
 10
-86.9346436
 20
-23.64512289
 10
-86.92553981
 20
-23.63601921
 10
-86.91642984
 20
-23.62690925
  0
ARC
  5
245
100
AcDbEntity
  8
MST_1_1
 62
   137
  6
CONTINUOUS
100
AcDbCircle
 10
-86.76427451
 20
-23.50020975
 30
0.0
 40
0.19800002
100
AcDbArc
 50
50.21591721
 51
219.78410477
  0
LWPOLYLINE
  5
246
100
AcDbEntity
  8
MST_1_1
 62
   137
  6
CONTINUOUS
100
AcDbPolyline
 90
        9
 70
     0
 43
0.0
 10
-86.63757504
 20
-23.34805439
 10
-86.62850379
 20
-23.33898307
 10
-86.6194277
 20
-23.32990698
 10
-86.61034678
 20
-23.32082612
 10
-86.60126097
 20
-23.31174037
 10
-86.59217045
 20
-23.30264973
 10
-86.58307515
 20
-23.29355444
 10
-86.57397508
 20
-23.28445448
 10
-86.56487036
 20
-23.27534976
  0
LWPOLYLINE
  5
247
100
AcDbEntity
  8
MST_1_1
 62
   137
  6
CONTINUOUS
100
AcDbPolyline
 90
        9
 70
     0
 43
0.0
 10
-86.56487036
 20
-23.27534976
 10
-86.61921984
 20
-23.22100022
 10
-86.67362148
 20
-23.16659864
 10
-86.72806869
 20
-23.11215143
 10
-86.78255455
 20
-23.05766556
 10
-86.83707255
 20
-23.00314757
 10
-86.8916158
 20
-22.94860431
 10
-86.94617768
 20
-22.89404243
 10
-87.00075133
 20
-22.83946879
  0
LWPOLYLINE
  5
248
100
AcDbEntity
  8
MST_1_1
 62
   137
  6
CONTINUOUS
100
AcDbPolyline
 90
        9
 70
     0
 43
0.0
 10
-87.00075133
 20
-22.83946879
 10
-87.00397335
 20
-22.8426907
 10
-87.00719468
 20
-22.84591215
 10
-87.01041554
 20
-22.84913289
 10
-87.01363582
 20
-22.85235317
 10
-87.01685541
 20
-22.85557287
 10
-87.02007452
 20
-22.85879187
 10
-87.02329294
 20
-22.86201041
 10
-87.02651089
 20
-22.86522824
  0
LWPOLYLINE
  5
249
100
AcDbEntity
  8
MST_1_1
 62
   137
  6
CONTINUOUS
100
AcDbPolyline
 90
       25
 70
     0
 43
0.0
 10
-87.02651089
 20
-22.86522828
 10
-87.02920322
 20
-22.86108129
 10
-87.031967
 20
-22.85698931
 10
-87.0348015
 20
-22.85295308
 10
-87.03770598
 20
-22.84897337
 10
-87.04067968
 20
-22.84505092
 10
-87.04372187
 20
-22.84118646
 10
-87.04683179
 20
-22.83738076
 10
-87.05000871
 20
-22.83363455
 10
-87.05325188
 20
-22.82994858
 10
-87.05656055
 20
-22.8263236
 10
-87.05993399
 20
-22.82276036
 10
-87.06337144
 20
-22.81925961
 10
-87.06687216
 20
-22.81582208
 10
-87.07043541
 20
-22.81244853
 10
-87.07406045
 20
-22.8091397
 10
-87.07774652
 20
-22.80589635
 10
-87.08149288
 20
-22.80271921
 10
-87.08529879
 20
-22.79960903
 10
-87.08916351
 20
-22.79656657
 10
-87.09308629
 20
-22.79359257
 10
-87.09706638
 20
-22.79068777
 10
-87.10110305
 20
-22.78785292
 10
-87.10519554
 20
-22.78508877
 10
-87.10934311
 20
-22.78239606
  0
LWPOLYLINE
  5
24A
100
AcDbEntity
  8
MST_1_1
 62
   137
  6
CONTINUOUS
100
AcDbPolyline
 90
        9
 70
     0
 43
0.0
 10
-87.10934307
 20
-22.78239606
 10
-87.10612524
 20
-22.77917811
 10
-87.1029067
 20
-22.77595969
 10
-87.0996877
 20
-22.77274058
 10
-87.096468
 20
-22.76952099
 10
-87.09324772
 20
-22.76630071
 10
-87.09002698
 20
-22.76307985
 10
-87.08680553
 20
-22.75985852
 10
-87.08358362
 20
-22.7566365
  0
LWPOLYLINE
  5
24B
100
AcDbEntity
  8
MST_1_1
 62
   137
  6
CONTINUOUS
100
AcDbPolyline
 90
        9
 70
     0
 43
0.0
 10
-87.08358362
 20
-22.7566365
 10
-87.13815726
 20
-22.70206286
 10
-87.19271914
 20
-22.64750097
 10
-87.2472624
 20
-22.59295772
 10
-87.30178039
 20
-22.53843972
 10
-87.35626626
 20
-22.48395386
 10
-87.41071347
 20
-22.42950665
 10
-87.46511505
 20
-22.37510501
 10
-87.51946459
 20
-22.32075553
  0
LWPOLYLINE
  5
24C
100
AcDbEntity
  8
MST_1_1
 62
   137
  6
CONTINUOUS
100
AcDbPolyline
 90
        9
 70
     0
 43
0.0
 10
-87.51946459
 20
-22.32075553
 10
-87.52856931
 20
-22.32986025
 10
-87.53766927
 20
-22.33896032
 10
-87.54676456
 20
-22.34805562
 10
-87.5558552
 20
-22.35714614
 10
-87.56494095
 20
-22.36623195
 10
-87.57402181
 20
-22.37531287
 10
-87.5830979
 20
-22.38438896
 10
-87.59216922
 20
-22.39346021
  0
ARC
  5
24D
100
AcDbEntity
  8
MST_1_1
 62
   137
  6
CONTINUOUS
100
AcDbCircle
 10
-87.74432458
 20
-22.52015967
 30
0.0
 40
0.19800002
100
AcDbArc
 50
230.21591956
 51
39.7840785
  0
LWPOLYLINE
  5
24E
100
AcDbEntity
  8
MST_1_1
 62
   137
  6
CONTINUOUS
100
AcDbPolyline
 90
        9
 70
     0
 43
0.0
 10
-87.87102408
 20
-22.67231502
 10
-87.88013404
 20
-22.68142498
 10
-87.88923772
 20
-22.69052877
 10
-87.89833534
 20
-22.6996264
 10
-87.90742668
 20
-22.70871762
 10
-87.91651173
 20
-22.71780267
 10
-87.92559026
 20
-22.72688132
 10
-87.93466274
 20
-22.73595368
 10
-87.9437287
 20
-22.74501964
  0
LWPOLYLINE
  5
24F
100
AcDbEntity
  8
MST_1_1
 62
   137
  6
CONTINUOUS
100
AcDbPolyline
 90
        9
 70
     0
 43
0.0
 10
-87.9437287
 20
-22.74501964
 10
-87.88938696
 20
-22.79936115
 10
-87.83499027
 20
-22.85375796
 10
-87.78054539
 20
-22.90820296
 10
-87.72605929
 20
-22.96268894
 10
-87.67153944
 20
-23.01720879
 10
-87.6169928
 20
-23.07175543
 10
-87.5624265
 20
-23.12632173
 10
-87.50784762
 20
-23.18090061
  0
LWPOLYLINE
  5
250
100
AcDbEntity
  8
MST_1_1
 62
   137
  6
CONTINUOUS
100
AcDbPolyline
 90
        9
 70
     0
 43
0.0
 10
-87.50784762
 20
-23.18090061
 10
-87.50463048
 20
-23.17768347
 10
-87.50141253
 20
-23.17446552
 10
-87.49819376
 20
-23.17124675
 10
-87.49497418
 20
-23.16802717
 10
-87.4917539
 20
-23.16480689
 10
-87.4885328
 20
-23.16158568
 10
-87.48531078
 20
-23.15836377
 10
-87.48208805
 20
-23.15514104
  0
LWPOLYLINE
  5
251
100
AcDbEntity
  8
MST_1_1
 62
   137
  6
CONTINUOUS
100
AcDbPolyline
 90
       25
 70
     0
 43
0.0
 10
-87.4820881
 20
-23.15514105
 10
-87.47939598
 20
-23.15928771
 10
-87.47663233
 20
-23.16337944
 10
-87.47379791
 20
-23.16741547
 10
-87.47089347
 20
-23.17139505
 10
-87.46791976
 20
-23.17531744
 10
-87.46487752
 20
-23.17918187
 10
-87.46176751
 20
-23.1829876
 10
-87.45859049
 20
-23.18673386
 10
-87.45534719
 20
-23.19041992
 10
-87.45203837
 20
-23.19404501
 10
-87.44866479
 20
-23.19760839
 10
-87.44522719
 20
-23.20110929
 10
-87.44172632
 20
-23.20454697
 10
-87.43816293
 20
-23.20792068
 10
-87.43453778
 20
-23.21122965
 10
-87.43085162
 20
-23.21447314
 10
-87.42710519
 20
-23.21765039
 10
-87.42329925
 20
-23.22076065
 10
-87.41943455
 20
-23.22380317
 10
-87.41551183
 20
-23.22677719
 10
-87.41153186
 20
-23.22968197
 10
-87.40749537
 20
-23.23251674
 10
-87.40340313
 20
-23.23528076
 10
-87.39925588
 20
-23.23797327
  0
LWPOLYLINE
  5
252
100
AcDbEntity
  8
MST_1_1
 62
   137
  6
CONTINUOUS
100
AcDbPolyline
 90
        9
 70
     0
 43
0.0
 10
-87.39925587
 20
-23.23797322
 10
-87.4024786
 20
-23.24119595
 10
-87.40570051
 20
-23.24441797
 10
-87.40892172
 20
-23.24763907
 10
-87.412142
 20
-23.25085935
 10
-87.41536158
 20
-23.25407893
 10
-87.41858035
 20
-23.2572977
 10
-87.4217983
 20
-23.26051565
 10
-87.42501544
 20
-23.26373279
  0
LWPOLYLINE
  5
253
100
AcDbEntity
  8
MST_1_1
 62
   137
  6
CONTINUOUS
100
AcDbPolyline
 90
        9
 70
     0
 43
0.0
 10
-87.42501544
 20
-23.26373279
 10
-87.37043656
 20
-23.31831167
 10
-87.31587026
 20
-23.37287798
 10
-87.26132362
 20
-23.42742461
 10
-87.20680377
 20
-23.48194446
 10
-87.15231779
 20
-23.53643056
 10
-87.09787279
 20
-23.59087544
 10
-87.04347598
 20
-23.64527213
 10
-86.98913447
 20
-23.69961387
  0
CIRCLE
  5
254
100
AcDbEntity
  8
MST_1_1
 62
   137
  6
CONTINUOUS
100
AcDbCircle
 10
-85.69866458
 20
-21.45454975
 30
0.0
 40
3.28320262
  0
ARC
  5
255
100
AcDbEntity
  8
MST_1_1
 62
   137
  6
CONTINUOUS
100
AcDbCircle
 10
-84.09594702
 20
-22.37987918
 30
0.0
 40
0.65065883
100
AcDbArc
 50
104.00041459
 51
195.99959727
  0
LWPOLYLINE
  5
256
100
AcDbEntity
  8
MST_1_1
 62
   137
  6
CONTINUOUS
100
AcDbPolyline
 90
        9
 70
     0
 43
0.0
 10
-87.19534349
 20
-22.74669998
 10
-87.23106961
 20
-22.71097387
 10
-87.26678828
 20
-22.6752552
 10
-87.30249774
 20
-22.63954573
 10
-87.33819604
 20
-22.60384744
 10
-87.37388129
 20
-22.56816219
 10
-87.40955153
 20
-22.53249183
 10
-87.445205
 20
-22.49683836
 10
-87.48083973
 20
-22.46120363
  0
ARC
  5
257
100
AcDbEntity
  8
MST_1_1
 62
   137
  6
CONTINUOUS
100
AcDbCircle
 10
-87.25429961
 20
-23.01018401
 30
0.0
 40
0.26999936
100
AcDbArc
 50
77.38747914
 51
127.33780242
  0
LINE
  5
258
100
AcDbEntity
  8
MST_1_1
 62
   137
  6
CONTINUOUS
100
AcDbLine
 10
-87.0396295
 20
-23.17394293
 30
0.0
 11
-87.41805776
 21
-22.79551467
 31
0.0
  0
ARC
  5
259
100
AcDbEntity
  8
MST_1_1
 62
   137
  6
CONTINUOUS
100
AcDbCircle
 10
-87.25429896
 20
-23.01018475
 30
0.0
 40
0.26999948
100
AcDbArc
 50
322.66221884
 51
12.61250962
  0
LWPOLYLINE
  5
25A
100
AcDbEntity
  8
MST_1_1
 62
   137
  6
CONTINUOUS
100
AcDbPolyline
 90
        9
 70
     0
 43
0.0
 10
-86.70531846
 20
-23.2367249
 10
-86.74095319
 20
-23.20109017
 10
-86.77660666
 20
-23.1654367
 10
-86.81227701
 20
-23.12976646
 10
-86.84796227
 20
-23.09408121
 10
-86.88366056
 20
-23.05838291
 10
-86.91937003
 20
-23.02267345
 10
-86.9550887
 20
-22.98695478
 10
-86.99081481
 20
-22.95122866
  0
ARC
  5
25B
100
AcDbEntity
  8
MST_1_1
 62
   137
  6
CONTINUOUS
100
AcDbCircle
 10
-86.7642744
 20
-23.50020969
 30
0.0
 40
0.27000007
100
AcDbArc
 50
77.38755048
 51
192.61243885
  0
LWPOLYLINE
  5
25C
100
AcDbEntity
  8
MST_1_1
 62
   137
  6
CONTINUOUS
100
AcDbPolyline
 90
        9
 70
     0
 43
0.0
 10
-87.31325545
 20
-23.27366942
 10
-87.2775277
 20
-23.30939717
 10
-87.24180764
 20
-23.34511723
 10
-87.20609724
 20
-23.38082763
 10
-87.17039837
 20
-23.4165265
 10
-87.13471323
 20
-23.45221152
 10
-87.09904369
 20
-23.48788118
 10
-87.06339162
 20
-23.52353314
 10
-87.02775921
 20
-23.55916554
  0
ARC
  5
25D
100
AcDbEntity
  8
MST_1_1
 62
   137
  6
CONTINUOUS
100
AcDbCircle
 10
-87.25429968
 20
-23.01018383
 30
0.0
 40
0.27000082
100
AcDbArc
 50
257.38763285
 51
307.33766874
  0
LWPOLYLINE
  5
25E
100
AcDbEntity
  8
MST_1_1
 62
   137
  6
CONTINUOUS
100
AcDbPolyline
 90
        9
 70
     0
 43
0.0
 10
-87.46896956
 20
-22.84642635
 10
-87.42168177
 20
-22.89371402
 10
-87.37438048
 20
-22.94101532
 10
-87.32707022
 20
-22.98832569
 10
-87.27975531
 20
-23.03564048
 10
-87.23244052
 20
-23.0829554
 10
-87.18513014
 20
-23.13026565
 10
-87.13782885
 20
-23.17756694
 10
-87.09054118
 20
-23.22485473
  0
ARC
  5
25F
100
AcDbEntity
  8
MST_1_1
 62
   137
  6
CONTINUOUS
100
AcDbCircle
 10
-87.2542994
 20
-23.01018468
 30
0.0
 40
0.27000013
100
AcDbArc
 50
142.662273
 51
192.61245546
  0
LWPOLYLINE
  5
260
100
AcDbEntity
  8
MST_1_1
 62
   137
  6
CONTINUOUS
100
AcDbPolyline
 90
        9
 70
     0
 43
0.0
 10
-87.80328037
 20
-22.78364438
 10
-87.76764797
 20
-22.81927679
 10
-87.73199601
 20
-22.85492886
 10
-87.69632635
 20
-22.8905984
 10
-87.66064133
 20
-22.92628354
 10
-87.62494246
 20
-22.96198241
 10
-87.58923206
 20
-22.99769281
 10
-87.55351199
 20
-23.03341288
 10
-87.51778425
 20
-23.06914062
  0
ARC
  5
261
100
AcDbEntity
  8
MST_1_1
 62
   137
  6
CONTINUOUS
100
AcDbCircle
 10
-87.74432427
 20
-22.52015983
 30
0.0
 40
0.26999988
100
AcDbArc
 50
257.38751638
 51
12.61251432
  0
LWPOLYLINE
  5
262
100
AcDbEntity
  8
MST_1_1
 62
   137
  6
CONTINUOUS
100
AcDbPolyline
 90
        9
 70
     0
 43
0.0
 10
-87.33381021
 20
-22.82885055
 10
-87.30120972
 20
-22.86145103
 10
-87.26860482
 20
-22.89405594
 10
-87.23599712
 20
-22.92666375
 10
-87.20338779
 20
-22.95927296
 10
-87.17077858
 20
-22.99188229
 10
-87.13817076
 20
-23.02448999
 10
-87.10556586
 20
-23.0570949
 10
-87.07296538
 20
-23.08969538
  0
ARC
  5
263
100
AcDbEntity
  8
MST_1_1
 62
   137
  6
CONTINUOUS
100
AcDbCircle
 10
-87.25429956
 20
-23.01018473
 30
0.0
 40
0.19800007
100
AcDbArc
 50
336.32372311
 51
113.6762869
  0
LWPOLYLINE
  5
264
100
AcDbEntity
  8
MST_1_1
 62
   137
  6
CONTINUOUS
100
AcDbPolyline
 90
        9
 70
     0
 43
0.0
 10
-87.17478874
 20
-23.19151874
 10
-87.20738922
 20
-23.15891837
 10
-87.23999401
 20
-23.12631347
 10
-87.27260182
 20
-23.09370565
 10
-87.30521115
 20
-23.06109632
 10
-87.33782048
 20
-23.02848699
 10
-87.3704283
 20
-22.99587918
 10
-87.4030332
 20
-22.96327439
 10
-87.43563357
 20
-22.93067391
  0
ARC
  5
265
100
AcDbEntity
  8
MST_1_1
 62
   137
  6
CONTINUOUS
100
AcDbCircle
 10
-87.25429944
 20
-23.01018461
 30
0.0
 40
0.19800004
100
AcDbArc
 50
156.32369345
 51
293.67631657
  0
CIRCLE
  5
266
100
AcDbEntity
  8
MST_1_1
 62
   137
  6
CONTINUOUS
100
AcDbCircle
 10
-85.69866458
 20
-51.45454975
 30
0.0
 40
1.89428533
  0
CIRCLE
  5
267
100
AcDbEntity
  8
MST_1_1
 62
   137
  6
CONTINUOUS
100
AcDbCircle
 10
-85.69866458
 20
-51.45454975
 30
0.0
 40
1.06049438
  0
CIRCLE
  5
268
100
AcDbEntity
  8
MST_1_1
 62
   137
  6
CONTINUOUS
100
AcDbCircle
 10
-85.69866458
 20
-51.45454975
 30
0.0
 40
1.89428533
  0
CIRCLE
  5
269
100
AcDbEntity
  8
MST_1_1
 62
   137
  6
CONTINUOUS
100
AcDbCircle
 10
-85.69866458
 20
-51.45454975
 30
0.0
 40
1.06049438
  0
CIRCLE
  5
26A
100
AcDbEntity
  8
MST_1_1
 62
   137
  6
CONTINUOUS
100
AcDbCircle
 10
-85.69866458
 20
-51.45454975
 30
0.0
 40
1.89428533
  0
CIRCLE
  5
26B
100
AcDbEntity
  8
MST_1_1
 62
   137
  6
CONTINUOUS
100
AcDbCircle
 10
-85.69866458
 20
-51.45454975
 30
0.0
 40
1.06049438
  0
CIRCLE
  5
26C
100
AcDbEntity
  8
MST_1_1
 62
   137
  6
CONTINUOUS
100
AcDbCircle
 10
-85.69866458
 20
-51.45454975
 30
0.0
 40
1.59428533
  0
CIRCLE
  5
26D
100
AcDbEntity
  8
MST_1_1
 62
   137
  6
CONTINUOUS
100
AcDbCircle
 10
-85.69866458
 20
-51.45454975
 30
0.0
 40
1.99428533
  0
CIRCLE
  5
26E
100
AcDbEntity
  8
MST_1_1
 62
   137
  6
CONTINUOUS
100
AcDbCircle
 10
-85.69866458
 20
-51.45454975
 30
0.0
 40
1.125
  0
CIRCLE
  5
26F
100
AcDbEntity
  8
MST_1_1
 62
   137
  6
CONTINUOUS
100
AcDbCircle
 10
-85.69866458
 20
-51.45454975
 30
0.0
 40
3.5
  0
ARC
  5
270
100
AcDbEntity
  8
MST_1_1
 62
   137
  6
CONTINUOUS
100
AcDbCircle
 10
-87.07066456
 20
-51.45454975
 30
0.0
 40
0.303
100
AcDbArc
 50
104.00039951
 51
255.99961051
  0
ARC
  5
271
100
AcDbEntity
  8
MST_1_1
 62
   137
  6
CONTINUOUS
100
AcDbCircle
 10
-87.30138213
 20
-52.37987918
 30
0.0
 40
0.65065883
100
AcDbArc
 50
344.00042282
 51
75.99958535
  0
ARC
  5
272
100
AcDbEntity
  8
MST_1_1
 62
   137
  6
CONTINUOUS
100
AcDbCircle
 10
-86.38466455
 20
-52.64273659
 30
0.0
 40
0.30299999
100
AcDbArc
 50
164.00040911
 51
315.99959504
  0
ARC
  5
273
100
AcDbEntity
  8
MST_1_1
 62
   137
  6
CONTINUOUS
100
AcDbCircle
 10
-85.69866458
 20
-53.3052085
 30
0.0
 40
0.65065875
100
AcDbArc
 50
44.00040429
 51
135.99959571
  0
ARC
  5
274
100
AcDbEntity
  8
MST_1_1
 62
   137
  6
CONTINUOUS
100
AcDbCircle
 10
-85.01266458
 20
-52.64273664
 30
0.0
 40
0.30299998
100
AcDbArc
 50
224.00041508
 51
15.9996008
  0
ARC
  5
275
100
AcDbEntity
  8
MST_1_1
 62
   137
  6
CONTINUOUS
100
AcDbCircle
 10
-84.32666459
 20
-51.45454975
 30
0.0
 40
0.303
100
AcDbArc
 50
284.00040953
 51
75.99960049
  0
ARC
  5
276
100
AcDbEntity
  8
MST_1_1
 62
   137
  6
CONTINUOUS
100
AcDbCircle
 10
-84.09594702
 20
-50.52922031
 30
0.0
 40
0.65065883
100
AcDbArc
 50
164.00041281
 51
255.99959537
  0
ARC
  5
277
100
AcDbEntity
  8
MST_1_1
 62
   137
  6
CONTINUOUS
100
AcDbCircle
 10
-85.0126646
 20
-50.2663629
 30
0.0
 40
0.30299999
100
AcDbArc
 50
344.00041913
 51
135.99958502
  0
ARC
  5
278
100
AcDbEntity
  8
MST_1_1
 62
   137
  6
CONTINUOUS
100
AcDbCircle
 10
-85.69866458
 20
-49.603891
 30
0.0
 40
0.65065875
100
AcDbArc
 50
224.00041431
 51
315.99960573
  0
ARC
  5
279
100
AcDbEntity
  8
MST_1_1
 62
   137
  6
CONTINUOUS
100
AcDbCircle
 10
-86.38466458
 20
-50.26636285
 30
0.0
 40
0.30299998
100
AcDbArc
 50
44.00040506
 51
195.99961082
  0
ARC
  5
27A
100
AcDbEntity
  8
MST_1_1
 62
   137
  6
CONTINUOUS
100
AcDbCircle
 10
-87.30138213
 20
-50.52922031
 30
0.0
 40
0.65065883
100
AcDbArc
 50
284.00042461
 51
15.99958726
  0
LWPOLYLINE
  5
27B
100
AcDbEntity
  8
MST_1_1
 62
   137
  6
CONTINUOUS
100
AcDbPolyline
 90
        9
 70
     0
 43
0.0
 10
-86.98913447
 20
-53.69961387
 10
-86.98006851
 20
-53.69054791
 10
-86.97099615
 20
-53.68147544
 10
-86.9619175
 20
-53.6723969
 10
-86.95283245
 20
-53.66331185
 10
-86.94374123
 20
-53.65422051
 10
-86.9346436
 20
-53.64512289
 10
-86.92553981
 20
-53.63601921
 10
-86.91642984
 20
-53.62690925
  0
ARC
  5
27C
100
AcDbEntity
  8
MST_1_1
 62
   137
  6
CONTINUOUS
100
AcDbCircle
 10
-86.76427451
 20
-53.50020975
 30
0.0
 40
0.19800002
100
AcDbArc
 50
50.21591721
 51
219.78410477
  0
LWPOLYLINE
  5
27D
100
AcDbEntity
  8
MST_1_1
 62
   137
  6
CONTINUOUS
100
AcDbPolyline
 90
        9
 70
     0
 43
0.0
 10
-86.63757504
 20
-53.34805439
 10
-86.62850379
 20
-53.33898307
 10
-86.6194277
 20
-53.32990698
 10
-86.61034678
 20
-53.32082612
 10
-86.60126097
 20
-53.31174037
 10
-86.59217045
 20
-53.30264973
 10
-86.58307515
 20
-53.29355444
 10
-86.57397508
 20
-53.28445448
 10
-86.56487036
 20
-53.27534976
  0
LWPOLYLINE
  5
27E
100
AcDbEntity
  8
MST_1_1
 62
   137
  6
CONTINUOUS
100
AcDbPolyline
 90
        9
 70
     0
 43
0.0
 10
-86.56487036
 20
-53.27534976
 10
-86.61921984
 20
-53.22100022
 10
-86.67362148
 20
-53.16659864
 10
-86.72806869
 20
-53.11215143
 10
-86.78255455
 20
-53.05766556
 10
-86.83707255
 20
-53.00314757
 10
-86.8916158
 20
-52.94860431
 10
-86.94617768
 20
-52.89404243
 10
-87.00075133
 20
-52.83946879
  0
LWPOLYLINE
  5
27F
100
AcDbEntity
  8
MST_1_1
 62
   137
  6
CONTINUOUS
100
AcDbPolyline
 90
        9
 70
     0
 43
0.0
 10
-87.00075133
 20
-52.83946879
 10
-87.00397335
 20
-52.8426907
 10
-87.00719468
 20
-52.84591215
 10
-87.01041554
 20
-52.84913289
 10
-87.01363582
 20
-52.85235317
 10
-87.01685541
 20
-52.85557287
 10
-87.02007452
 20
-52.85879187
 10
-87.02329294
 20
-52.86201041
 10
-87.02651089
 20
-52.86522824
  0
LWPOLYLINE
  5
280
100
AcDbEntity
  8
MST_1_1
 62
   137
  6
CONTINUOUS
100
AcDbPolyline
 90
       25
 70
     0
 43
0.0
 10
-87.02651089
 20
-52.86522828
 10
-87.02920322
 20
-52.86108129
 10
-87.031967
 20
-52.85698931
 10
-87.0348015
 20
-52.85295308
 10
-87.03770598
 20
-52.84897337
 10
-87.04067968
 20
-52.84505092
 10
-87.04372187
 20
-52.84118646
 10
-87.04683179
 20
-52.83738076
 10
-87.05000871
 20
-52.83363455
 10
-87.05325188
 20
-52.82994858
 10
-87.05656055
 20
-52.8263236
 10
-87.05993399
 20
-52.82276036
 10
-87.06337144
 20
-52.81925961
 10
-87.06687216
 20
-52.81582208
 10
-87.07043541
 20
-52.81244853
 10
-87.07406045
 20
-52.8091397
 10
-87.07774652
 20
-52.80589635
 10
-87.08149288
 20
-52.80271921
 10
-87.08529879
 20
-52.79960903
 10
-87.08916351
 20
-52.79656657
 10
-87.09308629
 20
-52.79359257
 10
-87.09706638
 20
-52.79068777
 10
-87.10110305
 20
-52.78785292
 10
-87.10519554
 20
-52.78508877
 10
-87.10934311
 20
-52.78239606
  0
LWPOLYLINE
  5
281
100
AcDbEntity
  8
MST_1_1
 62
   137
  6
CONTINUOUS
100
AcDbPolyline
 90
        9
 70
     0
 43
0.0
 10
-87.10934307
 20
-52.78239606
 10
-87.10612524
 20
-52.77917811
 10
-87.1029067
 20
-52.77595969
 10
-87.0996877
 20
-52.77274058
 10
-87.096468
 20
-52.76952099
 10
-87.09324772
 20
-52.76630071
 10
-87.09002698
 20
-52.76307985
 10
-87.08680553
 20
-52.75985852
 10
-87.08358362
 20
-52.7566365
  0
LWPOLYLINE
  5
282
100
AcDbEntity
  8
MST_1_1
 62
   137
  6
CONTINUOUS
100
AcDbPolyline
 90
        9
 70
     0
 43
0.0
 10
-87.08358362
 20
-52.7566365
 10
-87.13815726
 20
-52.70206286
 10
-87.19271914
 20
-52.64750097
 10
-87.2472624
 20
-52.59295772
 10
-87.30178039
 20
-52.53843972
 10
-87.35626626
 20
-52.48395386
 10
-87.41071347
 20
-52.42950665
 10
-87.46511505
 20
-52.37510501
 10
-87.51946459
 20
-52.32075553
  0
LWPOLYLINE
  5
283
100
AcDbEntity
  8
MST_1_1
 62
   137
  6
CONTINUOUS
100
AcDbPolyline
 90
        9
 70
     0
 43
0.0
 10
-87.51946459
 20
-52.32075553
 10
-87.52856931
 20
-52.32986025
 10
-87.53766927
 20
-52.33896032
 10
-87.54676456
 20
-52.34805562
 10
-87.5558552
 20
-52.35714614
 10
-87.56494095
 20
-52.36623195
 10
-87.57402181
 20
-52.37531287
 10
-87.5830979
 20
-52.38438896
 10
-87.59216922
 20
-52.39346021
  0
ARC
  5
284
100
AcDbEntity
  8
MST_1_1
 62
   137
  6
CONTINUOUS
100
AcDbCircle
 10
-87.74432458
 20
-52.52015967
 30
0.0
 40
0.19800002
100
AcDbArc
 50
230.21591956
 51
39.7840785
  0
LWPOLYLINE
  5
285
100
AcDbEntity
  8
MST_1_1
 62
   137
  6
CONTINUOUS
100
AcDbPolyline
 90
        9
 70
     0
 43
0.0
 10
-87.87102408
 20
-52.67231502
 10
-87.88013404
 20
-52.68142498
 10
-87.88923772
 20
-52.69052877
 10
-87.89833534
 20
-52.6996264
 10
-87.90742668
 20
-52.70871762
 10
-87.91651173
 20
-52.71780267
 10
-87.92559026
 20
-52.72688132
 10
-87.93466274
 20
-52.73595368
 10
-87.9437287
 20
-52.74501964
  0
LWPOLYLINE
  5
286
100
AcDbEntity
  8
MST_1_1
 62
   137
  6
CONTINUOUS
100
AcDbPolyline
 90
        9
 70
     0
 43
0.0
 10
-87.9437287
 20
-52.74501964
 10
-87.88938696
 20
-52.79936115
 10
-87.83499027
 20
-52.85375796
 10
-87.78054539
 20
-52.90820296
 10
-87.72605929
 20
-52.96268894
 10
-87.67153944
 20
-53.01720879
 10
-87.6169928
 20
-53.07175543
 10
-87.5624265
 20
-53.12632173
 10
-87.50784762
 20
-53.18090061
  0
LWPOLYLINE
  5
287
100
AcDbEntity
  8
MST_1_1
 62
   137
  6
CONTINUOUS
100
AcDbPolyline
 90
        9
 70
     0
 43
0.0
 10
-87.50784762
 20
-53.18090061
 10
-87.50463048
 20
-53.17768347
 10
-87.50141253
 20
-53.17446552
 10
-87.49819376
 20
-53.17124675
 10
-87.49497418
 20
-53.16802717
 10
-87.4917539
 20
-53.16480689
 10
-87.4885328
 20
-53.16158568
 10
-87.48531078
 20
-53.15836377
 10
-87.48208805
 20
-53.15514104
  0
LWPOLYLINE
  5
288
100
AcDbEntity
  8
MST_1_1
 62
   137
  6
CONTINUOUS
100
AcDbPolyline
 90
       25
 70
     0
 43
0.0
 10
-87.4820881
 20
-53.15514105
 10
-87.47939598
 20
-53.15928771
 10
-87.47663233
 20
-53.16337944
 10
-87.47379791
 20
-53.16741547
 10
-87.47089347
 20
-53.17139505
 10
-87.46791976
 20
-53.17531744
 10
-87.46487752
 20
-53.17918187
 10
-87.46176751
 20
-53.1829876
 10
-87.45859049
 20
-53.18673386
 10
-87.45534719
 20
-53.19041992
 10
-87.45203837
 20
-53.19404501
 10
-87.44866479
 20
-53.19760839
 10
-87.44522719
 20
-53.20110929
 10
-87.44172632
 20
-53.20454697
 10
-87.43816293
 20
-53.20792068
 10
-87.43453778
 20
-53.21122965
 10
-87.43085162
 20
-53.21447314
 10
-87.42710519
 20
-53.21765039
 10
-87.42329925
 20
-53.22076065
 10
-87.41943455
 20
-53.22380317
 10
-87.41551183
 20
-53.22677719
 10
-87.41153186
 20
-53.22968197
 10
-87.40749537
 20
-53.23251674
 10
-87.40340313
 20
-53.23528076
 10
-87.39925588
 20
-53.23797327
  0
LWPOLYLINE
  5
289
100
AcDbEntity
  8
MST_1_1
 62
   137
  6
CONTINUOUS
100
AcDbPolyline
 90
        9
 70
     0
 43
0.0
 10
-87.39925587
 20
-53.23797322
 10
-87.4024786
 20
-53.24119595
 10
-87.40570051
 20
-53.24441797
 10
-87.40892172
 20
-53.24763907
 10
-87.412142
 20
-53.25085935
 10
-87.41536158
 20
-53.25407893
 10
-87.41858035
 20
-53.2572977
 10
-87.4217983
 20
-53.26051565
 10
-87.42501544
 20
-53.26373279
  0
LWPOLYLINE
  5
28A
100
AcDbEntity
  8
MST_1_1
 62
   137
  6
CONTINUOUS
100
AcDbPolyline
 90
        9
 70
     0
 43
0.0
 10
-87.42501544
 20
-53.26373279
 10
-87.37043656
 20
-53.31831167
 10
-87.31587026
 20
-53.37287798
 10
-87.26132362
 20
-53.42742461
 10
-87.20680377
 20
-53.48194446
 10
-87.15231779
 20
-53.53643056
 10
-87.09787279
 20
-53.59087544
 10
-87.04347598
 20
-53.64527213
 10
-86.98913447
 20
-53.69961387
  0
CIRCLE
  5
28B
100
AcDbEntity
  8
MST_1_1
 62
   137
  6
CONTINUOUS
100
AcDbCircle
 10
-85.69866458
 20
-51.45454975
 30
0.0
 40
3.28320262
  0
ARC
  5
28C
100
AcDbEntity
  8
MST_1_1
 62
   137
  6
CONTINUOUS
100
AcDbCircle
 10
-84.09594702
 20
-52.37987918
 30
0.0
 40
0.65065883
100
AcDbArc
 50
104.00041459
 51
195.99959727
  0
LWPOLYLINE
  5
28D
100
AcDbEntity
  8
MST_1_1
 62
   137
  6
CONTINUOUS
100
AcDbPolyline
 90
        9
 70
     0
 43
0.0
 10
-87.19534349
 20
-52.74669998
 10
-87.23106961
 20
-52.71097387
 10
-87.26678828
 20
-52.6752552
 10
-87.30249774
 20
-52.63954573
 10
-87.33819604
 20
-52.60384744
 10
-87.37388129
 20
-52.56816219
 10
-87.40955153
 20
-52.53249183
 10
-87.445205
 20
-52.49683836
 10
-87.48083973
 20
-52.46120363
  0
ARC
  5
28E
100
AcDbEntity
  8
MST_1_1
 62
   137
  6
CONTINUOUS
100
AcDbCircle
 10
-87.25429961
 20
-53.01018401
 30
0.0
 40
0.26999936
100
AcDbArc
 50
77.38747914
 51
127.33780242
  0
LINE
  5
28F
100
AcDbEntity
  8
MST_1_1
 62
   137
  6
CONTINUOUS
100
AcDbLine
 10
-87.0396295
 20
-53.17394293
 30
0.0
 11
-87.41805776
 21
-52.79551467
 31
0.0
  0
ARC
  5
290
100
AcDbEntity
  8
MST_1_1
 62
   137
  6
CONTINUOUS
100
AcDbCircle
 10
-87.25429896
 20
-53.01018475
 30
0.0
 40
0.26999948
100
AcDbArc
 50
322.66221884
 51
12.61250962
  0
LWPOLYLINE
  5
291
100
AcDbEntity
  8
MST_1_1
 62
   137
  6
CONTINUOUS
100
AcDbPolyline
 90
        9
 70
     0
 43
0.0
 10
-86.70531846
 20
-53.2367249
 10
-86.74095319
 20
-53.20109017
 10
-86.77660666
 20
-53.1654367
 10
-86.81227701
 20
-53.12976646
 10
-86.84796227
 20
-53.09408121
 10
-86.88366056
 20
-53.05838291
 10
-86.91937003
 20
-53.02267345
 10
-86.9550887
 20
-52.98695478
 10
-86.99081481
 20
-52.95122866
  0
ARC
  5
292
100
AcDbEntity
  8
MST_1_1
 62
   137
  6
CONTINUOUS
100
AcDbCircle
 10
-86.7642744
 20
-53.50020969
 30
0.0
 40
0.27000007
100
AcDbArc
 50
77.38755048
 51
192.61243885
  0
LWPOLYLINE
  5
293
100
AcDbEntity
  8
MST_1_1
 62
   137
  6
CONTINUOUS
100
AcDbPolyline
 90
        9
 70
     0
 43
0.0
 10
-87.31325545
 20
-53.27366942
 10
-87.2775277
 20
-53.30939717
 10
-87.24180764
 20
-53.34511723
 10
-87.20609724
 20
-53.38082763
 10
-87.17039837
 20
-53.4165265
 10
-87.13471323
 20
-53.45221152
 10
-87.09904369
 20
-53.48788118
 10
-87.06339162
 20
-53.52353314
 10
-87.02775921
 20
-53.55916554
  0
ARC
  5
294
100
AcDbEntity
  8
MST_1_1
 62
   137
  6
CONTINUOUS
100
AcDbCircle
 10
-87.25429968
 20
-53.01018383
 30
0.0
 40
0.27000082
100
AcDbArc
 50
257.38763285
 51
307.33766874
  0
LWPOLYLINE
  5
295
100
AcDbEntity
  8
MST_1_1
 62
   137
  6
CONTINUOUS
100
AcDbPolyline
 90
        9
 70
     0
 43
0.0
 10
-87.46896956
 20
-52.84642635
 10
-87.42168177
 20
-52.89371402
 10
-87.37438048
 20
-52.94101532
 10
-87.32707022
 20
-52.98832569
 10
-87.27975531
 20
-53.03564048
 10
-87.23244052
 20
-53.0829554
 10
-87.18513014
 20
-53.13026565
 10
-87.13782885
 20
-53.17756694
 10
-87.09054118
 20
-53.22485473
  0
ARC
  5
296
100
AcDbEntity
  8
MST_1_1
 62
   137
  6
CONTINUOUS
100
AcDbCircle
 10
-87.2542994
 20
-53.01018468
 30
0.0
 40
0.27000013
100
AcDbArc
 50
142.662273
 51
192.61245546
  0
LWPOLYLINE
  5
297
100
AcDbEntity
  8
MST_1_1
 62
   137
  6
CONTINUOUS
100
AcDbPolyline
 90
        9
 70
     0
 43
0.0
 10
-87.80328037
 20
-52.78364438
 10
-87.76764797
 20
-52.81927679
 10
-87.73199601
 20
-52.85492886
 10
-87.69632635
 20
-52.8905984
 10
-87.66064133
 20
-52.92628354
 10
-87.62494246
 20
-52.96198241
 10
-87.58923206
 20
-52.99769281
 10
-87.55351199
 20
-53.03341288
 10
-87.51778425
 20
-53.06914062
  0
ARC
  5
298
100
AcDbEntity
  8
MST_1_1
 62
   137
  6
CONTINUOUS
100
AcDbCircle
 10
-87.74432427
 20
-52.52015983
 30
0.0
 40
0.26999988
100
AcDbArc
 50
257.38751638
 51
12.61251432
  0
LWPOLYLINE
  5
299
100
AcDbEntity
  8
MST_1_1
 62
   137
  6
CONTINUOUS
100
AcDbPolyline
 90
        9
 70
     0
 43
0.0
 10
-87.33381021
 20
-52.82885055
 10
-87.30120972
 20
-52.86145103
 10
-87.26860482
 20
-52.89405594
 10
-87.23599712
 20
-52.92666375
 10
-87.20338779
 20
-52.95927296
 10
-87.17077858
 20
-52.99188229
 10
-87.13817076
 20
-53.02448999
 10
-87.10556586
 20
-53.0570949
 10
-87.07296538
 20
-53.08969538
  0
ARC
  5
29A
100
AcDbEntity
  8
MST_1_1
 62
   137
  6
CONTINUOUS
100
AcDbCircle
 10
-87.25429956
 20
-53.01018473
 30
0.0
 40
0.19800007
100
AcDbArc
 50
336.32372311
 51
113.6762869
  0
LWPOLYLINE
  5
29B
100
AcDbEntity
  8
MST_1_1
 62
   137
  6
CONTINUOUS
100
AcDbPolyline
 90
        9
 70
     0
 43
0.0
 10
-87.17478874
 20
-53.19151874
 10
-87.20738922
 20
-53.15891837
 10
-87.23999401
 20
-53.12631347
 10
-87.27260182
 20
-53.09370565
 10
-87.30521115
 20
-53.06109632
 10
-87.33782048
 20
-53.02848699
 10
-87.3704283
 20
-52.99587918
 10
-87.4030332
 20
-52.96327439
 10
-87.43563357
 20
-52.93067391
  0
ARC
  5
29C
100
AcDbEntity
  8
MST_1_1
 62
   137
  6
CONTINUOUS
100
AcDbCircle
 10
-87.25429944
 20
-53.01018461
 30
0.0
 40
0.19800004
100
AcDbArc
 50
156.32369345
 51
293.67631657
  0
CIRCLE
  5
29D
100
AcDbEntity
  8
MST_1_1
 62
   137
  6
CONTINUOUS
100
AcDbCircle
 10
-85.69866458
 20
-81.45454975
 30
0.0
 40
1.89428533
  0
CIRCLE
  5
29E
100
AcDbEntity
  8
MST_1_1
 62
   137
  6
CONTINUOUS
100
AcDbCircle
 10
-85.69866458
 20
-81.45454975
 30
0.0
 40
1.06049438
  0
CIRCLE
  5
29F
100
AcDbEntity
  8
MST_1_1
 62
   137
  6
CONTINUOUS
100
AcDbCircle
 10
-85.69866458
 20
-81.45454975
 30
0.0
 40
1.89428533
  0
CIRCLE
  5
2A0
100
AcDbEntity
  8
MST_1_1
 62
   137
  6
CONTINUOUS
100
AcDbCircle
 10
-85.69866458
 20
-81.45454975
 30
0.0
 40
1.06049438
  0
CIRCLE
  5
2A1
100
AcDbEntity
  8
MST_1_1
 62
   137
  6
CONTINUOUS
100
AcDbCircle
 10
-85.69866458
 20
-81.45454975
 30
0.0
 40
1.89428533
  0
CIRCLE
  5
2A2
100
AcDbEntity
  8
MST_1_1
 62
   137
  6
CONTINUOUS
100
AcDbCircle
 10
-85.69866458
 20
-81.45454975
 30
0.0
 40
1.06049438
  0
CIRCLE
  5
2A3
100
AcDbEntity
  8
MST_1_1
 62
   137
  6
CONTINUOUS
100
AcDbCircle
 10
-85.69866458
 20
-81.45454975
 30
0.0
 40
1.59428533
  0
CIRCLE
  5
2A4
100
AcDbEntity
  8
MST_1_1
 62
   137
  6
CONTINUOUS
100
AcDbCircle
 10
-85.69866458
 20
-81.45454975
 30
0.0
 40
1.99428533
  0
CIRCLE
  5
2A5
100
AcDbEntity
  8
MST_1_1
 62
   137
  6
CONTINUOUS
100
AcDbCircle
 10
-85.69866458
 20
-81.45454975
 30
0.0
 40
1.125
  0
CIRCLE
  5
2A6
100
AcDbEntity
  8
MST_1_1
 62
   137
  6
CONTINUOUS
100
AcDbCircle
 10
-85.69866458
 20
-81.45454975
 30
0.0
 40
3.5
  0
ARC
  5
2A7
100
AcDbEntity
  8
MST_1_1
 62
   137
  6
CONTINUOUS
100
AcDbCircle
 10
-87.07066456
 20
-81.45454975
 30
0.0
 40
0.303
100
AcDbArc
 50
104.00039951
 51
255.99961051
  0
ARC
  5
2A8
100
AcDbEntity
  8
MST_1_1
 62
   137
  6
CONTINUOUS
100
AcDbCircle
 10
-87.30138213
 20
-82.37987918
 30
0.0
 40
0.65065883
100
AcDbArc
 50
344.00042282
 51
75.99958535
  0
ARC
  5
2A9
100
AcDbEntity
  8
MST_1_1
 62
   137
  6
CONTINUOUS
100
AcDbCircle
 10
-86.38466455
 20
-82.64273659
 30
0.0
 40
0.30299999
100
AcDbArc
 50
164.00040911
 51
315.99959504
  0
ARC
  5
2AA
100
AcDbEntity
  8
MST_1_1
 62
   137
  6
CONTINUOUS
100
AcDbCircle
 10
-85.69866458
 20
-83.3052085
 30
0.0
 40
0.65065875
100
AcDbArc
 50
44.00040429
 51
135.99959571
  0
ARC
  5
2AB
100
AcDbEntity
  8
MST_1_1
 62
   137
  6
CONTINUOUS
100
AcDbCircle
 10
-85.01266458
 20
-82.64273664
 30
0.0
 40
0.30299998
100
AcDbArc
 50
224.00041508
 51
15.9996008
  0
ARC
  5
2AC
100
AcDbEntity
  8
MST_1_1
 62
   137
  6
CONTINUOUS
100
AcDbCircle
 10
-84.32666459
 20
-81.45454975
 30
0.0
 40
0.303
100
AcDbArc
 50
284.00040953
 51
75.99960049
  0
ARC
  5
2AD
100
AcDbEntity
  8
MST_1_1
 62
   137
  6
CONTINUOUS
100
AcDbCircle
 10
-84.09594702
 20
-80.52922031
 30
0.0
 40
0.65065883
100
AcDbArc
 50
164.00041281
 51
255.99959537
  0
ARC
  5
2AE
100
AcDbEntity
  8
MST_1_1
 62
   137
  6
CONTINUOUS
100
AcDbCircle
 10
-85.0126646
 20
-80.2663629
 30
0.0
 40
0.30299999
100
AcDbArc
 50
344.00041913
 51
135.99958502
  0
ARC
  5
2AF
100
AcDbEntity
  8
MST_1_1
 62
   137
  6
CONTINUOUS
100
AcDbCircle
 10
-85.69866458
 20
-79.603891
 30
0.0
 40
0.65065875
100
AcDbArc
 50
224.00041431
 51
315.99960573
  0
ARC
  5
2B0
100
AcDbEntity
  8
MST_1_1
 62
   137
  6
CONTINUOUS
100
AcDbCircle
 10
-86.38466458
 20
-80.26636285
 30
0.0
 40
0.30299998
100
AcDbArc
 50
44.00040506
 51
195.99961082
  0
ARC
  5
2B1
100
AcDbEntity
  8
MST_1_1
 62
   137
  6
CONTINUOUS
100
AcDbCircle
 10
-87.30138213
 20
-80.52922031
 30
0.0
 40
0.65065883
100
AcDbArc
 50
284.00042461
 51
15.99958726
  0
LWPOLYLINE
  5
2B2
100
AcDbEntity
  8
MST_1_1
 62
   137
  6
CONTINUOUS
100
AcDbPolyline
 90
        9
 70
     0
 43
0.0
 10
-86.98913447
 20
-83.69961387
 10
-86.98006851
 20
-83.69054791
 10
-86.97099615
 20
-83.68147544
 10
-86.9619175
 20
-83.6723969
 10
-86.95283245
 20
-83.66331185
 10
-86.94374123
 20
-83.65422051
 10
-86.9346436
 20
-83.64512289
 10
-86.92553981
 20
-83.63601921
 10
-86.91642984
 20
-83.62690925
  0
ARC
  5
2B3
100
AcDbEntity
  8
MST_1_1
 62
   137
  6
CONTINUOUS
100
AcDbCircle
 10
-86.76427451
 20
-83.50020975
 30
0.0
 40
0.19800002
100
AcDbArc
 50
50.21591721
 51
219.78410477
  0
LWPOLYLINE
  5
2B4
100
AcDbEntity
  8
MST_1_1
 62
   137
  6
CONTINUOUS
100
AcDbPolyline
 90
        9
 70
     0
 43
0.0
 10
-86.63757504
 20
-83.34805439
 10
-86.62850379
 20
-83.33898307
 10
-86.6194277
 20
-83.32990698
 10
-86.61034678
 20
-83.32082612
 10
-86.60126097
 20
-83.31174037
 10
-86.59217045
 20
-83.30264973
 10
-86.58307515
 20
-83.29355444
 10
-86.57397508
 20
-83.28445448
 10
-86.56487036
 20
-83.27534976
  0
LWPOLYLINE
  5
2B5
100
AcDbEntity
  8
MST_1_1
 62
   137
  6
CONTINUOUS
100
AcDbPolyline
 90
        9
 70
     0
 43
0.0
 10
-86.56487036
 20
-83.27534976
 10
-86.61921984
 20
-83.22100022
 10
-86.67362148
 20
-83.16659864
 10
-86.72806869
 20
-83.11215143
 10
-86.78255455
 20
-83.05766556
 10
-86.83707255
 20
-83.00314757
 10
-86.8916158
 20
-82.94860431
 10
-86.94617768
 20
-82.89404243
 10
-87.00075133
 20
-82.83946879
  0
LWPOLYLINE
  5
2B6
100
AcDbEntity
  8
MST_1_1
 62
   137
  6
CONTINUOUS
100
AcDbPolyline
 90
        9
 70
     0
 43
0.0
 10
-87.00075133
 20
-82.83946879
 10
-87.00397335
 20
-82.8426907
 10
-87.00719468
 20
-82.84591215
 10
-87.01041554
 20
-82.84913289
 10
-87.01363582
 20
-82.85235317
 10
-87.01685541
 20
-82.85557287
 10
-87.02007452
 20
-82.85879187
 10
-87.02329294
 20
-82.86201041
 10
-87.02651089
 20
-82.86522824
  0
LWPOLYLINE
  5
2B7
100
AcDbEntity
  8
MST_1_1
 62
   137
  6
CONTINUOUS
100
AcDbPolyline
 90
       25
 70
     0
 43
0.0
 10
-87.02651089
 20
-82.86522828
 10
-87.02920322
 20
-82.86108129
 10
-87.031967
 20
-82.85698931
 10
-87.0348015
 20
-82.85295308
 10
-87.03770598
 20
-82.84897337
 10
-87.04067968
 20
-82.84505092
 10
-87.04372187
 20
-82.84118646
 10
-87.04683179
 20
-82.83738076
 10
-87.05000871
 20
-82.83363455
 10
-87.05325188
 20
-82.82994858
 10
-87.05656055
 20
-82.8263236
 10
-87.05993399
 20
-82.82276036
 10
-87.06337144
 20
-82.81925961
 10
-87.06687216
 20
-82.81582208
 10
-87.07043541
 20
-82.81244853
 10
-87.07406045
 20
-82.8091397
 10
-87.07774652
 20
-82.80589635
 10
-87.08149288
 20
-82.80271921
 10
-87.08529879
 20
-82.79960903
 10
-87.08916351
 20
-82.79656657
 10
-87.09308629
 20
-82.79359257
 10
-87.09706638
 20
-82.79068777
 10
-87.10110305
 20
-82.78785292
 10
-87.10519554
 20
-82.78508877
 10
-87.10934311
 20
-82.78239606
  0
LWPOLYLINE
  5
2B8
100
AcDbEntity
  8
MST_1_1
 62
   137
  6
CONTINUOUS
100
AcDbPolyline
 90
        9
 70
     0
 43
0.0
 10
-87.10934307
 20
-82.78239606
 10
-87.10612524
 20
-82.77917811
 10
-87.1029067
 20
-82.77595969
 10
-87.0996877
 20
-82.77274058
 10
-87.096468
 20
-82.76952099
 10
-87.09324772
 20
-82.76630071
 10
-87.09002698
 20
-82.76307985
 10
-87.08680553
 20
-82.75985852
 10
-87.08358362
 20
-82.7566365
  0
LWPOLYLINE
  5
2B9
100
AcDbEntity
  8
MST_1_1
 62
   137
  6
CONTINUOUS
100
AcDbPolyline
 90
        9
 70
     0
 43
0.0
 10
-87.08358362
 20
-82.7566365
 10
-87.13815726
 20
-82.70206286
 10
-87.19271914
 20
-82.64750097
 10
-87.2472624
 20
-82.59295772
 10
-87.30178039
 20
-82.53843972
 10
-87.35626626
 20
-82.48395386
 10
-87.41071347
 20
-82.42950665
 10
-87.46511505
 20
-82.37510501
 10
-87.51946459
 20
-82.32075553
  0
LWPOLYLINE
  5
2BA
100
AcDbEntity
  8
MST_1_1
 62
   137
  6
CONTINUOUS
100
AcDbPolyline
 90
        9
 70
     0
 43
0.0
 10
-87.51946459
 20
-82.32075553
 10
-87.52856931
 20
-82.32986025
 10
-87.53766927
 20
-82.33896032
 10
-87.54676456
 20
-82.34805562
 10
-87.5558552
 20
-82.35714614
 10
-87.56494095
 20
-82.36623195
 10
-87.57402181
 20
-82.37531287
 10
-87.5830979
 20
-82.38438896
 10
-87.59216922
 20
-82.39346021
  0
ARC
  5
2BB
100
AcDbEntity
  8
MST_1_1
 62
   137
  6
CONTINUOUS
100
AcDbCircle
 10
-87.74432458
 20
-82.52015967
 30
0.0
 40
0.19800002
100
AcDbArc
 50
230.21591956
 51
39.7840785
  0
LWPOLYLINE
  5
2BC
100
AcDbEntity
  8
MST_1_1
 62
   137
  6
CONTINUOUS
100
AcDbPolyline
 90
        9
 70
     0
 43
0.0
 10
-87.87102408
 20
-82.67231502
 10
-87.88013404
 20
-82.68142498
 10
-87.88923772
 20
-82.69052877
 10
-87.89833534
 20
-82.6996264
 10
-87.90742668
 20
-82.70871762
 10
-87.91651173
 20
-82.71780267
 10
-87.92559026
 20
-82.72688132
 10
-87.93466274
 20
-82.73595368
 10
-87.9437287
 20
-82.74501964
  0
LWPOLYLINE
  5
2BD
100
AcDbEntity
  8
MST_1_1
 62
   137
  6
CONTINUOUS
100
AcDbPolyline
 90
        9
 70
     0
 43
0.0
 10
-87.9437287
 20
-82.74501964
 10
-87.88938696
 20
-82.79936115
 10
-87.83499027
 20
-82.85375796
 10
-87.78054539
 20
-82.90820296
 10
-87.72605929
 20
-82.96268894
 10
-87.67153944
 20
-83.01720879
 10
-87.6169928
 20
-83.07175543
 10
-87.5624265
 20
-83.12632173
 10
-87.50784762
 20
-83.18090061
  0
LWPOLYLINE
  5
2BE
100
AcDbEntity
  8
MST_1_1
 62
   137
  6
CONTINUOUS
100
AcDbPolyline
 90
        9
 70
     0
 43
0.0
 10
-87.50784762
 20
-83.18090061
 10
-87.50463048
 20
-83.17768347
 10
-87.50141253
 20
-83.17446552
 10
-87.49819376
 20
-83.17124675
 10
-87.49497418
 20
-83.16802717
 10
-87.4917539
 20
-83.16480689
 10
-87.4885328
 20
-83.16158568
 10
-87.48531078
 20
-83.15836377
 10
-87.48208805
 20
-83.15514104
  0
LWPOLYLINE
  5
2BF
100
AcDbEntity
  8
MST_1_1
 62
   137
  6
CONTINUOUS
100
AcDbPolyline
 90
       25
 70
     0
 43
0.0
 10
-87.4820881
 20
-83.15514105
 10
-87.47939598
 20
-83.15928771
 10
-87.47663233
 20
-83.16337944
 10
-87.47379791
 20
-83.16741547
 10
-87.47089347
 20
-83.17139505
 10
-87.46791976
 20
-83.17531744
 10
-87.46487752
 20
-83.17918187
 10
-87.46176751
 20
-83.1829876
 10
-87.45859049
 20
-83.18673386
 10
-87.45534719
 20
-83.19041992
 10
-87.45203837
 20
-83.19404501
 10
-87.44866479
 20
-83.19760839
 10
-87.44522719
 20
-83.20110929
 10
-87.44172632
 20
-83.20454697
 10
-87.43816293
 20
-83.20792068
 10
-87.43453778
 20
-83.21122965
 10
-87.43085162
 20
-83.21447314
 10
-87.42710519
 20
-83.21765039
 10
-87.42329925
 20
-83.22076065
 10
-87.41943455
 20
-83.22380317
 10
-87.41551183
 20
-83.22677719
 10
-87.41153186
 20
-83.22968197
 10
-87.40749537
 20
-83.23251674
 10
-87.40340313
 20
-83.23528076
 10
-87.39925588
 20
-83.23797327
  0
LWPOLYLINE
  5
2C0
100
AcDbEntity
  8
MST_1_1
 62
   137
  6
CONTINUOUS
100
AcDbPolyline
 90
        9
 70
     0
 43
0.0
 10
-87.39925587
 20
-83.23797322
 10
-87.4024786
 20
-83.24119595
 10
-87.40570051
 20
-83.24441797
 10
-87.40892172
 20
-83.24763907
 10
-87.412142
 20
-83.25085935
 10
-87.41536158
 20
-83.25407893
 10
-87.41858035
 20
-83.2572977
 10
-87.4217983
 20
-83.26051565
 10
-87.42501544
 20
-83.26373279
  0
LWPOLYLINE
  5
2C1
100
AcDbEntity
  8
MST_1_1
 62
   137
  6
CONTINUOUS
100
AcDbPolyline
 90
        9
 70
     0
 43
0.0
 10
-87.42501544
 20
-83.26373279
 10
-87.37043656
 20
-83.31831167
 10
-87.31587026
 20
-83.37287798
 10
-87.26132362
 20
-83.42742461
 10
-87.20680377
 20
-83.48194446
 10
-87.15231779
 20
-83.53643056
 10
-87.09787279
 20
-83.59087544
 10
-87.04347598
 20
-83.64527213
 10
-86.98913447
 20
-83.69961387
  0
CIRCLE
  5
2C2
100
AcDbEntity
  8
MST_1_1
 62
   137
  6
CONTINUOUS
100
AcDbCircle
 10
-85.69866458
 20
-81.45454975
 30
0.0
 40
3.28320262
  0
ARC
  5
2C3
100
AcDbEntity
  8
MST_1_1
 62
   137
  6
CONTINUOUS
100
AcDbCircle
 10
-84.09594702
 20
-82.37987918
 30
0.0
 40
0.65065883
100
AcDbArc
 50
104.00041459
 51
195.99959727
  0
LWPOLYLINE
  5
2C4
100
AcDbEntity
  8
MST_1_1
 62
   137
  6
CONTINUOUS
100
AcDbPolyline
 90
        9
 70
     0
 43
0.0
 10
-87.19534349
 20
-82.74669998
 10
-87.23106961
 20
-82.71097387
 10
-87.26678828
 20
-82.6752552
 10
-87.30249774
 20
-82.63954573
 10
-87.33819604
 20
-82.60384744
 10
-87.37388129
 20
-82.56816219
 10
-87.40955153
 20
-82.53249183
 10
-87.445205
 20
-82.49683836
 10
-87.48083973
 20
-82.46120363
  0
ARC
  5
2C5
100
AcDbEntity
  8
MST_1_1
 62
   137
  6
CONTINUOUS
100
AcDbCircle
 10
-87.25429961
 20
-83.01018401
 30
0.0
 40
0.26999936
100
AcDbArc
 50
77.38747914
 51
127.33780242
  0
LINE
  5
2C6
100
AcDbEntity
  8
MST_1_1
 62
   137
  6
CONTINUOUS
100
AcDbLine
 10
-87.0396295
 20
-83.17394293
 30
0.0
 11
-87.41805776
 21
-82.79551467
 31
0.0
  0
ARC
  5
2C7
100
AcDbEntity
  8
MST_1_1
 62
   137
  6
CONTINUOUS
100
AcDbCircle
 10
-87.25429896
 20
-83.01018475
 30
0.0
 40
0.26999948
100
AcDbArc
 50
322.66221884
 51
12.61250962
  0
LWPOLYLINE
  5
2C8
100
AcDbEntity
  8
MST_1_1
 62
   137
  6
CONTINUOUS
100
AcDbPolyline
 90
        9
 70
     0
 43
0.0
 10
-86.70531846
 20
-83.2367249
 10
-86.74095319
 20
-83.20109017
 10
-86.77660666
 20
-83.1654367
 10
-86.81227701
 20
-83.12976646
 10
-86.84796227
 20
-83.09408121
 10
-86.88366056
 20
-83.05838291
 10
-86.91937003
 20
-83.02267345
 10
-86.9550887
 20
-82.98695478
 10
-86.99081481
 20
-82.95122866
  0
ARC
  5
2C9
100
AcDbEntity
  8
MST_1_1
 62
   137
  6
CONTINUOUS
100
AcDbCircle
 10
-86.7642744
 20
-83.50020969
 30
0.0
 40
0.27000007
100
AcDbArc
 50
77.38755048
 51
192.61243885
  0
LWPOLYLINE
  5
2CA
100
AcDbEntity
  8
MST_1_1
 62
   137
  6
CONTINUOUS
100
AcDbPolyline
 90
        9
 70
     0
 43
0.0
 10
-87.31325545
 20
-83.27366942
 10
-87.2775277
 20
-83.30939717
 10
-87.24180764
 20
-83.34511723
 10
-87.20609724
 20
-83.38082763
 10
-87.17039837
 20
-83.4165265
 10
-87.13471323
 20
-83.45221152
 10
-87.09904369
 20
-83.48788118
 10
-87.06339162
 20
-83.52353314
 10
-87.02775921
 20
-83.55916554
  0
ARC
  5
2CB
100
AcDbEntity
  8
MST_1_1
 62
   137
  6
CONTINUOUS
100
AcDbCircle
 10
-87.25429968
 20
-83.01018383
 30
0.0
 40
0.27000082
100
AcDbArc
 50
257.38763285
 51
307.33766874
  0
LWPOLYLINE
  5
2CC
100
AcDbEntity
  8
MST_1_1
 62
   137
  6
CONTINUOUS
100
AcDbPolyline
 90
        9
 70
     0
 43
0.0
 10
-87.46896956
 20
-82.84642635
 10
-87.42168177
 20
-82.89371402
 10
-87.37438048
 20
-82.94101532
 10
-87.32707022
 20
-82.98832569
 10
-87.27975531
 20
-83.03564048
 10
-87.23244052
 20
-83.0829554
 10
-87.18513014
 20
-83.13026565
 10
-87.13782885
 20
-83.17756694
 10
-87.09054118
 20
-83.22485473
  0
ARC
  5
2CD
100
AcDbEntity
  8
MST_1_1
 62
   137
  6
CONTINUOUS
100
AcDbCircle
 10
-87.2542994
 20
-83.01018468
 30
0.0
 40
0.27000013
100
AcDbArc
 50
142.662273
 51
192.61245546
  0
LWPOLYLINE
  5
2CE
100
AcDbEntity
  8
MST_1_1
 62
   137
  6
CONTINUOUS
100
AcDbPolyline
 90
        9
 70
     0
 43
0.0
 10
-87.80328037
 20
-82.78364438
 10
-87.76764797
 20
-82.81927679
 10
-87.73199601
 20
-82.85492886
 10
-87.69632635
 20
-82.8905984
 10
-87.66064133
 20
-82.92628354
 10
-87.62494246
 20
-82.96198241
 10
-87.58923206
 20
-82.99769281
 10
-87.55351199
 20
-83.03341288
 10
-87.51778425
 20
-83.06914062
  0
ARC
  5
2CF
100
AcDbEntity
  8
MST_1_1
 62
   137
  6
CONTINUOUS
100
AcDbCircle
 10
-87.74432427
 20
-82.52015983
 30
0.0
 40
0.26999988
100
AcDbArc
 50
257.38751638
 51
12.61251432
  0
LWPOLYLINE
  5
2D0
100
AcDbEntity
  8
MST_1_1
 62
   137
  6
CONTINUOUS
100
AcDbPolyline
 90
        9
 70
     0
 43
0.0
 10
-87.33381021
 20
-82.82885055
 10
-87.30120972
 20
-82.86145103
 10
-87.26860482
 20
-82.89405594
 10
-87.23599712
 20
-82.92666375
 10
-87.20338779
 20
-82.95927296
 10
-87.17077858
 20
-82.99188229
 10
-87.13817076
 20
-83.02448999
 10
-87.10556586
 20
-83.0570949
 10
-87.07296538
 20
-83.08969538
  0
ARC
  5
2D1
100
AcDbEntity
  8
MST_1_1
 62
   137
  6
CONTINUOUS
100
AcDbCircle
 10
-87.25429956
 20
-83.01018473
 30
0.0
 40
0.19800007
100
AcDbArc
 50
336.32372311
 51
113.6762869
  0
LWPOLYLINE
  5
2D2
100
AcDbEntity
  8
MST_1_1
 62
   137
  6
CONTINUOUS
100
AcDbPolyline
 90
        9
 70
     0
 43
0.0
 10
-87.17478874
 20
-83.19151874
 10
-87.20738922
 20
-83.15891837
 10
-87.23999401
 20
-83.12631347
 10
-87.27260182
 20
-83.09370565
 10
-87.30521115
 20
-83.06109632
 10
-87.33782048
 20
-83.02848699
 10
-87.3704283
 20
-82.99587918
 10
-87.4030332
 20
-82.96327439
 10
-87.43563357
 20
-82.93067391
  0
ARC
  5
2D3
100
AcDbEntity
  8
MST_1_1
 62
   137
  6
CONTINUOUS
100
AcDbCircle
 10
-87.25429944
 20
-83.01018461
 30
0.0
 40
0.19800004
100
AcDbArc
 50
156.32369345
 51
293.67631657
  0
CIRCLE
  5
2D4
100
AcDbEntity
  8
MST_1_1
 62
   137
  6
CONTINUOUS
100
AcDbCircle
 10
-85.69866458
 20
-111.45454975
 30
0.0
 40
1.89428533
  0
CIRCLE
  5
2D5
100
AcDbEntity
  8
MST_1_1
 62
   137
  6
CONTINUOUS
100
AcDbCircle
 10
-85.69866458
 20
-111.45454975
 30
0.0
 40
1.06049438
  0
CIRCLE
  5
2D6
100
AcDbEntity
  8
MST_1_1
 62
   137
  6
CONTINUOUS
100
AcDbCircle
 10
-85.69866458
 20
-111.45454975
 30
0.0
 40
1.89428533
  0
CIRCLE
  5
2D7
100
AcDbEntity
  8
MST_1_1
 62
   137
  6
CONTINUOUS
100
AcDbCircle
 10
-85.69866458
 20
-111.45454975
 30
0.0
 40
1.06049438
  0
CIRCLE
  5
2D8
100
AcDbEntity
  8
MST_1_1
 62
   137
  6
CONTINUOUS
100
AcDbCircle
 10
-85.69866458
 20
-111.45454975
 30
0.0
 40
1.89428533
  0
CIRCLE
  5
2D9
100
AcDbEntity
  8
MST_1_1
 62
   137
  6
CONTINUOUS
100
AcDbCircle
 10
-85.69866458
 20
-111.45454975
 30
0.0
 40
1.06049438
  0
CIRCLE
  5
2DA
100
AcDbEntity
  8
MST_1_1
 62
   137
  6
CONTINUOUS
100
AcDbCircle
 10
-85.69866458
 20
-111.45454975
 30
0.0
 40
1.59428533
  0
CIRCLE
  5
2DB
100
AcDbEntity
  8
MST_1_1
 62
   137
  6
CONTINUOUS
100
AcDbCircle
 10
-85.69866458
 20
-111.45454975
 30
0.0
 40
1.99428533
  0
CIRCLE
  5
2DC
100
AcDbEntity
  8
MST_1_1
 62
   137
  6
CONTINUOUS
100
AcDbCircle
 10
-85.69866458
 20
-111.45454975
 30
0.0
 40
1.125
  0
CIRCLE
  5
2DD
100
AcDbEntity
  8
MST_1_1
 62
   137
  6
CONTINUOUS
100
AcDbCircle
 10
-85.69866458
 20
-111.45454975
 30
0.0
 40
3.5
  0
ARC
  5
2DE
100
AcDbEntity
  8
MST_1_1
 62
   137
  6
CONTINUOUS
100
AcDbCircle
 10
-87.07066456
 20
-111.45454975
 30
0.0
 40
0.303
100
AcDbArc
 50
104.00039951
 51
255.99961051
  0
ARC
  5
2DF
100
AcDbEntity
  8
MST_1_1
 62
   137
  6
CONTINUOUS
100
AcDbCircle
 10
-87.30138213
 20
-112.37987918
 30
0.0
 40
0.65065883
100
AcDbArc
 50
344.00042282
 51
75.99958535
  0
ARC
  5
2E0
100
AcDbEntity
  8
MST_1_1
 62
   137
  6
CONTINUOUS
100
AcDbCircle
 10
-86.38466455
 20
-112.64273659
 30
0.0
 40
0.30299999
100
AcDbArc
 50
164.00040911
 51
315.99959504
  0
ARC
  5
2E1
100
AcDbEntity
  8
MST_1_1
 62
   137
  6
CONTINUOUS
100
AcDbCircle
 10
-85.69866458
 20
-113.3052085
 30
0.0
 40
0.65065875
100
AcDbArc
 50
44.00040429
 51
135.99959571
  0
ARC
  5
2E2
100
AcDbEntity
  8
MST_1_1
 62
   137
  6
CONTINUOUS
100
AcDbCircle
 10
-85.01266458
 20
-112.64273664
 30
0.0
 40
0.30299998
100
AcDbArc
 50
224.00041508
 51
15.9996008
  0
ARC
  5
2E3
100
AcDbEntity
  8
MST_1_1
 62
   137
  6
CONTINUOUS
100
AcDbCircle
 10
-84.32666459
 20
-111.45454975
 30
0.0
 40
0.303
100
AcDbArc
 50
284.00040953
 51
75.99960049
  0
ARC
  5
2E4
100
AcDbEntity
  8
MST_1_1
 62
   137
  6
CONTINUOUS
100
AcDbCircle
 10
-84.09594702
 20
-110.52922031
 30
0.0
 40
0.65065883
100
AcDbArc
 50
164.00041281
 51
255.99959537
  0
ARC
  5
2E5
100
AcDbEntity
  8
MST_1_1
 62
   137
  6
CONTINUOUS
100
AcDbCircle
 10
-85.0126646
 20
-110.2663629
 30
0.0
 40
0.30299999
100
AcDbArc
 50
344.00041913
 51
135.99958502
  0
ARC
  5
2E6
100
AcDbEntity
  8
MST_1_1
 62
   137
  6
CONTINUOUS
100
AcDbCircle
 10
-85.69866458
 20
-109.603891
 30
0.0
 40
0.65065875
100
AcDbArc
 50
224.00041431
 51
315.99960573
  0
ARC
  5
2E7
100
AcDbEntity
  8
MST_1_1
 62
   137
  6
CONTINUOUS
100
AcDbCircle
 10
-86.38466458
 20
-110.26636285
 30
0.0
 40
0.30299998
100
AcDbArc
 50
44.00040506
 51
195.99961082
  0
ARC
  5
2E8
100
AcDbEntity
  8
MST_1_1
 62
   137
  6
CONTINUOUS
100
AcDbCircle
 10
-87.30138213
 20
-110.52922031
 30
0.0
 40
0.65065883
100
AcDbArc
 50
284.00042461
 51
15.99958726
  0
LWPOLYLINE
  5
2E9
100
AcDbEntity
  8
MST_1_1
 62
   137
  6
CONTINUOUS
100
AcDbPolyline
 90
        9
 70
     0
 43
0.0
 10
-86.98913447
 20
-113.69961387
 10
-86.98006851
 20
-113.69054791
 10
-86.97099615
 20
-113.68147544
 10
-86.9619175
 20
-113.6723969
 10
-86.95283245
 20
-113.66331185
 10
-86.94374123
 20
-113.65422051
 10
-86.9346436
 20
-113.64512289
 10
-86.92553981
 20
-113.63601921
 10
-86.91642984
 20
-113.62690925
  0
ARC
  5
2EA
100
AcDbEntity
  8
MST_1_1
 62
   137
  6
CONTINUOUS
100
AcDbCircle
 10
-86.76427451
 20
-113.50020975
 30
0.0
 40
0.19800002
100
AcDbArc
 50
50.21591721
 51
219.78410477
  0
LWPOLYLINE
  5
2EB
100
AcDbEntity
  8
MST_1_1
 62
   137
  6
CONTINUOUS
100
AcDbPolyline
 90
        9
 70
     0
 43
0.0
 10
-86.63757504
 20
-113.34805439
 10
-86.62850379
 20
-113.33898307
 10
-86.6194277
 20
-113.32990698
 10
-86.61034678
 20
-113.32082612
 10
-86.60126097
 20
-113.31174037
 10
-86.59217045
 20
-113.30264973
 10
-86.58307515
 20
-113.29355444
 10
-86.57397508
 20
-113.28445448
 10
-86.56487036
 20
-113.27534976
  0
LWPOLYLINE
  5
2EC
100
AcDbEntity
  8
MST_1_1
 62
   137
  6
CONTINUOUS
100
AcDbPolyline
 90
        9
 70
     0
 43
0.0
 10
-86.56487036
 20
-113.27534976
 10
-86.61921984
 20
-113.22100022
 10
-86.67362148
 20
-113.16659864
 10
-86.72806869
 20
-113.11215143
 10
-86.78255455
 20
-113.05766556
 10
-86.83707255
 20
-113.00314757
 10
-86.8916158
 20
-112.94860431
 10
-86.94617768
 20
-112.89404243
 10
-87.00075133
 20
-112.83946879
  0
LWPOLYLINE
  5
2ED
100
AcDbEntity
  8
MST_1_1
 62
   137
  6
CONTINUOUS
100
AcDbPolyline
 90
        9
 70
     0
 43
0.0
 10
-87.00075133
 20
-112.83946879
 10
-87.00397335
 20
-112.8426907
 10
-87.00719468
 20
-112.84591215
 10
-87.01041554
 20
-112.84913289
 10
-87.01363582
 20
-112.85235317
 10
-87.01685541
 20
-112.85557287
 10
-87.02007452
 20
-112.85879187
 10
-87.02329294
 20
-112.86201041
 10
-87.02651089
 20
-112.86522824
  0
LWPOLYLINE
  5
2EE
100
AcDbEntity
  8
MST_1_1
 62
   137
  6
CONTINUOUS
100
AcDbPolyline
 90
       25
 70
     0
 43
0.0
 10
-87.02651089
 20
-112.86522828
 10
-87.02920322
 20
-112.86108129
 10
-87.031967
 20
-112.85698931
 10
-87.0348015
 20
-112.85295308
 10
-87.03770598
 20
-112.84897337
 10
-87.04067968
 20
-112.84505092
 10
-87.04372187
 20
-112.84118646
 10
-87.04683179
 20
-112.83738076
 10
-87.05000871
 20
-112.83363455
 10
-87.05325188
 20
-112.82994858
 10
-87.05656055
 20
-112.8263236
 10
-87.05993399
 20
-112.82276036
 10
-87.06337144
 20
-112.81925961
 10
-87.06687216
 20
-112.81582208
 10
-87.07043541
 20
-112.81244853
 10
-87.07406045
 20
-112.8091397
 10
-87.07774652
 20
-112.80589635
 10
-87.08149288
 20
-112.80271921
 10
-87.08529879
 20
-112.79960903
 10
-87.08916351
 20
-112.79656657
 10
-87.09308629
 20
-112.79359257
 10
-87.09706638
 20
-112.79068777
 10
-87.10110305
 20
-112.78785292
 10
-87.10519554
 20
-112.78508877
 10
-87.10934311
 20
-112.78239606
  0
LWPOLYLINE
  5
2EF
100
AcDbEntity
  8
MST_1_1
 62
   137
  6
CONTINUOUS
100
AcDbPolyline
 90
        9
 70
     0
 43
0.0
 10
-87.10934307
 20
-112.78239606
 10
-87.10612524
 20
-112.77917811
 10
-87.1029067
 20
-112.77595969
 10
-87.0996877
 20
-112.77274058
 10
-87.096468
 20
-112.76952099
 10
-87.09324772
 20
-112.76630071
 10
-87.09002698
 20
-112.76307985
 10
-87.08680553
 20
-112.75985852
 10
-87.08358362
 20
-112.7566365
  0
LWPOLYLINE
  5
2F0
100
AcDbEntity
  8
MST_1_1
 62
   137
  6
CONTINUOUS
100
AcDbPolyline
 90
        9
 70
     0
 43
0.0
 10
-87.08358362
 20
-112.7566365
 10
-87.13815726
 20
-112.70206286
 10
-87.19271914
 20
-112.64750097
 10
-87.2472624
 20
-112.59295772
 10
-87.30178039
 20
-112.53843972
 10
-87.35626626
 20
-112.48395386
 10
-87.41071347
 20
-112.42950665
 10
-87.46511505
 20
-112.37510501
 10
-87.51946459
 20
-112.32075553
  0
LWPOLYLINE
  5
2F1
100
AcDbEntity
  8
MST_1_1
 62
   137
  6
CONTINUOUS
100
AcDbPolyline
 90
        9
 70
     0
 43
0.0
 10
-87.51946459
 20
-112.32075553
 10
-87.52856931
 20
-112.32986025
 10
-87.53766927
 20
-112.33896032
 10
-87.54676456
 20
-112.34805562
 10
-87.5558552
 20
-112.35714614
 10
-87.56494095
 20
-112.36623195
 10
-87.57402181
 20
-112.37531287
 10
-87.5830979
 20
-112.38438896
 10
-87.59216922
 20
-112.39346021
  0
ARC
  5
2F2
100
AcDbEntity
  8
MST_1_1
 62
   137
  6
CONTINUOUS
100
AcDbCircle
 10
-87.74432458
 20
-112.52015967
 30
0.0
 40
0.19800002
100
AcDbArc
 50
230.21591956
 51
39.7840785
  0
LWPOLYLINE
  5
2F3
100
AcDbEntity
  8
MST_1_1
 62
   137
  6
CONTINUOUS
100
AcDbPolyline
 90
        9
 70
     0
 43
0.0
 10
-87.87102408
 20
-112.67231502
 10
-87.88013404
 20
-112.68142498
 10
-87.88923772
 20
-112.69052877
 10
-87.89833534
 20
-112.6996264
 10
-87.90742668
 20
-112.70871762
 10
-87.91651173
 20
-112.71780267
 10
-87.92559026
 20
-112.72688132
 10
-87.93466274
 20
-112.73595368
 10
-87.9437287
 20
-112.74501964
  0
LWPOLYLINE
  5
2F4
100
AcDbEntity
  8
MST_1_1
 62
   137
  6
CONTINUOUS
100
AcDbPolyline
 90
        9
 70
     0
 43
0.0
 10
-87.9437287
 20
-112.74501964
 10
-87.88938696
 20
-112.79936115
 10
-87.83499027
 20
-112.85375796
 10
-87.78054539
 20
-112.90820296
 10
-87.72605929
 20
-112.96268894
 10
-87.67153944
 20
-113.01720879
 10
-87.6169928
 20
-113.07175543
 10
-87.5624265
 20
-113.12632173
 10
-87.50784762
 20
-113.18090061
  0
LWPOLYLINE
  5
2F5
100
AcDbEntity
  8
MST_1_1
 62
   137
  6
CONTINUOUS
100
AcDbPolyline
 90
        9
 70
     0
 43
0.0
 10
-87.50784762
 20
-113.18090061
 10
-87.50463048
 20
-113.17768347
 10
-87.50141253
 20
-113.17446552
 10
-87.49819376
 20
-113.17124675
 10
-87.49497418
 20
-113.16802717
 10
-87.4917539
 20
-113.16480689
 10
-87.4885328
 20
-113.16158568
 10
-87.48531078
 20
-113.15836377
 10
-87.48208805
 20
-113.15514104
  0
LWPOLYLINE
  5
2F6
100
AcDbEntity
  8
MST_1_1
 62
   137
  6
CONTINUOUS
100
AcDbPolyline
 90
       25
 70
     0
 43
0.0
 10
-87.4820881
 20
-113.15514105
 10
-87.47939598
 20
-113.15928771
 10
-87.47663233
 20
-113.16337944
 10
-87.47379791
 20
-113.16741547
 10
-87.47089347
 20
-113.17139505
 10
-87.46791976
 20
-113.17531744
 10
-87.46487752
 20
-113.17918187
 10
-87.46176751
 20
-113.1829876
 10
-87.45859049
 20
-113.18673386
 10
-87.45534719
 20
-113.19041992
 10
-87.45203837
 20
-113.19404501
 10
-87.44866479
 20
-113.19760839
 10
-87.44522719
 20
-113.20110929
 10
-87.44172632
 20
-113.20454697
 10
-87.43816293
 20
-113.20792068
 10
-87.43453778
 20
-113.21122965
 10
-87.43085162
 20
-113.21447314
 10
-87.42710519
 20
-113.21765039
 10
-87.42329925
 20
-113.22076065
 10
-87.41943455
 20
-113.22380317
 10
-87.41551183
 20
-113.22677719
 10
-87.41153186
 20
-113.22968197
 10
-87.40749537
 20
-113.23251674
 10
-87.40340313
 20
-113.23528076
 10
-87.39925588
 20
-113.23797327
  0
LWPOLYLINE
  5
2F7
100
AcDbEntity
  8
MST_1_1
 62
   137
  6
CONTINUOUS
100
AcDbPolyline
 90
        9
 70
     0
 43
0.0
 10
-87.39925587
 20
-113.23797322
 10
-87.4024786
 20
-113.24119595
 10
-87.40570051
 20
-113.24441797
 10
-87.40892172
 20
-113.24763907
 10
-87.412142
 20
-113.25085935
 10
-87.41536158
 20
-113.25407893
 10
-87.41858035
 20
-113.2572977
 10
-87.4217983
 20
-113.26051565
 10
-87.42501544
 20
-113.26373279
  0
LWPOLYLINE
  5
2F8
100
AcDbEntity
  8
MST_1_1
 62
   137
  6
CONTINUOUS
100
AcDbPolyline
 90
        9
 70
     0
 43
0.0
 10
-87.42501544
 20
-113.26373279
 10
-87.37043656
 20
-113.31831167
 10
-87.31587026
 20
-113.37287798
 10
-87.26132362
 20
-113.42742461
 10
-87.20680377
 20
-113.48194446
 10
-87.15231779
 20
-113.53643056
 10
-87.09787279
 20
-113.59087544
 10
-87.04347598
 20
-113.64527213
 10
-86.98913447
 20
-113.69961387
  0
CIRCLE
  5
2F9
100
AcDbEntity
  8
MST_1_1
 62
   137
  6
CONTINUOUS
100
AcDbCircle
 10
-85.69866458
 20
-111.45454975
 30
0.0
 40
3.28320262
  0
ARC
  5
2FA
100
AcDbEntity
  8
MST_1_1
 62
   137
  6
CONTINUOUS
100
AcDbCircle
 10
-84.09594702
 20
-112.37987918
 30
0.0
 40
0.65065883
100
AcDbArc
 50
104.00041459
 51
195.99959727
  0
LWPOLYLINE
  5
2FB
100
AcDbEntity
  8
MST_1_1
 62
   137
  6
CONTINUOUS
100
AcDbPolyline
 90
        9
 70
     0
 43
0.0
 10
-87.19534349
 20
-112.74669998
 10
-87.23106961
 20
-112.71097387
 10
-87.26678828
 20
-112.6752552
 10
-87.30249774
 20
-112.63954573
 10
-87.33819604
 20
-112.60384744
 10
-87.37388129
 20
-112.56816219
 10
-87.40955153
 20
-112.53249183
 10
-87.445205
 20
-112.49683836
 10
-87.48083973
 20
-112.46120363
  0
ARC
  5
2FC
100
AcDbEntity
  8
MST_1_1
 62
   137
  6
CONTINUOUS
100
AcDbCircle
 10
-87.25429961
 20
-113.01018401
 30
0.0
 40
0.26999936
100
AcDbArc
 50
77.38747914
 51
127.33780242
  0
LINE
  5
2FD
100
AcDbEntity
  8
MST_1_1
 62
   137
  6
CONTINUOUS
100
AcDbLine
 10
-87.0396295
 20
-113.17394293
 30
0.0
 11
-87.41805776
 21
-112.79551467
 31
0.0
  0
ARC
  5
2FE
100
AcDbEntity
  8
MST_1_1
 62
   137
  6
CONTINUOUS
100
AcDbCircle
 10
-87.25429896
 20
-113.01018475
 30
0.0
 40
0.26999948
100
AcDbArc
 50
322.66221884
 51
12.61250962
  0
LWPOLYLINE
  5
2FF
100
AcDbEntity
  8
MST_1_1
 62
   137
  6
CONTINUOUS
100
AcDbPolyline
 90
        9
 70
     0
 43
0.0
 10
-86.70531846
 20
-113.2367249
 10
-86.74095319
 20
-113.20109017
 10
-86.77660666
 20
-113.1654367
 10
-86.81227701
 20
-113.12976646
 10
-86.84796227
 20
-113.09408121
 10
-86.88366056
 20
-113.05838291
 10
-86.91937003
 20
-113.02267345
 10
-86.9550887
 20
-112.98695478
 10
-86.99081481
 20
-112.95122866
  0
ARC
  5
300
100
AcDbEntity
  8
MST_1_1
 62
   137
  6
CONTINUOUS
100
AcDbCircle
 10
-86.7642744
 20
-113.50020969
 30
0.0
 40
0.27000007
100
AcDbArc
 50
77.38755048
 51
192.61243885
  0
LWPOLYLINE
  5
301
100
AcDbEntity
  8
MST_1_1
 62
   137
  6
CONTINUOUS
100
AcDbPolyline
 90
        9
 70
     0
 43
0.0
 10
-87.31325545
 20
-113.27366942
 10
-87.2775277
 20
-113.30939717
 10
-87.24180764
 20
-113.34511723
 10
-87.20609724
 20
-113.38082763
 10
-87.17039837
 20
-113.4165265
 10
-87.13471323
 20
-113.45221152
 10
-87.09904369
 20
-113.48788118
 10
-87.06339162
 20
-113.52353314
 10
-87.02775921
 20
-113.55916554
  0
ARC
  5
302
100
AcDbEntity
  8
MST_1_1
 62
   137
  6
CONTINUOUS
100
AcDbCircle
 10
-87.25429968
 20
-113.01018383
 30
0.0
 40
0.27000082
100
AcDbArc
 50
257.38763285
 51
307.33766874
  0
LWPOLYLINE
  5
303
100
AcDbEntity
  8
MST_1_1
 62
   137
  6
CONTINUOUS
100
AcDbPolyline
 90
        9
 70
     0
 43
0.0
 10
-87.46896956
 20
-112.84642635
 10
-87.42168177
 20
-112.89371402
 10
-87.37438048
 20
-112.94101532
 10
-87.32707022
 20
-112.98832569
 10
-87.27975531
 20
-113.03564048
 10
-87.23244052
 20
-113.0829554
 10
-87.18513014
 20
-113.13026565
 10
-87.13782885
 20
-113.17756694
 10
-87.09054118
 20
-113.22485473
  0
ARC
  5
304
100
AcDbEntity
  8
MST_1_1
 62
   137
  6
CONTINUOUS
100
AcDbCircle
 10
-87.2542994
 20
-113.01018468
 30
0.0
 40
0.27000013
100
AcDbArc
 50
142.662273
 51
192.61245546
  0
LWPOLYLINE
  5
305
100
AcDbEntity
  8
MST_1_1
 62
   137
  6
CONTINUOUS
100
AcDbPolyline
 90
        9
 70
     0
 43
0.0
 10
-87.80328037
 20
-112.78364438
 10
-87.76764797
 20
-112.81927679
 10
-87.73199601
 20
-112.85492886
 10
-87.69632635
 20
-112.8905984
 10
-87.66064133
 20
-112.92628354
 10
-87.62494246
 20
-112.96198241
 10
-87.58923206
 20
-112.99769281
 10
-87.55351199
 20
-113.03341288
 10
-87.51778425
 20
-113.06914062
  0
ARC
  5
306
100
AcDbEntity
  8
MST_1_1
 62
   137
  6
CONTINUOUS
100
AcDbCircle
 10
-87.74432427
 20
-112.52015983
 30
0.0
 40
0.26999988
100
AcDbArc
 50
257.38751638
 51
12.61251432
  0
LWPOLYLINE
  5
307
100
AcDbEntity
  8
MST_1_1
 62
   137
  6
CONTINUOUS
100
AcDbPolyline
 90
        9
 70
     0
 43
0.0
 10
-87.33381021
 20
-112.82885055
 10
-87.30120972
 20
-112.86145103
 10
-87.26860482
 20
-112.89405594
 10
-87.23599712
 20
-112.92666375
 10
-87.20338779
 20
-112.95927296
 10
-87.17077858
 20
-112.99188229
 10
-87.13817076
 20
-113.02448999
 10
-87.10556586
 20
-113.0570949
 10
-87.07296538
 20
-113.08969538
  0
ARC
  5
308
100
AcDbEntity
  8
MST_1_1
 62
   137
  6
CONTINUOUS
100
AcDbCircle
 10
-87.25429956
 20
-113.01018473
 30
0.0
 40
0.19800007
100
AcDbArc
 50
336.32372311
 51
113.6762869
  0
LWPOLYLINE
  5
309
100
AcDbEntity
  8
MST_1_1
 62
   137
  6
CONTINUOUS
100
AcDbPolyline
 90
        9
 70
     0
 43
0.0
 10
-87.17478874
 20
-113.19151874
 10
-87.20738922
 20
-113.15891837
 10
-87.23999401
 20
-113.12631347
 10
-87.27260182
 20
-113.09370565
 10
-87.30521115
 20
-113.06109632
 10
-87.33782048
 20
-113.02848699
 10
-87.3704283
 20
-112.99587918
 10
-87.4030332
 20
-112.96327439
 10
-87.43563357
 20
-112.93067391
  0
ARC
  5
30A
100
AcDbEntity
  8
MST_1_1
 62
   137
  6
CONTINUOUS
100
AcDbCircle
 10
-87.25429944
 20
-113.01018461
 30
0.0
 40
0.19800004
100
AcDbArc
 50
156.32369345
 51
293.67631657
  0
CIRCLE
  5
30B
100
AcDbEntity
  8
MST_1_1
 62
   137
  6
CONTINUOUS
100
AcDbCircle
 10
-85.69866458
 20
-141.45454975
 30
0.0
 40
1.89428533
  0
CIRCLE
  5
30C
100
AcDbEntity
  8
MST_1_1
 62
   137
  6
CONTINUOUS
100
AcDbCircle
 10
-85.69866458
 20
-141.45454975
 30
0.0
 40
1.06049438
  0
CIRCLE
  5
30D
100
AcDbEntity
  8
MST_1_1
 62
   137
  6
CONTINUOUS
100
AcDbCircle
 10
-85.69866458
 20
-141.45454975
 30
0.0
 40
1.89428533
  0
CIRCLE
  5
30E
100
AcDbEntity
  8
MST_1_1
 62
   137
  6
CONTINUOUS
100
AcDbCircle
 10
-85.69866458
 20
-141.45454975
 30
0.0
 40
1.06049438
  0
CIRCLE
  5
30F
100
AcDbEntity
  8
MST_1_1
 62
   137
  6
CONTINUOUS
100
AcDbCircle
 10
-85.69866458
 20
-141.45454975
 30
0.0
 40
1.89428533
  0
CIRCLE
  5
310
100
AcDbEntity
  8
MST_1_1
 62
   137
  6
CONTINUOUS
100
AcDbCircle
 10
-85.69866458
 20
-141.45454975
 30
0.0
 40
1.06049438
  0
CIRCLE
  5
311
100
AcDbEntity
  8
MST_1_1
 62
   137
  6
CONTINUOUS
100
AcDbCircle
 10
-85.69866458
 20
-141.45454975
 30
0.0
 40
1.59428533
  0
CIRCLE
  5
312
100
AcDbEntity
  8
MST_1_1
 62
   137
  6
CONTINUOUS
100
AcDbCircle
 10
-85.69866458
 20
-141.45454975
 30
0.0
 40
1.99428533
  0
CIRCLE
  5
313
100
AcDbEntity
  8
MST_1_1
 62
   137
  6
CONTINUOUS
100
AcDbCircle
 10
-85.69866458
 20
-141.45454975
 30
0.0
 40
1.125
  0
CIRCLE
  5
314
100
AcDbEntity
  8
MST_1_1
 62
   137
  6
CONTINUOUS
100
AcDbCircle
 10
-85.69866458
 20
-141.45454975
 30
0.0
 40
3.5
  0
ARC
  5
315
100
AcDbEntity
  8
MST_1_1
 62
   137
  6
CONTINUOUS
100
AcDbCircle
 10
-87.07066456
 20
-141.45454975
 30
0.0
 40
0.303
100
AcDbArc
 50
104.00039951
 51
255.99961051
  0
ARC
  5
316
100
AcDbEntity
  8
MST_1_1
 62
   137
  6
CONTINUOUS
100
AcDbCircle
 10
-87.30138213
 20
-142.37987918
 30
0.0
 40
0.65065883
100
AcDbArc
 50
344.00042282
 51
75.99958535
  0
ARC
  5
317
100
AcDbEntity
  8
MST_1_1
 62
   137
  6
CONTINUOUS
100
AcDbCircle
 10
-86.38466455
 20
-142.64273659
 30
0.0
 40
0.30299999
100
AcDbArc
 50
164.00040911
 51
315.99959504
  0
ARC
  5
318
100
AcDbEntity
  8
MST_1_1
 62
   137
  6
CONTINUOUS
100
AcDbCircle
 10
-85.69866458
 20
-143.3052085
 30
0.0
 40
0.65065875
100
AcDbArc
 50
44.00040429
 51
135.99959571
  0
ARC
  5
319
100
AcDbEntity
  8
MST_1_1
 62
   137
  6
CONTINUOUS
100
AcDbCircle
 10
-85.01266458
 20
-142.64273664
 30
0.0
 40
0.30299998
100
AcDbArc
 50
224.00041508
 51
15.9996008
  0
ARC
  5
31A
100
AcDbEntity
  8
MST_1_1
 62
   137
  6
CONTINUOUS
100
AcDbCircle
 10
-84.32666459
 20
-141.45454975
 30
0.0
 40
0.303
100
AcDbArc
 50
284.00040953
 51
75.99960049
  0
ARC
  5
31B
100
AcDbEntity
  8
MST_1_1
 62
   137
  6
CONTINUOUS
100
AcDbCircle
 10
-84.09594702
 20
-140.52922031
 30
0.0
 40
0.65065883
100
AcDbArc
 50
164.00041281
 51
255.99959537
  0
ARC
  5
31C
100
AcDbEntity
  8
MST_1_1
 62
   137
  6
CONTINUOUS
100
AcDbCircle
 10
-85.0126646
 20
-140.2663629
 30
0.0
 40
0.30299999
100
AcDbArc
 50
344.00041913
 51
135.99958502
  0
ARC
  5
31D
100
AcDbEntity
  8
MST_1_1
 62
   137
  6
CONTINUOUS
100
AcDbCircle
 10
-85.69866458
 20
-139.603891
 30
0.0
 40
0.65065875
100
AcDbArc
 50
224.00041431
 51
315.99960573
  0
ARC
  5
31E
100
AcDbEntity
  8
MST_1_1
 62
   137
  6
CONTINUOUS
100
AcDbCircle
 10
-86.38466458
 20
-140.26636285
 30
0.0
 40
0.30299998
100
AcDbArc
 50
44.00040506
 51
195.99961082
  0
ARC
  5
31F
100
AcDbEntity
  8
MST_1_1
 62
   137
  6
CONTINUOUS
100
AcDbCircle
 10
-87.30138213
 20
-140.52922031
 30
0.0
 40
0.65065883
100
AcDbArc
 50
284.00042461
 51
15.99958726
  0
LWPOLYLINE
  5
320
100
AcDbEntity
  8
MST_1_1
 62
   137
  6
CONTINUOUS
100
AcDbPolyline
 90
        9
 70
     0
 43
0.0
 10
-86.98913447
 20
-143.69961387
 10
-86.98006851
 20
-143.69054791
 10
-86.97099615
 20
-143.68147544
 10
-86.9619175
 20
-143.6723969
 10
-86.95283245
 20
-143.66331185
 10
-86.94374123
 20
-143.65422051
 10
-86.9346436
 20
-143.64512289
 10
-86.92553981
 20
-143.63601921
 10
-86.91642984
 20
-143.62690925
  0
ARC
  5
321
100
AcDbEntity
  8
MST_1_1
 62
   137
  6
CONTINUOUS
100
AcDbCircle
 10
-86.76427451
 20
-143.50020975
 30
0.0
 40
0.19800002
100
AcDbArc
 50
50.21591721
 51
219.78410477
  0
LWPOLYLINE
  5
322
100
AcDbEntity
  8
MST_1_1
 62
   137
  6
CONTINUOUS
100
AcDbPolyline
 90
        9
 70
     0
 43
0.0
 10
-86.63757504
 20
-143.34805439
 10
-86.62850379
 20
-143.33898307
 10
-86.6194277
 20
-143.32990698
 10
-86.61034678
 20
-143.32082612
 10
-86.60126097
 20
-143.31174037
 10
-86.59217045
 20
-143.30264973
 10
-86.58307515
 20
-143.29355444
 10
-86.57397508
 20
-143.28445448
 10
-86.56487036
 20
-143.27534976
  0
LWPOLYLINE
  5
323
100
AcDbEntity
  8
MST_1_1
 62
   137
  6
CONTINUOUS
100
AcDbPolyline
 90
        9
 70
     0
 43
0.0
 10
-86.56487036
 20
-143.27534976
 10
-86.61921984
 20
-143.22100022
 10
-86.67362148
 20
-143.16659864
 10
-86.72806869
 20
-143.11215143
 10
-86.78255455
 20
-143.05766556
 10
-86.83707255
 20
-143.00314757
 10
-86.8916158
 20
-142.94860431
 10
-86.94617768
 20
-142.89404243
 10
-87.00075133
 20
-142.83946879
  0
LWPOLYLINE
  5
324
100
AcDbEntity
  8
MST_1_1
 62
   137
  6
CONTINUOUS
100
AcDbPolyline
 90
        9
 70
     0
 43
0.0
 10
-87.00075133
 20
-142.83946879
 10
-87.00397335
 20
-142.8426907
 10
-87.00719468
 20
-142.84591215
 10
-87.01041554
 20
-142.84913289
 10
-87.01363582
 20
-142.85235317
 10
-87.01685541
 20
-142.85557287
 10
-87.02007452
 20
-142.85879187
 10
-87.02329294
 20
-142.86201041
 10
-87.02651089
 20
-142.86522824
  0
LWPOLYLINE
  5
325
100
AcDbEntity
  8
MST_1_1
 62
   137
  6
CONTINUOUS
100
AcDbPolyline
 90
       25
 70
     0
 43
0.0
 10
-87.02651089
 20
-142.86522828
 10
-87.02920322
 20
-142.86108129
 10
-87.031967
 20
-142.85698931
 10
-87.0348015
 20
-142.85295308
 10
-87.03770598
 20
-142.84897337
 10
-87.04067968
 20
-142.84505092
 10
-87.04372187
 20
-142.84118646
 10
-87.04683179
 20
-142.83738076
 10
-87.05000871
 20
-142.83363455
 10
-87.05325188
 20
-142.82994858
 10
-87.05656055
 20
-142.8263236
 10
-87.05993399
 20
-142.82276036
 10
-87.06337144
 20
-142.81925961
 10
-87.06687216
 20
-142.81582208
 10
-87.07043541
 20
-142.81244853
 10
-87.07406045
 20
-142.8091397
 10
-87.07774652
 20
-142.80589635
 10
-87.08149288
 20
-142.80271921
 10
-87.08529879
 20
-142.79960903
 10
-87.08916351
 20
-142.79656657
 10
-87.09308629
 20
-142.79359257
 10
-87.09706638
 20
-142.79068777
 10
-87.10110305
 20
-142.78785292
 10
-87.10519554
 20
-142.78508877
 10
-87.10934311
 20
-142.78239606
  0
LWPOLYLINE
  5
326
100
AcDbEntity
  8
MST_1_1
 62
   137
  6
CONTINUOUS
100
AcDbPolyline
 90
        9
 70
     0
 43
0.0
 10
-87.10934307
 20
-142.78239606
 10
-87.10612524
 20
-142.77917811
 10
-87.1029067
 20
-142.77595969
 10
-87.0996877
 20
-142.77274058
 10
-87.096468
 20
-142.76952099
 10
-87.09324772
 20
-142.76630071
 10
-87.09002698
 20
-142.76307985
 10
-87.08680553
 20
-142.75985852
 10
-87.08358362
 20
-142.7566365
  0
LWPOLYLINE
  5
327
100
AcDbEntity
  8
MST_1_1
 62
   137
  6
CONTINUOUS
100
AcDbPolyline
 90
        9
 70
     0
 43
0.0
 10
-87.08358362
 20
-142.7566365
 10
-87.13815726
 20
-142.70206286
 10
-87.19271914
 20
-142.64750097
 10
-87.2472624
 20
-142.59295772
 10
-87.30178039
 20
-142.53843972
 10
-87.35626626
 20
-142.48395386
 10
-87.41071347
 20
-142.42950665
 10
-87.46511505
 20
-142.37510501
 10
-87.51946459
 20
-142.32075553
  0
LWPOLYLINE
  5
328
100
AcDbEntity
  8
MST_1_1
 62
   137
  6
CONTINUOUS
100
AcDbPolyline
 90
        9
 70
     0
 43
0.0
 10
-87.51946459
 20
-142.32075553
 10
-87.52856931
 20
-142.32986025
 10
-87.53766927
 20
-142.33896032
 10
-87.54676456
 20
-142.34805562
 10
-87.5558552
 20
-142.35714614
 10
-87.56494095
 20
-142.36623195
 10
-87.57402181
 20
-142.37531287
 10
-87.5830979
 20
-142.38438896
 10
-87.59216922
 20
-142.39346021
  0
ARC
  5
329
100
AcDbEntity
  8
MST_1_1
 62
   137
  6
CONTINUOUS
100
AcDbCircle
 10
-87.74432458
 20
-142.52015967
 30
0.0
 40
0.19800002
100
AcDbArc
 50
230.21591956
 51
39.7840785
  0
LWPOLYLINE
  5
32A
100
AcDbEntity
  8
MST_1_1
 62
   137
  6
CONTINUOUS
100
AcDbPolyline
 90
        9
 70
     0
 43
0.0
 10
-87.87102408
 20
-142.67231502
 10
-87.88013404
 20
-142.68142498
 10
-87.88923772
 20
-142.69052877
 10
-87.89833534
 20
-142.6996264
 10
-87.90742668
 20
-142.70871762
 10
-87.91651173
 20
-142.71780267
 10
-87.92559026
 20
-142.72688132
 10
-87.93466274
 20
-142.73595368
 10
-87.9437287
 20
-142.74501964
  0
LWPOLYLINE
  5
32B
100
AcDbEntity
  8
MST_1_1
 62
   137
  6
CONTINUOUS
100
AcDbPolyline
 90
        9
 70
     0
 43
0.0
 10
-87.9437287
 20
-142.74501964
 10
-87.88938696
 20
-142.79936115
 10
-87.83499027
 20
-142.85375796
 10
-87.78054539
 20
-142.90820296
 10
-87.72605929
 20
-142.96268894
 10
-87.67153944
 20
-143.01720879
 10
-87.6169928
 20
-143.07175543
 10
-87.5624265
 20
-143.12632173
 10
-87.50784762
 20
-143.18090061
  0
LWPOLYLINE
  5
32C
100
AcDbEntity
  8
MST_1_1
 62
   137
  6
CONTINUOUS
100
AcDbPolyline
 90
        9
 70
     0
 43
0.0
 10
-87.50784762
 20
-143.18090061
 10
-87.50463048
 20
-143.17768347
 10
-87.50141253
 20
-143.17446552
 10
-87.49819376
 20
-143.17124675
 10
-87.49497418
 20
-143.16802717
 10
-87.4917539
 20
-143.16480689
 10
-87.4885328
 20
-143.16158568
 10
-87.48531078
 20
-143.15836377
 10
-87.48208805
 20
-143.15514104
  0
LWPOLYLINE
  5
32D
100
AcDbEntity
  8
MST_1_1
 62
   137
  6
CONTINUOUS
100
AcDbPolyline
 90
       25
 70
     0
 43
0.0
 10
-87.4820881
 20
-143.15514105
 10
-87.47939598
 20
-143.15928771
 10
-87.47663233
 20
-143.16337944
 10
-87.47379791
 20
-143.16741547
 10
-87.47089347
 20
-143.17139505
 10
-87.46791976
 20
-143.17531744
 10
-87.46487752
 20
-143.17918187
 10
-87.46176751
 20
-143.1829876
 10
-87.45859049
 20
-143.18673386
 10
-87.45534719
 20
-143.19041992
 10
-87.45203837
 20
-143.19404501
 10
-87.44866479
 20
-143.19760839
 10
-87.44522719
 20
-143.20110929
 10
-87.44172632
 20
-143.20454697
 10
-87.43816293
 20
-143.20792068
 10
-87.43453778
 20
-143.21122965
 10
-87.43085162
 20
-143.21447314
 10
-87.42710519
 20
-143.21765039
 10
-87.42329925
 20
-143.22076065
 10
-87.41943455
 20
-143.22380317
 10
-87.41551183
 20
-143.22677719
 10
-87.41153186
 20
-143.22968197
 10
-87.40749537
 20
-143.23251674
 10
-87.40340313
 20
-143.23528076
 10
-87.39925588
 20
-143.23797327
  0
LWPOLYLINE
  5
32E
100
AcDbEntity
  8
MST_1_1
 62
   137
  6
CONTINUOUS
100
AcDbPolyline
 90
        9
 70
     0
 43
0.0
 10
-87.39925587
 20
-143.23797322
 10
-87.4024786
 20
-143.24119595
 10
-87.40570051
 20
-143.24441797
 10
-87.40892172
 20
-143.24763907
 10
-87.412142
 20
-143.25085935
 10
-87.41536158
 20
-143.25407893
 10
-87.41858035
 20
-143.2572977
 10
-87.4217983
 20
-143.26051565
 10
-87.42501544
 20
-143.26373279
  0
LWPOLYLINE
  5
32F
100
AcDbEntity
  8
MST_1_1
 62
   137
  6
CONTINUOUS
100
AcDbPolyline
 90
        9
 70
     0
 43
0.0
 10
-87.42501544
 20
-143.26373279
 10
-87.37043656
 20
-143.31831167
 10
-87.31587026
 20
-143.37287798
 10
-87.26132362
 20
-143.42742461
 10
-87.20680377
 20
-143.48194446
 10
-87.15231779
 20
-143.53643056
 10
-87.09787279
 20
-143.59087544
 10
-87.04347598
 20
-143.64527213
 10
-86.98913447
 20
-143.69961387
  0
CIRCLE
  5
330
100
AcDbEntity
  8
MST_1_1
 62
   137
  6
CONTINUOUS
100
AcDbCircle
 10
-85.69866458
 20
-141.45454975
 30
0.0
 40
3.28320262
  0
ARC
  5
331
100
AcDbEntity
  8
MST_1_1
 62
   137
  6
CONTINUOUS
100
AcDbCircle
 10
-84.09594702
 20
-142.37987918
 30
0.0
 40
0.65065883
100
AcDbArc
 50
104.00041459
 51
195.99959727
  0
LWPOLYLINE
  5
332
100
AcDbEntity
  8
MST_1_1
 62
   137
  6
CONTINUOUS
100
AcDbPolyline
 90
        9
 70
     0
 43
0.0
 10
-87.19534349
 20
-142.74669998
 10
-87.23106961
 20
-142.71097387
 10
-87.26678828
 20
-142.6752552
 10
-87.30249774
 20
-142.63954573
 10
-87.33819604
 20
-142.60384744
 10
-87.37388129
 20
-142.56816219
 10
-87.40955153
 20
-142.53249183
 10
-87.445205
 20
-142.49683836
 10
-87.48083973
 20
-142.46120363
  0
ARC
  5
333
100
AcDbEntity
  8
MST_1_1
 62
   137
  6
CONTINUOUS
100
AcDbCircle
 10
-87.25429961
 20
-143.01018401
 30
0.0
 40
0.26999936
100
AcDbArc
 50
77.38747914
 51
127.33780242
  0
LINE
  5
334
100
AcDbEntity
  8
MST_1_1
 62
   137
  6
CONTINUOUS
100
AcDbLine
 10
-87.0396295
 20
-143.17394293
 30
0.0
 11
-87.41805776
 21
-142.79551467
 31
0.0
  0
ARC
  5
335
100
AcDbEntity
  8
MST_1_1
 62
   137
  6
CONTINUOUS
100
AcDbCircle
 10
-87.25429896
 20
-143.01018475
 30
0.0
 40
0.26999948
100
AcDbArc
 50
322.66221884
 51
12.61250962
  0
LWPOLYLINE
  5
336
100
AcDbEntity
  8
MST_1_1
 62
   137
  6
CONTINUOUS
100
AcDbPolyline
 90
        9
 70
     0
 43
0.0
 10
-86.70531846
 20
-143.2367249
 10
-86.74095319
 20
-143.20109017
 10
-86.77660666
 20
-143.1654367
 10
-86.81227701
 20
-143.12976646
 10
-86.84796227
 20
-143.09408121
 10
-86.88366056
 20
-143.05838291
 10
-86.91937003
 20
-143.02267345
 10
-86.9550887
 20
-142.98695478
 10
-86.99081481
 20
-142.95122866
  0
ARC
  5
337
100
AcDbEntity
  8
MST_1_1
 62
   137
  6
CONTINUOUS
100
AcDbCircle
 10
-86.7642744
 20
-143.50020969
 30
0.0
 40
0.27000007
100
AcDbArc
 50
77.38755048
 51
192.61243885
  0
LWPOLYLINE
  5
338
100
AcDbEntity
  8
MST_1_1
 62
   137
  6
CONTINUOUS
100
AcDbPolyline
 90
        9
 70
     0
 43
0.0
 10
-87.31325545
 20
-143.27366942
 10
-87.2775277
 20
-143.30939717
 10
-87.24180764
 20
-143.34511723
 10
-87.20609724
 20
-143.38082763
 10
-87.17039837
 20
-143.4165265
 10
-87.13471323
 20
-143.45221152
 10
-87.09904369
 20
-143.48788118
 10
-87.06339162
 20
-143.52353314
 10
-87.02775921
 20
-143.55916554
  0
ARC
  5
339
100
AcDbEntity
  8
MST_1_1
 62
   137
  6
CONTINUOUS
100
AcDbCircle
 10
-87.25429968
 20
-143.01018383
 30
0.0
 40
0.27000082
100
AcDbArc
 50
257.38763285
 51
307.33766874
  0
LWPOLYLINE
  5
33A
100
AcDbEntity
  8
MST_1_1
 62
   137
  6
CONTINUOUS
100
AcDbPolyline
 90
        9
 70
     0
 43
0.0
 10
-87.46896956
 20
-142.84642635
 10
-87.42168177
 20
-142.89371402
 10
-87.37438048
 20
-142.94101532
 10
-87.32707022
 20
-142.98832569
 10
-87.27975531
 20
-143.03564048
 10
-87.23244052
 20
-143.0829554
 10
-87.18513014
 20
-143.13026565
 10
-87.13782885
 20
-143.17756694
 10
-87.09054118
 20
-143.22485473
  0
ARC
  5
33B
100
AcDbEntity
  8
MST_1_1
 62
   137
  6
CONTINUOUS
100
AcDbCircle
 10
-87.2542994
 20
-143.01018468
 30
0.0
 40
0.27000013
100
AcDbArc
 50
142.662273
 51
192.61245546
  0
LWPOLYLINE
  5
33C
100
AcDbEntity
  8
MST_1_1
 62
   137
  6
CONTINUOUS
100
AcDbPolyline
 90
        9
 70
     0
 43
0.0
 10
-87.80328037
 20
-142.78364438
 10
-87.76764797
 20
-142.81927679
 10
-87.73199601
 20
-142.85492886
 10
-87.69632635
 20
-142.8905984
 10
-87.66064133
 20
-142.92628354
 10
-87.62494246
 20
-142.96198241
 10
-87.58923206
 20
-142.99769281
 10
-87.55351199
 20
-143.03341288
 10
-87.51778425
 20
-143.06914062
  0
ARC
  5
33D
100
AcDbEntity
  8
MST_1_1
 62
   137
  6
CONTINUOUS
100
AcDbCircle
 10
-87.74432427
 20
-142.52015983
 30
0.0
 40
0.26999988
100
AcDbArc
 50
257.38751638
 51
12.61251432
  0
LWPOLYLINE
  5
33E
100
AcDbEntity
  8
MST_1_1
 62
   137
  6
CONTINUOUS
100
AcDbPolyline
 90
        9
 70
     0
 43
0.0
 10
-87.33381021
 20
-142.82885055
 10
-87.30120972
 20
-142.86145103
 10
-87.26860482
 20
-142.89405594
 10
-87.23599712
 20
-142.92666375
 10
-87.20338779
 20
-142.95927296
 10
-87.17077858
 20
-142.99188229
 10
-87.13817076
 20
-143.02448999
 10
-87.10556586
 20
-143.0570949
 10
-87.07296538
 20
-143.08969538
  0
ARC
  5
33F
100
AcDbEntity
  8
MST_1_1
 62
   137
  6
CONTINUOUS
100
AcDbCircle
 10
-87.25429956
 20
-143.01018473
 30
0.0
 40
0.19800007
100
AcDbArc
 50
336.32372311
 51
113.6762869
  0
LWPOLYLINE
  5
340
100
AcDbEntity
  8
MST_1_1
 62
   137
  6
CONTINUOUS
100
AcDbPolyline
 90
        9
 70
     0
 43
0.0
 10
-87.17478874
 20
-143.19151874
 10
-87.20738922
 20
-143.15891837
 10
-87.23999401
 20
-143.12631347
 10
-87.27260182
 20
-143.09370565
 10
-87.30521115
 20
-143.06109632
 10
-87.33782048
 20
-143.02848699
 10
-87.3704283
 20
-142.99587918
 10
-87.4030332
 20
-142.96327439
 10
-87.43563357
 20
-142.93067391
  0
ARC
  5
341
100
AcDbEntity
  8
MST_1_1
 62
   137
  6
CONTINUOUS
100
AcDbCircle
 10
-87.25429944
 20
-143.01018461
 30
0.0
 40
0.19800004
100
AcDbArc
 50
156.32369345
 51
293.67631657
  0
CIRCLE
  5
342
100
AcDbEntity
  8
MST_1_1
 62
   137
  6
CONTINUOUS
100
AcDbCircle
 10
-85.69866458
 20
-171.45454975
 30
0.0
 40
1.89428533
  0
CIRCLE
  5
343
100
AcDbEntity
  8
MST_1_1
 62
   137
  6
CONTINUOUS
100
AcDbCircle
 10
-85.69866458
 20
-171.45454975
 30
0.0
 40
1.06049438
  0
CIRCLE
  5
344
100
AcDbEntity
  8
MST_1_1
 62
   137
  6
CONTINUOUS
100
AcDbCircle
 10
-85.69866458
 20
-171.45454975
 30
0.0
 40
1.89428533
  0
CIRCLE
  5
345
100
AcDbEntity
  8
MST_1_1
 62
   137
  6
CONTINUOUS
100
AcDbCircle
 10
-85.69866458
 20
-171.45454975
 30
0.0
 40
1.06049438
  0
CIRCLE
  5
346
100
AcDbEntity
  8
MST_1_1
 62
   137
  6
CONTINUOUS
100
AcDbCircle
 10
-85.69866458
 20
-171.45454975
 30
0.0
 40
1.89428533
  0
CIRCLE
  5
347
100
AcDbEntity
  8
MST_1_1
 62
   137
  6
CONTINUOUS
100
AcDbCircle
 10
-85.69866458
 20
-171.45454975
 30
0.0
 40
1.06049438
  0
CIRCLE
  5
348
100
AcDbEntity
  8
MST_1_1
 62
   137
  6
CONTINUOUS
100
AcDbCircle
 10
-85.69866458
 20
-171.45454975
 30
0.0
 40
1.59428533
  0
CIRCLE
  5
349
100
AcDbEntity
  8
MST_1_1
 62
   137
  6
CONTINUOUS
100
AcDbCircle
 10
-85.69866458
 20
-171.45454975
 30
0.0
 40
1.99428533
  0
CIRCLE
  5
34A
100
AcDbEntity
  8
MST_1_1
 62
   137
  6
CONTINUOUS
100
AcDbCircle
 10
-85.69866458
 20
-171.45454975
 30
0.0
 40
1.125
  0
CIRCLE
  5
34B
100
AcDbEntity
  8
MST_1_1
 62
   137
  6
CONTINUOUS
100
AcDbCircle
 10
-85.69866458
 20
-171.45454975
 30
0.0
 40
3.5
  0
ARC
  5
34C
100
AcDbEntity
  8
MST_1_1
 62
   137
  6
CONTINUOUS
100
AcDbCircle
 10
-87.07066456
 20
-171.45454975
 30
0.0
 40
0.303
100
AcDbArc
 50
104.00039951
 51
255.99961051
  0
ARC
  5
34D
100
AcDbEntity
  8
MST_1_1
 62
   137
  6
CONTINUOUS
100
AcDbCircle
 10
-87.30138213
 20
-172.37987918
 30
0.0
 40
0.65065883
100
AcDbArc
 50
344.00042282
 51
75.99958535
  0
ARC
  5
34E
100
AcDbEntity
  8
MST_1_1
 62
   137
  6
CONTINUOUS
100
AcDbCircle
 10
-86.38466455
 20
-172.64273659
 30
0.0
 40
0.30299999
100
AcDbArc
 50
164.00040911
 51
315.99959504
  0
ARC
  5
34F
100
AcDbEntity
  8
MST_1_1
 62
   137
  6
CONTINUOUS
100
AcDbCircle
 10
-85.69866458
 20
-173.3052085
 30
0.0
 40
0.65065875
100
AcDbArc
 50
44.00040429
 51
135.99959571
  0
ARC
  5
350
100
AcDbEntity
  8
MST_1_1
 62
   137
  6
CONTINUOUS
100
AcDbCircle
 10
-85.01266458
 20
-172.64273664
 30
0.0
 40
0.30299998
100
AcDbArc
 50
224.00041508
 51
15.9996008
  0
ARC
  5
351
100
AcDbEntity
  8
MST_1_1
 62
   137
  6
CONTINUOUS
100
AcDbCircle
 10
-84.32666459
 20
-171.45454975
 30
0.0
 40
0.303
100
AcDbArc
 50
284.00040953
 51
75.99960049
  0
ARC
  5
352
100
AcDbEntity
  8
MST_1_1
 62
   137
  6
CONTINUOUS
100
AcDbCircle
 10
-84.09594702
 20
-170.52922031
 30
0.0
 40
0.65065883
100
AcDbArc
 50
164.00041281
 51
255.99959537
  0
ARC
  5
353
100
AcDbEntity
  8
MST_1_1
 62
   137
  6
CONTINUOUS
100
AcDbCircle
 10
-85.0126646
 20
-170.2663629
 30
0.0
 40
0.30299999
100
AcDbArc
 50
344.00041913
 51
135.99958502
  0
ARC
  5
354
100
AcDbEntity
  8
MST_1_1
 62
   137
  6
CONTINUOUS
100
AcDbCircle
 10
-85.69866458
 20
-169.603891
 30
0.0
 40
0.65065875
100
AcDbArc
 50
224.00041431
 51
315.99960573
  0
ARC
  5
355
100
AcDbEntity
  8
MST_1_1
 62
   137
  6
CONTINUOUS
100
AcDbCircle
 10
-86.38466458
 20
-170.26636285
 30
0.0
 40
0.30299998
100
AcDbArc
 50
44.00040506
 51
195.99961082
  0
ARC
  5
356
100
AcDbEntity
  8
MST_1_1
 62
   137
  6
CONTINUOUS
100
AcDbCircle
 10
-87.30138213
 20
-170.52922031
 30
0.0
 40
0.65065883
100
AcDbArc
 50
284.00042461
 51
15.99958726
  0
LWPOLYLINE
  5
357
100
AcDbEntity
  8
MST_1_1
 62
   137
  6
CONTINUOUS
100
AcDbPolyline
 90
        9
 70
     0
 43
0.0
 10
-86.98913447
 20
-173.69961387
 10
-86.98006851
 20
-173.69054791
 10
-86.97099615
 20
-173.68147544
 10
-86.9619175
 20
-173.6723969
 10
-86.95283245
 20
-173.66331185
 10
-86.94374123
 20
-173.65422051
 10
-86.9346436
 20
-173.64512289
 10
-86.92553981
 20
-173.63601921
 10
-86.91642984
 20
-173.62690925
  0
ARC
  5
358
100
AcDbEntity
  8
MST_1_1
 62
   137
  6
CONTINUOUS
100
AcDbCircle
 10
-86.76427451
 20
-173.50020975
 30
0.0
 40
0.19800002
100
AcDbArc
 50
50.21591721
 51
219.78410477
  0
LWPOLYLINE
  5
359
100
AcDbEntity
  8
MST_1_1
 62
   137
  6
CONTINUOUS
100
AcDbPolyline
 90
        9
 70
     0
 43
0.0
 10
-86.63757504
 20
-173.34805439
 10
-86.62850379
 20
-173.33898307
 10
-86.6194277
 20
-173.32990698
 10
-86.61034678
 20
-173.32082612
 10
-86.60126097
 20
-173.31174037
 10
-86.59217045
 20
-173.30264973
 10
-86.58307515
 20
-173.29355444
 10
-86.57397508
 20
-173.28445448
 10
-86.56487036
 20
-173.27534976
  0
LWPOLYLINE
  5
35A
100
AcDbEntity
  8
MST_1_1
 62
   137
  6
CONTINUOUS
100
AcDbPolyline
 90
        9
 70
     0
 43
0.0
 10
-86.56487036
 20
-173.27534976
 10
-86.61921984
 20
-173.22100022
 10
-86.67362148
 20
-173.16659864
 10
-86.72806869
 20
-173.11215143
 10
-86.78255455
 20
-173.05766556
 10
-86.83707255
 20
-173.00314757
 10
-86.8916158
 20
-172.94860431
 10
-86.94617768
 20
-172.89404243
 10
-87.00075133
 20
-172.83946879
  0
LWPOLYLINE
  5
35B
100
AcDbEntity
  8
MST_1_1
 62
   137
  6
CONTINUOUS
100
AcDbPolyline
 90
        9
 70
     0
 43
0.0
 10
-87.00075133
 20
-172.83946879
 10
-87.00397335
 20
-172.8426907
 10
-87.00719468
 20
-172.84591215
 10
-87.01041554
 20
-172.84913289
 10
-87.01363582
 20
-172.85235317
 10
-87.01685541
 20
-172.85557287
 10
-87.02007452
 20
-172.85879187
 10
-87.02329294
 20
-172.86201041
 10
-87.02651089
 20
-172.86522824
  0
LWPOLYLINE
  5
35C
100
AcDbEntity
  8
MST_1_1
 62
   137
  6
CONTINUOUS
100
AcDbPolyline
 90
       25
 70
     0
 43
0.0
 10
-87.02651089
 20
-172.86522828
 10
-87.02920322
 20
-172.86108129
 10
-87.031967
 20
-172.85698931
 10
-87.0348015
 20
-172.85295308
 10
-87.03770598
 20
-172.84897337
 10
-87.04067968
 20
-172.84505092
 10
-87.04372187
 20
-172.84118646
 10
-87.04683179
 20
-172.83738076
 10
-87.05000871
 20
-172.83363455
 10
-87.05325188
 20
-172.82994858
 10
-87.05656055
 20
-172.8263236
 10
-87.05993399
 20
-172.82276036
 10
-87.06337144
 20
-172.81925961
 10
-87.06687216
 20
-172.81582208
 10
-87.07043541
 20
-172.81244853
 10
-87.07406045
 20
-172.8091397
 10
-87.07774652
 20
-172.80589635
 10
-87.08149288
 20
-172.80271921
 10
-87.08529879
 20
-172.79960903
 10
-87.08916351
 20
-172.79656657
 10
-87.09308629
 20
-172.79359257
 10
-87.09706638
 20
-172.79068777
 10
-87.10110305
 20
-172.78785292
 10
-87.10519554
 20
-172.78508877
 10
-87.10934311
 20
-172.78239606
  0
LWPOLYLINE
  5
35D
100
AcDbEntity
  8
MST_1_1
 62
   137
  6
CONTINUOUS
100
AcDbPolyline
 90
        9
 70
     0
 43
0.0
 10
-87.10934307
 20
-172.78239606
 10
-87.10612524
 20
-172.77917811
 10
-87.1029067
 20
-172.77595969
 10
-87.0996877
 20
-172.77274058
 10
-87.096468
 20
-172.76952099
 10
-87.09324772
 20
-172.76630071
 10
-87.09002698
 20
-172.76307985
 10
-87.08680553
 20
-172.75985852
 10
-87.08358362
 20
-172.7566365
  0
LWPOLYLINE
  5
35E
100
AcDbEntity
  8
MST_1_1
 62
   137
  6
CONTINUOUS
100
AcDbPolyline
 90
        9
 70
     0
 43
0.0
 10
-87.08358362
 20
-172.7566365
 10
-87.13815726
 20
-172.70206286
 10
-87.19271914
 20
-172.64750097
 10
-87.2472624
 20
-172.59295772
 10
-87.30178039
 20
-172.53843972
 10
-87.35626626
 20
-172.48395386
 10
-87.41071347
 20
-172.42950665
 10
-87.46511505
 20
-172.37510501
 10
-87.51946459
 20
-172.32075553
  0
LWPOLYLINE
  5
35F
100
AcDbEntity
  8
MST_1_1
 62
   137
  6
CONTINUOUS
100
AcDbPolyline
 90
        9
 70
     0
 43
0.0
 10
-87.51946459
 20
-172.32075553
 10
-87.52856931
 20
-172.32986025
 10
-87.53766927
 20
-172.33896032
 10
-87.54676456
 20
-172.34805562
 10
-87.5558552
 20
-172.35714614
 10
-87.56494095
 20
-172.36623195
 10
-87.57402181
 20
-172.37531287
 10
-87.5830979
 20
-172.38438896
 10
-87.59216922
 20
-172.39346021
  0
ARC
  5
360
100
AcDbEntity
  8
MST_1_1
 62
   137
  6
CONTINUOUS
100
AcDbCircle
 10
-87.74432458
 20
-172.52015967
 30
0.0
 40
0.19800002
100
AcDbArc
 50
230.21591956
 51
39.7840785
  0
LWPOLYLINE
  5
361
100
AcDbEntity
  8
MST_1_1
 62
   137
  6
CONTINUOUS
100
AcDbPolyline
 90
        9
 70
     0
 43
0.0
 10
-87.87102408
 20
-172.67231502
 10
-87.88013404
 20
-172.68142498
 10
-87.88923772
 20
-172.69052877
 10
-87.89833534
 20
-172.6996264
 10
-87.90742668
 20
-172.70871762
 10
-87.91651173
 20
-172.71780267
 10
-87.92559026
 20
-172.72688132
 10
-87.93466274
 20
-172.73595368
 10
-87.9437287
 20
-172.74501964
  0
LWPOLYLINE
  5
362
100
AcDbEntity
  8
MST_1_1
 62
   137
  6
CONTINUOUS
100
AcDbPolyline
 90
        9
 70
     0
 43
0.0
 10
-87.9437287
 20
-172.74501964
 10
-87.88938696
 20
-172.79936115
 10
-87.83499027
 20
-172.85375796
 10
-87.78054539
 20
-172.90820296
 10
-87.72605929
 20
-172.96268894
 10
-87.67153944
 20
-173.01720879
 10
-87.6169928
 20
-173.07175543
 10
-87.5624265
 20
-173.12632173
 10
-87.50784762
 20
-173.18090061
  0
LWPOLYLINE
  5
363
100
AcDbEntity
  8
MST_1_1
 62
   137
  6
CONTINUOUS
100
AcDbPolyline
 90
        9
 70
     0
 43
0.0
 10
-87.50784762
 20
-173.18090061
 10
-87.50463048
 20
-173.17768347
 10
-87.50141253
 20
-173.17446552
 10
-87.49819376
 20
-173.17124675
 10
-87.49497418
 20
-173.16802717
 10
-87.4917539
 20
-173.16480689
 10
-87.4885328
 20
-173.16158568
 10
-87.48531078
 20
-173.15836377
 10
-87.48208805
 20
-173.15514104
  0
LWPOLYLINE
  5
364
100
AcDbEntity
  8
MST_1_1
 62
   137
  6
CONTINUOUS
100
AcDbPolyline
 90
       25
 70
     0
 43
0.0
 10
-87.4820881
 20
-173.15514105
 10
-87.47939598
 20
-173.15928771
 10
-87.47663233
 20
-173.16337944
 10
-87.47379791
 20
-173.16741547
 10
-87.47089347
 20
-173.17139505
 10
-87.46791976
 20
-173.17531744
 10
-87.46487752
 20
-173.17918187
 10
-87.46176751
 20
-173.1829876
 10
-87.45859049
 20
-173.18673386
 10
-87.45534719
 20
-173.19041992
 10
-87.45203837
 20
-173.19404501
 10
-87.44866479
 20
-173.19760839
 10
-87.44522719
 20
-173.20110929
 10
-87.44172632
 20
-173.20454697
 10
-87.43816293
 20
-173.20792068
 10
-87.43453778
 20
-173.21122965
 10
-87.43085162
 20
-173.21447314
 10
-87.42710519
 20
-173.21765039
 10
-87.42329925
 20
-173.22076065
 10
-87.41943455
 20
-173.22380317
 10
-87.41551183
 20
-173.22677719
 10
-87.41153186
 20
-173.22968197
 10
-87.40749537
 20
-173.23251674
 10
-87.40340313
 20
-173.23528076
 10
-87.39925588
 20
-173.23797327
  0
LWPOLYLINE
  5
365
100
AcDbEntity
  8
MST_1_1
 62
   137
  6
CONTINUOUS
100
AcDbPolyline
 90
        9
 70
     0
 43
0.0
 10
-87.39925587
 20
-173.23797322
 10
-87.4024786
 20
-173.24119595
 10
-87.40570051
 20
-173.24441797
 10
-87.40892172
 20
-173.24763907
 10
-87.412142
 20
-173.25085935
 10
-87.41536158
 20
-173.25407893
 10
-87.41858035
 20
-173.2572977
 10
-87.4217983
 20
-173.26051565
 10
-87.42501544
 20
-173.26373279
  0
LWPOLYLINE
  5
366
100
AcDbEntity
  8
MST_1_1
 62
   137
  6
CONTINUOUS
100
AcDbPolyline
 90
        9
 70
     0
 43
0.0
 10
-87.42501544
 20
-173.26373279
 10
-87.37043656
 20
-173.31831167
 10
-87.31587026
 20
-173.37287798
 10
-87.26132362
 20
-173.42742461
 10
-87.20680377
 20
-173.48194446
 10
-87.15231779
 20
-173.53643056
 10
-87.09787279
 20
-173.59087544
 10
-87.04347598
 20
-173.64527213
 10
-86.98913447
 20
-173.69961387
  0
CIRCLE
  5
367
100
AcDbEntity
  8
MST_1_1
 62
   137
  6
CONTINUOUS
100
AcDbCircle
 10
-85.69866458
 20
-171.45454975
 30
0.0
 40
3.28320262
  0
ARC
  5
368
100
AcDbEntity
  8
MST_1_1
 62
   137
  6
CONTINUOUS
100
AcDbCircle
 10
-84.09594702
 20
-172.37987918
 30
0.0
 40
0.65065883
100
AcDbArc
 50
104.00041459
 51
195.99959727
  0
LWPOLYLINE
  5
369
100
AcDbEntity
  8
MST_1_1
 62
   137
  6
CONTINUOUS
100
AcDbPolyline
 90
        9
 70
     0
 43
0.0
 10
-87.19534349
 20
-172.74669998
 10
-87.23106961
 20
-172.71097387
 10
-87.26678828
 20
-172.6752552
 10
-87.30249774
 20
-172.63954573
 10
-87.33819604
 20
-172.60384744
 10
-87.37388129
 20
-172.56816219
 10
-87.40955153
 20
-172.53249183
 10
-87.445205
 20
-172.49683836
 10
-87.48083973
 20
-172.46120363
  0
ARC
  5
36A
100
AcDbEntity
  8
MST_1_1
 62
   137
  6
CONTINUOUS
100
AcDbCircle
 10
-87.25429961
 20
-173.01018401
 30
0.0
 40
0.26999936
100
AcDbArc
 50
77.38747914
 51
127.33780242
  0
LINE
  5
36B
100
AcDbEntity
  8
MST_1_1
 62
   137
  6
CONTINUOUS
100
AcDbLine
 10
-87.0396295
 20
-173.17394293
 30
0.0
 11
-87.41805776
 21
-172.79551467
 31
0.0
  0
ARC
  5
36C
100
AcDbEntity
  8
MST_1_1
 62
   137
  6
CONTINUOUS
100
AcDbCircle
 10
-87.25429896
 20
-173.01018475
 30
0.0
 40
0.26999948
100
AcDbArc
 50
322.66221884
 51
12.61250962
  0
LWPOLYLINE
  5
36D
100
AcDbEntity
  8
MST_1_1
 62
   137
  6
CONTINUOUS
100
AcDbPolyline
 90
        9
 70
     0
 43
0.0
 10
-86.70531846
 20
-173.2367249
 10
-86.74095319
 20
-173.20109017
 10
-86.77660666
 20
-173.1654367
 10
-86.81227701
 20
-173.12976646
 10
-86.84796227
 20
-173.09408121
 10
-86.88366056
 20
-173.05838291
 10
-86.91937003
 20
-173.02267345
 10
-86.9550887
 20
-172.98695478
 10
-86.99081481
 20
-172.95122866
  0
ARC
  5
36E
100
AcDbEntity
  8
MST_1_1
 62
   137
  6
CONTINUOUS
100
AcDbCircle
 10
-86.7642744
 20
-173.50020969
 30
0.0
 40
0.27000007
100
AcDbArc
 50
77.38755048
 51
192.61243885
  0
LWPOLYLINE
  5
36F
100
AcDbEntity
  8
MST_1_1
 62
   137
  6
CONTINUOUS
100
AcDbPolyline
 90
        9
 70
     0
 43
0.0
 10
-87.31325545
 20
-173.27366942
 10
-87.2775277
 20
-173.30939717
 10
-87.24180764
 20
-173.34511723
 10
-87.20609724
 20
-173.38082763
 10
-87.17039837
 20
-173.4165265
 10
-87.13471323
 20
-173.45221152
 10
-87.09904369
 20
-173.48788118
 10
-87.06339162
 20
-173.52353314
 10
-87.02775921
 20
-173.55916554
  0
ARC
  5
370
100
AcDbEntity
  8
MST_1_1
 62
   137
  6
CONTINUOUS
100
AcDbCircle
 10
-87.25429968
 20
-173.01018383
 30
0.0
 40
0.27000082
100
AcDbArc
 50
257.38763285
 51
307.33766874
  0
LWPOLYLINE
  5
371
100
AcDbEntity
  8
MST_1_1
 62
   137
  6
CONTINUOUS
100
AcDbPolyline
 90
        9
 70
     0
 43
0.0
 10
-87.46896956
 20
-172.84642635
 10
-87.42168177
 20
-172.89371402
 10
-87.37438048
 20
-172.94101532
 10
-87.32707022
 20
-172.98832569
 10
-87.27975531
 20
-173.03564048
 10
-87.23244052
 20
-173.0829554
 10
-87.18513014
 20
-173.13026565
 10
-87.13782885
 20
-173.17756694
 10
-87.09054118
 20
-173.22485473
  0
ARC
  5
372
100
AcDbEntity
  8
MST_1_1
 62
   137
  6
CONTINUOUS
100
AcDbCircle
 10
-87.2542994
 20
-173.01018468
 30
0.0
 40
0.27000013
100
AcDbArc
 50
142.662273
 51
192.61245546
  0
LWPOLYLINE
  5
373
100
AcDbEntity
  8
MST_1_1
 62
   137
  6
CONTINUOUS
100
AcDbPolyline
 90
        9
 70
     0
 43
0.0
 10
-87.80328037
 20
-172.78364438
 10
-87.76764797
 20
-172.81927679
 10
-87.73199601
 20
-172.85492886
 10
-87.69632635
 20
-172.8905984
 10
-87.66064133
 20
-172.92628354
 10
-87.62494246
 20
-172.96198241
 10
-87.58923206
 20
-172.99769281
 10
-87.55351199
 20
-173.03341288
 10
-87.51778425
 20
-173.06914062
  0
ARC
  5
374
100
AcDbEntity
  8
MST_1_1
 62
   137
  6
CONTINUOUS
100
AcDbCircle
 10
-87.74432427
 20
-172.52015983
 30
0.0
 40
0.26999988
100
AcDbArc
 50
257.38751638
 51
12.61251432
  0
LWPOLYLINE
  5
375
100
AcDbEntity
  8
MST_1_1
 62
   137
  6
CONTINUOUS
100
AcDbPolyline
 90
        9
 70
     0
 43
0.0
 10
-87.33381021
 20
-172.82885055
 10
-87.30120972
 20
-172.86145103
 10
-87.26860482
 20
-172.89405594
 10
-87.23599712
 20
-172.92666375
 10
-87.20338779
 20
-172.95927296
 10
-87.17077858
 20
-172.99188229
 10
-87.13817076
 20
-173.02448999
 10
-87.10556586
 20
-173.0570949
 10
-87.07296538
 20
-173.08969538
  0
ARC
  5
376
100
AcDbEntity
  8
MST_1_1
 62
   137
  6
CONTINUOUS
100
AcDbCircle
 10
-87.25429956
 20
-173.01018473
 30
0.0
 40
0.19800007
100
AcDbArc
 50
336.32372311
 51
113.6762869
  0
LWPOLYLINE
  5
377
100
AcDbEntity
  8
MST_1_1
 62
   137
  6
CONTINUOUS
100
AcDbPolyline
 90
        9
 70
     0
 43
0.0
 10
-87.17478874
 20
-173.19151874
 10
-87.20738922
 20
-173.15891837
 10
-87.23999401
 20
-173.12631347
 10
-87.27260182
 20
-173.09370565
 10
-87.30521115
 20
-173.06109632
 10
-87.33782048
 20
-173.02848699
 10
-87.3704283
 20
-172.99587918
 10
-87.4030332
 20
-172.96327439
 10
-87.43563357
 20
-172.93067391
  0
ARC
  5
378
100
AcDbEntity
  8
MST_1_1
 62
   137
  6
CONTINUOUS
100
AcDbCircle
 10
-87.25429944
 20
-173.01018461
 30
0.0
 40
0.19800004
100
AcDbArc
 50
156.32369345
 51
293.67631657
  0
CIRCLE
  5
379
100
AcDbEntity
  8
MST_1_1
 62
   137
  6
CONTINUOUS
100
AcDbCircle
 10
-85.69866458
 20
-201.45454975
 30
0.0
 40
1.89428533
  0
CIRCLE
  5
37A
100
AcDbEntity
  8
MST_1_1
 62
   137
  6
CONTINUOUS
100
AcDbCircle
 10
-85.69866458
 20
-201.45454975
 30
0.0
 40
1.06049438
  0
CIRCLE
  5
37B
100
AcDbEntity
  8
MST_1_1
 62
   137
  6
CONTINUOUS
100
AcDbCircle
 10
-85.69866458
 20
-201.45454975
 30
0.0
 40
1.89428533
  0
CIRCLE
  5
37C
100
AcDbEntity
  8
MST_1_1
 62
   137
  6
CONTINUOUS
100
AcDbCircle
 10
-85.69866458
 20
-201.45454975
 30
0.0
 40
1.06049438
  0
CIRCLE
  5
37D
100
AcDbEntity
  8
MST_1_1
 62
   137
  6
CONTINUOUS
100
AcDbCircle
 10
-85.69866458
 20
-201.45454975
 30
0.0
 40
1.89428533
  0
CIRCLE
  5
37E
100
AcDbEntity
  8
MST_1_1
 62
   137
  6
CONTINUOUS
100
AcDbCircle
 10
-85.69866458
 20
-201.45454975
 30
0.0
 40
1.06049438
  0
CIRCLE
  5
37F
100
AcDbEntity
  8
MST_1_1
 62
   137
  6
CONTINUOUS
100
AcDbCircle
 10
-85.69866458
 20
-201.45454975
 30
0.0
 40
1.59428533
  0
CIRCLE
  5
380
100
AcDbEntity
  8
MST_1_1
 62
   137
  6
CONTINUOUS
100
AcDbCircle
 10
-85.69866458
 20
-201.45454975
 30
0.0
 40
1.99428533
  0
CIRCLE
  5
381
100
AcDbEntity
  8
MST_1_1
 62
   137
  6
CONTINUOUS
100
AcDbCircle
 10
-85.69866458
 20
-201.45454975
 30
0.0
 40
1.125
  0
CIRCLE
  5
382
100
AcDbEntity
  8
MST_1_1
 62
   137
  6
CONTINUOUS
100
AcDbCircle
 10
-85.69866458
 20
-201.45454975
 30
0.0
 40
3.5
  0
ARC
  5
383
100
AcDbEntity
  8
MST_1_1
 62
   137
  6
CONTINUOUS
100
AcDbCircle
 10
-87.07066456
 20
-201.45454975
 30
0.0
 40
0.303
100
AcDbArc
 50
104.00039951
 51
255.99961051
  0
ARC
  5
384
100
AcDbEntity
  8
MST_1_1
 62
   137
  6
CONTINUOUS
100
AcDbCircle
 10
-87.30138213
 20
-202.37987918
 30
0.0
 40
0.65065883
100
AcDbArc
 50
344.00042282
 51
75.99958535
  0
ARC
  5
385
100
AcDbEntity
  8
MST_1_1
 62
   137
  6
CONTINUOUS
100
AcDbCircle
 10
-86.38466455
 20
-202.64273659
 30
0.0
 40
0.30299999
100
AcDbArc
 50
164.00040911
 51
315.99959504
  0
ARC
  5
386
100
AcDbEntity
  8
MST_1_1
 62
   137
  6
CONTINUOUS
100
AcDbCircle
 10
-85.69866458
 20
-203.3052085
 30
0.0
 40
0.65065875
100
AcDbArc
 50
44.00040429
 51
135.99959571
  0
ARC
  5
387
100
AcDbEntity
  8
MST_1_1
 62
   137
  6
CONTINUOUS
100
AcDbCircle
 10
-85.01266458
 20
-202.64273664
 30
0.0
 40
0.30299998
100
AcDbArc
 50
224.00041508
 51
15.9996008
  0
ARC
  5
388
100
AcDbEntity
  8
MST_1_1
 62
   137
  6
CONTINUOUS
100
AcDbCircle
 10
-84.32666459
 20
-201.45454975
 30
0.0
 40
0.303
100
AcDbArc
 50
284.00040953
 51
75.99960049
  0
ARC
  5
389
100
AcDbEntity
  8
MST_1_1
 62
   137
  6
CONTINUOUS
100
AcDbCircle
 10
-84.09594702
 20
-200.52922031
 30
0.0
 40
0.65065883
100
AcDbArc
 50
164.00041281
 51
255.99959537
  0
ARC
  5
38A
100
AcDbEntity
  8
MST_1_1
 62
   137
  6
CONTINUOUS
100
AcDbCircle
 10
-85.0126646
 20
-200.2663629
 30
0.0
 40
0.30299999
100
AcDbArc
 50
344.00041913
 51
135.99958502
  0
ARC
  5
38B
100
AcDbEntity
  8
MST_1_1
 62
   137
  6
CONTINUOUS
100
AcDbCircle
 10
-85.69866458
 20
-199.603891
 30
0.0
 40
0.65065875
100
AcDbArc
 50
224.00041431
 51
315.99960573
  0
ARC
  5
38C
100
AcDbEntity
  8
MST_1_1
 62
   137
  6
CONTINUOUS
100
AcDbCircle
 10
-86.38466458
 20
-200.26636285
 30
0.0
 40
0.30299998
100
AcDbArc
 50
44.00040506
 51
195.99961082
  0
ARC
  5
38D
100
AcDbEntity
  8
MST_1_1
 62
   137
  6
CONTINUOUS
100
AcDbCircle
 10
-87.30138213
 20
-200.52922031
 30
0.0
 40
0.65065883
100
AcDbArc
 50
284.00042461
 51
15.99958726
  0
LWPOLYLINE
  5
38E
100
AcDbEntity
  8
MST_1_1
 62
   137
  6
CONTINUOUS
100
AcDbPolyline
 90
        9
 70
     0
 43
0.0
 10
-86.98913447
 20
-203.69961387
 10
-86.98006851
 20
-203.69054791
 10
-86.97099615
 20
-203.68147544
 10
-86.9619175
 20
-203.6723969
 10
-86.95283245
 20
-203.66331185
 10
-86.94374123
 20
-203.65422051
 10
-86.9346436
 20
-203.64512289
 10
-86.92553981
 20
-203.63601921
 10
-86.91642984
 20
-203.62690925
  0
ARC
  5
38F
100
AcDbEntity
  8
MST_1_1
 62
   137
  6
CONTINUOUS
100
AcDbCircle
 10
-86.76427451
 20
-203.50020975
 30
0.0
 40
0.19800002
100
AcDbArc
 50
50.21591721
 51
219.78410477
  0
LWPOLYLINE
  5
390
100
AcDbEntity
  8
MST_1_1
 62
   137
  6
CONTINUOUS
100
AcDbPolyline
 90
        9
 70
     0
 43
0.0
 10
-86.63757504
 20
-203.34805439
 10
-86.62850379
 20
-203.33898307
 10
-86.6194277
 20
-203.32990698
 10
-86.61034678
 20
-203.32082612
 10
-86.60126097
 20
-203.31174037
 10
-86.59217045
 20
-203.30264973
 10
-86.58307515
 20
-203.29355444
 10
-86.57397508
 20
-203.28445448
 10
-86.56487036
 20
-203.27534976
  0
LWPOLYLINE
  5
391
100
AcDbEntity
  8
MST_1_1
 62
   137
  6
CONTINUOUS
100
AcDbPolyline
 90
        9
 70
     0
 43
0.0
 10
-86.56487036
 20
-203.27534976
 10
-86.61921984
 20
-203.22100022
 10
-86.67362148
 20
-203.16659864
 10
-86.72806869
 20
-203.11215143
 10
-86.78255455
 20
-203.05766556
 10
-86.83707255
 20
-203.00314757
 10
-86.8916158
 20
-202.94860431
 10
-86.94617768
 20
-202.89404243
 10
-87.00075133
 20
-202.83946879
  0
LWPOLYLINE
  5
392
100
AcDbEntity
  8
MST_1_1
 62
   137
  6
CONTINUOUS
100
AcDbPolyline
 90
        9
 70
     0
 43
0.0
 10
-87.00075133
 20
-202.83946879
 10
-87.00397335
 20
-202.8426907
 10
-87.00719468
 20
-202.84591215
 10
-87.01041554
 20
-202.84913289
 10
-87.01363582
 20
-202.85235317
 10
-87.01685541
 20
-202.85557287
 10
-87.02007452
 20
-202.85879187
 10
-87.02329294
 20
-202.86201041
 10
-87.02651089
 20
-202.86522824
  0
LWPOLYLINE
  5
393
100
AcDbEntity
  8
MST_1_1
 62
   137
  6
CONTINUOUS
100
AcDbPolyline
 90
       25
 70
     0
 43
0.0
 10
-87.02651089
 20
-202.86522828
 10
-87.02920322
 20
-202.86108129
 10
-87.031967
 20
-202.85698931
 10
-87.0348015
 20
-202.85295308
 10
-87.03770598
 20
-202.84897337
 10
-87.04067968
 20
-202.84505092
 10
-87.04372187
 20
-202.84118646
 10
-87.04683179
 20
-202.83738076
 10
-87.05000871
 20
-202.83363455
 10
-87.05325188
 20
-202.82994858
 10
-87.05656055
 20
-202.8263236
 10
-87.05993399
 20
-202.82276036
 10
-87.06337144
 20
-202.81925961
 10
-87.06687216
 20
-202.81582208
 10
-87.07043541
 20
-202.81244853
 10
-87.07406045
 20
-202.8091397
 10
-87.07774652
 20
-202.80589635
 10
-87.08149288
 20
-202.80271921
 10
-87.08529879
 20
-202.79960903
 10
-87.08916351
 20
-202.79656657
 10
-87.09308629
 20
-202.79359257
 10
-87.09706638
 20
-202.79068777
 10
-87.10110305
 20
-202.78785292
 10
-87.10519554
 20
-202.78508877
 10
-87.10934311
 20
-202.78239606
  0
LWPOLYLINE
  5
394
100
AcDbEntity
  8
MST_1_1
 62
   137
  6
CONTINUOUS
100
AcDbPolyline
 90
        9
 70
     0
 43
0.0
 10
-87.10934307
 20
-202.78239606
 10
-87.10612524
 20
-202.77917811
 10
-87.1029067
 20
-202.77595969
 10
-87.0996877
 20
-202.77274058
 10
-87.096468
 20
-202.76952099
 10
-87.09324772
 20
-202.76630071
 10
-87.09002698
 20
-202.76307985
 10
-87.08680553
 20
-202.75985852
 10
-87.08358362
 20
-202.7566365
  0
LWPOLYLINE
  5
395
100
AcDbEntity
  8
MST_1_1
 62
   137
  6
CONTINUOUS
100
AcDbPolyline
 90
        9
 70
     0
 43
0.0
 10
-87.08358362
 20
-202.7566365
 10
-87.13815726
 20
-202.70206286
 10
-87.19271914
 20
-202.64750097
 10
-87.2472624
 20
-202.59295772
 10
-87.30178039
 20
-202.53843972
 10
-87.35626626
 20
-202.48395386
 10
-87.41071347
 20
-202.42950665
 10
-87.46511505
 20
-202.37510501
 10
-87.51946459
 20
-202.32075553
  0
LWPOLYLINE
  5
396
100
AcDbEntity
  8
MST_1_1
 62
   137
  6
CONTINUOUS
100
AcDbPolyline
 90
        9
 70
     0
 43
0.0
 10
-87.51946459
 20
-202.32075553
 10
-87.52856931
 20
-202.32986025
 10
-87.53766927
 20
-202.33896032
 10
-87.54676456
 20
-202.34805562
 10
-87.5558552
 20
-202.35714614
 10
-87.56494095
 20
-202.36623195
 10
-87.57402181
 20
-202.37531287
 10
-87.5830979
 20
-202.38438896
 10
-87.59216922
 20
-202.39346021
  0
ARC
  5
397
100
AcDbEntity
  8
MST_1_1
 62
   137
  6
CONTINUOUS
100
AcDbCircle
 10
-87.74432458
 20
-202.52015967
 30
0.0
 40
0.19800002
100
AcDbArc
 50
230.21591956
 51
39.7840785
  0
LWPOLYLINE
  5
398
100
AcDbEntity
  8
MST_1_1
 62
   137
  6
CONTINUOUS
100
AcDbPolyline
 90
        9
 70
     0
 43
0.0
 10
-87.87102408
 20
-202.67231502
 10
-87.88013404
 20
-202.68142498
 10
-87.88923772
 20
-202.69052877
 10
-87.89833534
 20
-202.6996264
 10
-87.90742668
 20
-202.70871762
 10
-87.91651173
 20
-202.71780267
 10
-87.92559026
 20
-202.72688132
 10
-87.93466274
 20
-202.73595368
 10
-87.9437287
 20
-202.74501964
  0
LWPOLYLINE
  5
399
100
AcDbEntity
  8
MST_1_1
 62
   137
  6
CONTINUOUS
100
AcDbPolyline
 90
        9
 70
     0
 43
0.0
 10
-87.9437287
 20
-202.74501964
 10
-87.88938696
 20
-202.79936115
 10
-87.83499027
 20
-202.85375796
 10
-87.78054539
 20
-202.90820296
 10
-87.72605929
 20
-202.96268894
 10
-87.67153944
 20
-203.01720879
 10
-87.6169928
 20
-203.07175543
 10
-87.5624265
 20
-203.12632173
 10
-87.50784762
 20
-203.18090061
  0
LWPOLYLINE
  5
39A
100
AcDbEntity
  8
MST_1_1
 62
   137
  6
CONTINUOUS
100
AcDbPolyline
 90
        9
 70
     0
 43
0.0
 10
-87.50784762
 20
-203.18090061
 10
-87.50463048
 20
-203.17768347
 10
-87.50141253
 20
-203.17446552
 10
-87.49819376
 20
-203.17124675
 10
-87.49497418
 20
-203.16802717
 10
-87.4917539
 20
-203.16480689
 10
-87.4885328
 20
-203.16158568
 10
-87.48531078
 20
-203.15836377
 10
-87.48208805
 20
-203.15514104
  0
LWPOLYLINE
  5
39B
100
AcDbEntity
  8
MST_1_1
 62
   137
  6
CONTINUOUS
100
AcDbPolyline
 90
       25
 70
     0
 43
0.0
 10
-87.4820881
 20
-203.15514105
 10
-87.47939598
 20
-203.15928771
 10
-87.47663233
 20
-203.16337944
 10
-87.47379791
 20
-203.16741547
 10
-87.47089347
 20
-203.17139505
 10
-87.46791976
 20
-203.17531744
 10
-87.46487752
 20
-203.17918187
 10
-87.46176751
 20
-203.1829876
 10
-87.45859049
 20
-203.18673386
 10
-87.45534719
 20
-203.19041992
 10
-87.45203837
 20
-203.19404501
 10
-87.44866479
 20
-203.19760839
 10
-87.44522719
 20
-203.20110929
 10
-87.44172632
 20
-203.20454697
 10
-87.43816293
 20
-203.20792068
 10
-87.43453778
 20
-203.21122965
 10
-87.43085162
 20
-203.21447314
 10
-87.42710519
 20
-203.21765039
 10
-87.42329925
 20
-203.22076065
 10
-87.41943455
 20
-203.22380317
 10
-87.41551183
 20
-203.22677719
 10
-87.41153186
 20
-203.22968197
 10
-87.40749537
 20
-203.23251674
 10
-87.40340313
 20
-203.23528076
 10
-87.39925588
 20
-203.23797327
  0
LWPOLYLINE
  5
39C
100
AcDbEntity
  8
MST_1_1
 62
   137
  6
CONTINUOUS
100
AcDbPolyline
 90
        9
 70
     0
 43
0.0
 10
-87.39925587
 20
-203.23797322
 10
-87.4024786
 20
-203.24119595
 10
-87.40570051
 20
-203.24441797
 10
-87.40892172
 20
-203.24763907
 10
-87.412142
 20
-203.25085935
 10
-87.41536158
 20
-203.25407893
 10
-87.41858035
 20
-203.2572977
 10
-87.4217983
 20
-203.26051565
 10
-87.42501544
 20
-203.26373279
  0
LWPOLYLINE
  5
39D
100
AcDbEntity
  8
MST_1_1
 62
   137
  6
CONTINUOUS
100
AcDbPolyline
 90
        9
 70
     0
 43
0.0
 10
-87.42501544
 20
-203.26373279
 10
-87.37043656
 20
-203.31831167
 10
-87.31587026
 20
-203.37287798
 10
-87.26132362
 20
-203.42742461
 10
-87.20680377
 20
-203.48194446
 10
-87.15231779
 20
-203.53643056
 10
-87.09787279
 20
-203.59087544
 10
-87.04347598
 20
-203.64527213
 10
-86.98913447
 20
-203.69961387
  0
CIRCLE
  5
39E
100
AcDbEntity
  8
MST_1_1
 62
   137
  6
CONTINUOUS
100
AcDbCircle
 10
-85.69866458
 20
-201.45454975
 30
0.0
 40
3.28320262
  0
ARC
  5
39F
100
AcDbEntity
  8
MST_1_1
 62
   137
  6
CONTINUOUS
100
AcDbCircle
 10
-84.09594702
 20
-202.37987918
 30
0.0
 40
0.65065883
100
AcDbArc
 50
104.00041459
 51
195.99959727
  0
LWPOLYLINE
  5
3A0
100
AcDbEntity
  8
MST_1_1
 62
   137
  6
CONTINUOUS
100
AcDbPolyline
 90
        9
 70
     0
 43
0.0
 10
-87.19534349
 20
-202.74669998
 10
-87.23106961
 20
-202.71097387
 10
-87.26678828
 20
-202.6752552
 10
-87.30249774
 20
-202.63954573
 10
-87.33819604
 20
-202.60384744
 10
-87.37388129
 20
-202.56816219
 10
-87.40955153
 20
-202.53249183
 10
-87.445205
 20
-202.49683836
 10
-87.48083973
 20
-202.46120363
  0
ARC
  5
3A1
100
AcDbEntity
  8
MST_1_1
 62
   137
  6
CONTINUOUS
100
AcDbCircle
 10
-87.25429961
 20
-203.01018401
 30
0.0
 40
0.26999936
100
AcDbArc
 50
77.38747914
 51
127.33780242
  0
LINE
  5
3A2
100
AcDbEntity
  8
MST_1_1
 62
   137
  6
CONTINUOUS
100
AcDbLine
 10
-87.0396295
 20
-203.17394293
 30
0.0
 11
-87.41805776
 21
-202.79551467
 31
0.0
  0
ARC
  5
3A3
100
AcDbEntity
  8
MST_1_1
 62
   137
  6
CONTINUOUS
100
AcDbCircle
 10
-87.25429896
 20
-203.01018475
 30
0.0
 40
0.26999948
100
AcDbArc
 50
322.66221884
 51
12.61250962
  0
LWPOLYLINE
  5
3A4
100
AcDbEntity
  8
MST_1_1
 62
   137
  6
CONTINUOUS
100
AcDbPolyline
 90
        9
 70
     0
 43
0.0
 10
-86.70531846
 20
-203.2367249
 10
-86.74095319
 20
-203.20109017
 10
-86.77660666
 20
-203.1654367
 10
-86.81227701
 20
-203.12976646
 10
-86.84796227
 20
-203.09408121
 10
-86.88366056
 20
-203.05838291
 10
-86.91937003
 20
-203.02267345
 10
-86.9550887
 20
-202.98695478
 10
-86.99081481
 20
-202.95122866
  0
ARC
  5
3A5
100
AcDbEntity
  8
MST_1_1
 62
   137
  6
CONTINUOUS
100
AcDbCircle
 10
-86.7642744
 20
-203.50020969
 30
0.0
 40
0.27000007
100
AcDbArc
 50
77.38755048
 51
192.61243885
  0
LWPOLYLINE
  5
3A6
100
AcDbEntity
  8
MST_1_1
 62
   137
  6
CONTINUOUS
100
AcDbPolyline
 90
        9
 70
     0
 43
0.0
 10
-87.31325545
 20
-203.27366942
 10
-87.2775277
 20
-203.30939717
 10
-87.24180764
 20
-203.34511723
 10
-87.20609724
 20
-203.38082763
 10
-87.17039837
 20
-203.4165265
 10
-87.13471323
 20
-203.45221152
 10
-87.09904369
 20
-203.48788118
 10
-87.06339162
 20
-203.52353314
 10
-87.02775921
 20
-203.55916554
  0
ARC
  5
3A7
100
AcDbEntity
  8
MST_1_1
 62
   137
  6
CONTINUOUS
100
AcDbCircle
 10
-87.25429968
 20
-203.01018383
 30
0.0
 40
0.27000082
100
AcDbArc
 50
257.38763285
 51
307.33766874
  0
LWPOLYLINE
  5
3A8
100
AcDbEntity
  8
MST_1_1
 62
   137
  6
CONTINUOUS
100
AcDbPolyline
 90
        9
 70
     0
 43
0.0
 10
-87.46896956
 20
-202.84642635
 10
-87.42168177
 20
-202.89371402
 10
-87.37438048
 20
-202.94101532
 10
-87.32707022
 20
-202.98832569
 10
-87.27975531
 20
-203.03564048
 10
-87.23244052
 20
-203.0829554
 10
-87.18513014
 20
-203.13026565
 10
-87.13782885
 20
-203.17756694
 10
-87.09054118
 20
-203.22485473
  0
ARC
  5
3A9
100
AcDbEntity
  8
MST_1_1
 62
   137
  6
CONTINUOUS
100
AcDbCircle
 10
-87.2542994
 20
-203.01018468
 30
0.0
 40
0.27000013
100
AcDbArc
 50
142.662273
 51
192.61245546
  0
LWPOLYLINE
  5
3AA
100
AcDbEntity
  8
MST_1_1
 62
   137
  6
CONTINUOUS
100
AcDbPolyline
 90
        9
 70
     0
 43
0.0
 10
-87.80328037
 20
-202.78364438
 10
-87.76764797
 20
-202.81927679
 10
-87.73199601
 20
-202.85492886
 10
-87.69632635
 20
-202.8905984
 10
-87.66064133
 20
-202.92628354
 10
-87.62494246
 20
-202.96198241
 10
-87.58923206
 20
-202.99769281
 10
-87.55351199
 20
-203.03341288
 10
-87.51778425
 20
-203.06914062
  0
ARC
  5
3AB
100
AcDbEntity
  8
MST_1_1
 62
   137
  6
CONTINUOUS
100
AcDbCircle
 10
-87.74432427
 20
-202.52015983
 30
0.0
 40
0.26999988
100
AcDbArc
 50
257.38751638
 51
12.61251432
  0
LWPOLYLINE
  5
3AC
100
AcDbEntity
  8
MST_1_1
 62
   137
  6
CONTINUOUS
100
AcDbPolyline
 90
        9
 70
     0
 43
0.0
 10
-87.33381021
 20
-202.82885055
 10
-87.30120972
 20
-202.86145103
 10
-87.26860482
 20
-202.89405594
 10
-87.23599712
 20
-202.92666375
 10
-87.20338779
 20
-202.95927296
 10
-87.17077858
 20
-202.99188229
 10
-87.13817076
 20
-203.02448999
 10
-87.10556586
 20
-203.0570949
 10
-87.07296538
 20
-203.08969538
  0
ARC
  5
3AD
100
AcDbEntity
  8
MST_1_1
 62
   137
  6
CONTINUOUS
100
AcDbCircle
 10
-87.25429956
 20
-203.01018473
 30
0.0
 40
0.19800007
100
AcDbArc
 50
336.32372311
 51
113.6762869
  0
LWPOLYLINE
  5
3AE
100
AcDbEntity
  8
MST_1_1
 62
   137
  6
CONTINUOUS
100
AcDbPolyline
 90
        9
 70
     0
 43
0.0
 10
-87.17478874
 20
-203.19151874
 10
-87.20738922
 20
-203.15891837
 10
-87.23999401
 20
-203.12631347
 10
-87.27260182
 20
-203.09370565
 10
-87.30521115
 20
-203.06109632
 10
-87.33782048
 20
-203.02848699
 10
-87.3704283
 20
-202.99587918
 10
-87.4030332
 20
-202.96327439
 10
-87.43563357
 20
-202.93067391
  0
ARC
  5
3AF
100
AcDbEntity
  8
MST_1_1
 62
   137
  6
CONTINUOUS
100
AcDbCircle
 10
-87.25429944
 20
-203.01018461
 30
0.0
 40
0.19800004
100
AcDbArc
 50
156.32369345
 51
293.67631657
  0
MTEXT
  5
3B0
100
AcDbEntity
  8
MST_1_1
 62
     4
100
AcDbMText
 10
-128.69334841
 20
168.89225283
 30
2500.0
 11
1.0
 21
0.0
 31
0.0
 40
20.0
 41
316.1838307
 71
     1
 72
     1
  1
\fTahoma|b0|i0|c0|p18;\H20;\W0.80000001;\C7;Spanplattenschrauben Senkkopf\PHECO-FIX-plus 3.5mm\P35.301
  0
LWPOLYLINE
  5
3B1
102
{ACAD_REACTORS
330
3B2
102
}
100
AcDbEntity
  8
MST_1_1
 62
    12
100
AcDbPolyline
 90
       46
 70
     1
 43
0.0
 10
278.18924645
 20
179.45800283
 10
278.05842511
 20
179.46864116
 10
277.93427578
 20
179.4994295
 10
277.81847045
 20
179.54867783
 10
277.71268111
 20
179.61469616
 10
277.61857978
 20
179.6957945
 10
277.53783845
 20
179.79028283
 10
277.47212911
 20
179.89647116
 10
277.42312378
 20
180.0126695
 10
277.39249445
 20
180.13718783
 10
277.38191311
 20
180.26833616
 10
277.38191311
 20
180.26833616
 10
277.39249445
 20
180.39954833
 10
277.42312378
 20
180.5241535
 10
277.47212911
 20
180.64045466
 10
277.53783845
 20
180.74675483
 10
277.61857978
 20
180.841357
 10
277.71268111
 20
180.92256416
 10
277.81847045
 20
180.98867933
 10
277.93427578
 20
181.0380055
 10
278.05842511
 20
181.06884566
 10
278.18924645
 20
181.07950283
 10
278.18924645
 20
181.07950283
 10
278.31990111
 20
181.06884566
 10
278.44394378
 20
181.0380055
 10
278.55969245
 20
180.98867933
 10
278.66546511
 20
180.92256416
 10
278.75957978
 20
180.841357
 10
278.84035445
 20
180.74675483
 10
278.90610711
 20
180.64045466
 10
278.95515578
 20
180.5241535
 10
278.98581845
 20
180.39954833
 10
278.99641311
 20
180.26833616
 10
278.99641311
 20
180.26833616
 10
278.98581845
 20
180.13718783
 10
278.95515578
 20
180.0126695
 10
278.90610711
 20
179.89647116
 10
278.84035445
 20
179.79028283
 10
278.75957978
 20
179.6957945
 10
278.66546511
 20
179.61469616
 10
278.55969245
 20
179.54867783
 10
278.44394378
 20
179.4994295
 10
278.31990111
 20
179.46864116
 10
278.18924645
 20
179.45800283
 10
278.18924645
 20
179.45800283
 10
278.18924645
 20
179.45800283
  0
HATCH
  5
3B2
100
AcDbEntity
  8
MST_1_1
 62
    12
100
AcDbHatch
 10
0.0
 20
0.0
 30
0.0
210
0.0
220
0.0
230
1.0
  2
SOLID
 70
     1
 71
     1
 91
        1
 92
        7
 72
     0
 73
     1
 93
       40
 10
278.18924645
 20
179.45800283
 10
278.05842511
 20
179.46864116
 10
277.93427578
 20
179.4994295
 10
277.81847045
 20
179.54867783
 10
277.71268111
 20
179.61469616
 10
277.61857978
 20
179.6957945
 10
277.53783845
 20
179.79028283
 10
277.47212911
 20
179.89647116
 10
277.42312378
 20
180.0126695
 10
277.39249445
 20
180.13718783
 10
277.38191311
 20
180.26833616
 10
277.39249445
 20
180.39954833
 10
277.42312378
 20
180.5241535
 10
277.47212911
 20
180.64045466
 10
277.53783845
 20
180.74675483
 10
277.61857978
 20
180.841357
 10
277.71268111
 20
180.92256416
 10
277.81847045
 20
180.98867933
 10
277.93427578
 20
181.0380055
 10
278.05842511
 20
181.06884566
 10
278.18924645
 20
181.07950283
 10
278.31990111
 20
181.06884566
 10
278.44394378
 20
181.0380055
 10
278.55969245
 20
180.98867933
 10
278.66546511
 20
180.92256416
 10
278.75957978
 20
180.841357
 10
278.84035445
 20
180.74675483
 10
278.90610711
 20
180.64045466
 10
278.95515578
 20
180.5241535
 10
278.98581845
 20
180.39954833
 10
278.99641311
 20
180.26833616
 10
278.98581845
 20
180.13718783
 10
278.95515578
 20
180.0126695
 10
278.90610711
 20
179.89647116
 10
278.84035445
 20
179.79028283
 10
278.75957978
 20
179.6957945
 10
278.66546511
 20
179.61469616
 10
278.55969245
 20
179.54867783
 10
278.44394378
 20
179.4994295
 10
278.31990111
 20
179.46864116
 97
        1
330
3B1
 75
     0
 76
     2
 47
0.775229
 98
        1
 10
0.0
 20
0.0
  0
LWPOLYLINE
  5
3B3
102
{ACAD_REACTORS
330
3B4
102
}
100
AcDbEntity
  8
MST_1_1
 62
    12
100
AcDbPolyline
 90
        8
 70
     1
 43
0.0
 10
210.72424645
 20
178.89225283
 10
276.69207978
 20
178.89225283
 10
276.69207978
 20
178.89225283
 10
276.69207978
 20
162.31100283
 10
276.69207978
 20
162.31100283
 10
210.72424645
 20
162.31100283
 10
210.72424645
 20
162.31100283
 10
210.72424645
 20
178.89225283
  0
HATCH
  5
3B4
100
AcDbEntity
  8
MST_1_1
 62
    12
100
AcDbHatch
 10
0.0
 20
0.0
 30
0.0
210
0.0
220
0.0
230
1.0
  2
SOLID
 70
     1
 71
     1
 91
        1
 92
        7
 72
     0
 73
     1
 93
        4
 10
210.72424645
 20
178.89225283
 10
276.69207978
 20
178.89225283
 10
276.69207978
 20
162.31100283
 10
210.72424645
 20
162.31100283
 97
        1
330
3B3
 75
     0
 76
     2
 47
0.775229
 98
        1
 10
0.0
 20
0.0
  0
LINE
  5
3B5
100
AcDbEntity
  8
MST_1_1
100
AcDbLine
 10
210.72424645
 20
162.31100283
 30
0.0
 11
210.72424645
 21
162.31100283
 31
0.0
  0
LINE
  5
3B6
100
AcDbEntity
  8
MST_1_1
100
AcDbLine
 10
210.72424645
 20
162.31100283
 30
0.0
 11
210.72424645
 21
162.31100283
 31
0.0
  0
LINE
  5
3B7
100
AcDbEntity
  8
MST_1_1
100
AcDbLine
 10
210.72424645
 20
162.31100283
 30
0.0
 11
210.72424645
 21
162.31100283
 31
0.0
  0
LINE
  5
3B8
100
AcDbEntity
  8
MST_1_1
100
AcDbLine
 10
210.72424645
 20
162.31100283
 30
0.0
 11
210.72424645
 21
162.31100283
 31
0.0
  0
LINE
  5
3B9
100
AcDbEntity
  8
MST_1_1
100
AcDbLine
 10
210.72424645
 20
162.31100283
 30
0.0
 11
210.72424645
 21
162.31100283
 31
0.0
  0
LINE
  5
3BA
100
AcDbEntity
  8
MST_1_1
100
AcDbLine
 10
210.72424645
 20
162.31100283
 30
0.0
 11
210.72424645
 21
162.31100283
 31
0.0
  0
LINE
  5
3BB
100
AcDbEntity
  8
MST_1_1
100
AcDbLine
 10
210.72424645
 20
162.31100283
 30
0.0
 11
210.72424645
 21
162.31100283
 31
0.0
  0
LINE
  5
3BC
100
AcDbEntity
  8
MST_1_1
100
AcDbLine
 10
210.72424645
 20
162.31100283
 30
0.0
 11
210.72424645
 21
162.31100283
 31
0.0
  0
LINE
  5
3BD
100
AcDbEntity
  8
MST_1_1
100
AcDbLine
 10
210.72424645
 20
162.31100283
 30
0.0
 11
210.72424645
 21
162.31100283
 31
0.0
  0
LINE
  5
3BE
100
AcDbEntity
  8
MST_1_1
100
AcDbLine
 10
210.72424645
 20
162.31100283
 30
0.0
 11
210.72424645
 21
162.31100283
 31
0.0
  0
LINE
  5
3BF
100
AcDbEntity
  8
MST_1_1
100
AcDbLine
 10
210.72424645
 20
162.31100283
 30
0.0
 11
210.72424645
 21
162.31100283
 31
0.0
  0
LWPOLYLINE
  5
3C0
102
{ACAD_REACTORS
330
3C1
102
}
100
AcDbEntity
  8
MST_1_1
 62
   190
100
AcDbPolyline
 90
        8
 70
     1
 43
0.0
 10
243.53074645
 20
177.74258616
 10
275.54557978
 20
177.74258616
 10
275.54557978
 20
177.74258616
 10
275.54557978
 20
163.4588345
 10
275.54557978
 20
163.4588345
 10
243.53074645
 20
163.4588345
 10
243.53074645
 20
163.4588345
 10
243.53074645
 20
177.74258616
  0
HATCH
  5
3C1
100
AcDbEntity
  8
MST_1_1
 62
   190
100
AcDbHatch
 10
0.0
 20
0.0
 30
0.0
210
0.0
220
0.0
230
1.0
  2
SOLID
 70
     1
 71
     1
 91
        1
 92
        7
 72
     0
 73
     1
 93
        4
 10
243.53074645
 20
177.74258616
 10
275.54557978
 20
177.74258616
 10
275.54557978
 20
163.4588345
 10
243.53074645
 20
163.4588345
 97
        1
330
3C0
 75
     0
 76
     2
 47
0.775229
 98
        1
 10
0.0
 20
0.0
  0
LWPOLYLINE
  5
3C2
102
{ACAD_REACTORS
330
3C3
102
}
100
AcDbEntity
  8
MST_1_1
 62
    12
100
AcDbPolyline
 90
       22
 70
     1
 43
0.0
 10
245.44857978
 20
165.75210283
 10
245.44857978
 20
174.8386195
 10
245.44857978
 20
174.8386195
 10
253.62791311
 20
174.8386195
 10
253.62791311
 20
174.8386195
 10
253.62791311
 20
172.3742695
 10
253.62791311
 20
172.3742695
 10
249.85191311
 20
172.3742695
 10
249.85191311
 20
172.3742695
 10
249.85191311
 20
171.31965283
 10
249.85191311
 20
171.31965283
 10
253.26957978
 20
171.31965283
 10
253.26957978
 20
171.31965283
 10
253.26957978
 20
168.99185283
 10
253.26957978
 20
168.99185283
 10
249.85191311
 20
168.99185283
 10
249.85191311
 20
168.99185283
 10
249.85191311
 20
165.75210283
 10
249.85191311
 20
165.75210283
 10
245.44857978
 20
165.75210283
 10
245.44857978
 20
165.75210283
 10
245.44857978
 20
165.75210283
  0
HATCH
  5
3C3
100
AcDbEntity
  8
MST_1_1
 62
    12
100
AcDbHatch
 10
0.0
 20
0.0
 30
0.0
210
0.0
220
0.0
230
1.0
  2
SOLID
 70
     1
 71
     1
 91
        1
 92
        7
 72
     0
 73
     1
 93
       10
 10
245.44857978
 20
165.75210283
 10
245.44857978
 20
174.8386195
 10
253.62791311
 20
174.8386195
 10
253.62791311
 20
172.3742695
 10
249.85191311
 20
172.3742695
 10
249.85191311
 20
171.31965283
 10
253.26957978
 20
171.31965283
 10
253.26957978
 20
168.99185283
 10
249.85191311
 20
168.99185283
 10
249.85191311
 20
165.75210283
 97
        1
330
3C2
 75
     0
 76
     2
 47
0.775229
 98
        1
 10
0.0
 20
0.0
  0
LWPOLYLINE
  5
3C4
102
{ACAD_REACTORS
330
3C5
102
}
100
AcDbEntity
  8
MST_1_1
 62
   190
100
AcDbPolyline
 90
      178
 70
     1
 43
0.0
 10
241.67324645
 20
170.27725283
 10
241.66967445
 20
170.07908611
 10
241.65897045
 20
169.8836191
 10
241.64115245
 20
169.69087148
 10
241.61623845
 20
169.50086296
 10
241.58424645
 20
169.31361325
 10
241.54519445
 20
169.12914203
 10
241.49910045
 20
168.94746901
 10
241.44598245
 20
168.7686139
 10
241.38585845
 20
168.59259638
 10
241.31874645
 20
168.41943616
 10
241.31874645
 20
168.41943616
 10
241.24501345
 20
168.2489623
 10
241.16462245
 20
168.08221523
 10
241.07758545
 20
167.91918676
 10
240.98391445
 20
167.7598687
 10
240.88362145
 20
167.60425283
 10
240.77671845
 20
167.45233096
 10
240.66321745
 20
167.3040949
 10
240.54313045
 20
167.15953643
 10
240.41646945
 20
167.01864736
 10
240.28324645
 20
166.8814195
 10
240.28324645
 20
166.8814195
 10
240.14450778
 20
166.75163871
 10
240.00159711
 20
166.62807123
 10
239.85452245
 20
166.51072435
 10
239.70329178
 20
166.39960536
 10
239.54791311
 20
166.29472158
 10
239.38839445
 20
166.1960803
 10
239.22474378
 20
166.10368881
 10
239.05696911
 20
166.01755443
 10
238.88507845
 20
165.93768445
 10
238.70907978
 20
165.86408616
 10
238.70907978
 20
165.86408616
 10
238.53003178
 20
165.79708803
 10
238.34851578
 20
165.7370311
 10
238.16457378
 20
165.68394156
 10
237.97824778
 20
165.63784563
 10
237.78957978
 20
165.5987695
 10
237.59861178
 20
165.56673936
 10
237.40538578
 20
165.54178143
 10
237.20994378
 20
165.5239219
 10
237.01232778
 20
165.51318696
 10
236.81257978
 20
165.50960283
 10
236.81257978
 20
165.50960283
 10
236.61065945
 20
165.51318696
 10
236.41121711
 20
165.5239219
 10
236.21428078
 20
165.54178143
 10
236.01987845
 20
165.56673936
 10
235.82803811
 20
165.5987695
 10
235.63878778
 20
165.63784563
 10
235.45215545
 20
165.68394156
 10
235.26816911
 20
165.7370311
 10
235.08685678
 20
165.79708803
 10
234.90824645
 20
165.86408616
 10
234.90824645
 20
165.86408616
 10
234.73231995
 20
165.9378018
 10
234.56043445
 20
166.01802523
 10
234.39258095
 20
166.10475126
 10
234.22875045
 20
166.1979747
 10
234.06893395
 20
166.29769033
 10
233.91312245
 20
166.40389296
 10
233.76130695
 20
166.5165774
 10
233.61347845
 20
166.63573843
 10
233.46962795
 20
166.76137086
 10
233.32974645
 20
166.8934695
 10
233.32974645
 20
166.8934695
 10
233.19818761
 20
167.02724438
 10
233.07303578
 20
167.16498856
 10
232.95432795
 20
167.30668635
 10
232.84210111
 20
167.45232203
 10
232.73639228
 20
167.60187991
 10
232.63723845
 20
167.7553443
 10
232.54467661
 20
167.91269948
 10
232.45874378
 20
168.07392976
 10
232.37947695
 20
168.23901945
 10
232.30691311
 20
168.40795283
 10
232.30691311
 20
168.40795283
 10
232.24109528
 20
168.58107548
 10
232.18215045
 20
168.75728003
 10
232.13009161
 20
168.93656138
 10
232.08493178
 20
169.11891443
 10
232.04668395
 20
169.30433408
 10
232.01536111
 20
169.49281523
 10
231.99097628
 20
169.68435278
 10
231.97354245
 20
169.87894163
 10
231.96307261
 20
170.07657668
 10
231.95957978
 20
170.27725283
 10
231.95957978
 20
170.27725283
 10
231.96307261
 20
170.47792486
 10
231.97354245
 20
170.6756471
 10
231.99097628
 20
170.87042873
 10
232.01536111
 20
171.06227896
 10
232.04668395
 20
171.251207
 10
232.08493178
 20
171.43722203
 10
232.13009161
 20
171.62033326
 10
232.18215045
 20
171.8005499
 10
232.24109528
 20
171.97788113
 10
232.30691311
 20
172.15233616
 10
232.30691311
 20
172.15233616
 10
232.37947695
 20
172.32240261
 10
232.45874378
 20
172.48857576
 10
232.54467661
 20
172.65081631
 10
232.63723845
 20
172.80908496
 10
232.73639228
 20
172.96334241
 10
232.84210111
 20
173.11354936
 10
232.95432795
 20
173.25966651
 10
233.07303578
 20
173.40165456
 10
233.19818761
 20
173.53947421
 10
233.32974645
 20
173.67308616
 10
233.32974645
 20
173.67308616
 10
233.46855028
 20
173.803478
 10
233.61137711
 20
173.92760083
 10
233.75824995
 20
174.04543566
 10
233.90919178
 20
174.1569635
 10
234.06422561
 20
174.26216533
 10
234.22337445
 20
174.36102216
 10
234.38666128
 20
174.453515
 10
234.55410911
 20
174.53962483
 10
234.72574095
 20
174.61933266
 10
234.90157978
 20
174.6926195
 10
234.90157978
 20
174.6926195
 10
235.08049378
 20
174.75965108
 10
235.26213178
 20
174.81954816
 10
235.44648778
 20
174.87232925
 10
235.63355578
 20
174.91801283
 10
235.82332978
 20
174.95661741
 10
236.01580378
 20
174.9881615
 10
236.21097178
 20
175.01266358
 10
236.40882778
 20
175.03014216
 10
236.60936578
 20
175.04061575
 10
236.81257978
 20
175.04410283
 10
236.81257978
 20
175.04410283
 10
237.01595145
 20
175.04061575
 10
237.21665311
 20
175.03014216
 10
237.41466478
 20
175.01266358
 10
237.60996645
 20
174.9881615
 10
237.80253811
 20
174.95661741
 10
237.99235978
 20
174.91801283
 10
238.17941145
 20
174.87232925
 10
238.36367311
 20
174.81954816
 10
238.54512478
 20
174.75965108
 10
238.72374645
 20
174.6926195
 10
238.72374645
 20
174.6926195
 10
238.89974911
 20
174.61933266
 10
239.07166778
 20
174.53962483
 10
239.23951845
 20
174.453515
 10
239.40331711
 20
174.36102216
 10
239.56307978
 20
174.26216533
 10
239.71882245
 20
174.1569635
 10
239.87056111
 20
174.04543566
 10
240.01831178
 20
173.92760083
 10
240.16209045
 20
173.803478
 10
240.30191311
 20
173.67308616
 10
240.30191311
 20
173.67308616
 10
240.43225795
 20
173.53831165
 10
240.55637178
 20
173.39948403
 10
240.67422361
 20
173.25662721
 10
240.78578245
 20
173.1097651
 10
240.89101728
 20
172.95892158
 10
240.98989711
 20
172.80412056
 10
241.08239095
 20
172.64538595
 10
241.16846778
 20
172.48274163
 10
241.24809661
 20
172.31621151
 10
241.32124645
 20
172.1458195
 10
241.32124645
 20
172.1458195
 10
241.38828845
 20
171.97152758
 10
241.44822245
 20
171.79445016
 10
241.50106045
 20
171.61458475
 10
241.54681445
 20
171.43192883
 10
241.58549645
 20
171.24647991
 10
241.61711845
 20
171.0582355
 10
241.64169245
 20
170.86719308
 10
241.65923045
 20
170.67335016
 10
241.66974445
 20
170.47670425
 10
241.67324645
 20
170.27725283
 10
241.67324645
 20
170.27725283
 10
241.67324645
 20
170.27725283
  0
HATCH
  5
3C5
100
AcDbEntity
  8
MST_1_1
 62
   190
100
AcDbHatch
 10
0.0
 20
0.0
 30
0.0
210
0.0
220
0.0
230
1.0
  2
SOLID
 70
     1
 71
     1
 91
        1
 92
        7
 72
     0
 73
     1
 93
      160
 10
241.67324645
 20
170.27725283
 10
241.66967445
 20
170.07908611
 10
241.65897045
 20
169.8836191
 10
241.64115245
 20
169.69087148
 10
241.61623845
 20
169.50086296
 10
241.58424645
 20
169.31361325
 10
241.54519445
 20
169.12914203
 10
241.49910045
 20
168.94746901
 10
241.44598245
 20
168.7686139
 10
241.38585845
 20
168.59259638
 10
241.31874645
 20
168.41943616
 10
241.24501345
 20
168.2489623
 10
241.16462245
 20
168.08221523
 10
241.07758545
 20
167.91918676
 10
240.98391445
 20
167.7598687
 10
240.88362145
 20
167.60425283
 10
240.77671845
 20
167.45233096
 10
240.66321745
 20
167.3040949
 10
240.54313045
 20
167.15953643
 10
240.41646945
 20
167.01864736
 10
240.28324645
 20
166.8814195
 10
240.14450778
 20
166.75163871
 10
240.00159711
 20
166.62807123
 10
239.85452245
 20
166.51072435
 10
239.70329178
 20
166.39960536
 10
239.54791311
 20
166.29472158
 10
239.38839445
 20
166.1960803
 10
239.22474378
 20
166.10368881
 10
239.05696911
 20
166.01755443
 10
238.88507845
 20
165.93768445
 10
238.70907978
 20
165.86408616
 10
238.53003178
 20
165.79708803
 10
238.34851578
 20
165.7370311
 10
238.16457378
 20
165.68394156
 10
237.97824778
 20
165.63784563
 10
237.78957978
 20
165.5987695
 10
237.59861178
 20
165.56673936
 10
237.40538578
 20
165.54178143
 10
237.20994378
 20
165.5239219
 10
237.01232778
 20
165.51318696
 10
236.81257978
 20
165.50960283
 10
236.61065945
 20
165.51318696
 10
236.41121711
 20
165.5239219
 10
236.21428078
 20
165.54178143
 10
236.01987845
 20
165.56673936
 10
235.82803811
 20
165.5987695
 10
235.63878778
 20
165.63784563
 10
235.45215545
 20
165.68394156
 10
235.26816911
 20
165.7370311
 10
235.08685678
 20
165.79708803
 10
234.90824645
 20
165.86408616
 10
234.73231995
 20
165.9378018
 10
234.56043445
 20
166.01802523
 10
234.39258095
 20
166.10475126
 10
234.22875045
 20
166.1979747
 10
234.06893395
 20
166.29769033
 10
233.91312245
 20
166.40389296
 10
233.76130695
 20
166.5165774
 10
233.61347845
 20
166.63573843
 10
233.46962795
 20
166.76137086
 10
233.32974645
 20
166.8934695
 10
233.19818761
 20
167.02724438
 10
233.07303578
 20
167.16498856
 10
232.95432795
 20
167.30668635
 10
232.84210111
 20
167.45232203
 10
232.73639228
 20
167.60187991
 10
232.63723845
 20
167.7553443
 10
232.54467661
 20
167.91269948
 10
232.45874378
 20
168.07392976
 10
232.37947695
 20
168.23901945
 10
232.30691311
 20
168.40795283
 10
232.24109528
 20
168.58107548
 10
232.18215045
 20
168.75728003
 10
232.13009161
 20
168.93656138
 10
232.08493178
 20
169.11891443
 10
232.04668395
 20
169.30433408
 10
232.01536111
 20
169.49281523
 10
231.99097628
 20
169.68435278
 10
231.97354245
 20
169.87894163
 10
231.96307261
 20
170.07657668
 10
231.95957978
 20
170.27725283
 10
231.96307261
 20
170.47792486
 10
231.97354245
 20
170.6756471
 10
231.99097628
 20
170.87042873
 10
232.01536111
 20
171.06227896
 10
232.04668395
 20
171.251207
 10
232.08493178
 20
171.43722203
 10
232.13009161
 20
171.62033326
 10
232.18215045
 20
171.8005499
 10
232.24109528
 20
171.97788113
 10
232.30691311
 20
172.15233616
 10
232.37947695
 20
172.32240261
 10
232.45874378
 20
172.48857576
 10
232.54467661
 20
172.65081631
 10
232.63723845
 20
172.80908496
 10
232.73639228
 20
172.96334241
 10
232.84210111
 20
173.11354936
 10
232.95432795
 20
173.25966651
 10
233.07303578
 20
173.40165456
 10
233.19818761
 20
173.53947421
 10
233.32974645
 20
173.67308616
 10
233.46855028
 20
173.803478
 10
233.61137711
 20
173.92760083
 10
233.75824995
 20
174.04543566
 10
233.90919178
 20
174.1569635
 10
234.06422561
 20
174.26216533
 10
234.22337445
 20
174.36102216
 10
234.38666128
 20
174.453515
 10
234.55410911
 20
174.53962483
 10
234.72574095
 20
174.61933266
 10
234.90157978
 20
174.6926195
 10
235.08049378
 20
174.75965108
 10
235.26213178
 20
174.81954816
 10
235.44648778
 20
174.87232925
 10
235.63355578
 20
174.91801283
 10
235.82332978
 20
174.95661741
 10
236.01580378
 20
174.9881615
 10
236.21097178
 20
175.01266358
 10
236.40882778
 20
175.03014216
 10
236.60936578
 20
175.04061575
 10
236.81257978
 20
175.04410283
 10
237.01595145
 20
175.04061575
 10
237.21665311
 20
175.03014216
 10
237.41466478
 20
175.01266358
 10
237.60996645
 20
174.9881615
 10
237.80253811
 20
174.95661741
 10
237.99235978
 20
174.91801283
 10
238.17941145
 20
174.87232925
 10
238.36367311
 20
174.81954816
 10
238.54512478
 20
174.75965108
 10
238.72374645
 20
174.6926195
 10
238.89974911
 20
174.61933266
 10
239.07166778
 20
174.53962483
 10
239.23951845
 20
174.453515
 10
239.40331711
 20
174.36102216
 10
239.56307978
 20
174.26216533
 10
239.71882245
 20
174.1569635
 10
239.87056111
 20
174.04543566
 10
240.01831178
 20
173.92760083
 10
240.16209045
 20
173.803478
 10
240.30191311
 20
173.67308616
 10
240.43225795
 20
173.53831165
 10
240.55637178
 20
173.39948403
 10
240.67422361
 20
173.25662721
 10
240.78578245
 20
173.1097651
 10
240.89101728
 20
172.95892158
 10
240.98989711
 20
172.80412056
 10
241.08239095
 20
172.64538595
 10
241.16846778
 20
172.48274163
 10
241.24809661
 20
172.31621151
 10
241.32124645
 20
172.1458195
 10
241.38828845
 20
171.97152758
 10
241.44822245
 20
171.79445016
 10
241.50106045
 20
171.61458475
 10
241.54681445
 20
171.43192883
 10
241.58549645
 20
171.24647991
 10
241.61711845
 20
171.0582355
 10
241.64169245
 20
170.86719308
 10
241.65923045
 20
170.67335016
 10
241.66974445
 20
170.47670425
 97
        1
330
3C4
 75
     0
 76
     2
 47
0.775229
 98
        1
 10
0.0
 20
0.0
  0
LWPOLYLINE
  5
3C6
102
{ACAD_REACTORS
330
3C7
102
}
100
AcDbEntity
  8
MST_1_1
 62
    12
100
AcDbPolyline
 90
       90
 70
     1
 43
0.0
 10
236.81257978
 20
168.5630695
 10
236.94779695
 20
168.56780481
 10
237.07755711
 20
168.58198803
 10
237.20187328
 20
168.60558505
 10
237.32075845
 20
168.63856176
 10
237.43422561
 20
168.68088408
 10
237.54228778
 20
168.7325179
 10
237.64495795
 20
168.79342911
 10
237.74224911
 20
168.86358363
 10
237.83417428
 20
168.94294735
 10
237.92074645
 20
169.03148616
 10
237.92074645
 20
169.03148616
 10
238.00043895
 20
169.12861118
 10
238.07180645
 20
169.2317323
 10
238.13483395
 20
169.34088861
 10
238.18950645
 20
169.45611923
 10
238.23580895
 20
169.57746325
 10
238.27372645
 20
169.70495976
 10
238.30324395
 20
169.83864788
 10
238.32434645
 20
169.9785667
 10
238.33701895
 20
170.12475531
 10
238.34124645
 20
170.27725283
 10
238.34124645
 20
170.27725283
 10
238.33701895
 20
170.43049836
 10
238.32434645
 20
170.5775071
 10
238.30324395
 20
170.71831223
 10
238.27372645
 20
170.85294696
 10
238.23580895
 20
170.9814445
 10
238.18950645
 20
171.10383803
 10
238.13483395
 20
171.22016076
 10
238.07180645
 20
171.3304459
 10
238.00043895
 20
171.43472663
 10
237.92074645
 20
171.53303616
 10
237.92074645
 20
171.53303616
 10
237.83417428
 20
171.62306155
 10
237.74224911
 20
171.70367723
 10
237.64495795
 20
171.77486751
 10
237.54228778
 20
171.8366167
 10
237.43422561
 20
171.88890908
 10
237.32075845
 20
171.93172896
 10
237.20187328
 20
171.96506065
 10
237.07755711
 20
171.98888843
 10
236.94779695
 20
172.00319661
 10
236.81257978
 20
172.0079695
 10
236.81257978
 20
172.0079695
 10
236.67742678
 20
172.00319255
 10
236.54757578
 20
171.9888559
 10
236.42303878
 20
171.96495085
 10
236.30382778
 20
171.9314687
 10
236.18995478
 20
171.88840075
 10
236.08143178
 20
171.8357383
 10
235.97827078
 20
171.77347265
 10
235.88048378
 20
171.7015951
 10
235.78808278
 20
171.62009695
 10
235.70107978
 20
171.5289695
 10
235.70107978
 20
171.5289695
 10
235.62073311
 20
171.43060553
 10
235.54888645
 20
171.32628376
 10
235.48552978
 20
171.2160044
 10
235.43065311
 20
171.09976763
 10
235.38424645
 20
170.97757366
 10
235.34629978
 20
170.8494227
 10
235.31680311
 20
170.71531493
 10
235.29574645
 20
170.57525056
 10
235.28311978
 20
170.4292298
 10
235.27891311
 20
170.27725283
 10
235.27891311
 20
170.27725283
 10
235.28311978
 20
170.12475531
 10
235.29574645
 20
169.9785667
 10
235.31680311
 20
169.83864788
 10
235.34629978
 20
169.70495976
 10
235.38424645
 20
169.57746325
 10
235.43065311
 20
169.45611923
 10
235.48552978
 20
169.34088861
 10
235.54888645
 20
169.2317323
 10
235.62073311
 20
169.12861118
 10
235.70107978
 20
169.03148616
 10
235.70107978
 20
169.03148616
 10
235.78808278
 20
168.94294735
 10
235.88048378
 20
168.86358363
 10
235.97827078
 20
168.79342911
 10
236.08143178
 20
168.7325179
 10
236.18995478
 20
168.68088408
 10
236.30382778
 20
168.63856176
 10
236.42303878
 20
168.60558505
 10
236.54757578
 20
168.58198803
 10
236.67742678
 20
168.56780481
 10
236.81257978
 20
168.5630695
 10
236.81257978
 20
168.5630695
 10
236.81257978
 20
168.5630695
  0
HATCH
  5
3C7
100
AcDbEntity
  8
MST_1_1
 62
    12
100
AcDbHatch
 10
0.0
 20
0.0
 30
0.0
210
0.0
220
0.0
230
1.0
  2
SOLID
 70
     1
 71
     1
 91
        1
 92
        7
 72
     0
 73
     1
 93
       80
 10
236.81257978
 20
168.5630695
 10
236.94779695
 20
168.56780481
 10
237.07755711
 20
168.58198803
 10
237.20187328
 20
168.60558505
 10
237.32075845
 20
168.63856176
 10
237.43422561
 20
168.68088408
 10
237.54228778
 20
168.7325179
 10
237.64495795
 20
168.79342911
 10
237.74224911
 20
168.86358363
 10
237.83417428
 20
168.94294735
 10
237.92074645
 20
169.03148616
 10
238.00043895
 20
169.12861118
 10
238.07180645
 20
169.2317323
 10
238.13483395
 20
169.34088861
 10
238.18950645
 20
169.45611923
 10
238.23580895
 20
169.57746325
 10
238.27372645
 20
169.70495976
 10
238.30324395
 20
169.83864788
 10
238.32434645
 20
169.9785667
 10
238.33701895
 20
170.12475531
 10
238.34124645
 20
170.27725283
 10
238.33701895
 20
170.43049836
 10
238.32434645
 20
170.5775071
 10
238.30324395
 20
170.71831223
 10
238.27372645
 20
170.85294696
 10
238.23580895
 20
170.9814445
 10
238.18950645
 20
171.10383803
 10
238.13483395
 20
171.22016076
 10
238.07180645
 20
171.3304459
 10
238.00043895
 20
171.43472663
 10
237.92074645
 20
171.53303616
 10
237.83417428
 20
171.62306155
 10
237.74224911
 20
171.70367723
 10
237.64495795
 20
171.77486751
 10
237.54228778
 20
171.8366167
 10
237.43422561
 20
171.88890908
 10
237.32075845
 20
171.93172896
 10
237.20187328
 20
171.96506065
 10
237.07755711
 20
171.98888843
 10
236.94779695
 20
172.00319661
 10
236.81257978
 20
172.0079695
 10
236.67742678
 20
172.00319255
 10
236.54757578
 20
171.9888559
 10
236.42303878
 20
171.96495085
 10
236.30382778
 20
171.9314687
 10
236.18995478
 20
171.88840075
 10
236.08143178
 20
171.8357383
 10
235.97827078
 20
171.77347265
 10
235.88048378
 20
171.7015951
 10
235.78808278
 20
171.62009695
 10
235.70107978
 20
171.5289695
 10
235.62073311
 20
171.43060553
 10
235.54888645
 20
171.32628376
 10
235.48552978
 20
171.2160044
 10
235.43065311
 20
171.09976763
 10
235.38424645
 20
170.97757366
 10
235.34629978
 20
170.8494227
 10
235.31680311
 20
170.71531493
 10
235.29574645
 20
170.57525056
 10
235.28311978
 20
170.4292298
 10
235.27891311
 20
170.27725283
 10
235.28311978
 20
170.12475531
 10
235.29574645
 20
169.9785667
 10
235.31680311
 20
169.83864788
 10
235.34629978
 20
169.70495976
 10
235.38424645
 20
169.57746325
 10
235.43065311
 20
169.45611923
 10
235.48552978
 20
169.34088861
 10
235.54888645
 20
169.2317323
 10
235.62073311
 20
169.12861118
 10
235.70107978
 20
169.03148616
 10
235.78808278
 20
168.94294735
 10
235.88048378
 20
168.86358363
 10
235.97827078
 20
168.79342911
 10
236.08143178
 20
168.7325179
 10
236.18995478
 20
168.68088408
 10
236.30382778
 20
168.63856176
 10
236.42303878
 20
168.60558505
 10
236.54757578
 20
168.58198803
 10
236.67742678
 20
168.56780481
 97
        1
330
3C6
 75
     0
 76
     2
 47
0.775229
 98
        1
 10
0.0
 20
0.0
  0
LWPOLYLINE
  5
3C8
102
{ACAD_REACTORS
330
3C9
102
}
100
AcDbEntity
  8
MST_1_1
 62
   190
100
AcDbPolyline
 90
       60
 70
     1
 43
0.0
 10
223.17354645
 20
165.75210283
 10
223.17354645
 20
174.8386195
 10
223.17354645
 20
174.8386195
 10
227.28381311
 20
174.8386195
 10
227.28381311
 20
174.8386195
 10
227.63254888
 20
174.83071886
 10
227.96449125
 20
174.80702643
 10
228.27963281
 20
174.7675564
 10
228.57796618
 20
174.71232296
 10
228.85948395
 20
174.64134033
 10
229.12417871
 20
174.5546227
 10
229.37204308
 20
174.45218426
 10
229.60306965
 20
174.33403923
 10
229.81725101
 20
174.2002018
 10
230.01457978
 20
174.05068616
 10
230.01457978
 20
174.05068616
 10
230.19378561
 20
173.88609711
 10
230.35410645
 20
173.70753176
 10
230.49554728
 20
173.51502281
 10
230.61811311
 20
173.30860296
 10
230.72180895
 20
173.08830491
 10
230.80663978
 20
172.85416136
 10
230.87261061
 20
172.60620501
 10
230.91972645
 20
172.34446856
 10
230.94799228
 20
172.06898471
 10
230.95741311
 20
171.77978616
 10
230.95741311
 20
171.77978616
 10
230.95263145
 20
171.5893016
 10
230.93829978
 20
171.40565563
 10
230.91443811
 20
171.22885986
 10
230.88106645
 20
171.0589259
 10
230.83820478
 20
170.89586533
 10
230.78587311
 20
170.73968976
 10
230.72409145
 20
170.5904108
 10
230.65287978
 20
170.44804003
 10
230.57225811
 20
170.31258906
 10
230.48224645
 20
170.1840695
 10
230.48224645
 20
170.1840695
 10
230.38380545
 20
170.06347725
 10
230.27885845
 20
169.9534415
 10
230.16736945
 20
169.85394875
 10
230.04930245
 20
169.7649855
 10
229.92462145
 20
169.68653825
 10
229.79329045
 20
169.6185935
 10
229.65527345
 20
169.56113775
 10
229.51053445
 20
169.5141575
 10
229.35903745
 20
169.47763925
 10
229.20074645
 20
169.4515695
 10
229.20074645
 20
169.4515695
 10
231.62707978
 20
165.75210283
 10
231.62707978
 20
165.75210283
 10
227.96657978
 20
165.75210283
 10
227.96657978
 20
165.75210283
 10
226.37659645
 20
168.7494195
 10
226.37659645
 20
168.7494195
 10
226.37659645
 20
165.75210283
 10
226.37659645
 20
165.75210283
 10
223.17354645
 20
165.75210283
 10
223.17354645
 20
165.75210283
 10
223.17354645
 20
165.75210283
  0
HATCH
  5
3C9
100
AcDbEntity
  8
MST_1_1
 62
   190
100
AcDbHatch
 10
0.0
 20
0.0
 30
0.0
210
0.0
220
0.0
230
1.0
  2
SOLID
 70
     1
 71
     1
 91
        1
 92
        7
 72
     0
 73
     1
 93
       47
 10
223.17354645
 20
165.75210283
 10
223.17354645
 20
174.8386195
 10
227.28381311
 20
174.8386195
 10
227.63254888
 20
174.83071886
 10
227.96449125
 20
174.80702643
 10
228.27963281
 20
174.7675564
 10
228.57796618
 20
174.71232296
 10
228.85948395
 20
174.64134033
 10
229.12417871
 20
174.5546227
 10
229.37204308
 20
174.45218426
 10
229.60306965
 20
174.33403923
 10
229.81725101
 20
174.2002018
 10
230.01457978
 20
174.05068616
 10
230.19378561
 20
173.88609711
 10
230.35410645
 20
173.70753176
 10
230.49554728
 20
173.51502281
 10
230.61811311
 20
173.30860296
 10
230.72180895
 20
173.08830491
 10
230.80663978
 20
172.85416136
 10
230.87261061
 20
172.60620501
 10
230.91972645
 20
172.34446856
 10
230.94799228
 20
172.06898471
 10
230.95741311
 20
171.77978616
 10
230.95263145
 20
171.5893016
 10
230.93829978
 20
171.40565563
 10
230.91443811
 20
171.22885986
 10
230.88106645
 20
171.0589259
 10
230.83820478
 20
170.89586533
 10
230.78587311
 20
170.73968976
 10
230.72409145
 20
170.5904108
 10
230.65287978
 20
170.44804003
 10
230.57225811
 20
170.31258906
 10
230.48224645
 20
170.1840695
 10
230.38380545
 20
170.06347725
 10
230.27885845
 20
169.9534415
 10
230.16736945
 20
169.85394875
 10
230.04930245
 20
169.7649855
 10
229.92462145
 20
169.68653825
 10
229.79329045
 20
169.6185935
 10
229.65527345
 20
169.56113775
 10
229.51053445
 20
169.5141575
 10
229.35903745
 20
169.47763925
 10
229.20074645
 20
169.4515695
 10
231.62707978
 20
165.75210283
 10
227.96657978
 20
165.75210283
 10
226.37659645
 20
168.7494195
 10
226.37659645
 20
165.75210283
 97
        1
330
3C8
 75
     0
 76
     2
 47
0.775229
 98
        1
 10
0.0
 20
0.0
  0
LWPOLYLINE
  5
3CA
102
{ACAD_REACTORS
330
3CB
102
}
100
AcDbEntity
  8
MST_1_1
 62
    12
100
AcDbPolyline
 90
       52
 70
     1
 43
0.0
 10
226.37659645
 20
172.49998616
 10
226.37659645
 20
170.72493616
 10
226.37659645
 20
170.72493616
 10
226.88571311
 20
170.72493616
 10
226.88571311
 20
170.72493616
 10
226.97675956
 20
170.72720756
 10
227.06343871
 20
170.73401736
 10
227.14576526
 20
170.74535896
 10
227.22375391
 20
170.76122576
 10
227.29741936
 20
170.78161116
 10
227.36677631
 20
170.80650856
 10
227.43183946
 20
170.83591136
 10
227.49262351
 20
170.86981296
 10
227.54914316
 20
170.90820676
 10
227.60141311
 20
170.95108616
 10
227.60141311
 20
170.95108616
 10
227.64925728
 20
170.99816965
 10
227.69208645
 20
171.04919203
 10
227.72989561
 20
171.10415621
 10
227.76267978
 20
171.1630651
 10
227.79043395
 20
171.22592158
 10
227.81315311
 20
171.29272856
 10
227.83083228
 20
171.36348895
 10
227.84346645
 20
171.43820563
 10
227.85105061
 20
171.51688151
 10
227.85357978
 20
171.5995195
 10
227.85357978
 20
171.5995195
 10
227.85105061
 20
171.6843583
 10
227.84346645
 20
171.7651879
 10
227.83083228
 20
171.8419981
 10
227.81315311
 20
171.9147787
 10
227.79043395
 20
171.9835195
 10
227.76267978
 20
172.0482103
 10
227.72989561
 20
172.1088409
 10
227.69208645
 20
172.1654011
 10
227.64925728
 20
172.2178807
 10
227.60141311
 20
172.2662695
 10
227.60141311
 20
172.2662695
 10
227.54914316
 20
172.31040566
 10
227.49262351
 20
172.34998083
 10
227.43183946
 20
172.384975
 10
227.36677631
 20
172.41536816
 10
227.29741936
 20
172.44114033
 10
227.22375391
 20
172.4622715
 10
227.14576526
 20
172.47874166
 10
227.06343871
 20
172.49053083
 10
226.97675956
 20
172.497619
 10
226.88571311
 20
172.49998616
 10
226.88571311
 20
172.49998616
 10
226.37659645
 20
172.49998616
 10
226.37659645
 20
172.49998616
 10
226.37659645
 20
172.49998616
  0
HATCH
  5
3CB
100
AcDbEntity
  8
MST_1_1
 62
    12
100
AcDbHatch
 10
0.0
 20
0.0
 30
0.0
210
0.0
220
0.0
230
1.0
  2
SOLID
 70
     1
 71
     1
 91
        1
 92
        7
 72
     0
 73
     1
 93
       43
 10
226.37659645
 20
172.49998616
 10
226.37659645
 20
170.72493616
 10
226.88571311
 20
170.72493616
 10
226.97675956
 20
170.72720756
 10
227.06343871
 20
170.73401736
 10
227.14576526
 20
170.74535896
 10
227.22375391
 20
170.76122576
 10
227.29741936
 20
170.78161116
 10
227.36677631
 20
170.80650856
 10
227.43183946
 20
170.83591136
 10
227.49262351
 20
170.86981296
 10
227.54914316
 20
170.90820676
 10
227.60141311
 20
170.95108616
 10
227.64925728
 20
170.99816965
 10
227.69208645
 20
171.04919203
 10
227.72989561
 20
171.10415621
 10
227.76267978
 20
171.1630651
 10
227.79043395
 20
171.22592158
 10
227.81315311
 20
171.29272856
 10
227.83083228
 20
171.36348895
 10
227.84346645
 20
171.43820563
 10
227.85105061
 20
171.51688151
 10
227.85357978
 20
171.5995195
 10
227.85105061
 20
171.6843583
 10
227.84346645
 20
171.7651879
 10
227.83083228
 20
171.8419981
 10
227.81315311
 20
171.9147787
 10
227.79043395
 20
171.9835195
 10
227.76267978
 20
172.0482103
 10
227.72989561
 20
172.1088409
 10
227.69208645
 20
172.1654011
 10
227.64925728
 20
172.2178807
 10
227.60141311
 20
172.2662695
 10
227.54914316
 20
172.31040566
 10
227.49262351
 20
172.34998083
 10
227.43183946
 20
172.384975
 10
227.36677631
 20
172.41536816
 10
227.29741936
 20
172.44114033
 10
227.22375391
 20
172.4622715
 10
227.14576526
 20
172.47874166
 10
227.06343871
 20
172.49053083
 10
226.97675956
 20
172.497619
 10
226.88571311
 20
172.49998616
 97
        1
330
3CA
 75
     0
 76
     2
 47
0.775229
 98
        1
 10
0.0
 20
0.0
  0
LWPOLYLINE
  5
3CC
102
{ACAD_REACTORS
330
3CD
102
}
100
AcDbEntity
  8
MST_1_1
 62
   190
100
AcDbPolyline
 90
       56
 70
     1
 43
0.0
 10
214.17394645
 20
165.75210283
 10
214.17394645
 20
174.8386195
 10
214.17394645
 20
174.8386195
 10
218.07866311
 20
174.8386195
 10
218.07866311
 20
174.8386195
 10
218.47943926
 20
174.83067083
 10
218.85809031
 20
174.80682816
 10
219.21462016
 20
174.7670965
 10
219.54903271
 20
174.71148083
 10
219.86133186
 20
174.63998616
 10
220.15152151
 20
174.5526175
 10
220.41960556
 20
174.44937983
 10
220.66558791
 20
174.33027816
 10
220.88947246
 20
174.1953175
 10
221.09126311
 20
174.04450283
 10
221.09126311
 20
174.04450283
 10
221.27231831
 20
173.8761415
 10
221.43432271
 20
173.68925416
 10
221.57727451
 20
173.48382083
 10
221.70117191
 20
173.2598215
 10
221.80601311
 20
173.01723616
 10
221.89179631
 20
172.75604483
 10
221.95851971
 20
172.4762275
 10
222.00618151
 20
172.17776416
 10
222.03477991
 20
171.86063483
 10
222.04431311
 20
171.5248195
 10
222.04431311
 20
171.5248195
 10
222.03574321
 20
171.21182748
 10
222.01003991
 20
170.91616536
 10
221.96721281
 20
170.63783905
 10
221.90727151
 20
170.37685443
 10
221.83022561
 20
170.13321741
 10
221.73608471
 20
169.9069339
 10
221.62485841
 20
169.69800978
 10
221.49655631
 20
169.50645096
 10
221.35118801
 20
169.33226335
 10
221.18876311
 20
169.17545283
 10
221.18876311
 20
169.17545283
 10
221.00701045
 20
169.03489538
 10
220.80520778
 20
168.90908123
 10
220.58334811
 20
168.79802268
 10
220.34142445
 20
168.70173203
 10
220.07942978
 20
168.62022158
 10
219.79735711
 20
168.55350363
 10
219.49519945
 20
168.50159048
 10
219.17294978
 20
168.46449443
 10
218.83060111
 20
168.44222778
 10
218.46814645
 20
168.43480283
 10
218.46814645
 20
168.43480283
 10
217.44519645
 20
168.43480283
 10
217.44519645
 20
168.43480283
 10
217.44519645
 20
165.75210283
 10
217.44519645
 20
165.75210283
 10
214.17394645
 20
165.75210283
 10
214.17394645
 20
165.75210283
 10
214.17394645
 20
165.75210283
  0
HATCH
  5
3CD
100
AcDbEntity
  8
MST_1_1
 62
   190
100
AcDbHatch
 10
0.0
 20
0.0
 30
0.0
210
0.0
220
0.0
230
1.0
  2
SOLID
 70
     1
 71
     1
 91
        1
 92
        7
 72
     0
 73
     1
 93
       45
 10
214.17394645
 20
165.75210283
 10
214.17394645
 20
174.8386195
 10
218.07866311
 20
174.8386195
 10
218.47943926
 20
174.83067083
 10
218.85809031
 20
174.80682816
 10
219.21462016
 20
174.7670965
 10
219.54903271
 20
174.71148083
 10
219.86133186
 20
174.63998616
 10
220.15152151
 20
174.5526175
 10
220.41960556
 20
174.44937983
 10
220.66558791
 20
174.33027816
 10
220.88947246
 20
174.1953175
 10
221.09126311
 20
174.04450283
 10
221.27231831
 20
173.8761415
 10
221.43432271
 20
173.68925416
 10
221.57727451
 20
173.48382083
 10
221.70117191
 20
173.2598215
 10
221.80601311
 20
173.01723616
 10
221.89179631
 20
172.75604483
 10
221.95851971
 20
172.4762275
 10
222.00618151
 20
172.17776416
 10
222.03477991
 20
171.86063483
 10
222.04431311
 20
171.5248195
 10
222.03574321
 20
171.21182748
 10
222.01003991
 20
170.91616536
 10
221.96721281
 20
170.63783905
 10
221.90727151
 20
170.37685443
 10
221.83022561
 20
170.13321741
 10
221.73608471
 20
169.9069339
 10
221.62485841
 20
169.69800978
 10
221.49655631
 20
169.50645096
 10
221.35118801
 20
169.33226335
 10
221.18876311
 20
169.17545283
 10
221.00701045
 20
169.03489538
 10
220.80520778
 20
168.90908123
 10
220.58334811
 20
168.79802268
 10
220.34142445
 20
168.70173203
 10
220.07942978
 20
168.62022158
 10
219.79735711
 20
168.55350363
 10
219.49519945
 20
168.50159048
 10
219.17294978
 20
168.46449443
 10
218.83060111
 20
168.44222778
 10
218.46814645
 20
168.43480283
 10
217.44519645
 20
168.43480283
 10
217.44519645
 20
165.75210283
 97
        1
330
3CC
 75
     0
 76
     2
 47
0.775229
 98
        1
 10
0.0
 20
0.0
  0
LWPOLYLINE
  5
3CE
102
{ACAD_REACTORS
330
3CF
102
}
100
AcDbEntity
  8
MST_1_1
 62
    12
100
AcDbPolyline
 90
       52
 70
     1
 43
0.0
 10
217.45796311
 20
172.3130695
 10
217.45796311
 20
170.79850283
 10
217.45796311
 20
170.79850283
 10
217.96561311
 20
170.79850283
 10
217.96561311
 20
170.79850283
 10
218.05645123
 20
170.80047113
 10
218.14305605
 20
170.80636923
 10
218.22539826
 20
170.81618693
 10
218.30344858
 20
170.82991403
 10
218.3771777
 20
170.84754033
 10
218.44655631
 20
170.86905563
 10
218.51155513
 20
170.89444973
 10
218.57214485
 20
170.92371243
 10
218.62829616
 20
170.95683353
 10
218.67997978
 20
170.99380283
 10
218.67997978
 20
170.99380283
 10
218.72704853
 20
171.0346202
 10
218.76918178
 20
171.07870776
 10
218.80637503
 20
171.12607373
 10
218.83862378
 20
171.1767263
 10
218.86592353
 20
171.23067366
 10
218.88826978
 20
171.28792403
 10
218.90565803
 20
171.3484856
 10
218.91808378
 20
171.41236656
 10
218.92554253
 20
171.47957513
 10
218.92802978
 20
171.5501195
 10
218.92802978
 20
171.5501195
 10
218.92549601
 20
171.62037718
 10
218.91788765
 20
171.68749296
 10
218.90519408
 20
171.75147095
 10
218.88740471
 20
171.81231523
 10
218.86450895
 20
171.87002991
 10
218.83649618
 20
171.9246191
 10
218.80335581
 20
171.97608688
 10
218.76507725
 20
172.02443736
 10
218.72164988
 20
172.06967465
 10
218.67306311
 20
172.11180283
 10
218.67306311
 20
172.11180283
 10
218.62031721
 20
172.14983425
 10
218.56359391
 20
172.18392816
 10
218.50288481
 20
172.21406908
 10
218.43818151
 20
172.2402415
 10
218.36947561
 20
172.26242991
 10
218.29675871
 20
172.28061883
 10
218.22002241
 20
172.29479275
 10
218.13925831
 20
172.30493616
 10
218.05445801
 20
172.31103358
 10
217.96561311
 20
172.3130695
 10
217.96561311
 20
172.3130695
 10
217.45796311
 20
172.3130695
 10
217.45796311
 20
172.3130695
 10
217.45796311
 20
172.3130695
  0
HATCH
  5
3CF
100
AcDbEntity
  8
MST_1_1
 62
    12
100
AcDbHatch
 10
0.0
 20
0.0
 30
0.0
210
0.0
220
0.0
230
1.0
  2
SOLID
 70
     1
 71
     1
 91
        1
 92
        7
 72
     0
 73
     1
 93
       43
 10
217.45796311
 20
172.3130695
 10
217.45796311
 20
170.79850283
 10
217.96561311
 20
170.79850283
 10
218.05645123
 20
170.80047113
 10
218.14305605
 20
170.80636923
 10
218.22539826
 20
170.81618693
 10
218.30344858
 20
170.82991403
 10
218.3771777
 20
170.84754033
 10
218.44655631
 20
170.86905563
 10
218.51155513
 20
170.89444973
 10
218.57214485
 20
170.92371243
 10
218.62829616
 20
170.95683353
 10
218.67997978
 20
170.99380283
 10
218.72704853
 20
171.0346202
 10
218.76918178
 20
171.07870776
 10
218.80637503
 20
171.12607373
 10
218.83862378
 20
171.1767263
 10
218.86592353
 20
171.23067366
 10
218.88826978
 20
171.28792403
 10
218.90565803
 20
171.3484856
 10
218.91808378
 20
171.41236656
 10
218.92554253
 20
171.47957513
 10
218.92802978
 20
171.5501195
 10
218.92549601
 20
171.62037718
 10
218.91788765
 20
171.68749296
 10
218.90519408
 20
171.75147095
 10
218.88740471
 20
171.81231523
 10
218.86450895
 20
171.87002991
 10
218.83649618
 20
171.9246191
 10
218.80335581
 20
171.97608688
 10
218.76507725
 20
172.02443736
 10
218.72164988
 20
172.06967465
 10
218.67306311
 20
172.11180283
 10
218.62031721
 20
172.14983425
 10
218.56359391
 20
172.18392816
 10
218.50288481
 20
172.21406908
 10
218.43818151
 20
172.2402415
 10
218.36947561
 20
172.26242991
 10
218.29675871
 20
172.28061883
 10
218.22002241
 20
172.29479275
 10
218.13925831
 20
172.30493616
 10
218.05445801
 20
172.31103358
 10
217.96561311
 20
172.3130695
 97
        1
330
3CE
 75
     0
 76
     2
 47
0.775229
 98
        1
 10
0.0
 20
0.0
  0
LWPOLYLINE
  5
3D0
102
{ACAD_REACTORS
330
3D1
102
}
100
AcDbEntity
  8
MST_1_1
 62
    12
100
AcDbPolyline
 90
       10
 70
     1
 43
0.0
 10
255.22041311
 20
165.75210283
 10
255.22041311
 20
174.8386195
 10
255.22041311
 20
174.8386195
 10
259.68824645
 20
174.8386195
 10
259.68824645
 20
174.8386195
 10
259.68824645
 20
165.75210283
 10
259.68824645
 20
165.75210283
 10
255.22041311
 20
165.75210283
 10
255.22041311
 20
165.75210283
 10
255.22041311
 20
165.75210283
  0
HATCH
  5
3D1
100
AcDbEntity
  8
MST_1_1
 62
    12
100
AcDbHatch
 10
0.0
 20
0.0
 30
0.0
210
0.0
220
0.0
230
1.0
  2
SOLID
 70
     1
 71
     1
 91
        1
 92
        7
 72
     0
 73
     1
 93
        4
 10
255.22041311
 20
165.75210283
 10
255.22041311
 20
174.8386195
 10
259.68824645
 20
174.8386195
 10
259.68824645
 20
165.75210283
 97
        1
330
3D0
 75
     0
 76
     2
 47
0.775229
 98
        1
 10
0.0
 20
0.0
  0
LWPOLYLINE
  5
3D2
102
{ACAD_REACTORS
330
3D3
102
}
100
AcDbEntity
  8
MST_1_1
 62
    12
100
AcDbPolyline
 90
      114
 70
     1
 43
0.0
 10
267.43757978
 20
167.8132195
 10
267.40322578
 20
167.86803785
 10
267.37066778
 20
167.9205883
 10
267.33991178
 20
167.97089395
 10
267.31096378
 20
168.0189779
 10
267.28382978
 20
168.06486325
 10
267.25851578
 20
168.1085731
 10
267.23502778
 20
168.15013055
 10
267.21337178
 20
168.1895587
 10
267.19355378
 20
168.22688065
 10
267.17557978
 20
168.2621195
 10
267.17557978
 20
168.2621195
 10
267.15827711
 20
168.29607066
 10
267.14195845
 20
168.32928083
 10
267.12660778
 20
168.36176
 10
267.11220911
 20
168.39351816
 10
267.09874645
 20
168.42456533
 10
267.08620378
 20
168.4549115
 10
267.07456511
 20
168.48456666
 10
267.06381445
 20
168.51354083
 10
267.05393578
 20
168.541844
 10
267.04491311
 20
168.56948616
 10
267.04491311
 20
168.56948616
 10
267.03724878
 20
168.54328218
 10
267.02881845
 20
168.5165183
 10
267.01956611
 20
168.48919161
 10
267.00943578
 20
168.46129923
 10
266.99837145
 20
168.43283825
 10
266.98631711
 20
168.40380576
 10
266.97321678
 20
168.37419888
 10
266.95901445
 20
168.3440147
 10
266.94365411
 20
168.31325031
 10
266.92707978
 20
168.28190283
 10
266.92707978
 20
168.28190283
 10
266.90974345
 20
168.24849685
 10
266.88974911
 20
168.21205896
 10
266.86711878
 20
168.17260428
 10
266.84187445
 20
168.1301479
 10
266.81403811
 20
168.08470491
 10
266.78363178
 20
168.03629043
 10
266.75067745
 20
167.98491955
 10
266.71519711
 20
167.93060736
 10
266.67721278
 20
167.87336898
 10
266.63674645
 20
167.8132195
 10
266.63674645
 20
167.8132195
 10
265.24707978
 20
165.75210283
 10
265.24707978
 20
165.75210283
 10
260.21941311
 20
165.75210283
 10
260.21941311
 20
165.75210283
 10
264.56224645
 20
170.5921195
 10
264.56224645
 20
170.5921195
 10
260.73024645
 20
174.8386195
 10
260.73024645
 20
174.8386195
 10
265.74974645
 20
174.8386195
 10
265.74974645
 20
174.8386195
 10
266.65307978
 20
173.35553616
 10
266.65307978
 20
173.35553616
 10
266.65590578
 20
173.35002308
 10
266.65926778
 20
173.3439255
 10
266.66314178
 20
173.33724591
 10
266.66750378
 20
173.32998683
 10
266.67232978
 20
173.32215075
 10
266.67759578
 20
173.31374016
 10
266.68327778
 20
173.30475758
 10
266.68935178
 20
173.2952055
 10
266.69579378
 20
173.28508641
 10
266.70257978
 20
173.27440283
 10
266.70257978
 20
173.27440283
 10
266.75131511
 20
173.19174991
 10
266.79682245
 20
173.1125015
 10
266.83910378
 20
173.03667308
 10
266.87816111
 20
172.96428016
 10
266.91399645
 20
172.89533825
 10
266.94661178
 20
172.82986283
 10
266.97600911
 20
172.76786941
 10
267.00219045
 20
172.7093735
 10
267.02515778
 20
172.65439058
 10
267.04491311
 20
172.60293616
 10
267.04491311
 20
172.60293616
 10
267.05702678
 20
172.63557946
 10
267.06968245
 20
172.66832856
 10
267.08290211
 20
172.70119726
 10
267.09670778
 20
172.73419936
 10
267.11112145
 20
172.76734866
 10
267.12616511
 20
172.80065896
 10
267.14186078
 20
172.83414406
 10
267.15823045
 20
172.86781776
 10
267.17529611
 20
172.90169386
 10
267.19307978
 20
172.93578616
 10
267.19307978
 20
172.93578616
 10
267.21036611
 20
172.97086851
 10
267.22899045
 20
173.00750896
 10
267.24890078
 20
173.04569761
 10
267.27004511
 20
173.08542456
 10
267.29237145
 20
173.12667991
 10
267.31582778
 20
173.16945376
 10
267.34036211
 20
173.21373621
 10
267.36592245
 20
173.25951736
 10
267.39245678
 20
173.30678731
 10
267.41991311
 20
173.35553616
 10
267.41991311
 20
173.35553616
 10
268.34741311
 20
174.8386195
 10
268.34741311
 20
174.8386195
 10
273.34407978
 20
174.8386195
 10
273.34407978
 20
174.8386195
 10
269.52474645
 20
170.5921195
 10
269.52474645
 20
170.5921195
 10
273.87241311
 20
165.75210283
 10
273.87241311
 20
165.75210283
 10
268.84024645
 20
165.75210283
 10
268.84024645
 20
165.75210283
 10
267.43757978
 20
167.8132195
 10
267.43757978
 20
167.8132195
 10
267.43757978
 20
167.8132195
  0
HATCH
  5
3D3
100
AcDbEntity
  8
MST_1_1
 62
    12
100
AcDbHatch
 10
0.0
 20
0.0
 30
0.0
210
0.0
220
0.0
230
1.0
  2
SOLID
 70
     1
 71
     1
 91
        1
 92
        7
 72
     0
 73
     1
 93
       92
 10
267.43757978
 20
167.8132195
 10
267.40322578
 20
167.86803785
 10
267.37066778
 20
167.9205883
 10
267.33991178
 20
167.97089395
 10
267.31096378
 20
168.0189779
 10
267.28382978
 20
168.06486325
 10
267.25851578
 20
168.1085731
 10
267.23502778
 20
168.15013055
 10
267.21337178
 20
168.1895587
 10
267.19355378
 20
168.22688065
 10
267.17557978
 20
168.2621195
 10
267.15827711
 20
168.29607066
 10
267.14195845
 20
168.32928083
 10
267.12660778
 20
168.36176
 10
267.11220911
 20
168.39351816
 10
267.09874645
 20
168.42456533
 10
267.08620378
 20
168.4549115
 10
267.07456511
 20
168.48456666
 10
267.06381445
 20
168.51354083
 10
267.05393578
 20
168.541844
 10
267.04491311
 20
168.56948616
 10
267.03724878
 20
168.54328218
 10
267.02881845
 20
168.5165183
 10
267.01956611
 20
168.48919161
 10
267.00943578
 20
168.46129923
 10
266.99837145
 20
168.43283825
 10
266.98631711
 20
168.40380576
 10
266.97321678
 20
168.37419888
 10
266.95901445
 20
168.3440147
 10
266.94365411
 20
168.31325031
 10
266.92707978
 20
168.28190283
 10
266.90974345
 20
168.24849685
 10
266.88974911
 20
168.21205896
 10
266.86711878
 20
168.17260428
 10
266.84187445
 20
168.1301479
 10
266.81403811
 20
168.08470491
 10
266.78363178
 20
168.03629043
 10
266.75067745
 20
167.98491955
 10
266.71519711
 20
167.93060736
 10
266.67721278
 20
167.87336898
 10
266.63674645
 20
167.8132195
 10
265.24707978
 20
165.75210283
 10
260.21941311
 20
165.75210283
 10
264.56224645
 20
170.5921195
 10
260.73024645
 20
174.8386195
 10
265.74974645
 20
174.8386195
 10
266.65307978
 20
173.35553616
 10
266.65590578
 20
173.35002308
 10
266.65926778
 20
173.3439255
 10
266.66314178
 20
173.33724591
 10
266.66750378
 20
173.32998683
 10
266.67232978
 20
173.32215075
 10
266.67759578
 20
173.31374016
 10
266.68327778
 20
173.30475758
 10
266.68935178
 20
173.2952055
 10
266.69579378
 20
173.28508641
 10
266.70257978
 20
173.27440283
 10
266.75131511
 20
173.19174991
 10
266.79682245
 20
173.1125015
 10
266.83910378
 20
173.03667308
 10
266.87816111
 20
172.96428016
 10
266.91399645
 20
172.89533825
 10
266.94661178
 20
172.82986283
 10
266.97600911
 20
172.76786941
 10
267.00219045
 20
172.7093735
 10
267.02515778
 20
172.65439058
 10
267.04491311
 20
172.60293616
 10
267.05702678
 20
172.63557946
 10
267.06968245
 20
172.66832856
 10
267.08290211
 20
172.70119726
 10
267.09670778
 20
172.73419936
 10
267.11112145
 20
172.76734866
 10
267.12616511
 20
172.80065896
 10
267.14186078
 20
172.83414406
 10
267.15823045
 20
172.86781776
 10
267.17529611
 20
172.90169386
 10
267.19307978
 20
172.93578616
 10
267.21036611
 20
172.97086851
 10
267.22899045
 20
173.00750896
 10
267.24890078
 20
173.04569761
 10
267.27004511
 20
173.08542456
 10
267.29237145
 20
173.12667991
 10
267.31582778
 20
173.16945376
 10
267.34036211
 20
173.21373621
 10
267.36592245
 20
173.25951736
 10
267.39245678
 20
173.30678731
 10
267.41991311
 20
173.35553616
 10
268.34741311
 20
174.8386195
 10
273.34407978
 20
174.8386195
 10
269.52474645
 20
170.5921195
 10
273.87241311
 20
165.75210283
 10
268.84024645
 20
165.75210283
 97
        1
330
3D2
 75
     0
 76
     2
 47
0.775229
 98
        1
 10
0.0
 20
0.0
  0
LWPOLYLINE
  5
3D4
102
{ACAD_REACTORS
330
3D5
102
}
100
AcDbEntity
  8
MST_1_1
 62
     7
100
AcDbPolyline
 90
       46
 70
     1
 43
0.0
 10
278.18757978
 20
180.9646695
 10
278.30011028
 20
180.955556
 10
278.40702378
 20
180.9291815
 10
278.50685328
 20
180.886995
 10
278.59813178
 20
180.8304455
 10
278.67939228
 20
180.760982
 10
278.74916778
 20
180.6800535
 10
278.80599128
 20
180.589109
 10
278.84839578
 20
180.4895975
 10
278.87491428
 20
180.382968
 10
278.88407978
 20
180.2706695
 10
278.88407978
 20
180.2706695
 10
278.87491428
 20
180.15851583
 10
278.84839578
 20
180.05202016
 10
278.80599128
 20
179.9526305
 10
278.74916778
 20
179.86179483
 10
278.67939228
 20
179.78096116
 10
278.59813178
 20
179.7115775
 10
278.50685328
 20
179.65509183
 10
278.40702378
 20
179.61295216
 10
278.30011028
 20
179.5866065
 10
278.18757978
 20
179.57750283
 10
278.18757978
 20
179.57750283
 10
278.07445895
 20
179.5866065
 10
277.96715311
 20
179.61295216
 10
277.86709728
 20
179.65509183
 10
277.77572645
 20
179.7115775
 10
277.69447561
 20
179.78096116
 10
277.62477978
 20
179.86179483
 10
277.56807395
 20
179.9526305
 10
277.52579311
 20
180.05202016
 10
277.49937228
 20
180.15851583
 10
277.49024645
 20
180.2706695
 10
277.49024645
 20
180.2706695
 10
277.49937228
 20
180.382968
 10
277.52579311
 20
180.4895975
 10
277.56807395
 20
180.589109
 10
277.62477978
 20
180.6800535
 10
277.69447561
 20
180.760982
 10
277.77572645
 20
180.8304455
 10
277.86709728
 20
180.886995
 10
277.96715311
 20
180.9291815
 10
278.07445895
 20
180.955556
 10
278.18757978
 20
180.9646695
 10
278.18757978
 20
180.9646695
 10
278.18757978
 20
180.9646695
  0
HATCH
  5
3D5
100
AcDbEntity
  8
MST_1_1
 62
     7
100
AcDbHatch
 10
0.0
 20
0.0
 30
0.0
210
0.0
220
0.0
230
1.0
  2
SOLID
 70
     1
 71
     1
 91
        1
 92
        7
 72
     0
 73
     1
 93
       40
 10
278.18757978
 20
180.9646695
 10
278.30011028
 20
180.955556
 10
278.40702378
 20
180.9291815
 10
278.50685328
 20
180.886995
 10
278.59813178
 20
180.8304455
 10
278.67939228
 20
180.760982
 10
278.74916778
 20
180.6800535
 10
278.80599128
 20
180.589109
 10
278.84839578
 20
180.4895975
 10
278.87491428
 20
180.382968
 10
278.88407978
 20
180.2706695
 10
278.87491428
 20
180.15851583
 10
278.84839578
 20
180.05202016
 10
278.80599128
 20
179.9526305
 10
278.74916778
 20
179.86179483
 10
278.67939228
 20
179.78096116
 10
278.59813178
 20
179.7115775
 10
278.50685328
 20
179.65509183
 10
278.40702378
 20
179.61295216
 10
278.30011028
 20
179.5866065
 10
278.18757978
 20
179.57750283
 10
278.07445895
 20
179.5866065
 10
277.96715311
 20
179.61295216
 10
277.86709728
 20
179.65509183
 10
277.77572645
 20
179.7115775
 10
277.69447561
 20
179.78096116
 10
277.62477978
 20
179.86179483
 10
277.56807395
 20
179.9526305
 10
277.52579311
 20
180.05202016
 10
277.49937228
 20
180.15851583
 10
277.49024645
 20
180.2706695
 10
277.49937228
 20
180.382968
 10
277.52579311
 20
180.4895975
 10
277.56807395
 20
180.589109
 10
277.62477978
 20
180.6800535
 10
277.69447561
 20
180.760982
 10
277.77572645
 20
180.8304455
 10
277.86709728
 20
180.886995
 10
277.96715311
 20
180.9291815
 10
278.07445895
 20
180.955556
 97
        1
330
3D4
 75
     0
 76
     2
 47
0.775229
 98
        1
 10
0.0
 20
0.0
  0
LWPOLYLINE
  5
3D6
102
{ACAD_REACTORS
330
3D7
102
}
100
AcDbEntity
  8
MST_1_1
 62
    12
100
AcDbPolyline
 90
       29
 70
     1
 43
0.0
 10
277.86791311
 20
180.7526695
 10
277.86791311
 20
179.84600283
 10
277.86791311
 20
179.84600283
 10
278.00207978
 20
179.84600283
 10
278.00207978
 20
179.84600283
 10
278.00207978
 20
180.25300283
 10
278.00207978
 20
180.25300283
 10
278.18041311
 20
180.25300283
 10
278.18041311
 20
180.25300283
 10
278.43974645
 20
179.85200283
 10
278.43974645
 20
179.85200283
 10
278.57591311
 20
179.85200283
 10
278.57591311
 20
179.85200283
 10
278.31707978
 20
180.26033616
 10
278.31707978
 20
180.26033616
 10
278.40566678
 20
180.27875783
 10
278.47533578
 20
180.3189095
 10
278.52579878
 20
180.37522116
 10
278.55676778
 20
180.44212283
 10
278.56795478
 20
180.5140445
 10
278.55907178
 20
180.58541616
 10
278.52983078
 20
180.65066783
 10
278.47994378
 20
180.7042295
 10
278.40912278
 20
180.74053116
 10
278.31707978
 20
180.75400283
 10
278.31707978
 20
180.75400283
 10
277.86791311
 20
180.7526695
 10
277.86791311
 20
180.7526695
 10
277.86791311
 20
180.7526695
  0
HATCH
  5
3D7
100
AcDbEntity
  8
MST_1_1
 62
    12
100
AcDbHatch
 10
0.0
 20
0.0
 30
0.0
210
0.0
220
0.0
230
1.0
  2
SOLID
 70
     1
 71
     1
 91
        1
 92
        7
 72
     0
 73
     1
 93
       18
 10
277.86791311
 20
180.7526695
 10
277.86791311
 20
179.84600283
 10
278.00207978
 20
179.84600283
 10
278.00207978
 20
180.25300283
 10
278.18041311
 20
180.25300283
 10
278.43974645
 20
179.85200283
 10
278.57591311
 20
179.85200283
 10
278.31707978
 20
180.26033616
 10
278.40566678
 20
180.27875783
 10
278.47533578
 20
180.3189095
 10
278.52579878
 20
180.37522116
 10
278.55676778
 20
180.44212283
 10
278.56795478
 20
180.5140445
 10
278.55907178
 20
180.58541616
 10
278.52983078
 20
180.65066783
 10
278.47994378
 20
180.7042295
 10
278.40912278
 20
180.74053116
 10
278.31707978
 20
180.75400283
 97
        1
330
3D6
 75
     0
 76
     2
 47
0.775229
 98
        1
 10
0.0
 20
0.0
  0
LWPOLYLINE
  5
3D8
102
{ACAD_REACTORS
330
3D9
102
}
100
AcDbEntity
  8
MST_1_1
 62
     7
100
AcDbPolyline
 90
       19
 70
     1
 43
0.0
 10
278.00207978
 20
180.64950283
 10
278.00207978
 20
180.35883616
 10
278.00207978
 20
180.35883616
 10
278.30341311
 20
180.3596695
 10
278.30341311
 20
180.3596695
 10
278.35639161
 20
180.37151983
 10
278.39786111
 20
180.39589216
 10
278.42772261
 20
180.4295185
 10
278.44587711
 20
180.46913083
 10
278.45222561
 20
180.51146116
 10
278.44666911
 20
180.5532415
 10
278.42910861
 20
180.59120383
 10
278.39944511
 20
180.62208016
 10
278.35757961
 20
180.6426025
 10
278.30341311
 20
180.64950283
 10
278.30341311
 20
180.64950283
 10
278.00207978
 20
180.64950283
 10
278.00207978
 20
180.64950283
 10
278.00207978
 20
180.64950283
  0
HATCH
  5
3D9
100
AcDbEntity
  8
MST_1_1
 62
     7
100
AcDbHatch
 10
0.0
 20
0.0
 30
0.0
210
0.0
220
0.0
230
1.0
  2
SOLID
 70
     1
 71
     1
 91
        1
 92
        7
 72
     0
 73
     1
 93
       13
 10
278.00207978
 20
180.64950283
 10
278.00207978
 20
180.35883616
 10
278.30341311
 20
180.3596695
 10
278.35639161
 20
180.37151983
 10
278.39786111
 20
180.39589216
 10
278.42772261
 20
180.4295185
 10
278.44587711
 20
180.46913083
 10
278.45222561
 20
180.51146116
 10
278.44666911
 20
180.5532415
 10
278.42910861
 20
180.59120383
 10
278.39944511
 20
180.62208016
 10
278.35757961
 20
180.6426025
 10
278.30341311
 20
180.64950283
 97
        1
330
3D8
 75
     0
 76
     2
 47
0.775229
 98
        1
 10
0.0
 20
0.0
  0
TEXT
  5
3DA
100
AcDbEntity
  8
MST_1_1
 62
     7
100
AcDbText
 10
52.93749597
 20
28.54545025
 30
0.0
 40
5.0
  1
50
  7
ARIAL
 50
89.9999975
 41
0.8
 51
0.0
100
AcDbText
  0
TEXT
  5
3DB
100
AcDbEntity
  8
MST_1_1
 62
     7
100
AcDbText
 10
42.93749597
 20
28.54545025
 30
0.0
 40
5.0
  1
40
  7
ARIAL
 50
89.9999975
 41
0.8
 51
0.0
100
AcDbText
  0
TEXT
  5
3DC
100
AcDbEntity
  8
MST_1_1
 62
     7
100
AcDbText
 10
37.93749597
 20
18.54545025
 30
0.0
 40
5.0
  1
35
  7
ARIAL
 50
89.9999975
 41
0.8
 51
0.0
100
AcDbText
  0
TEXT
  5
3DD
100
AcDbEntity
  8
MST_1_1
 62
     7
100
AcDbText
 10
32.93749597
 20
28.54545025
 30
0.0
 40
5.0
  1
30
  7
ARIAL
 50
89.9999975
 41
0.8
 51
0.0
100
AcDbText
  0
TEXT
  5
3DE
100
AcDbEntity
  8
MST_1_1
 62
     7
100
AcDbText
 10
22.93749597
 20
28.54545025
 30
0.0
 40
5.0
  1
20
  7
ARIAL
 50
89.9999975
 41
0.8
 51
0.0
100
AcDbText
  0
TEXT
  5
3DF
100
AcDbEntity
  8
MST_1_1
 62
     7
100
AcDbText
 10
27.93749597
 20
18.54545025
 30
0.0
 40
5.0
  1
25
  7
ARIAL
 50
89.9999975
 41
0.8
 51
0.0
100
AcDbText
  0
TEXT
  5
3E0
100
AcDbEntity
  8
MST_1_1
 62
     7
100
AcDbText
 10
18.93749597
 20
18.54545025
 30
0.0
 40
5.0
  1
16
  7
ARIAL
 50
89.9999975
 41
0.8
 51
0.0
100
AcDbText
  0
TEXT
  5
3E1
100
AcDbEntity
  8
MST_1_1
 62
     7
100
AcDbText
 10
14.93749597
 20
28.54545025
 30
0.0
 40
5.0
  1
12
  7
ARIAL
 50
89.9999975
 41
0.8
 51
0.0
100
AcDbText
  0
TEXT
  5
3E2
100
AcDbEntity
  8
MST_1_1
 62
     7
100
AcDbText
 10
-74.34408066
 20
6.04545025
 30
0.0
 40
5.0
  1
HECO-FIX-plus SK 3.5x12
  7
ARIAL
 50
0.0
 41
0.8
 51
0.0
100
AcDbText
  0
TEXT
  5
3E3
100
AcDbEntity
  8
MST_1_1
 62
     7
100
AcDbText
 10
-74.34408066
 20
-23.95454975
 30
0.0
 40
5.0
  1
HECO-FIX-plus SK 3.5x16
  7
ARIAL
 50
0.0
 41
0.8
 51
0.0
100
AcDbText
  0
TEXT
  5
3E4
100
AcDbEntity
  8
MST_1_1
 62
     7
100
AcDbText
 10
-74.34408066
 20
-53.95454975
 30
0.0
 40
5.0
  1
HECO-FIX-plus SK 3.5x20
  7
ARIAL
 50
0.0
 41
0.8
 51
0.0
100
AcDbText
  0
TEXT
  5
3E5
100
AcDbEntity
  8
MST_1_1
 62
     7
100
AcDbText
 10
-74.34408066
 20
-83.95454975
 30
0.0
 40
5.0
  1
HECO-FIX-plus SK 3.5x25
  7
ARIAL
 50
0.0
 41
0.8
 51
0.0
100
AcDbText
  0
TEXT
  5
3E6
100
AcDbEntity
  8
MST_1_1
 62
     7
100
AcDbText
 10
-74.34408066
 20
-113.95454975
 30
0.0
 40
5.0
  1
HECO-FIX-plus SK 3.5x30
  7
ARIAL
 50
0.0
 41
0.8
 51
0.0
100
AcDbText
  0
TEXT
  5
3E7
100
AcDbEntity
  8
MST_1_1
 62
     7
100
AcDbText
 10
-74.34408066
 20
-143.95454975
 30
0.0
 40
5.0
  1
HECO-FIX-plus SK 3.5x35
  7
ARIAL
 50
0.0
 41
0.8
 51
0.0
100
AcDbText
  0
TEXT
  5
3E8
100
AcDbEntity
  8
MST_1_1
 62
     7
100
AcDbText
 10
-74.34408066
 20
-173.95454975
 30
0.0
 40
5.0
  1
HECO-FIX-plus SK 3.5x40
  7
ARIAL
 50
0.0
 41
0.8
 51
0.0
100
AcDbText
  0
TEXT
  5
3E9
100
AcDbEntity
  8
MST_1_1
 62
     7
100
AcDbText
 10
-74.34408066
 20
-203.95454975
 30
0.0
 40
5.0
  1
HECO-FIX-plus SK 3.5x50
  7
ARIAL
 50
0.0
 41
0.8
 51
0.0
100
AcDbText
  0
TEXT
  5
3EA
100
AcDbEntity
  8
MST_1_1
 62
     7
100
AcDbText
 10
-125.53138337
 20
6.04545025
 30
0.0
 40
5.0
  1
T-Drive T15
  7
ARIAL
 50
0.0
 41
0.8
 51
0.0
100
AcDbText
  0
TEXT
  5
3EB
100
AcDbEntity
  8
MST_1_1
 62
     7
100
AcDbText
 10
-125.53138337
 20
-23.95454975
 30
0.0
 40
5.0
  1
T-Drive T15
  7
ARIAL
 50
0.0
 41
0.8
 51
0.0
100
AcDbText
  0
TEXT
  5
3EC
100
AcDbEntity
  8
MST_1_1
 62
     7
100
AcDbText
 10
-125.53138337
 20
-53.95454975
 30
0.0
 40
5.0
  1
T-Drive T15
  7
ARIAL
 50
0.0
 41
0.8
 51
0.0
100
AcDbText
  0
TEXT
  5
3ED
100
AcDbEntity
  8
MST_1_1
 62
     7
100
AcDbText
 10
-125.53138337
 20
-83.95454975
 30
0.0
 40
5.0
  1
T-Drive T15
  7
ARIAL
 50
0.0
 41
0.8
 51
0.0
100
AcDbText
  0
TEXT
  5
3EE
100
AcDbEntity
  8
MST_1_1
 62
     7
100
AcDbText
 10
-125.53138337
 20
-113.95454975
 30
0.0
 40
5.0
  1
T-Drive T15
  7
ARIAL
 50
0.0
 41
0.8
 51
0.0
100
AcDbText
  0
TEXT
  5
3EF
100
AcDbEntity
  8
MST_1_1
 62
     7
100
AcDbText
 10
-125.53138337
 20
-143.95454975
 30
0.0
 40
5.0
  1
T-Drive T15
  7
ARIAL
 50
0.0
 41
0.8
 51
0.0
100
AcDbText
  0
TEXT
  5
3F0
100
AcDbEntity
  8
MST_1_1
 62
     7
100
AcDbText
 10
-125.53138337
 20
-173.95454975
 30
0.0
 40
5.0
  1
T-Drive T15
  7
ARIAL
 50
0.0
 41
0.8
 51
0.0
100
AcDbText
  0
TEXT
  5
3F1
100
AcDbEntity
  8
MST_1_1
 62
     7
100
AcDbText
 10
-125.53138337
 20
-203.95454975
 30
0.0
 40
5.0
  1
T-Drive T15
  7
ARIAL
 50
0.0
 41
0.8
 51
0.0
100
AcDbText
  0
ENDSEC
  0
SECTION
  2
OBJECTS
  0
DICTIONARY
  5
1
100
AcDbDictionary
  3
ACAD_GROUP
350
2
  3
ACAD_MLINESTYLE
350
3
  0
DICTIONARY
  5
2
102
{CDWK_REACTORS
330
1
102
}
100
AcDbDictionary
  0
DICTIONARY
  5
3
102
{CDWK_REACTORS
330
1
102
}
100
AcDbDictionary
  3
STANDARD
350
4
  0
MLINESTYLE
  5
4
102
{CDWK_REACTORS
330
3
102
}
100
AcDbMlineStyle
  2
STANDARD
 70
     0
  3

 62
     0
 51
90.0
 52
90.0
 71
     2
 49
0.5
 62
   256
  6
BYLAYER
 49
-0.5
 62
   256
  6
BYLAYER
  0
ENDSEC
  0
EOF
