  0
SECTION
  2
HEADER
  9
$ACADVER
  1
AC1012
  9
$DWGCODEPAGE
  3
ANSI_1252
  9
$INSBASE
 10
0.0
 20
0.0
 30
0.0
  9
$EXTMIN
 10
-178.68866287
 20
-248.88262852
  9
$EXTMAX
 10
414.32218896
 20
182.19906082
  9
$LIMMIN
 10
-178.68866287
 20
-248.88262852
  9
$LIMMAX
 10
414.32218896
 20
182.19906082
  9
$ORTHOMODE
 70
     0
  9
$REGENMODE
 70
     1
  9
$FILLMODE
 70
     1
  9
$QTEXTMODE
 70
     0
  9
$MIRRTEXT
 70
     1
  9
$DRAGMODE
 70
     2
  9
$LTSCALE
 40
1.0
  9
$OSMODE
 70
     0
  9
$ATTMODE
 70
     1
  9
$TEXTSIZE
 40
3.5
  9
$TRACEWID
 40
1.0
  9
$TEXTSTYLE
  7
STANDARD
  9
$CLAYER
  8
0
  9
$CELTYPE
  6
BYLAYER
  9
$CECOLOR
 62
   256
  9
$DIMSCALE
 40
1.0
  9
$DIMASZ
 40
2.0
  9
$DIMEXO
 40
5.0
  9
$DIMDLI
 40
10.0
  9
$DIMRND
 40
0.0
  9
$DIMDLE
 40
2.0
  9
$DIMEXE
 40
2.0
  9
$DIMTP
 40
0.0
  9
$DIMTM
 40
0.0
  9
$DIMTXT
 40
2.5
  9
$DIMCEN
 40
1.5
  9
$DIMTSZ
 40
0.0
  9
$DIMTOL
 70
     0
  9
$DIMLIM
 70
     0
  9
$DIMTIH
 70
     1
  9
$DIMTOH
 70
     0
  9
$DIMSE1
 70
     0
  9
$DIMSE2
 70
     0
  9
$DIMTAD
 70
     1
  9
$DIMZIN
 70
     8
  9
$DIMBLK
  1

  9
$DIMASO
 70
     1
  9
$DIMSHO
 70
     1
  9
$DIMPOST
  1

  9
$DIMAPOST
  1

  9
$DIMALT
 70
     0
  9
$DIMALTD
 70
     2
  9
$DIMALTF
 40
25.4
  9
$DIMLFAC
 40
1.0
  9
$DIMTOFL
 70
     0
  9
$DIMTVP
 40
0.0
  9
$DIMTIX
 70
     0
  9
$DIMSOXD
 70
     0
  9
$DIMSAH
 70
     0
  9
$DIMBLK1
  1

  9
$DIMBLK2
  1

  9
$DIMSTYLE
  2
*UNNAMED
  9
$DIMCLRD
 70
     9
  9
$DIMCLRE
 70
     9
  9
$DIMCLRT
 70
     7
  9
$DIMTFAC
 40
1.0
  9
$DIMGAP
 40
0.09
  9
$DIMUNIT
 70
     2
  9
$LUNITS
 70
     2
  9
$LUPREC
 70
     6
  9
$AXISMODE
 70
     0
  9
$AXISUNIT
 10
0.0
 20
0.0
  9
$SKETCHINC
 40
0.1
  9
$FILLETRAD
 40
0.0
  9
$AUNITS
 70
     0
  9
$AUPREC
 70
     0
  9
$MENU
  1
ACAD
  9
$ELEVATION
 40
0.0
  9
$PELEVATION
 40
0.0
  9
$THICKNESS
 40
0.0
  9
$LIMCHECK
 70
     0
  9
$BLIPMODE
 70
     1
  9
$CHAMFERA
 40
0.0
  9
$CHAMFERB
 40
0.0
  9
$SKPOLY
 70
     1
  9
$TDCREATE
 40
2456119.0000000000
  9
$TDUPDATE
 40
2456119.0000000000
  9
$TDINDWG
 40
0.0
  9
$TDUSRTIMER
 40
0.0
  9
$USRTIMER
 70
     1
  9
$ANGBASE
 50
0.0
  9
$ANGDIR
 70
     0
  9
$PDMODE
 70
     0
  9
$PDSIZE
 40
0.0
  9
$PLINEWID
 40
0.0
  9
$COORDS
 70
     2
  9
$SPLFRAME
 70
     0
  9
$SPLINETYPE
 70
     6
  9
$SPLINESEGS
 70
     8
  9
$ATTDIA
 70
     1
  9
$ATTREQ
 70
     1
  9
$HANDLING
 70
     1
  9
$HANDSEED
  5
     3E5
  9
$SURFTAB1
 70
     6
  9
$SURFTAB2
 70
     6
  9
$SURFTYPE
 70
     6
  9
$SURFU
 70
     6
  9
$SURFV
 70
     6
  9
$UCSNAME
  2

  9
$UCSORG
 10
0.0
 20
0.0
 30
0.0
  9
$UCSXDIR
 10
1.0
 20
0.0
 30
0.0
  9
$UCSYDIR
 10
0.0
 20
1.0
 30
0.0
  9
$PUCSNAME
  2

  9
$PUCSORG
 10
0.0
 20
0.0
 30
0.0
  9
$PUCSXDIR
 10
1.0
 20
0.0
 30
0.0
  9
$PUCSYDIR
 10
0.0
 20
1.0
 30
0.0
  9
$USERI1
 70
     0
  9
$USERI2
 70
     0
  9
$USERI3
 70
     0
  9
$USERI4
 70
     0
  9
$USERI5
 70
     0
  9
$USERR1
 40
0.0
  9
$USERR2
 40
0.0
  9
$USERR3
 40
0.0
  9
$USERR4
 40
0.0
  9
$USERR5
 40
0.0
  9
$WORLDVIEW
 70
     1
  9
$SHADEDGE
 70
     3
  9
$SHADEDIF
 70
    70
  9
$TILEMODE
 70
     1
  9
$MAXACTVP
 70
    16
  9
$PINSBASE
 10
0.0
 20
0.0
 30
0.0
  9
$PLIMCHECK
 70
     0
  9
$PEXTMIN
 10
1.0000000000000E+20
 20
1.0000000000000E+20
 30
1.0000000000000E+20
  9
$PEXTMAX
 10
-1.0000000000000E+20
 20
-1.0000000000000E+20
 30
-1.0000000000000E+20
  9
$PLIMMIN
 10
0.0
 20
0.0
  9
$UNITMODE
 70
     0
  9
$VISRETAIN
 70
     0
  9
$MEASUREMENT
 70
     1
  0
ENDSEC
  0
SECTION
  2
TABLES
  0
TABLE
  2
VPORT
  5
38
100
AcDbSymbolTable
 70
     1
  0
ENDTAB
  0
TABLE
  2
STYLE
  5
39
100
AcDbSymbolTable
 70
     3
  0
STYLE
  5
3A
100
AcDbSymbolTableRecord
100
AcDbTextStyleTableRecord
  2
STANDARD
 70
     0
 40
0.0
 41
1.0
 50
0.0
 71
     0
 42
3.5
  3
MONOTXT
  4

  0
STYLE
  5
3B
100
AcDbSymbolTableRecord
100
AcDbTextStyleTableRecord
  2
CADWORK1
 70
     0
 40
0.0
 41
1.0
 50
0.0
 71
     0
 42
3.5
  3
MONOTXT
  4

  0
STYLE
  5
3C
100
AcDbSymbolTableRecord
100
AcDbTextStyleTableRecord
  2
MONOTXT
 70
     0
 40
0.0
 41
1.0
 50
0.0
 71
     0
 42
3.5
  3
MONOTXT
  4

  0
STYLE
  5
3D
100
AcDbSymbolTableRecord
100
AcDbTextStyleTableRecord
  2
ARIAL
 70
     0
 40
0.0
 41
1.0
 50
0.0
 71
     0
 42
3.5
  3

  4

1001
ACAD
1000
Arial
1071
        0
  0
ENDTAB
  0
TABLE
  2
LTYPE
  5
3E
100
AcDbSymbolTable
 70
    12
  0
LTYPE
  5
3F
100
AcDbSymbolTableRecord
100
AcDbLinetypeTableRecord
  2
BYBLOCK
 70
    64
  3

 72
    65
 73
     0
 40
0.0
  0
LTYPE
  5
40
100
AcDbSymbolTableRecord
100
AcDbLinetypeTableRecord
  2
BYLAYER
 70
    64
  3

 72
    65
 73
     0
 40
0.0
  0
LTYPE
  5
41
100
AcDbSymbolTableRecord
100
AcDbLinetypeTableRecord
  2
CONTINUOUS
 70
    64
  3
Solid line
 72
    65
 73
     0
 40
0.0
  0
LTYPE
  5
42
100
AcDbSymbolTableRecord
100
AcDbLinetypeTableRecord
  2
DOT
 70
    64
  3
. . . . . . . . . . . . . . . . . . . . . . . .
 72
    65
 73
     2
 40
2.5
 49
0.0
 74
     0
 49
-2.5
 74
     0
  0
LTYPE
  5
43
100
AcDbSymbolTableRecord
100
AcDbLinetypeTableRecord
  2
DASHED
 70
    64
  3
__ __ __ __ __ __ __ __ __ __ __ __ __ __ __ __
 72
    65
 73
     2
 40
7.5
 49
5.0
 74
     0
 49
-2.5
 74
     0
  0
LTYPE
  5
44
100
AcDbSymbolTableRecord
100
AcDbLinetypeTableRecord
  2
BORDER
 70
    64
  3
 __ __ . __ __ . __ __ . __ __ . __ __ . __ __ .
 72
    65
 73
     6
 40
17.0
 49
5.0
 74
     0
 49
-2.0
 74
     0
 49
5.0
 74
     0
 49
-2.0
 74
     0
 49
1.0
 74
     0
 49
-2.0
 74
     0
  0
LTYPE
  5
45
100
AcDbSymbolTableRecord
100
AcDbLinetypeTableRecord
  2
DAL
 70
    64
  3
Solid line (for MAPS)
 72
    65
 73
     0
 40
0.0
  0
LTYPE
  5
46
100
AcDbSymbolTableRecord
100
AcDbLinetypeTableRecord
  2
MUR
 70
    64
  3
Solid line (for MAPS)
 72
    65
 73
     0
 40
0.0
  0
LTYPE
  5
47
100
AcDbSymbolTableRecord
100
AcDbLinetypeTableRecord
  2
SOM
 70
    64
  3
Solid line (for MAPS)
 72
    65
 73
     0
 40
0.0
  0
LTYPE
  5
48
100
AcDbSymbolTableRecord
100
AcDbLinetypeTableRecord
  2
COL
 70
    64
  3
Solid line (for MAPS)
 72
    65
 73
     0
 40
0.0
  0
LTYPE
  5
49
100
AcDbSymbolTableRecord
100
AcDbLinetypeTableRecord
  2
LGN
 70
    64
  3
Solid line (for MAPS)
 72
    65
 73
     0
 40
0.0
  0
LTYPE
  5
4A
100
AcDbSymbolTableRecord
100
AcDbLinetypeTableRecord
  2
PNT
 70
    64
  3
Solid line (for MAPS)
 72
    65
 73
     0
 40
0.0
  0
ENDTAB
  0
TABLE
  2
LAYER
  5
4B
100
AcDbSymbolTable
 70
     1
  0
LAYER
  5
4C
100
AcDbSymbolTableRecord
100
AcDbLayerTableRecord
  2
0
 70
     0
 62
     1
  6
CONTINUOUS
  0
LAYER
  5
4D
100
AcDbSymbolTableRecord
100
AcDbLayerTableRecord
  2
MST_1_1
 70
     0
 62
     7
  6
CONTINUOUS
  0
ENDTAB
  0
TABLE
  2
VIEW
  5
4E
100
AcDbSymbolTable
 70
     0
  0
ENDTAB
  0
TABLE
  2
UCS
  5
4F
100
AcDbSymbolTable
 70
     0
  0
ENDTAB
  0
TABLE
  2
APPID
  5
50
100
AcDbSymbolTable
 70
     1
  0
APPID
  5
51
100
AcDbSymbolTableRecord
100
AcDbRegAppTableRecord
  2
ACAD
 70
     0
  0
ENDTAB
  0
TABLE
  2
DIMSTYLE
  5
52
100
AcDbSymbolTable
 70
     0
  0
ENDTAB
  0
TABLE
  2
BLOCK_RECORD
  5
53
100
AcDbSymbolTable
 70
     0
  0
BLOCK_RECORD
  5
54
100
AcDbSymbolTableRecord
100
AcDbBlockTableRecord
  2
*MODEL_SPACE
  0
BLOCK_RECORD
  5
55
100
AcDbSymbolTableRecord
100
AcDbBlockTableRecord
  2
*PAPER_SPACE
  0
BLOCK_RECORD
  5
56
100
AcDbSymbolTableRecord
100
AcDbBlockTableRecord
  2
CDWK_EXTR_0
  0
BLOCK_RECORD
  5
57
100
AcDbSymbolTableRecord
100
AcDbBlockTableRecord
  2
CDWK_EXTR_1D
  0
BLOCK_RECORD
  5
58
100
AcDbSymbolTableRecord
100
AcDbBlockTableRecord
  2
CDWK_EXTR_1G
  0
BLOCK_RECORD
  5
59
100
AcDbSymbolTableRecord
100
AcDbBlockTableRecord
  2
CDWK_EXTR_2
  0
BLOCK_RECORD
  5
5A
100
AcDbSymbolTableRecord
100
AcDbBlockTableRecord
  2
CDWK_EXTR_3
  0
BLOCK_RECORD
  5
5B
100
AcDbSymbolTableRecord
100
AcDbBlockTableRecord
  2
CDWK_EXTR_4
  0
BLOCK_RECORD
  5
5C
100
AcDbSymbolTableRecord
100
AcDbBlockTableRecord
  2
CDWK_PTTYP0
  0
ENDTAB
  0
ENDSEC
  0
SECTION
  2
BLOCKS
  0
BLOCK
  5
5D
100
AcDbEntity
  8
0
100
AcDbBlockBegin
  2
*MODEL_SPACE
 70
     0
 10
0.0
 20
0.0
 30
0.0
  3
*MODEL_SPACE
  1

  0
ENDBLK
  5
5E
100
AcDbEntity
100
AcDbBlockEnd
  0
BLOCK
  5
5F
100
AcDbEntity
  8
0
100
AcDbBlockBegin
  2
*PAPER_SPACE
 70
     0
 10
0.0
 20
0.0
 30
0.0
  3
*PAPER_SPACE
  1

  0
ENDBLK
  5
60
100
AcDbEntity
100
AcDbBlockEnd
  0
BLOCK
  5
61
100
AcDbEntity
  8
0
100
AcDbBlockBegin
  2
CDWK_EXTR_0
 70
     0
 10
0.0
 20
0.0
 30
0.0
  3
CDWK_EXTR_0
  1

  4
Cadwork line-extremity
  0
LINE
  5
62
100
AcDbEntity
  8
0
 62
     0
100
AcDbLine
 10
0.0
 20
0.0
 30
0.0
 11
2.0
 21
0.5
 31
0.0
  0
LINE
  5
63
100
AcDbEntity
  8
0
 62
     0
100
AcDbLine
 10
0.0
 20
0.0
 30
0.0
 11
2.0
 21
-0.5
 31
0.0
  0
LINE
  5
64
100
AcDbEntity
  8
0
 62
     0
100
AcDbLine
 10
2.0
 20
0.5
 30
0.0
 11
2.0
 21
-0.5
 31
0.0
  0
ENDBLK
  5
65
100
AcDbEntity
100
AcDbBlockEnd
  0
BLOCK
  5
66
100
AcDbEntity
  8
0
100
AcDbBlockBegin
  2
CDWK_EXTR_1D
 70
     0
 10
0.0
 20
0.0
 30
0.0
  3
CDWK_EXTR_1D
  1

  4
Cadwork line-extremity
  0
LINE
  5
67
100
AcDbEntity
  8
0
 62
     0
100
AcDbLine
 10
0.0
 20
0.0
 30
0.0
 11
0.0
 21
1.0
 31
0.0
  0
LINE
  5
68
100
AcDbEntity
  8
0
 62
     0
100
AcDbLine
 10
0.0
 20
1.0
 30
0.0
 11
0.5
 21
1.5
 31
0.0
  0
LINE
  5
69
100
AcDbEntity
  8
0
 62
     0
100
AcDbLine
 10
0.5
 20
1.5
 30
0.0
 11
1.5
 21
1.5
 31
0.0
  0
ENDBLK
  5
6A
100
AcDbEntity
100
AcDbBlockEnd
  0
BLOCK
  5
6B
100
AcDbEntity
  8
0
100
AcDbBlockBegin
  2
CDWK_EXTR_1G
 70
     0
 10
0.0
 20
0.0
 30
0.0
  3
CDWK_EXTR_1G
  1

  4
Cadwork line-extremity
  0
LINE
  5
6C
100
AcDbEntity
  8
0
 62
     0
100
AcDbLine
 10
0.0
 20
0.0
 30
0.0
 11
0.0
 21
-1.0
 31
0.0
  0
LINE
  5
6D
100
AcDbEntity
  8
0
 62
     0
100
AcDbLine
 10
0.0
 20
-1.0
 30
0.0
 11
0.5
 21
-1.5
 31
0.0
  0
LINE
  5
6E
100
AcDbEntity
  8
0
 62
     0
100
AcDbLine
 10
0.5
 20
-1.5
 30
0.0
 11
1.5
 21
-1.5
 31
0.0
  0
ENDBLK
  5
6F
100
AcDbEntity
100
AcDbBlockEnd
  0
BLOCK
  5
70
100
AcDbEntity
  8
0
100
AcDbBlockBegin
  2
CDWK_EXTR_2
 70
     0
 10
0.0
 20
0.0
 30
0.0
  3
CDWK_EXTR_2
  1

  4
Cadwork line-extremity
  0
SOLID
  5
71
100
AcDbEntity
  8
0
 62
     0
100
AcDbTrace
 10
0.0
 20
0.0
 11
2.0
 21
0.5
 12
2.0
 22
-0.5
 13
2.0
 23
-0.5
  0
ENDBLK
  5
72
100
AcDbEntity
100
AcDbBlockEnd
  0
BLOCK
  5
73
100
AcDbEntity
  8
0
100
AcDbBlockBegin
  2
CDWK_EXTR_3
 70
     0
 10
0.0
 20
0.0
 30
0.0
  3
CDWK_EXTR_3
  1

  4
Cadwork line-extremity
  0
SOLID
  5
74
100
AcDbEntity
  8
0
 62
     0
100
AcDbTrace
 10
0.0
 20
0.0
 11
2.0
 21
0.5
 12
2.0
 22
-0.5
 13
2.0
 23
-0.5
  0
LINE
  5
75
100
AcDbEntity
  8
0
 62
     0
100
AcDbLine
 10
0.0
 20
1.0
 30
0.0
 11
0.0
 21
-1.0
 31
0.0
  0
ENDBLK
  5
76
100
AcDbEntity
100
AcDbBlockEnd
  0
BLOCK
  5
77
100
AcDbEntity
  8
0
100
AcDbBlockBegin
  2
CDWK_EXTR_4
 70
     0
 10
0.0
 20
0.0
 30
0.0
  3
CDWK_EXTR_4
  1

  4
Cadwork line-extremity
  0
POLYLINE
  5
78
100
AcDbEntity
  8
0
 62
     0
100
AcDb2dPolyline
 70
     1
 66
     1
 10
0.0
 20
0.0
 30
0.0
 40
0.5
 41
0.5
  0
VERTEX
  5
79
100
AcDbEntity
  8
0
100
AcDbVertex
100
AcDb2dVertex
 10
-0.25
 20
0.0
 30
0.0
 42
1.0
  0
VERTEX
  5
7A
100
AcDbEntity
  8
0
100
AcDbVertex
100
AcDb2dVertex
 10
0.25
 20
0.0
 30
0.0
 42
1.0
  0
SEQEND
  5
7B
100
AcDbEntity
  0
ENDBLK
  5
7C
100
AcDbEntity
100
AcDbBlockEnd
  0
BLOCK
  5
7D
100
AcDbEntity
  8
0
100
AcDbBlockBegin
  2
CDWK_PTTYP0
 70
     0
 10
0.0
 20
0.0
 30
0.0
  3
CDWK_PTTYP0
  1

  4
Cadwork point
  0
POINT
  5
7E
100
AcDbEntity
  8
0
 62
     0
100
AcDbPoint
 10
0.0
 20
0.0
 30
0.0
  0
ENDBLK
  5
7F
100
AcDbEntity
100
AcDbBlockEnd
  0
ENDSEC
  0
SECTION
  2
ENTITIES
  0
LINE
  5
80
100
AcDbEntity
  8
MST_1_1
 62
     7
  6
DASHED
100
AcDbLine
 10
-2.06250403
 20
28.54545025
 30
0.0
 11
-2.06250403
 21
-216.45454975
 31
0.0
  0
LINE
  5
81
100
AcDbEntity
  8
MST_1_1
 62
     7
  6
DASHED
100
AcDbLine
 10
47.93749597
 20
28.54545025
 30
0.0
 11
47.93749597
 21
-216.45454975
 31
0.0
  0
LINE
  5
82
100
AcDbEntity
  8
MST_1_1
 62
     7
  6
DASHED
100
AcDbLine
 10
37.93749597
 20
28.54545025
 30
0.0
 11
37.93749597
 21
-186.45454975
 31
0.0
  0
LINE
  5
83
100
AcDbEntity
  8
MST_1_1
 62
     7
  6
DASHED
100
AcDbLine
 10
32.93749597
 20
18.54545025
 30
0.0
 11
32.93749597
 21
-156.45454975
 31
0.0
  0
LINE
  5
84
100
AcDbEntity
  8
MST_1_1
 62
     7
  6
DASHED
100
AcDbLine
 10
27.93749597
 20
28.54545025
 30
0.0
 11
27.93749597
 21
-126.45454975
 31
0.0
  0
LWPOLYLINE
  5
85
100
AcDbEntity
  8
MST_1_1
 62
     1
  6
BORDER
100
AcDbPolyline
 90
        3
 70
     0
 43
0.0
 10
22.93749597
 20
-81.45454975
 10
-2.06250403
 20
-81.45454975
 10
-7.06250403
 20
-81.45454975
  0
LINE
  5
86
100
AcDbEntity
  8
MST_1_1
 62
   137
  6
CONTINUOUS
100
AcDbLine
 10
-2.06250403
 20
-81.45454975
 30
0.0
 11
-2.06250403
 21
-77.95454975
 31
0.0
  0
LINE
  5
87
100
AcDbEntity
  8
MST_1_1
 62
   137
  6
CONTINUOUS
100
AcDbLine
 10
-2.06250403
 20
-77.95454975
 30
0.0
 11
-1.97500406
 21
-77.95454975
 31
0.0
  0
LWPOLYLINE
  5
88
100
AcDbEntity
  8
MST_1_1
 62
   137
  6
CONTINUOUS
100
AcDbPolyline
 90
        6
 70
     0
 43
0.0
 38
2500.0
 10
1.6926037
 20
-79.70454963
 10
1.53749597
 20
-80.37454975
 10
2.84888413
 20
-83.20454975
 10
3.00399192
 20
-82.53454975
 10
1.6926037
 20
-79.70454963
 10
2.84888413
 20
-83.20454975
  0
LINE
  5
89
100
AcDbEntity
  8
MST_1_1
 62
   137
  6
CONTINUOUS
100
AcDbLine
 10
0.03749597
 20
-80.37454975
 30
2500.0
 11
1.53749597
 21
-80.37454975
 31
2500.0
  0
LWPOLYLINE
  5
8A
100
AcDbEntity
  8
MST_1_1
 62
   137
  6
CONTINUOUS
100
AcDbPolyline
 90
        4
 70
     0
 43
0.0
 38
2500.0
 10
0.53841414
 20
-82.53454975
 10
0.84888413
 20
-83.20454975
 10
1.00399192
 20
-82.53454975
 10
0.7713414
 20
-82.03248561
  0
LINE
  5
8B
100
AcDbEntity
  8
MST_1_1
 62
   137
  6
CONTINUOUS
100
AcDbLine
 10
0.59047038
 20
-82.42234489
 30
2500.0
 11
0.84888413
 21
-83.20454975
 31
2500.0
  0
LINE
  5
8C
100
AcDbEntity
  8
MST_1_1
 62
   137
  6
CONTINUOUS
100
AcDbLine
 10
0.53841414
 20
-82.53454975
 30
2500.0
 11
0.7713414
 21
-82.03248561
 31
2500.0
  0
LINE
  5
8D
100
AcDbEntity
  8
MST_1_1
 62
   137
  6
CONTINUOUS
100
AcDbLine
 10
2.53841414
 20
-82.53454975
 30
2500.0
 11
1.00399192
 21
-82.53454975
 31
2500.0
  0
LINE
  5
8E
100
AcDbEntity
  8
MST_1_1
 62
   137
  6
CONTINUOUS
100
AcDbLine
 10
0.53841414
 20
-82.53454975
 30
2500.0
 11
0.03749597
 21
-82.53454975
 31
2500.0
  0
LINE
  5
8F
100
AcDbEntity
  8
MST_1_1
 62
     7
  6
DASHED
100
AcDbLine
 10
22.93749597
 20
18.54545025
 30
0.0
 11
22.93749597
 21
-96.45454975
 31
0.0
  0
LINE
  5
90
100
AcDbEntity
  8
MST_1_1
 62
     7
  6
DASHED
100
AcDbLine
 10
17.93749597
 20
28.54545025
 30
0.0
 11
17.93749597
 21
-66.45454975
 31
0.0
  0
LINE
  5
91
100
AcDbEntity
  8
MST_1_1
 62
     7
  6
DASHED
100
AcDbLine
 10
13.93749597
 20
18.54545025
 30
0.0
 11
13.93749597
 21
-36.45454975
 31
0.0
  0
LINE
  5
92
100
AcDbEntity
  8
MST_1_1
 62
     7
  6
DASHED
100
AcDbLine
 10
9.93749597
 20
28.54545025
 30
0.0
 11
9.93749597
 21
-6.45454975
 31
0.0
  0
LINE
  5
93
100
AcDbEntity
  8
MST_1_1
 62
   137
  6
CONTINUOUS
100
AcDbLine
 10
-1.97500406
 20
-77.95454975
 30
0.0
 11
0.03749597
 21
-80.37454975
 31
0.0
  0
LINE
  5
94
100
AcDbEntity
  8
MST_1_1
 62
   137
  6
CONTINUOUS
100
AcDbLine
 10
0.03749597
 20
-82.53454975
 30
0.0
 11
-1.97500406
 21
-84.95454975
 31
0.0
  0
LINE
  5
95
100
AcDbEntity
  8
MST_1_1
 62
   137
  6
CONTINUOUS
100
AcDbLine
 10
-1.97500406
 20
-84.95454975
 30
0.0
 11
-2.06250403
 21
-84.95454975
 31
0.0
  0
LINE
  5
96
100
AcDbEntity
  8
MST_1_1
 62
   137
  6
CONTINUOUS
100
AcDbLine
 10
-2.06250403
 20
-84.95454975
 30
0.0
 11
-2.06250403
 21
-81.45454975
 31
0.0
  0
LWPOLYLINE
  5
97
100
AcDbEntity
  8
MST_1_1
 62
   137
  6
CONTINUOUS
100
AcDbPolyline
 90
        6
 70
     0
 43
0.0
 38
2500.0
 10
3.6926037
 20
-79.70454963
 10
3.53749597
 20
-80.37454975
 10
4.84888413
 20
-83.20454975
 10
5.00399192
 20
-82.53454975
 10
3.6926037
 20
-79.70454963
 10
4.84888413
 20
-83.20454975
  0
LWPOLYLINE
  5
98
100
AcDbEntity
  8
MST_1_1
 62
   137
  6
CONTINUOUS
100
AcDbPolyline
 90
        6
 70
     0
 43
0.0
 38
2500.0
 10
5.6926037
 20
-79.70454963
 10
5.53749597
 20
-80.37454975
 10
6.84888413
 20
-83.20454975
 10
7.00399192
 20
-82.53454975
 10
5.6926037
 20
-79.70454963
 10
6.84888413
 20
-83.20454975
  0
LWPOLYLINE
  5
99
100
AcDbEntity
  8
MST_1_1
 62
   137
  6
CONTINUOUS
100
AcDbPolyline
 90
        6
 70
     0
 43
0.0
 38
2500.0
 10
7.6926037
 20
-79.70454963
 10
7.53749597
 20
-80.37454975
 10
8.84888413
 20
-83.20454975
 10
9.00399192
 20
-82.53454975
 10
7.6926037
 20
-79.70454963
 10
8.84888413
 20
-83.20454975
  0
LWPOLYLINE
  5
9A
100
AcDbEntity
  8
MST_1_1
 62
   137
  6
CONTINUOUS
100
AcDbPolyline
 90
        6
 70
     0
 43
0.0
 38
2500.0
 10
9.6926037
 20
-79.70454963
 10
9.53749597
 20
-80.37454975
 10
10.84888413
 20
-83.20454975
 10
11.00399192
 20
-82.53454975
 10
9.6926037
 20
-79.70454963
 10
10.84888413
 20
-83.20454975
  0
LWPOLYLINE
  5
9B
100
AcDbEntity
  8
MST_1_1
 62
   137
  6
CONTINUOUS
100
AcDbPolyline
 90
        6
 70
     0
 43
0.0
 38
2500.0
 10
11.6926037
 20
-79.70454963
 10
11.53749597
 20
-80.37454975
 10
12.84888413
 20
-83.20454975
 10
13.00399192
 20
-82.53454975
 10
11.6926037
 20
-79.70454963
 10
12.84888413
 20
-83.20454975
  0
LWPOLYLINE
  5
9C
100
AcDbEntity
  8
MST_1_1
 62
   137
  6
CONTINUOUS
100
AcDbPolyline
 90
        6
 70
     0
 43
0.0
 38
2500.0
 10
13.6926037
 20
-79.70454963
 10
13.53749597
 20
-80.37454975
 10
14.84888413
 20
-83.20454975
 10
15.00399192
 20
-82.53454975
 10
13.6926037
 20
-79.70454963
 10
14.84888413
 20
-83.20454975
  0
LWPOLYLINE
  5
9D
100
AcDbEntity
  8
MST_1_1
 62
   137
  6
CONTINUOUS
100
AcDbPolyline
 90
        6
 70
     0
 43
0.0
 38
2500.0
 10
15.6926037
 20
-79.70454963
 10
15.53749597
 20
-80.37454975
 10
16.84888413
 20
-83.20454975
 10
16.98035934
 20
-82.48355021
 10
15.6926037
 20
-79.70454963
 10
16.84888413
 20
-83.20454975
  0
LWPOLYLINE
  5
9E
100
AcDbEntity
  8
MST_1_1
 62
   137
  6
CONTINUOUS
100
AcDbPolyline
 90
        6
 70
     0
 43
0.0
 38
2500.0
 10
17.66313323
 20
-79.93223895
 10
17.53749597
 20
-80.47493905
 10
18.62046341
 20
-82.81200289
 10
18.74610067
 20
-82.26930279
 10
17.66313323
 20
-79.93223895
 10
18.59972038
 20
-82.76723905
  0
LINE
  5
9F
100
AcDbEntity
  8
MST_1_1
 62
   251
  6
CONTINUOUS
100
AcDbLine
 10
3.00399192
 20
-82.53454975
 30
2500.0
 11
4.53841414
 21
-82.53454975
 31
2500.0
  0
LINE
  5
A0
100
AcDbEntity
  8
MST_1_1
 62
   251
  6
CONTINUOUS
100
AcDbLine
 10
5.00399192
 20
-82.53454975
 30
2500.0
 11
6.53841414
 21
-82.53454975
 31
2500.0
  0
LINE
  5
A1
100
AcDbEntity
  8
MST_1_1
 62
   251
  6
CONTINUOUS
100
AcDbLine
 10
7.00399192
 20
-82.53454975
 30
2500.0
 11
8.53841414
 21
-82.53454975
 31
2500.0
  0
LINE
  5
A2
100
AcDbEntity
  8
MST_1_1
 62
   251
  6
CONTINUOUS
100
AcDbLine
 10
9.00399192
 20
-82.53454975
 30
2500.0
 11
10.53841414
 21
-82.53454975
 31
2500.0
  0
LINE
  5
A3
100
AcDbEntity
  8
MST_1_1
 62
   251
  6
CONTINUOUS
100
AcDbLine
 10
11.00399192
 20
-82.53454975
 30
2500.0
 11
12.53841414
 21
-82.53454975
 31
2500.0
  0
LINE
  5
A4
100
AcDbEntity
  8
MST_1_1
 62
   251
  6
CONTINUOUS
100
AcDbLine
 10
13.00399192
 20
-82.53454975
 30
2500.0
 11
14.53841414
 21
-82.53454975
 31
2500.0
  0
LINE
  5
A5
100
AcDbEntity
  8
MST_1_1
 62
   251
  6
CONTINUOUS
100
AcDbLine
 10
15.00399192
 20
-82.53454975
 30
2500.0
 11
16.0051232
 21
-82.53012698
 31
2500.0
  0
LINE
  5
A6
100
AcDbEntity
  8
MST_1_1
 62
   251
  6
CONTINUOUS
100
AcDbLine
 10
3.53749597
 20
-80.37454975
 30
2500.0
 11
2.00307375
 21
-80.37454975
 31
2500.0
  0
LINE
  5
A7
100
AcDbEntity
  8
MST_1_1
 62
   251
  6
CONTINUOUS
100
AcDbLine
 10
5.53749597
 20
-80.37454975
 30
2500.0
 11
4.00307375
 21
-80.37454975
 31
2500.0
  0
LINE
  5
A8
100
AcDbEntity
  8
MST_1_1
 62
   251
  6
CONTINUOUS
100
AcDbLine
 10
7.53749597
 20
-80.37454975
 30
2500.0
 11
6.00307375
 21
-80.37454975
 31
2500.0
  0
LINE
  5
A9
100
AcDbEntity
  8
MST_1_1
 62
   251
  6
CONTINUOUS
100
AcDbLine
 10
9.53749597
 20
-80.37454975
 30
2500.0
 11
8.00307375
 21
-80.37454975
 31
2500.0
  0
LINE
  5
AA
100
AcDbEntity
  8
MST_1_1
 62
   251
  6
CONTINUOUS
100
AcDbLine
 10
11.53749597
 20
-80.37454975
 30
2500.0
 11
10.00307375
 21
-80.37454975
 31
2500.0
  0
LINE
  5
AB
100
AcDbEntity
  8
MST_1_1
 62
   251
  6
CONTINUOUS
100
AcDbLine
 10
13.53749597
 20
-80.37454975
 30
2500.0
 11
12.00307375
 21
-80.37454975
 31
2500.0
  0
LINE
  5
AC
100
AcDbEntity
  8
MST_1_1
 62
   251
  6
CONTINUOUS
100
AcDbLine
 10
15.53749597
 20
-80.37454975
 30
2500.0
 11
14.00307375
 21
-80.37454975
 31
2500.0
  0
ARC
  5
AD
100
AcDbEntity
  8
MST_1_1
 62
   251
  6
CONTINUOUS
100
AcDbCircle
 10
15.59286399
 20
-99.24411945
 30
2500.0
 40
18.86965093
100
AcDbArc
 50
84.08482032
 51
88.74811714
  0
LWPOLYLINE
  5
AE
100
AcDbEntity
  8
MST_1_1
 62
   251
  6
CONTINUOUS
100
AcDbPolyline
 90
        3
 70
     0
 43
0.0
 38
2500.0
 10
22.93749597
 20
-81.45454975
 10
19.22017637
 20
-80.72638926
 42
0.01723995
 10
17.9357159
 20
-80.52047741
  0
ARC
  5
AF
100
AcDbEntity
  8
MST_1_1
 62
   251
  6
CONTINUOUS
100
AcDbCircle
 10
15.59286399
 20
-63.66498005
 30
2500.0
 40
18.86965093
100
AcDbArc
 50
271.25189287
 51
272.83975061
  0
LWPOLYLINE
  5
B0
100
AcDbEntity
  8
MST_1_1
 62
   251
  6
CONTINUOUS
100
AcDbPolyline
 90
        3
 70
     0
 43
0.0
 38
2500.0
 10
22.93749597
 20
-81.45454975
 10
19.22017637
 20
-82.18271023
 42
-0.0063851
 10
18.74610067
 20
-82.26930279
  0
ARC
  5
B1
100
AcDbEntity
  8
MST_1_1
 62
   251
  6
CONTINUOUS
100
AcDbCircle
 10
15.59286399
 20
-63.66498005
 30
2500.0
 40
18.86965093
100
AcDbArc
 50
274.21680449
 51
278.53995004
  0
LWPOLYLINE
  5
B2
100
AcDbEntity
  8
MST_1_1
 62
   137
  6
CONTINUOUS
100
AcDbPolyline
 90
        6
 70
     0
 43
0.0
 38
2500.0
 10
19.62041656
 20
-80.43036478
 10
19.53749597
 20
-80.78854684
 10
20.25225448
 20
-82.33100898
 10
20.33155291
 20
-81.96501023
 10
19.62041656
 20
-80.43036478
 10
20.23856408
 20
-82.30146484
  0
LWPOLYLINE
  5
B3
100
AcDbEntity
  8
MST_1_1
 62
     1
  6
BORDER
100
AcDbPolyline
 90
        3
 70
     0
 43
0.0
 10
17.93749597
 20
-51.45454975
 10
-2.06250403
 20
-51.45454975
 10
-7.06250403
 20
-51.45454975
  0
LINE
  5
B4
100
AcDbEntity
  8
MST_1_1
 62
   137
  6
CONTINUOUS
100
AcDbLine
 10
-2.06250403
 20
-51.45454975
 30
0.0
 11
-2.06250403
 21
-47.95454975
 31
0.0
  0
LINE
  5
B5
100
AcDbEntity
  8
MST_1_1
 62
   137
  6
CONTINUOUS
100
AcDbLine
 10
-2.06250403
 20
-47.95454975
 30
0.0
 11
-1.97500406
 21
-47.95454975
 31
0.0
  0
LWPOLYLINE
  5
B6
100
AcDbEntity
  8
MST_1_1
 62
   137
  6
CONTINUOUS
100
AcDbPolyline
 90
        6
 70
     0
 43
0.0
 38
2500.0
 10
2.6926037
 20
-49.70454963
 10
2.53749597
 20
-50.37454975
 10
3.84888413
 20
-53.20454975
 10
4.00399192
 20
-52.53454975
 10
2.6926037
 20
-49.70454963
 10
3.84888413
 20
-53.20454975
  0
LINE
  5
B7
100
AcDbEntity
  8
MST_1_1
 62
   137
  6
CONTINUOUS
100
AcDbLine
 10
0.03749597
 20
-50.37454975
 30
2500.0
 11
2.53749597
 21
-50.37454975
 31
2500.0
  0
LWPOLYLINE
  5
B8
100
AcDbEntity
  8
MST_1_1
 62
   137
  6
CONTINUOUS
100
AcDbPolyline
 90
        4
 70
     0
 43
0.0
 38
2500.0
 10
1.53841414
 20
-52.53454975
 10
1.84888413
 20
-53.20454975
 10
2.00399192
 20
-52.53454975
 10
1.7713414
 20
-52.03248561
  0
LINE
  5
B9
100
AcDbEntity
  8
MST_1_1
 62
   137
  6
CONTINUOUS
100
AcDbLine
 10
1.59047038
 20
-52.42234489
 30
2500.0
 11
1.84888413
 21
-53.20454975
 31
2500.0
  0
LINE
  5
BA
100
AcDbEntity
  8
MST_1_1
 62
   137
  6
CONTINUOUS
100
AcDbLine
 10
1.53841414
 20
-52.53454975
 30
2500.0
 11
1.7713414
 21
-52.03248561
 31
2500.0
  0
LINE
  5
BB
100
AcDbEntity
  8
MST_1_1
 62
   137
  6
CONTINUOUS
100
AcDbLine
 10
3.53841414
 20
-52.53454975
 30
2500.0
 11
2.00399192
 21
-52.53454975
 31
2500.0
  0
LINE
  5
BC
100
AcDbEntity
  8
MST_1_1
 62
   137
  6
CONTINUOUS
100
AcDbLine
 10
1.53841414
 20
-52.53454975
 30
2500.0
 11
0.03749597
 21
-52.53454975
 31
2500.0
  0
LINE
  5
BD
100
AcDbEntity
  8
MST_1_1
 62
   137
  6
CONTINUOUS
100
AcDbLine
 10
-1.97500406
 20
-47.95454975
 30
0.0
 11
0.03749597
 21
-50.37454975
 31
0.0
  0
LINE
  5
BE
100
AcDbEntity
  8
MST_1_1
 62
   137
  6
CONTINUOUS
100
AcDbLine
 10
0.03749597
 20
-52.53454975
 30
0.0
 11
-1.97500406
 21
-54.95454975
 31
0.0
  0
LINE
  5
BF
100
AcDbEntity
  8
MST_1_1
 62
   137
  6
CONTINUOUS
100
AcDbLine
 10
-1.97500406
 20
-54.95454975
 30
0.0
 11
-2.06250403
 21
-54.95454975
 31
0.0
  0
LINE
  5
C0
100
AcDbEntity
  8
MST_1_1
 62
   137
  6
CONTINUOUS
100
AcDbLine
 10
-2.06250403
 20
-54.95454975
 30
0.0
 11
-2.06250403
 21
-51.45454975
 31
0.0
  0
LWPOLYLINE
  5
C1
100
AcDbEntity
  8
MST_1_1
 62
   137
  6
CONTINUOUS
100
AcDbPolyline
 90
        6
 70
     0
 43
0.0
 38
2500.0
 10
6.6926037
 20
-49.70454963
 10
6.53749597
 20
-50.37454975
 10
7.84888413
 20
-53.20454975
 10
8.00399192
 20
-52.53454975
 10
6.6926037
 20
-49.70454963
 10
7.84888413
 20
-53.20454975
  0
LWPOLYLINE
  5
C2
100
AcDbEntity
  8
MST_1_1
 62
   137
  6
CONTINUOUS
100
AcDbPolyline
 90
        6
 70
     0
 43
0.0
 38
2500.0
 10
8.6926037
 20
-49.70454963
 10
8.53749597
 20
-50.37454975
 10
9.84888413
 20
-53.20454975
 10
10.00399192
 20
-52.53454975
 10
8.6926037
 20
-49.70454963
 10
9.84888413
 20
-53.20454975
  0
LWPOLYLINE
  5
C3
100
AcDbEntity
  8
MST_1_1
 62
   137
  6
CONTINUOUS
100
AcDbPolyline
 90
        6
 70
     0
 43
0.0
 38
2500.0
 10
10.6926037
 20
-49.70454963
 10
10.53749597
 20
-50.37454975
 10
11.84888413
 20
-53.20454975
 10
11.98035934
 20
-52.48355021
 10
10.6926037
 20
-49.70454963
 10
11.84888413
 20
-53.20454975
  0
LWPOLYLINE
  5
C4
100
AcDbEntity
  8
MST_1_1
 62
   137
  6
CONTINUOUS
100
AcDbPolyline
 90
        6
 70
     0
 43
0.0
 38
2500.0
 10
12.66313323
 20
-49.93223895
 10
12.53749597
 20
-50.47493905
 10
13.62046341
 20
-52.81200289
 10
13.74610067
 20
-52.26930279
 10
12.66313323
 20
-49.93223895
 10
13.59972038
 20
-52.76723905
  0
LINE
  5
C5
100
AcDbEntity
  8
MST_1_1
 62
   251
  6
CONTINUOUS
100
AcDbLine
 10
6.00399192
 20
-52.53454975
 30
2500.0
 11
7.53841414
 21
-52.53454975
 31
2500.0
  0
LINE
  5
C6
100
AcDbEntity
  8
MST_1_1
 62
   251
  6
CONTINUOUS
100
AcDbLine
 10
8.00399192
 20
-52.53454975
 30
2500.0
 11
9.53841414
 21
-52.53454975
 31
2500.0
  0
LINE
  5
C7
100
AcDbEntity
  8
MST_1_1
 62
   251
  6
CONTINUOUS
100
AcDbLine
 10
10.00399192
 20
-52.53454975
 30
2500.0
 11
11.0051232
 21
-52.53012698
 31
2500.0
  0
LINE
  5
C8
100
AcDbEntity
  8
MST_1_1
 62
   251
  6
CONTINUOUS
100
AcDbLine
 10
6.53749597
 20
-50.37454975
 30
2500.0
 11
5.00307375
 21
-50.37454975
 31
2500.0
  0
LINE
  5
C9
100
AcDbEntity
  8
MST_1_1
 62
   251
  6
CONTINUOUS
100
AcDbLine
 10
8.53749597
 20
-50.37454975
 30
2500.0
 11
7.00307375
 21
-50.37454975
 31
2500.0
  0
LINE
  5
CA
100
AcDbEntity
  8
MST_1_1
 62
   251
  6
CONTINUOUS
100
AcDbLine
 10
10.53749597
 20
-50.37454975
 30
2500.0
 11
9.00307375
 21
-50.37454975
 31
2500.0
  0
ARC
  5
CB
100
AcDbEntity
  8
MST_1_1
 62
   251
  6
CONTINUOUS
100
AcDbCircle
 10
10.59286399
 20
-69.24411945
 30
2500.0
 40
18.86965093
100
AcDbArc
 50
84.08482032
 51
88.74811714
  0
LWPOLYLINE
  5
CC
100
AcDbEntity
  8
MST_1_1
 62
   251
  6
CONTINUOUS
100
AcDbPolyline
 90
        3
 70
     0
 43
0.0
 38
2500.0
 10
17.93749597
 20
-51.45454975
 10
14.22017637
 20
-50.72638926
 42
0.01723995
 10
12.9357159
 20
-50.52047741
  0
ARC
  5
CD
100
AcDbEntity
  8
MST_1_1
 62
   251
  6
CONTINUOUS
100
AcDbCircle
 10
10.59286399
 20
-33.66498005
 30
2500.0
 40
18.86965093
100
AcDbArc
 50
271.25189287
 51
272.83975061
  0
LWPOLYLINE
  5
CE
100
AcDbEntity
  8
MST_1_1
 62
   251
  6
CONTINUOUS
100
AcDbPolyline
 90
        3
 70
     0
 43
0.0
 38
2500.0
 10
17.93749597
 20
-51.45454975
 10
14.22017637
 20
-52.18271023
 42
-0.0063851
 10
13.74610067
 20
-52.26930279
  0
ARC
  5
CF
100
AcDbEntity
  8
MST_1_1
 62
   251
  6
CONTINUOUS
100
AcDbCircle
 10
10.59286399
 20
-33.66498005
 30
2500.0
 40
18.86965093
100
AcDbArc
 50
274.21680449
 51
278.53995004
  0
LWPOLYLINE
  5
D0
100
AcDbEntity
  8
MST_1_1
 62
   137
  6
CONTINUOUS
100
AcDbPolyline
 90
        6
 70
     0
 43
0.0
 38
2500.0
 10
14.62041656
 20
-50.43036478
 10
14.53749597
 20
-50.78854684
 10
15.25225448
 20
-52.33100898
 10
15.33155291
 20
-51.96501023
 10
14.62041656
 20
-50.43036478
 10
15.23856408
 20
-52.30146484
  0
LWPOLYLINE
  5
D1
100
AcDbEntity
  8
MST_1_1
 62
     1
  6
BORDER
100
AcDbPolyline
 90
        3
 70
     0
 43
0.0
 10
13.93749597
 20
-21.45454975
 10
-2.06250403
 20
-21.45454975
 10
-7.06250403
 20
-21.45454975
  0
LINE
  5
D2
100
AcDbEntity
  8
MST_1_1
 62
   137
  6
CONTINUOUS
100
AcDbLine
 10
-2.06250403
 20
-21.45454975
 30
0.0
 11
-2.06250403
 21
-17.95454975
 31
0.0
  0
LINE
  5
D3
100
AcDbEntity
  8
MST_1_1
 62
   137
  6
CONTINUOUS
100
AcDbLine
 10
-2.06250403
 20
-17.95454975
 30
0.0
 11
-1.97500406
 21
-17.95454975
 31
0.0
  0
LWPOLYLINE
  5
D4
100
AcDbEntity
  8
MST_1_1
 62
   137
  6
CONTINUOUS
100
AcDbPolyline
 90
        6
 70
     0
 43
0.0
 38
2500.0
 10
2.6926037
 20
-19.70454963
 10
2.53749597
 20
-20.37454975
 10
3.84888413
 20
-23.20454975
 10
4.00399192
 20
-22.53454975
 10
2.6926037
 20
-19.70454963
 10
3.84888413
 20
-23.20454975
  0
LINE
  5
D5
100
AcDbEntity
  8
MST_1_1
 62
   137
  6
CONTINUOUS
100
AcDbLine
 10
0.03749597
 20
-20.37454975
 30
2500.0
 11
2.53749597
 21
-20.37454975
 31
2500.0
  0
LWPOLYLINE
  5
D6
100
AcDbEntity
  8
MST_1_1
 62
   137
  6
CONTINUOUS
100
AcDbPolyline
 90
        4
 70
     0
 43
0.0
 38
2500.0
 10
1.53841414
 20
-22.53454975
 10
1.84888413
 20
-23.20454975
 10
2.00399192
 20
-22.53454975
 10
1.7713414
 20
-22.03248561
  0
LINE
  5
D7
100
AcDbEntity
  8
MST_1_1
 62
   137
  6
CONTINUOUS
100
AcDbLine
 10
1.59047038
 20
-22.42234489
 30
2500.0
 11
1.84888413
 21
-23.20454975
 31
2500.0
  0
LINE
  5
D8
100
AcDbEntity
  8
MST_1_1
 62
   137
  6
CONTINUOUS
100
AcDbLine
 10
1.53841414
 20
-22.53454975
 30
2500.0
 11
1.7713414
 21
-22.03248561
 31
2500.0
  0
LINE
  5
D9
100
AcDbEntity
  8
MST_1_1
 62
   137
  6
CONTINUOUS
100
AcDbLine
 10
3.53841414
 20
-22.53454975
 30
2500.0
 11
2.00399192
 21
-22.53454975
 31
2500.0
  0
LINE
  5
DA
100
AcDbEntity
  8
MST_1_1
 62
   137
  6
CONTINUOUS
100
AcDbLine
 10
1.53841414
 20
-22.53454975
 30
2500.0
 11
0.03749597
 21
-22.53454975
 31
2500.0
  0
LINE
  5
DB
100
AcDbEntity
  8
MST_1_1
 62
   137
  6
CONTINUOUS
100
AcDbLine
 10
-1.97500406
 20
-17.95454975
 30
0.0
 11
0.03749597
 21
-20.37454975
 31
0.0
  0
LINE
  5
DC
100
AcDbEntity
  8
MST_1_1
 62
   137
  6
CONTINUOUS
100
AcDbLine
 10
0.03749597
 20
-22.53454975
 30
0.0
 11
-1.97500406
 21
-24.95454975
 31
0.0
  0
LINE
  5
DD
100
AcDbEntity
  8
MST_1_1
 62
   137
  6
CONTINUOUS
100
AcDbLine
 10
-1.97500406
 20
-24.95454975
 30
0.0
 11
-2.06250403
 21
-24.95454975
 31
0.0
  0
LINE
  5
DE
100
AcDbEntity
  8
MST_1_1
 62
   137
  6
CONTINUOUS
100
AcDbLine
 10
-2.06250403
 20
-24.95454975
 30
0.0
 11
-2.06250403
 21
-21.45454975
 31
0.0
  0
LWPOLYLINE
  5
DF
100
AcDbEntity
  8
MST_1_1
 62
   137
  6
CONTINUOUS
100
AcDbPolyline
 90
        6
 70
     0
 43
0.0
 38
2500.0
 10
4.6926037
 20
-19.70454963
 10
4.53749597
 20
-20.37454975
 10
5.84888413
 20
-23.20454975
 10
6.00399192
 20
-22.53454975
 10
4.6926037
 20
-19.70454963
 10
5.84888413
 20
-23.20454975
  0
LWPOLYLINE
  5
E0
100
AcDbEntity
  8
MST_1_1
 62
   137
  6
CONTINUOUS
100
AcDbPolyline
 90
        6
 70
     0
 43
0.0
 38
2500.0
 10
6.6926037
 20
-19.70454963
 10
6.53749597
 20
-20.37454975
 10
7.84888413
 20
-23.20454975
 10
7.98035934
 20
-22.48355021
 10
6.6926037
 20
-19.70454963
 10
7.84888413
 20
-23.20454975
  0
LWPOLYLINE
  5
E1
100
AcDbEntity
  8
MST_1_1
 62
   137
  6
CONTINUOUS
100
AcDbPolyline
 90
        6
 70
     0
 43
0.0
 38
2500.0
 10
8.66313323
 20
-19.93223895
 10
8.53749597
 20
-20.47493905
 10
9.62046341
 20
-22.81200289
 10
9.74610067
 20
-22.26930279
 10
8.66313323
 20
-19.93223895
 10
9.59972038
 20
-22.76723905
  0
LINE
  5
E2
100
AcDbEntity
  8
MST_1_1
 62
   251
  6
CONTINUOUS
100
AcDbLine
 10
4.00399192
 20
-22.53454975
 30
2500.0
 11
5.53841414
 21
-22.53454975
 31
2500.0
  0
LINE
  5
E3
100
AcDbEntity
  8
MST_1_1
 62
   251
  6
CONTINUOUS
100
AcDbLine
 10
6.00399192
 20
-22.53454975
 30
2500.0
 11
7.0051232
 21
-22.53012698
 31
2500.0
  0
LINE
  5
E4
100
AcDbEntity
  8
MST_1_1
 62
   251
  6
CONTINUOUS
100
AcDbLine
 10
4.53749597
 20
-20.37454975
 30
2500.0
 11
3.00307375
 21
-20.37454975
 31
2500.0
  0
LINE
  5
E5
100
AcDbEntity
  8
MST_1_1
 62
   251
  6
CONTINUOUS
100
AcDbLine
 10
6.53749597
 20
-20.37454975
 30
2500.0
 11
5.00307375
 21
-20.37454975
 31
2500.0
  0
ARC
  5
E6
100
AcDbEntity
  8
MST_1_1
 62
   251
  6
CONTINUOUS
100
AcDbCircle
 10
6.59286399
 20
-39.24411945
 30
2500.0
 40
18.86965093
100
AcDbArc
 50
84.08482032
 51
88.74811714
  0
LWPOLYLINE
  5
E7
100
AcDbEntity
  8
MST_1_1
 62
   251
  6
CONTINUOUS
100
AcDbPolyline
 90
        3
 70
     0
 43
0.0
 38
2500.0
 10
13.93749597
 20
-21.45454975
 10
10.22017637
 20
-20.72638926
 42
0.01723995
 10
8.9357159
 20
-20.52047741
  0
ARC
  5
E8
100
AcDbEntity
  8
MST_1_1
 62
   251
  6
CONTINUOUS
100
AcDbCircle
 10
6.59286399
 20
-3.66498005
 30
2500.0
 40
18.86965093
100
AcDbArc
 50
271.25189287
 51
272.83975061
  0
LWPOLYLINE
  5
E9
100
AcDbEntity
  8
MST_1_1
 62
   251
  6
CONTINUOUS
100
AcDbPolyline
 90
        3
 70
     0
 43
0.0
 38
2500.0
 10
13.93749597
 20
-21.45454975
 10
10.22017637
 20
-22.18271023
 42
-0.0063851
 10
9.74610067
 20
-22.26930279
  0
ARC
  5
EA
100
AcDbEntity
  8
MST_1_1
 62
   251
  6
CONTINUOUS
100
AcDbCircle
 10
6.59286399
 20
-3.66498005
 30
2500.0
 40
18.86965093
100
AcDbArc
 50
274.21680449
 51
278.53995004
  0
LWPOLYLINE
  5
EB
100
AcDbEntity
  8
MST_1_1
 62
   137
  6
CONTINUOUS
100
AcDbPolyline
 90
        6
 70
     0
 43
0.0
 38
2500.0
 10
10.62041656
 20
-20.43036478
 10
10.53749597
 20
-20.78854684
 10
11.25225448
 20
-22.33100898
 10
11.33155291
 20
-21.96501023
 10
10.62041656
 20
-20.43036478
 10
11.23856408
 20
-22.30146484
  0
LWPOLYLINE
  5
EC
100
AcDbEntity
  8
MST_1_1
 62
     1
  6
BORDER
100
AcDbPolyline
 90
        3
 70
     0
 43
0.0
 10
9.93749597
 20
8.54545025
 10
-2.06250403
 20
8.54545025
 10
-7.06250403
 20
8.54545025
  0
LINE
  5
ED
100
AcDbEntity
  8
MST_1_1
 62
   137
  6
CONTINUOUS
100
AcDbLine
 10
-2.06250403
 20
8.54545025
 30
0.0
 11
-2.06250403
 21
12.04545025
 31
0.0
  0
LINE
  5
EE
100
AcDbEntity
  8
MST_1_1
 62
   137
  6
CONTINUOUS
100
AcDbLine
 10
-2.06250403
 20
12.04545025
 30
0.0
 11
-1.97500406
 21
12.04545025
 31
0.0
  0
LWPOLYLINE
  5
EF
100
AcDbEntity
  8
MST_1_1
 62
   137
  6
CONTINUOUS
100
AcDbPolyline
 90
        6
 70
     0
 43
0.0
 38
2500.0
 10
2.66897112
 20
10.34644991
 10
2.51386339
 20
9.67644979
 10
3.82525155
 20
6.84644979
 10
3.98035934
 20
7.51644979
 10
2.66897112
 20
10.34644991
 10
3.82525155
 20
6.84644979
  0
LINE
  5
F0
100
AcDbEntity
  8
MST_1_1
 62
   137
  6
CONTINUOUS
100
AcDbLine
 10
0.03749597
 20
9.62545025
 30
2500.0
 11
2.51386339
 21
9.67644979
 31
2500.0
  0
LWPOLYLINE
  5
F1
100
AcDbEntity
  8
MST_1_1
 62
   137
  6
CONTINUOUS
100
AcDbPolyline
 90
        4
 70
     0
 43
0.0
 38
2500.0
 10
1.53841414
 20
7.46545025
 10
1.84888413
 20
6.79545025
 10
2.00399192
 20
7.46545025
 10
1.7713414
 20
7.96751439
  0
LINE
  5
F2
100
AcDbEntity
  8
MST_1_1
 62
   137
  6
CONTINUOUS
100
AcDbLine
 10
1.59047038
 20
7.57765511
 30
2500.0
 11
1.84888413
 21
6.79545025
 31
2500.0
  0
LINE
  5
F3
100
AcDbEntity
  8
MST_1_1
 62
   137
  6
CONTINUOUS
100
AcDbLine
 10
1.53841414
 20
7.46545025
 30
2500.0
 11
1.7713414
 21
7.96751439
 31
2500.0
  0
LINE
  5
F4
100
AcDbEntity
  8
MST_1_1
 62
   137
  6
CONTINUOUS
100
AcDbLine
 10
3.53841414
 20
7.46545025
 30
2500.0
 11
2.00399192
 21
7.46545025
 31
2500.0
  0
LINE
  5
F5
100
AcDbEntity
  8
MST_1_1
 62
   137
  6
CONTINUOUS
100
AcDbLine
 10
1.53841414
 20
7.46545025
 30
2500.0
 11
0.03749597
 21
7.46545025
 31
2500.0
  0
LINE
  5
F6
100
AcDbEntity
  8
MST_1_1
 62
   137
  6
CONTINUOUS
100
AcDbLine
 10
-1.97500406
 20
12.04545025
 30
0.0
 11
0.03749597
 21
9.62545025
 31
0.0
  0
LINE
  5
F7
100
AcDbEntity
  8
MST_1_1
 62
   137
  6
CONTINUOUS
100
AcDbLine
 10
0.03749597
 20
7.46545025
 30
0.0
 11
-1.97500406
 21
5.04545025
 31
0.0
  0
LINE
  5
F8
100
AcDbEntity
  8
MST_1_1
 62
   137
  6
CONTINUOUS
100
AcDbLine
 10
-1.97500406
 20
5.04545025
 30
0.0
 11
-2.06250403
 21
5.04545025
 31
0.0
  0
LINE
  5
F9
100
AcDbEntity
  8
MST_1_1
 62
   137
  6
CONTINUOUS
100
AcDbLine
 10
-2.06250403
 20
5.04545025
 30
0.0
 11
-2.06250403
 21
8.54545025
 31
0.0
  0
LWPOLYLINE
  5
FA
100
AcDbEntity
  8
MST_1_1
 62
   137
  6
CONTINUOUS
100
AcDbPolyline
 90
        6
 70
     0
 43
0.0
 38
2500.0
 10
4.66313323
 20
10.06776105
 10
4.53749597
 20
9.52506095
 10
5.62046341
 20
7.18799711
 10
5.74610067
 20
7.73069721
 10
4.66313323
 20
10.06776105
 10
5.59972038
 20
7.23276095
  0
ARC
  5
FB
100
AcDbEntity
  8
MST_1_1
 62
   251
  6
CONTINUOUS
100
AcDbCircle
 10
2.59286399
 20
-9.24411945
 30
2500.0
 40
18.86965093
100
AcDbArc
 50
84.08482032
 51
88.74811714
  0
LWPOLYLINE
  5
FC
100
AcDbEntity
  8
MST_1_1
 62
   251
  6
CONTINUOUS
100
AcDbPolyline
 90
        3
 70
     0
 43
0.0
 38
2500.0
 10
9.93749597
 20
8.54545025
 10
6.22017637
 20
9.27361074
 42
0.01723995
 10
4.9357159
 20
9.47952259
  0
LWPOLYLINE
  5
FD
100
AcDbEntity
  8
MST_1_1
 62
   251
  6
CONTINUOUS
100
AcDbPolyline
 90
        3
 70
     0
 43
0.0
 38
2500.0
 10
9.93749597
 20
8.54545025
 10
6.22017637
 20
7.81728977
 42
-0.0063851
 10
5.74610067
 20
7.73069721
  0
ARC
  5
FE
100
AcDbEntity
  8
MST_1_1
 62
   251
  6
CONTINUOUS
100
AcDbCircle
 10
2.59286399
 20
26.33501995
 30
2500.0
 40
18.86965093
100
AcDbArc
 50
274.21680449
 51
278.53995004
  0
LWPOLYLINE
  5
FF
100
AcDbEntity
  8
MST_1_1
 62
   137
  6
CONTINUOUS
100
AcDbPolyline
 90
        6
 70
     0
 43
0.0
 38
2500.0
 10
6.62041656
 20
9.56963522
 10
6.53749597
 20
9.21145316
 10
7.25225448
 20
7.66899102
 10
7.33155291
 20
8.03498977
 10
6.62041656
 20
9.56963522
 10
7.23856408
 20
7.69853516
  0
LWPOLYLINE
  5
100
100
AcDbEntity
  8
MST_1_1
 62
   137
  6
CONTINUOUS
100
AcDbPolyline
 90
        6
 70
     0
 43
0.0
 38
2500.0
 10
4.6926037
 20
-49.70454963
 10
4.53749597
 20
-50.37454975
 10
5.84888413
 20
-53.20454975
 10
6.00399192
 20
-52.53454975
 10
4.6926037
 20
-49.70454963
 10
5.84888413
 20
-53.20454975
  0
LINE
  5
101
100
AcDbEntity
  8
MST_1_1
 62
   251
  6
CONTINUOUS
100
AcDbLine
 10
4.00399192
 20
-52.53454975
 30
2500.0
 11
5.53841414
 21
-52.53454975
 31
2500.0
  0
LINE
  5
102
100
AcDbEntity
  8
MST_1_1
 62
   251
  6
CONTINUOUS
100
AcDbLine
 10
4.53749597
 20
-50.37454975
 30
2500.0
 11
3.00307375
 21
-50.37454975
 31
2500.0
  0
LWPOLYLINE
  5
103
100
AcDbEntity
  8
MST_1_1
 62
     1
  6
BORDER
100
AcDbPolyline
 90
        3
 70
     0
 43
0.0
 10
27.93749597
 20
-111.45454975
 10
-2.06250403
 20
-111.45454975
 10
-7.06250403
 20
-111.45454975
  0
LINE
  5
104
100
AcDbEntity
  8
MST_1_1
 62
   137
  6
CONTINUOUS
100
AcDbLine
 10
-2.06250403
 20
-111.45454975
 30
0.0
 11
-2.06250403
 21
-107.95454975
 31
0.0
  0
LINE
  5
105
100
AcDbEntity
  8
MST_1_1
 62
   137
  6
CONTINUOUS
100
AcDbLine
 10
-2.06250403
 20
-107.95454975
 30
0.0
 11
-1.97500406
 21
-107.95454975
 31
0.0
  0
LWPOLYLINE
  5
106
100
AcDbEntity
  8
MST_1_1
 62
   137
  6
CONTINUOUS
100
AcDbPolyline
 90
        6
 70
     0
 43
0.0
 38
2500.0
 10
2.6926037
 20
-109.70454963
 10
2.53749597
 20
-110.37454975
 10
3.84888413
 20
-113.20454975
 10
4.00399192
 20
-112.53454975
 10
2.6926037
 20
-109.70454963
 10
3.84888413
 20
-113.20454975
  0
LINE
  5
107
100
AcDbEntity
  8
MST_1_1
 62
   137
  6
CONTINUOUS
100
AcDbLine
 10
0.03749597
 20
-110.37454975
 30
2500.0
 11
2.53749597
 21
-110.37454975
 31
2500.0
  0
LWPOLYLINE
  5
108
100
AcDbEntity
  8
MST_1_1
 62
   137
  6
CONTINUOUS
100
AcDbPolyline
 90
        4
 70
     0
 43
0.0
 38
2500.0
 10
1.53841414
 20
-112.53454975
 10
1.84888413
 20
-113.20454975
 10
2.00399192
 20
-112.53454975
 10
1.7713414
 20
-112.03248561
  0
LINE
  5
109
100
AcDbEntity
  8
MST_1_1
 62
   137
  6
CONTINUOUS
100
AcDbLine
 10
1.59047038
 20
-112.42234489
 30
2500.0
 11
1.84888413
 21
-113.20454975
 31
2500.0
  0
LINE
  5
10A
100
AcDbEntity
  8
MST_1_1
 62
   137
  6
CONTINUOUS
100
AcDbLine
 10
1.53841414
 20
-112.53454975
 30
2500.0
 11
1.7713414
 21
-112.03248561
 31
2500.0
  0
LINE
  5
10B
100
AcDbEntity
  8
MST_1_1
 62
   137
  6
CONTINUOUS
100
AcDbLine
 10
3.53841414
 20
-112.53454975
 30
2500.0
 11
2.00399192
 21
-112.53454975
 31
2500.0
  0
LINE
  5
10C
100
AcDbEntity
  8
MST_1_1
 62
   137
  6
CONTINUOUS
100
AcDbLine
 10
1.53841414
 20
-112.53454975
 30
2500.0
 11
0.03749597
 21
-112.53454975
 31
2500.0
  0
LINE
  5
10D
100
AcDbEntity
  8
MST_1_1
 62
   137
  6
CONTINUOUS
100
AcDbLine
 10
-1.97500406
 20
-107.95454975
 30
0.0
 11
0.03749597
 21
-110.37454975
 31
0.0
  0
LINE
  5
10E
100
AcDbEntity
  8
MST_1_1
 62
   137
  6
CONTINUOUS
100
AcDbLine
 10
0.03749597
 20
-112.53454975
 30
0.0
 11
-1.97500406
 21
-114.95454975
 31
0.0
  0
LINE
  5
10F
100
AcDbEntity
  8
MST_1_1
 62
   137
  6
CONTINUOUS
100
AcDbLine
 10
-1.97500406
 20
-114.95454975
 30
0.0
 11
-2.06250403
 21
-114.95454975
 31
0.0
  0
LINE
  5
110
100
AcDbEntity
  8
MST_1_1
 62
   137
  6
CONTINUOUS
100
AcDbLine
 10
-2.06250403
 20
-114.95454975
 30
0.0
 11
-2.06250403
 21
-111.45454975
 31
0.0
  0
LWPOLYLINE
  5
111
100
AcDbEntity
  8
MST_1_1
 62
   137
  6
CONTINUOUS
100
AcDbPolyline
 90
        6
 70
     0
 43
0.0
 38
2500.0
 10
4.6926037
 20
-109.70454963
 10
4.53749597
 20
-110.37454975
 10
5.84888413
 20
-113.20454975
 10
6.00399192
 20
-112.53454975
 10
4.6926037
 20
-109.70454963
 10
5.84888413
 20
-113.20454975
  0
LWPOLYLINE
  5
112
100
AcDbEntity
  8
MST_1_1
 62
   137
  6
CONTINUOUS
100
AcDbPolyline
 90
        6
 70
     0
 43
0.0
 38
2500.0
 10
6.6926037
 20
-109.70454963
 10
6.53749597
 20
-110.37454975
 10
7.84888413
 20
-113.20454975
 10
8.00399192
 20
-112.53454975
 10
6.6926037
 20
-109.70454963
 10
7.84888413
 20
-113.20454975
  0
LWPOLYLINE
  5
113
100
AcDbEntity
  8
MST_1_1
 62
   137
  6
CONTINUOUS
100
AcDbPolyline
 90
        6
 70
     0
 43
0.0
 38
2500.0
 10
8.6926037
 20
-109.70454963
 10
8.53749597
 20
-110.37454975
 10
9.84888413
 20
-113.20454975
 10
10.00399192
 20
-112.53454975
 10
8.6926037
 20
-109.70454963
 10
9.84888413
 20
-113.20454975
  0
LWPOLYLINE
  5
114
100
AcDbEntity
  8
MST_1_1
 62
   137
  6
CONTINUOUS
100
AcDbPolyline
 90
        6
 70
     0
 43
0.0
 38
2500.0
 10
10.6926037
 20
-109.70454963
 10
10.53749597
 20
-110.37454975
 10
11.84888413
 20
-113.20454975
 10
12.00399192
 20
-112.53454975
 10
10.6926037
 20
-109.70454963
 10
11.84888413
 20
-113.20454975
  0
LWPOLYLINE
  5
115
100
AcDbEntity
  8
MST_1_1
 62
   137
  6
CONTINUOUS
100
AcDbPolyline
 90
        6
 70
     0
 43
0.0
 38
2500.0
 10
12.6926037
 20
-109.70454963
 10
12.53749597
 20
-110.37454975
 10
13.84888413
 20
-113.20454975
 10
14.00399192
 20
-112.53454975
 10
12.6926037
 20
-109.70454963
 10
13.84888413
 20
-113.20454975
  0
LWPOLYLINE
  5
116
100
AcDbEntity
  8
MST_1_1
 62
   137
  6
CONTINUOUS
100
AcDbPolyline
 90
        6
 70
     0
 43
0.0
 38
2500.0
 10
18.6926037
 20
-109.70454963
 10
18.53749597
 20
-110.37454975
 10
19.84888413
 20
-113.20454975
 10
20.00399192
 20
-112.53454975
 10
18.6926037
 20
-109.70454963
 10
19.84888413
 20
-113.20454975
  0
LWPOLYLINE
  5
117
100
AcDbEntity
  8
MST_1_1
 62
   137
  6
CONTINUOUS
100
AcDbPolyline
 90
        6
 70
     0
 43
0.0
 38
2500.0
 10
20.6926037
 20
-109.70454963
 10
20.53749597
 20
-110.37454975
 10
21.84888413
 20
-113.20454975
 10
21.98035934
 20
-112.48355021
 10
20.6926037
 20
-109.70454963
 10
21.84888413
 20
-113.20454975
  0
LWPOLYLINE
  5
118
100
AcDbEntity
  8
MST_1_1
 62
   137
  6
CONTINUOUS
100
AcDbPolyline
 90
        6
 70
     0
 43
0.0
 38
2500.0
 10
22.66313323
 20
-109.93223895
 10
22.53749597
 20
-110.47493905
 10
23.62046341
 20
-112.81200289
 10
23.74610067
 20
-112.26930279
 10
22.66313323
 20
-109.93223895
 10
23.59972038
 20
-112.76723905
  0
LINE
  5
119
100
AcDbEntity
  8
MST_1_1
 62
   251
  6
CONTINUOUS
100
AcDbLine
 10
4.00399192
 20
-112.53454975
 30
2500.0
 11
5.53841414
 21
-112.53454975
 31
2500.0
  0
LINE
  5
11A
100
AcDbEntity
  8
MST_1_1
 62
   251
  6
CONTINUOUS
100
AcDbLine
 10
6.00399192
 20
-112.53454975
 30
2500.0
 11
7.53841414
 21
-112.53454975
 31
2500.0
  0
LINE
  5
11B
100
AcDbEntity
  8
MST_1_1
 62
   251
  6
CONTINUOUS
100
AcDbLine
 10
8.00399192
 20
-112.53454975
 30
2500.0
 11
9.53841414
 21
-112.53454975
 31
2500.0
  0
LINE
  5
11C
100
AcDbEntity
  8
MST_1_1
 62
   251
  6
CONTINUOUS
100
AcDbLine
 10
10.00399192
 20
-112.53454975
 30
2500.0
 11
11.53841414
 21
-112.53454975
 31
2500.0
  0
LINE
  5
11D
100
AcDbEntity
  8
MST_1_1
 62
   251
  6
CONTINUOUS
100
AcDbLine
 10
12.00399192
 20
-112.53454975
 30
2500.0
 11
13.53841414
 21
-112.53454975
 31
2500.0
  0
LINE
  5
11E
100
AcDbEntity
  8
MST_1_1
 62
   251
  6
CONTINUOUS
100
AcDbLine
 10
18.00399192
 20
-112.53454975
 30
2500.0
 11
19.53841414
 21
-112.53454975
 31
2500.0
  0
LINE
  5
11F
100
AcDbEntity
  8
MST_1_1
 62
   251
  6
CONTINUOUS
100
AcDbLine
 10
20.00399192
 20
-112.53454975
 30
2500.0
 11
21.0051232
 21
-112.53012698
 31
2500.0
  0
LINE
  5
120
100
AcDbEntity
  8
MST_1_1
 62
   251
  6
CONTINUOUS
100
AcDbLine
 10
4.53749597
 20
-110.37454975
 30
2500.0
 11
3.00307375
 21
-110.37454975
 31
2500.0
  0
LINE
  5
121
100
AcDbEntity
  8
MST_1_1
 62
   251
  6
CONTINUOUS
100
AcDbLine
 10
6.53749597
 20
-110.37454975
 30
2500.0
 11
5.00307375
 21
-110.37454975
 31
2500.0
  0
LINE
  5
122
100
AcDbEntity
  8
MST_1_1
 62
   251
  6
CONTINUOUS
100
AcDbLine
 10
8.53749597
 20
-110.37454975
 30
2500.0
 11
7.00307375
 21
-110.37454975
 31
2500.0
  0
LINE
  5
123
100
AcDbEntity
  8
MST_1_1
 62
   251
  6
CONTINUOUS
100
AcDbLine
 10
10.53749597
 20
-110.37454975
 30
2500.0
 11
9.00307375
 21
-110.37454975
 31
2500.0
  0
LINE
  5
124
100
AcDbEntity
  8
MST_1_1
 62
   251
  6
CONTINUOUS
100
AcDbLine
 10
12.53749597
 20
-110.37454975
 30
2500.0
 11
11.00307375
 21
-110.37454975
 31
2500.0
  0
LINE
  5
125
100
AcDbEntity
  8
MST_1_1
 62
   251
  6
CONTINUOUS
100
AcDbLine
 10
18.53749597
 20
-110.37454975
 30
2500.0
 11
17.00307375
 21
-110.37454975
 31
2500.0
  0
LINE
  5
126
100
AcDbEntity
  8
MST_1_1
 62
   251
  6
CONTINUOUS
100
AcDbLine
 10
20.53749597
 20
-110.37454975
 30
2500.0
 11
19.00307375
 21
-110.37454975
 31
2500.0
  0
ARC
  5
127
100
AcDbEntity
  8
MST_1_1
 62
   251
  6
CONTINUOUS
100
AcDbCircle
 10
20.59286399
 20
-129.24411945
 30
2500.0
 40
18.86965093
100
AcDbArc
 50
84.08482032
 51
88.74811714
  0
LWPOLYLINE
  5
128
100
AcDbEntity
  8
MST_1_1
 62
   251
  6
CONTINUOUS
100
AcDbPolyline
 90
        3
 70
     0
 43
0.0
 38
2500.0
 10
27.93749597
 20
-111.45454975
 10
24.22017637
 20
-110.72638926
 42
0.01723995
 10
22.9357159
 20
-110.52047741
  0
ARC
  5
129
100
AcDbEntity
  8
MST_1_1
 62
   251
  6
CONTINUOUS
100
AcDbCircle
 10
20.59286399
 20
-93.66498005
 30
2500.0
 40
18.86965093
100
AcDbArc
 50
271.25189287
 51
272.83975061
  0
LWPOLYLINE
  5
12A
100
AcDbEntity
  8
MST_1_1
 62
   251
  6
CONTINUOUS
100
AcDbPolyline
 90
        3
 70
     0
 43
0.0
 38
2500.0
 10
27.93749597
 20
-111.45454975
 10
24.22017637
 20
-112.18271023
 42
-0.0063851
 10
23.74610067
 20
-112.26930279
  0
ARC
  5
12B
100
AcDbEntity
  8
MST_1_1
 62
   251
  6
CONTINUOUS
100
AcDbCircle
 10
20.59286399
 20
-93.66498005
 30
2500.0
 40
18.86965093
100
AcDbArc
 50
274.21680449
 51
278.53995004
  0
LWPOLYLINE
  5
12C
100
AcDbEntity
  8
MST_1_1
 62
   137
  6
CONTINUOUS
100
AcDbPolyline
 90
        6
 70
     0
 43
0.0
 38
2500.0
 10
24.62041656
 20
-110.43036478
 10
24.53749597
 20
-110.78854684
 10
25.25225448
 20
-112.33100898
 10
25.33155291
 20
-111.96501023
 10
24.62041656
 20
-110.43036478
 10
25.23856408
 20
-112.30146484
  0
LWPOLYLINE
  5
12D
100
AcDbEntity
  8
MST_1_1
 62
     1
  6
BORDER
100
AcDbPolyline
 90
        3
 70
     0
 43
0.0
 10
32.93749597
 20
-141.45454975
 10
-2.06250403
 20
-141.45454975
 10
-7.06250403
 20
-141.45454975
  0
LINE
  5
12E
100
AcDbEntity
  8
MST_1_1
 62
   137
  6
CONTINUOUS
100
AcDbLine
 10
-2.06250403
 20
-141.45454975
 30
0.0
 11
-2.06250403
 21
-137.95454975
 31
0.0
  0
LINE
  5
12F
100
AcDbEntity
  8
MST_1_1
 62
   137
  6
CONTINUOUS
100
AcDbLine
 10
-2.06250403
 20
-137.95454975
 30
0.0
 11
-1.97500406
 21
-137.95454975
 31
0.0
  0
LWPOLYLINE
  5
130
100
AcDbEntity
  8
MST_1_1
 62
   137
  6
CONTINUOUS
100
AcDbPolyline
 90
        6
 70
     0
 43
0.0
 38
2500.0
 10
1.6926037
 20
-139.70454963
 10
1.53749597
 20
-140.37454975
 10
2.84888413
 20
-143.20454975
 10
3.00399192
 20
-142.53454975
 10
1.6926037
 20
-139.70454963
 10
2.84888413
 20
-143.20454975
  0
LINE
  5
131
100
AcDbEntity
  8
MST_1_1
 62
   137
  6
CONTINUOUS
100
AcDbLine
 10
0.03749597
 20
-140.37454975
 30
2500.0
 11
1.53749597
 21
-140.37454975
 31
2500.0
  0
LWPOLYLINE
  5
132
100
AcDbEntity
  8
MST_1_1
 62
   137
  6
CONTINUOUS
100
AcDbPolyline
 90
        4
 70
     0
 43
0.0
 38
2500.0
 10
0.53841414
 20
-142.53454975
 10
0.84888413
 20
-143.20454975
 10
1.00399192
 20
-142.53454975
 10
0.7713414
 20
-142.03248561
  0
LINE
  5
133
100
AcDbEntity
  8
MST_1_1
 62
   137
  6
CONTINUOUS
100
AcDbLine
 10
0.59047038
 20
-142.42234489
 30
2500.0
 11
0.84888413
 21
-143.20454975
 31
2500.0
  0
LINE
  5
134
100
AcDbEntity
  8
MST_1_1
 62
   137
  6
CONTINUOUS
100
AcDbLine
 10
0.53841414
 20
-142.53454975
 30
2500.0
 11
0.7713414
 21
-142.03248561
 31
2500.0
  0
LINE
  5
135
100
AcDbEntity
  8
MST_1_1
 62
   137
  6
CONTINUOUS
100
AcDbLine
 10
2.53841414
 20
-142.53454975
 30
2500.0
 11
1.00399192
 21
-142.53454975
 31
2500.0
  0
LINE
  5
136
100
AcDbEntity
  8
MST_1_1
 62
   137
  6
CONTINUOUS
100
AcDbLine
 10
0.53841414
 20
-142.53454975
 30
2500.0
 11
0.03749597
 21
-142.53454975
 31
2500.0
  0
LINE
  5
137
100
AcDbEntity
  8
MST_1_1
 62
   137
  6
CONTINUOUS
100
AcDbLine
 10
-1.97500406
 20
-137.95454975
 30
0.0
 11
0.03749597
 21
-140.37454975
 31
0.0
  0
LINE
  5
138
100
AcDbEntity
  8
MST_1_1
 62
   137
  6
CONTINUOUS
100
AcDbLine
 10
0.03749597
 20
-142.53454975
 30
0.0
 11
-1.97500406
 21
-144.95454975
 31
0.0
  0
LINE
  5
139
100
AcDbEntity
  8
MST_1_1
 62
   137
  6
CONTINUOUS
100
AcDbLine
 10
-1.97500406
 20
-144.95454975
 30
0.0
 11
-2.06250403
 21
-144.95454975
 31
0.0
  0
LINE
  5
13A
100
AcDbEntity
  8
MST_1_1
 62
   137
  6
CONTINUOUS
100
AcDbLine
 10
-2.06250403
 20
-144.95454975
 30
0.0
 11
-2.06250403
 21
-141.45454975
 31
0.0
  0
LWPOLYLINE
  5
13B
100
AcDbEntity
  8
MST_1_1
 62
   137
  6
CONTINUOUS
100
AcDbPolyline
 90
        6
 70
     0
 43
0.0
 38
2500.0
 10
3.6926037
 20
-139.70454963
 10
3.53749597
 20
-140.37454975
 10
4.84888413
 20
-143.20454975
 10
5.00399192
 20
-142.53454975
 10
3.6926037
 20
-139.70454963
 10
4.84888413
 20
-143.20454975
  0
LWPOLYLINE
  5
13C
100
AcDbEntity
  8
MST_1_1
 62
   137
  6
CONTINUOUS
100
AcDbPolyline
 90
        6
 70
     0
 43
0.0
 38
2500.0
 10
5.6926037
 20
-139.70454963
 10
5.53749597
 20
-140.37454975
 10
6.84888413
 20
-143.20454975
 10
7.00399192
 20
-142.53454975
 10
5.6926037
 20
-139.70454963
 10
6.84888413
 20
-143.20454975
  0
LWPOLYLINE
  5
13D
100
AcDbEntity
  8
MST_1_1
 62
   137
  6
CONTINUOUS
100
AcDbPolyline
 90
        6
 70
     0
 43
0.0
 38
2500.0
 10
7.6926037
 20
-139.70454963
 10
7.53749597
 20
-140.37454975
 10
8.84888413
 20
-143.20454975
 10
9.00399192
 20
-142.53454975
 10
7.6926037
 20
-139.70454963
 10
8.84888413
 20
-143.20454975
  0
LWPOLYLINE
  5
13E
100
AcDbEntity
  8
MST_1_1
 62
   137
  6
CONTINUOUS
100
AcDbPolyline
 90
        6
 70
     0
 43
0.0
 38
2500.0
 10
9.6926037
 20
-139.70454963
 10
9.53749597
 20
-140.37454975
 10
10.84888413
 20
-143.20454975
 10
11.00399192
 20
-142.53454975
 10
9.6926037
 20
-139.70454963
 10
10.84888413
 20
-143.20454975
  0
LWPOLYLINE
  5
13F
100
AcDbEntity
  8
MST_1_1
 62
   137
  6
CONTINUOUS
100
AcDbPolyline
 90
        6
 70
     0
 43
0.0
 38
2500.0
 10
21.6926037
 20
-139.70454963
 10
21.53749597
 20
-140.37454975
 10
22.84888413
 20
-143.20454975
 10
23.00399192
 20
-142.53454975
 10
21.6926037
 20
-139.70454963
 10
22.84888413
 20
-143.20454975
  0
LWPOLYLINE
  5
140
100
AcDbEntity
  8
MST_1_1
 62
   137
  6
CONTINUOUS
100
AcDbPolyline
 90
        6
 70
     0
 43
0.0
 38
2500.0
 10
23.6926037
 20
-139.70454963
 10
23.53749597
 20
-140.37454975
 10
24.84888413
 20
-143.20454975
 10
25.00399192
 20
-142.53454975
 10
23.6926037
 20
-139.70454963
 10
24.84888413
 20
-143.20454975
  0
LWPOLYLINE
  5
141
100
AcDbEntity
  8
MST_1_1
 62
   137
  6
CONTINUOUS
100
AcDbPolyline
 90
        6
 70
     0
 43
0.0
 38
2500.0
 10
25.6926037
 20
-139.70454963
 10
25.53749597
 20
-140.37454975
 10
26.84888413
 20
-143.20454975
 10
26.98035934
 20
-142.48355021
 10
25.6926037
 20
-139.70454963
 10
26.84888413
 20
-143.20454975
  0
LWPOLYLINE
  5
142
100
AcDbEntity
  8
MST_1_1
 62
   137
  6
CONTINUOUS
100
AcDbPolyline
 90
        6
 70
     0
 43
0.0
 38
2500.0
 10
27.66313323
 20
-139.93223895
 10
27.53749597
 20
-140.47493905
 10
28.62046341
 20
-142.81200289
 10
28.74610067
 20
-142.26930279
 10
27.66313323
 20
-139.93223895
 10
28.59972038
 20
-142.76723905
  0
LINE
  5
143
100
AcDbEntity
  8
MST_1_1
 62
   251
  6
CONTINUOUS
100
AcDbLine
 10
3.00399192
 20
-142.53454975
 30
2500.0
 11
4.53841414
 21
-142.53454975
 31
2500.0
  0
LINE
  5
144
100
AcDbEntity
  8
MST_1_1
 62
   251
  6
CONTINUOUS
100
AcDbLine
 10
5.00399192
 20
-142.53454975
 30
2500.0
 11
6.53841414
 21
-142.53454975
 31
2500.0
  0
LINE
  5
145
100
AcDbEntity
  8
MST_1_1
 62
   251
  6
CONTINUOUS
100
AcDbLine
 10
7.00399192
 20
-142.53454975
 30
2500.0
 11
8.53841414
 21
-142.53454975
 31
2500.0
  0
LINE
  5
146
100
AcDbEntity
  8
MST_1_1
 62
   251
  6
CONTINUOUS
100
AcDbLine
 10
9.00399192
 20
-142.53454975
 30
2500.0
 11
10.53841414
 21
-142.53454975
 31
2500.0
  0
LINE
  5
147
100
AcDbEntity
  8
MST_1_1
 62
   251
  6
CONTINUOUS
100
AcDbLine
 10
21.00399192
 20
-142.53454975
 30
2500.0
 11
22.53841414
 21
-142.53454975
 31
2500.0
  0
LINE
  5
148
100
AcDbEntity
  8
MST_1_1
 62
   251
  6
CONTINUOUS
100
AcDbLine
 10
23.00399192
 20
-142.53454975
 30
2500.0
 11
24.53841414
 21
-142.53454975
 31
2500.0
  0
LINE
  5
149
100
AcDbEntity
  8
MST_1_1
 62
   251
  6
CONTINUOUS
100
AcDbLine
 10
25.00399192
 20
-142.53454975
 30
2500.0
 11
26.0051232
 21
-142.53012698
 31
2500.0
  0
LINE
  5
14A
100
AcDbEntity
  8
MST_1_1
 62
   251
  6
CONTINUOUS
100
AcDbLine
 10
3.53749597
 20
-140.37454975
 30
2500.0
 11
2.00307375
 21
-140.37454975
 31
2500.0
  0
LINE
  5
14B
100
AcDbEntity
  8
MST_1_1
 62
   251
  6
CONTINUOUS
100
AcDbLine
 10
5.53749597
 20
-140.37454975
 30
2500.0
 11
4.00307375
 21
-140.37454975
 31
2500.0
  0
LINE
  5
14C
100
AcDbEntity
  8
MST_1_1
 62
   251
  6
CONTINUOUS
100
AcDbLine
 10
7.53749597
 20
-140.37454975
 30
2500.0
 11
6.00307375
 21
-140.37454975
 31
2500.0
  0
LINE
  5
14D
100
AcDbEntity
  8
MST_1_1
 62
   251
  6
CONTINUOUS
100
AcDbLine
 10
9.53749597
 20
-140.37454975
 30
2500.0
 11
8.00307375
 21
-140.37454975
 31
2500.0
  0
LINE
  5
14E
100
AcDbEntity
  8
MST_1_1
 62
   251
  6
CONTINUOUS
100
AcDbLine
 10
21.53749597
 20
-140.37454975
 30
2500.0
 11
20.00307375
 21
-140.37454975
 31
2500.0
  0
LINE
  5
14F
100
AcDbEntity
  8
MST_1_1
 62
   251
  6
CONTINUOUS
100
AcDbLine
 10
23.53749597
 20
-140.37454975
 30
2500.0
 11
22.00307375
 21
-140.37454975
 31
2500.0
  0
LINE
  5
150
100
AcDbEntity
  8
MST_1_1
 62
   251
  6
CONTINUOUS
100
AcDbLine
 10
25.53749597
 20
-140.37454975
 30
2500.0
 11
24.00307375
 21
-140.37454975
 31
2500.0
  0
ARC
  5
151
100
AcDbEntity
  8
MST_1_1
 62
   251
  6
CONTINUOUS
100
AcDbCircle
 10
25.59286399
 20
-159.24411945
 30
2500.0
 40
18.86965093
100
AcDbArc
 50
84.08482032
 51
88.74811714
  0
LWPOLYLINE
  5
152
100
AcDbEntity
  8
MST_1_1
 62
   251
  6
CONTINUOUS
100
AcDbPolyline
 90
        3
 70
     0
 43
0.0
 38
2500.0
 10
32.93749597
 20
-141.45454975
 10
29.22017637
 20
-140.72638926
 42
0.01723995
 10
27.9357159
 20
-140.52047741
  0
ARC
  5
153
100
AcDbEntity
  8
MST_1_1
 62
   251
  6
CONTINUOUS
100
AcDbCircle
 10
25.59286399
 20
-123.66498005
 30
2500.0
 40
18.86965093
100
AcDbArc
 50
271.25189287
 51
272.83975061
  0
LWPOLYLINE
  5
154
100
AcDbEntity
  8
MST_1_1
 62
   251
  6
CONTINUOUS
100
AcDbPolyline
 90
        3
 70
     0
 43
0.0
 38
2500.0
 10
32.93749597
 20
-141.45454975
 10
29.22017637
 20
-142.18271023
 42
-0.0063851
 10
28.74610067
 20
-142.26930279
  0
ARC
  5
155
100
AcDbEntity
  8
MST_1_1
 62
   251
  6
CONTINUOUS
100
AcDbCircle
 10
25.59286399
 20
-123.66498005
 30
2500.0
 40
18.86965093
100
AcDbArc
 50
274.21680449
 51
278.53995004
  0
LWPOLYLINE
  5
156
100
AcDbEntity
  8
MST_1_1
 62
   137
  6
CONTINUOUS
100
AcDbPolyline
 90
        6
 70
     0
 43
0.0
 38
2500.0
 10
29.62041656
 20
-140.43036478
 10
29.53749597
 20
-140.78854684
 10
30.25225448
 20
-142.33100898
 10
30.33155291
 20
-141.96501023
 10
29.62041656
 20
-140.43036478
 10
30.23856408
 20
-142.30146484
  0
LWPOLYLINE
  5
157
100
AcDbEntity
  8
MST_1_1
 62
     1
  6
BORDER
100
AcDbPolyline
 90
        3
 70
     0
 43
0.0
 10
37.93749597
 20
-171.45454975
 10
-2.06250403
 20
-171.45454975
 10
-7.06250403
 20
-171.45454975
  0
LINE
  5
158
100
AcDbEntity
  8
MST_1_1
 62
   137
  6
CONTINUOUS
100
AcDbLine
 10
-2.06250403
 20
-171.45454975
 30
0.0
 11
-2.06250403
 21
-167.95454975
 31
0.0
  0
LINE
  5
159
100
AcDbEntity
  8
MST_1_1
 62
   137
  6
CONTINUOUS
100
AcDbLine
 10
-2.06250403
 20
-167.95454975
 30
0.0
 11
-1.97500406
 21
-167.95454975
 31
0.0
  0
LWPOLYLINE
  5
15A
100
AcDbEntity
  8
MST_1_1
 62
   137
  6
CONTINUOUS
100
AcDbPolyline
 90
        6
 70
     0
 43
0.0
 38
2500.0
 10
2.6926037
 20
-169.70454963
 10
2.53749597
 20
-170.37454975
 10
3.84888413
 20
-173.20454975
 10
4.00399192
 20
-172.53454975
 10
2.6926037
 20
-169.70454963
 10
3.84888413
 20
-173.20454975
  0
LINE
  5
15B
100
AcDbEntity
  8
MST_1_1
 62
   137
  6
CONTINUOUS
100
AcDbLine
 10
0.03749597
 20
-170.37454975
 30
2500.0
 11
2.53749597
 21
-170.37454975
 31
2500.0
  0
LWPOLYLINE
  5
15C
100
AcDbEntity
  8
MST_1_1
 62
   137
  6
CONTINUOUS
100
AcDbPolyline
 90
        4
 70
     0
 43
0.0
 38
2500.0
 10
1.53841414
 20
-172.53454975
 10
1.84888413
 20
-173.20454975
 10
2.00399192
 20
-172.53454975
 10
1.7713414
 20
-172.03248561
  0
LINE
  5
15D
100
AcDbEntity
  8
MST_1_1
 62
   137
  6
CONTINUOUS
100
AcDbLine
 10
1.59047038
 20
-172.42234489
 30
2500.0
 11
1.84888413
 21
-173.20454975
 31
2500.0
  0
LINE
  5
15E
100
AcDbEntity
  8
MST_1_1
 62
   137
  6
CONTINUOUS
100
AcDbLine
 10
1.53841414
 20
-172.53454975
 30
2500.0
 11
1.7713414
 21
-172.03248561
 31
2500.0
  0
LINE
  5
15F
100
AcDbEntity
  8
MST_1_1
 62
   137
  6
CONTINUOUS
100
AcDbLine
 10
3.53841414
 20
-172.53454975
 30
2500.0
 11
2.00399192
 21
-172.53454975
 31
2500.0
  0
LINE
  5
160
100
AcDbEntity
  8
MST_1_1
 62
   137
  6
CONTINUOUS
100
AcDbLine
 10
1.53841414
 20
-172.53454975
 30
2500.0
 11
0.03749597
 21
-172.53454975
 31
2500.0
  0
LINE
  5
161
100
AcDbEntity
  8
MST_1_1
 62
   137
  6
CONTINUOUS
100
AcDbLine
 10
-1.97500406
 20
-167.95454975
 30
0.0
 11
0.03749597
 21
-170.37454975
 31
0.0
  0
LINE
  5
162
100
AcDbEntity
  8
MST_1_1
 62
   137
  6
CONTINUOUS
100
AcDbLine
 10
0.03749597
 20
-172.53454975
 30
0.0
 11
-1.97500406
 21
-174.95454975
 31
0.0
  0
LINE
  5
163
100
AcDbEntity
  8
MST_1_1
 62
   137
  6
CONTINUOUS
100
AcDbLine
 10
-1.97500406
 20
-174.95454975
 30
0.0
 11
-2.06250403
 21
-174.95454975
 31
0.0
  0
LINE
  5
164
100
AcDbEntity
  8
MST_1_1
 62
   137
  6
CONTINUOUS
100
AcDbLine
 10
-2.06250403
 20
-174.95454975
 30
0.0
 11
-2.06250403
 21
-171.45454975
 31
0.0
  0
LWPOLYLINE
  5
165
100
AcDbEntity
  8
MST_1_1
 62
   137
  6
CONTINUOUS
100
AcDbPolyline
 90
        6
 70
     0
 43
0.0
 38
2500.0
 10
4.6926037
 20
-169.70454963
 10
4.53749597
 20
-170.37454975
 10
5.84888413
 20
-173.20454975
 10
6.00399192
 20
-172.53454975
 10
4.6926037
 20
-169.70454963
 10
5.84888413
 20
-173.20454975
  0
LWPOLYLINE
  5
166
100
AcDbEntity
  8
MST_1_1
 62
   137
  6
CONTINUOUS
100
AcDbPolyline
 90
        6
 70
     0
 43
0.0
 38
2500.0
 10
6.6926037
 20
-169.70454963
 10
6.53749597
 20
-170.37454975
 10
7.84888413
 20
-173.20454975
 10
8.00399192
 20
-172.53454975
 10
6.6926037
 20
-169.70454963
 10
7.84888413
 20
-173.20454975
  0
LWPOLYLINE
  5
167
100
AcDbEntity
  8
MST_1_1
 62
   137
  6
CONTINUOUS
100
AcDbPolyline
 90
        6
 70
     0
 43
0.0
 38
2500.0
 10
8.6926037
 20
-169.70454963
 10
8.53749597
 20
-170.37454975
 10
9.84888413
 20
-173.20454975
 10
10.00399192
 20
-172.53454975
 10
8.6926037
 20
-169.70454963
 10
9.84888413
 20
-173.20454975
  0
LWPOLYLINE
  5
168
100
AcDbEntity
  8
MST_1_1
 62
   137
  6
CONTINUOUS
100
AcDbPolyline
 90
        6
 70
     0
 43
0.0
 38
2500.0
 10
10.6926037
 20
-169.70454963
 10
10.53749597
 20
-170.37454975
 10
11.84888413
 20
-173.20454975
 10
12.00399192
 20
-172.53454975
 10
10.6926037
 20
-169.70454963
 10
11.84888413
 20
-173.20454975
  0
LWPOLYLINE
  5
169
100
AcDbEntity
  8
MST_1_1
 62
   137
  6
CONTINUOUS
100
AcDbPolyline
 90
        6
 70
     0
 43
0.0
 38
2500.0
 10
26.6926037
 20
-169.70454963
 10
26.53749597
 20
-170.37454975
 10
27.84888413
 20
-173.20454975
 10
28.00399192
 20
-172.53454975
 10
26.6926037
 20
-169.70454963
 10
27.84888413
 20
-173.20454975
  0
LWPOLYLINE
  5
16A
100
AcDbEntity
  8
MST_1_1
 62
   137
  6
CONTINUOUS
100
AcDbPolyline
 90
        6
 70
     0
 43
0.0
 38
2500.0
 10
28.6926037
 20
-169.70454963
 10
28.53749597
 20
-170.37454975
 10
29.84888413
 20
-173.20454975
 10
30.00399192
 20
-172.53454975
 10
28.6926037
 20
-169.70454963
 10
29.84888413
 20
-173.20454975
  0
LWPOLYLINE
  5
16B
100
AcDbEntity
  8
MST_1_1
 62
   137
  6
CONTINUOUS
100
AcDbPolyline
 90
        6
 70
     0
 43
0.0
 38
2500.0
 10
30.6926037
 20
-169.70454963
 10
30.53749597
 20
-170.37454975
 10
31.84888413
 20
-173.20454975
 10
31.98035934
 20
-172.48355021
 10
30.6926037
 20
-169.70454963
 10
31.84888413
 20
-173.20454975
  0
LWPOLYLINE
  5
16C
100
AcDbEntity
  8
MST_1_1
 62
   137
  6
CONTINUOUS
100
AcDbPolyline
 90
        6
 70
     0
 43
0.0
 38
2500.0
 10
32.66313323
 20
-169.93223895
 10
32.53749597
 20
-170.47493905
 10
33.62046341
 20
-172.81200289
 10
33.74610067
 20
-172.26930279
 10
32.66313323
 20
-169.93223895
 10
33.59972038
 20
-172.76723905
  0
LINE
  5
16D
100
AcDbEntity
  8
MST_1_1
 62
   251
  6
CONTINUOUS
100
AcDbLine
 10
4.00399192
 20
-172.53454975
 30
2500.0
 11
5.53841414
 21
-172.53454975
 31
2500.0
  0
LINE
  5
16E
100
AcDbEntity
  8
MST_1_1
 62
   251
  6
CONTINUOUS
100
AcDbLine
 10
6.00399192
 20
-172.53454975
 30
2500.0
 11
7.53841414
 21
-172.53454975
 31
2500.0
  0
LINE
  5
16F
100
AcDbEntity
  8
MST_1_1
 62
   251
  6
CONTINUOUS
100
AcDbLine
 10
8.00399192
 20
-172.53454975
 30
2500.0
 11
9.53841414
 21
-172.53454975
 31
2500.0
  0
LINE
  5
170
100
AcDbEntity
  8
MST_1_1
 62
   251
  6
CONTINUOUS
100
AcDbLine
 10
10.00399192
 20
-172.53454975
 30
2500.0
 11
11.53841414
 21
-172.53454975
 31
2500.0
  0
LINE
  5
171
100
AcDbEntity
  8
MST_1_1
 62
   251
  6
CONTINUOUS
100
AcDbLine
 10
26.00399192
 20
-172.53454975
 30
2500.0
 11
27.53841414
 21
-172.53454975
 31
2500.0
  0
LINE
  5
172
100
AcDbEntity
  8
MST_1_1
 62
   251
  6
CONTINUOUS
100
AcDbLine
 10
28.00399192
 20
-172.53454975
 30
2500.0
 11
29.53841414
 21
-172.53454975
 31
2500.0
  0
LINE
  5
173
100
AcDbEntity
  8
MST_1_1
 62
   251
  6
CONTINUOUS
100
AcDbLine
 10
30.00399192
 20
-172.53454975
 30
2500.0
 11
31.0051232
 21
-172.53012698
 31
2500.0
  0
LINE
  5
174
100
AcDbEntity
  8
MST_1_1
 62
   251
  6
CONTINUOUS
100
AcDbLine
 10
4.53749597
 20
-170.37454975
 30
2500.0
 11
3.00307375
 21
-170.37454975
 31
2500.0
  0
LINE
  5
175
100
AcDbEntity
  8
MST_1_1
 62
   251
  6
CONTINUOUS
100
AcDbLine
 10
6.53749597
 20
-170.37454975
 30
2500.0
 11
5.00307375
 21
-170.37454975
 31
2500.0
  0
LINE
  5
176
100
AcDbEntity
  8
MST_1_1
 62
   251
  6
CONTINUOUS
100
AcDbLine
 10
8.53749597
 20
-170.37454975
 30
2500.0
 11
7.00307375
 21
-170.37454975
 31
2500.0
  0
LINE
  5
177
100
AcDbEntity
  8
MST_1_1
 62
   251
  6
CONTINUOUS
100
AcDbLine
 10
10.53749597
 20
-170.37454975
 30
2500.0
 11
9.00307375
 21
-170.37454975
 31
2500.0
  0
LINE
  5
178
100
AcDbEntity
  8
MST_1_1
 62
   251
  6
CONTINUOUS
100
AcDbLine
 10
26.53749597
 20
-170.37454975
 30
2500.0
 11
25.00307375
 21
-170.37454975
 31
2500.0
  0
LINE
  5
179
100
AcDbEntity
  8
MST_1_1
 62
   251
  6
CONTINUOUS
100
AcDbLine
 10
28.53749597
 20
-170.37454975
 30
2500.0
 11
27.00307375
 21
-170.37454975
 31
2500.0
  0
LINE
  5
17A
100
AcDbEntity
  8
MST_1_1
 62
   251
  6
CONTINUOUS
100
AcDbLine
 10
30.53749597
 20
-170.37454975
 30
2500.0
 11
29.00307375
 21
-170.37454975
 31
2500.0
  0
ARC
  5
17B
100
AcDbEntity
  8
MST_1_1
 62
   251
  6
CONTINUOUS
100
AcDbCircle
 10
30.59286399
 20
-189.24411945
 30
2500.0
 40
18.86965093
100
AcDbArc
 50
84.08482032
 51
88.74811714
  0
LWPOLYLINE
  5
17C
100
AcDbEntity
  8
MST_1_1
 62
   251
  6
CONTINUOUS
100
AcDbPolyline
 90
        3
 70
     0
 43
0.0
 38
2500.0
 10
37.93749597
 20
-171.45454975
 10
34.22017637
 20
-170.72638926
 42
0.01723995
 10
32.9357159
 20
-170.52047741
  0
ARC
  5
17D
100
AcDbEntity
  8
MST_1_1
 62
   251
  6
CONTINUOUS
100
AcDbCircle
 10
30.59286399
 20
-153.66498005
 30
2500.0
 40
18.86965093
100
AcDbArc
 50
271.25189287
 51
272.83975061
  0
LWPOLYLINE
  5
17E
100
AcDbEntity
  8
MST_1_1
 62
   251
  6
CONTINUOUS
100
AcDbPolyline
 90
        3
 70
     0
 43
0.0
 38
2500.0
 10
37.93749597
 20
-171.45454975
 10
34.22017637
 20
-172.18271023
 42
-0.0063851
 10
33.74610067
 20
-172.26930279
  0
ARC
  5
17F
100
AcDbEntity
  8
MST_1_1
 62
   251
  6
CONTINUOUS
100
AcDbCircle
 10
30.59286399
 20
-153.66498005
 30
2500.0
 40
18.86965093
100
AcDbArc
 50
274.21680449
 51
278.53995004
  0
LWPOLYLINE
  5
180
100
AcDbEntity
  8
MST_1_1
 62
   137
  6
CONTINUOUS
100
AcDbPolyline
 90
        6
 70
     0
 43
0.0
 38
2500.0
 10
34.62041656
 20
-170.43036478
 10
34.53749597
 20
-170.78854684
 10
35.25225448
 20
-172.33100898
 10
35.33155291
 20
-171.96501023
 10
34.62041656
 20
-170.43036478
 10
35.23856408
 20
-172.30146484
  0
LWPOLYLINE
  5
181
100
AcDbEntity
  8
MST_1_1
 62
     1
  6
BORDER
100
AcDbPolyline
 90
        3
 70
     0
 43
0.0
 10
47.93749597
 20
-201.45454975
 10
-2.06250403
 20
-201.45454975
 10
-7.06250403
 20
-201.45454975
  0
LINE
  5
182
100
AcDbEntity
  8
MST_1_1
 62
   137
  6
CONTINUOUS
100
AcDbLine
 10
-2.06250403
 20
-201.45454975
 30
0.0
 11
-2.06250403
 21
-197.95454975
 31
0.0
  0
LINE
  5
183
100
AcDbEntity
  8
MST_1_1
 62
   137
  6
CONTINUOUS
100
AcDbLine
 10
-2.06250403
 20
-197.95454975
 30
0.0
 11
-1.97500406
 21
-197.95454975
 31
0.0
  0
LWPOLYLINE
  5
184
100
AcDbEntity
  8
MST_1_1
 62
   137
  6
CONTINUOUS
100
AcDbPolyline
 90
        6
 70
     0
 43
0.0
 38
2500.0
 10
2.6926037
 20
-199.70454963
 10
2.53749597
 20
-200.37454975
 10
3.84888413
 20
-203.20454975
 10
4.00399192
 20
-202.53454975
 10
2.6926037
 20
-199.70454963
 10
3.84888413
 20
-203.20454975
  0
LINE
  5
185
100
AcDbEntity
  8
MST_1_1
 62
   137
  6
CONTINUOUS
100
AcDbLine
 10
0.03749597
 20
-200.37454975
 30
2500.0
 11
2.53749597
 21
-200.37454975
 31
2500.0
  0
LWPOLYLINE
  5
186
100
AcDbEntity
  8
MST_1_1
 62
   137
  6
CONTINUOUS
100
AcDbPolyline
 90
        4
 70
     0
 43
0.0
 38
2500.0
 10
1.53841414
 20
-202.53454975
 10
1.84888413
 20
-203.20454975
 10
2.00399192
 20
-202.53454975
 10
1.7713414
 20
-202.03248561
  0
LINE
  5
187
100
AcDbEntity
  8
MST_1_1
 62
   137
  6
CONTINUOUS
100
AcDbLine
 10
1.59047038
 20
-202.42234489
 30
2500.0
 11
1.84888413
 21
-203.20454975
 31
2500.0
  0
LINE
  5
188
100
AcDbEntity
  8
MST_1_1
 62
   137
  6
CONTINUOUS
100
AcDbLine
 10
1.53841414
 20
-202.53454975
 30
2500.0
 11
1.7713414
 21
-202.03248561
 31
2500.0
  0
LINE
  5
189
100
AcDbEntity
  8
MST_1_1
 62
   137
  6
CONTINUOUS
100
AcDbLine
 10
3.53841414
 20
-202.53454975
 30
2500.0
 11
2.00399192
 21
-202.53454975
 31
2500.0
  0
LINE
  5
18A
100
AcDbEntity
  8
MST_1_1
 62
   137
  6
CONTINUOUS
100
AcDbLine
 10
1.53841414
 20
-202.53454975
 30
2500.0
 11
0.03749597
 21
-202.53454975
 31
2500.0
  0
LINE
  5
18B
100
AcDbEntity
  8
MST_1_1
 62
   137
  6
CONTINUOUS
100
AcDbLine
 10
-1.97500406
 20
-197.95454975
 30
0.0
 11
0.03749597
 21
-200.37454975
 31
0.0
  0
LINE
  5
18C
100
AcDbEntity
  8
MST_1_1
 62
   137
  6
CONTINUOUS
100
AcDbLine
 10
0.03749597
 20
-202.53454975
 30
0.0
 11
-1.97500406
 21
-204.95454975
 31
0.0
  0
LINE
  5
18D
100
AcDbEntity
  8
MST_1_1
 62
   137
  6
CONTINUOUS
100
AcDbLine
 10
-1.97500406
 20
-204.95454975
 30
0.0
 11
-2.06250403
 21
-204.95454975
 31
0.0
  0
LINE
  5
18E
100
AcDbEntity
  8
MST_1_1
 62
   137
  6
CONTINUOUS
100
AcDbLine
 10
-2.06250403
 20
-204.95454975
 30
0.0
 11
-2.06250403
 21
-201.45454975
 31
0.0
  0
LWPOLYLINE
  5
18F
100
AcDbEntity
  8
MST_1_1
 62
   137
  6
CONTINUOUS
100
AcDbPolyline
 90
        6
 70
     0
 43
0.0
 38
2500.0
 10
4.6926037
 20
-199.70454963
 10
4.53749597
 20
-200.37454975
 10
5.84888413
 20
-203.20454975
 10
6.00399192
 20
-202.53454975
 10
4.6926037
 20
-199.70454963
 10
5.84888413
 20
-203.20454975
  0
LWPOLYLINE
  5
190
100
AcDbEntity
  8
MST_1_1
 62
   137
  6
CONTINUOUS
100
AcDbPolyline
 90
        6
 70
     0
 43
0.0
 38
2500.0
 10
6.6926037
 20
-199.70454963
 10
6.53749597
 20
-200.37454975
 10
7.84888413
 20
-203.20454975
 10
8.00399192
 20
-202.53454975
 10
6.6926037
 20
-199.70454963
 10
7.84888413
 20
-203.20454975
  0
LWPOLYLINE
  5
191
100
AcDbEntity
  8
MST_1_1
 62
   137
  6
CONTINUOUS
100
AcDbPolyline
 90
        6
 70
     0
 43
0.0
 38
2500.0
 10
8.6926037
 20
-199.70454963
 10
8.53749597
 20
-200.37454975
 10
9.84888413
 20
-203.20454975
 10
10.00399192
 20
-202.53454975
 10
8.6926037
 20
-199.70454963
 10
9.84888413
 20
-203.20454975
  0
LWPOLYLINE
  5
192
100
AcDbEntity
  8
MST_1_1
 62
   137
  6
CONTINUOUS
100
AcDbPolyline
 90
        6
 70
     0
 43
0.0
 38
2500.0
 10
34.6926037
 20
-199.70454963
 10
34.53749597
 20
-200.37454975
 10
35.84888413
 20
-203.20454975
 10
36.00399192
 20
-202.53454975
 10
34.6926037
 20
-199.70454963
 10
35.84888413
 20
-203.20454975
  0
LWPOLYLINE
  5
193
100
AcDbEntity
  8
MST_1_1
 62
   137
  6
CONTINUOUS
100
AcDbPolyline
 90
        6
 70
     0
 43
0.0
 38
2500.0
 10
36.6926037
 20
-199.70454963
 10
36.53749597
 20
-200.37454975
 10
37.84888413
 20
-203.20454975
 10
38.00399192
 20
-202.53454975
 10
36.6926037
 20
-199.70454963
 10
37.84888413
 20
-203.20454975
  0
LWPOLYLINE
  5
194
100
AcDbEntity
  8
MST_1_1
 62
   137
  6
CONTINUOUS
100
AcDbPolyline
 90
        6
 70
     0
 43
0.0
 38
2500.0
 10
38.6926037
 20
-199.70454963
 10
38.53749597
 20
-200.37454975
 10
39.84888413
 20
-203.20454975
 10
40.00399192
 20
-202.53454975
 10
38.6926037
 20
-199.70454963
 10
39.84888413
 20
-203.20454975
  0
LWPOLYLINE
  5
195
100
AcDbEntity
  8
MST_1_1
 62
   137
  6
CONTINUOUS
100
AcDbPolyline
 90
        6
 70
     0
 43
0.0
 38
2500.0
 10
40.6926037
 20
-199.70454963
 10
40.53749597
 20
-200.37454975
 10
41.84888413
 20
-203.20454975
 10
41.98035934
 20
-202.48355021
 10
40.6926037
 20
-199.70454963
 10
41.84888413
 20
-203.20454975
  0
LWPOLYLINE
  5
196
100
AcDbEntity
  8
MST_1_1
 62
   137
  6
CONTINUOUS
100
AcDbPolyline
 90
        6
 70
     0
 43
0.0
 38
2500.0
 10
42.66313323
 20
-199.93223895
 10
42.53749597
 20
-200.47493905
 10
43.62046341
 20
-202.81200289
 10
43.74610067
 20
-202.26930279
 10
42.66313323
 20
-199.93223895
 10
43.59972038
 20
-202.76723905
  0
LINE
  5
197
100
AcDbEntity
  8
MST_1_1
 62
   251
  6
CONTINUOUS
100
AcDbLine
 10
4.00399192
 20
-202.53454975
 30
2500.0
 11
5.53841414
 21
-202.53454975
 31
2500.0
  0
LINE
  5
198
100
AcDbEntity
  8
MST_1_1
 62
   251
  6
CONTINUOUS
100
AcDbLine
 10
6.00399192
 20
-202.53454975
 30
2500.0
 11
7.53841414
 21
-202.53454975
 31
2500.0
  0
LINE
  5
199
100
AcDbEntity
  8
MST_1_1
 62
   251
  6
CONTINUOUS
100
AcDbLine
 10
8.00399192
 20
-202.53454975
 30
2500.0
 11
9.53841414
 21
-202.53454975
 31
2500.0
  0
LINE
  5
19A
100
AcDbEntity
  8
MST_1_1
 62
   251
  6
CONTINUOUS
100
AcDbLine
 10
34.00399192
 20
-202.53454975
 30
2500.0
 11
35.53841414
 21
-202.53454975
 31
2500.0
  0
LINE
  5
19B
100
AcDbEntity
  8
MST_1_1
 62
   251
  6
CONTINUOUS
100
AcDbLine
 10
36.00399192
 20
-202.53454975
 30
2500.0
 11
37.53841414
 21
-202.53454975
 31
2500.0
  0
LINE
  5
19C
100
AcDbEntity
  8
MST_1_1
 62
   251
  6
CONTINUOUS
100
AcDbLine
 10
38.00399192
 20
-202.53454975
 30
2500.0
 11
39.53841414
 21
-202.53454975
 31
2500.0
  0
LINE
  5
19D
100
AcDbEntity
  8
MST_1_1
 62
   251
  6
CONTINUOUS
100
AcDbLine
 10
40.00399192
 20
-202.53454975
 30
2500.0
 11
41.0051232
 21
-202.53012698
 31
2500.0
  0
LINE
  5
19E
100
AcDbEntity
  8
MST_1_1
 62
   251
  6
CONTINUOUS
100
AcDbLine
 10
4.53749597
 20
-200.37454975
 30
2500.0
 11
3.00307375
 21
-200.37454975
 31
2500.0
  0
LINE
  5
19F
100
AcDbEntity
  8
MST_1_1
 62
   251
  6
CONTINUOUS
100
AcDbLine
 10
6.53749597
 20
-200.37454975
 30
2500.0
 11
5.00307375
 21
-200.37454975
 31
2500.0
  0
LINE
  5
1A0
100
AcDbEntity
  8
MST_1_1
 62
   251
  6
CONTINUOUS
100
AcDbLine
 10
8.53749597
 20
-200.37454975
 30
2500.0
 11
7.00307375
 21
-200.37454975
 31
2500.0
  0
LINE
  5
1A1
100
AcDbEntity
  8
MST_1_1
 62
   251
  6
CONTINUOUS
100
AcDbLine
 10
34.53749597
 20
-200.37454975
 30
2500.0
 11
33.00307375
 21
-200.37454975
 31
2500.0
  0
LINE
  5
1A2
100
AcDbEntity
  8
MST_1_1
 62
   251
  6
CONTINUOUS
100
AcDbLine
 10
36.53749597
 20
-200.37454975
 30
2500.0
 11
35.00307375
 21
-200.37454975
 31
2500.0
  0
LINE
  5
1A3
100
AcDbEntity
  8
MST_1_1
 62
   251
  6
CONTINUOUS
100
AcDbLine
 10
38.53749597
 20
-200.37454975
 30
2500.0
 11
37.00307375
 21
-200.37454975
 31
2500.0
  0
LINE
  5
1A4
100
AcDbEntity
  8
MST_1_1
 62
   251
  6
CONTINUOUS
100
AcDbLine
 10
40.53749597
 20
-200.37454975
 30
2500.0
 11
39.00307375
 21
-200.37454975
 31
2500.0
  0
ARC
  5
1A5
100
AcDbEntity
  8
MST_1_1
 62
   251
  6
CONTINUOUS
100
AcDbCircle
 10
40.59286399
 20
-219.24411945
 30
2500.0
 40
18.86965093
100
AcDbArc
 50
84.08482032
 51
88.74811714
  0
LWPOLYLINE
  5
1A6
100
AcDbEntity
  8
MST_1_1
 62
   251
  6
CONTINUOUS
100
AcDbPolyline
 90
        3
 70
     0
 43
0.0
 38
2500.0
 10
47.93749597
 20
-201.45454975
 10
44.22017637
 20
-200.72638926
 42
0.01723995
 10
42.9357159
 20
-200.52047741
  0
ARC
  5
1A7
100
AcDbEntity
  8
MST_1_1
 62
   251
  6
CONTINUOUS
100
AcDbCircle
 10
40.59286399
 20
-183.66498005
 30
2500.0
 40
18.86965093
100
AcDbArc
 50
271.25189287
 51
272.83975061
  0
LWPOLYLINE
  5
1A8
100
AcDbEntity
  8
MST_1_1
 62
   251
  6
CONTINUOUS
100
AcDbPolyline
 90
        3
 70
     0
 43
0.0
 38
2500.0
 10
47.93749597
 20
-201.45454975
 10
44.22017637
 20
-202.18271023
 42
-0.0063851
 10
43.74610067
 20
-202.26930279
  0
ARC
  5
1A9
100
AcDbEntity
  8
MST_1_1
 62
   251
  6
CONTINUOUS
100
AcDbCircle
 10
40.59286399
 20
-183.66498005
 30
2500.0
 40
18.86965093
100
AcDbArc
 50
274.21680449
 51
278.53995004
  0
LWPOLYLINE
  5
1AA
100
AcDbEntity
  8
MST_1_1
 62
   137
  6
CONTINUOUS
100
AcDbPolyline
 90
        6
 70
     0
 43
0.0
 38
2500.0
 10
44.62041656
 20
-200.43036478
 10
44.53749597
 20
-200.78854684
 10
45.25225448
 20
-202.33100898
 10
45.33155291
 20
-201.96501023
 10
44.62041656
 20
-200.43036478
 10
45.23856408
 20
-202.30146484
  0
LWPOLYLINE
  5
1AB
100
AcDbEntity
  8
MST_1_1
 62
   137
  6
CONTINUOUS
100
AcDbPolyline
 90
        6
 70
     0
 43
0.0
 38
2500.0
 10
14.6926037
 20
-109.70454963
 10
14.53749597
 20
-110.37454975
 10
15.84888413
 20
-113.20454975
 10
16.00399192
 20
-112.53454975
 10
14.6926037
 20
-109.70454963
 10
15.84888413
 20
-113.20454975
  0
LWPOLYLINE
  5
1AC
100
AcDbEntity
  8
MST_1_1
 62
   137
  6
CONTINUOUS
100
AcDbPolyline
 90
        6
 70
     0
 43
0.0
 38
2500.0
 10
16.6926037
 20
-109.70454963
 10
16.53749597
 20
-110.37454975
 10
17.84888413
 20
-113.20454975
 10
18.00399192
 20
-112.53454975
 10
16.6926037
 20
-109.70454963
 10
17.84888413
 20
-113.20454975
  0
LINE
  5
1AD
100
AcDbEntity
  8
MST_1_1
 62
   251
  6
CONTINUOUS
100
AcDbLine
 10
14.00399192
 20
-112.53454975
 30
2500.0
 11
15.53841414
 21
-112.53454975
 31
2500.0
  0
LINE
  5
1AE
100
AcDbEntity
  8
MST_1_1
 62
   251
  6
CONTINUOUS
100
AcDbLine
 10
16.00399192
 20
-112.53454975
 30
2500.0
 11
17.53841414
 21
-112.53454975
 31
2500.0
  0
LINE
  5
1AF
100
AcDbEntity
  8
MST_1_1
 62
   251
  6
CONTINUOUS
100
AcDbLine
 10
14.53749597
 20
-110.37454975
 30
2500.0
 11
13.00307375
 21
-110.37454975
 31
2500.0
  0
LINE
  5
1B0
100
AcDbEntity
  8
MST_1_1
 62
   251
  6
CONTINUOUS
100
AcDbLine
 10
16.53749597
 20
-110.37454975
 30
2500.0
 11
15.00307375
 21
-110.37454975
 31
2500.0
  0
LWPOLYLINE
  5
1B1
100
AcDbEntity
  8
MST_1_1
 62
   137
  6
CONTINUOUS
100
AcDbPolyline
 90
        6
 70
     0
 43
0.0
 38
2500.0
 10
17.6926037
 20
-139.70454963
 10
17.53749597
 20
-140.37454975
 10
18.84888413
 20
-143.20454975
 10
19.00399192
 20
-142.53454975
 10
17.6926037
 20
-139.70454963
 10
18.84888413
 20
-143.20454975
  0
LWPOLYLINE
  5
1B2
100
AcDbEntity
  8
MST_1_1
 62
   137
  6
CONTINUOUS
100
AcDbPolyline
 90
        6
 70
     0
 43
0.0
 38
2500.0
 10
19.6926037
 20
-139.70454963
 10
19.53749597
 20
-140.37454975
 10
20.84888413
 20
-143.20454975
 10
21.00399192
 20
-142.53454975
 10
19.6926037
 20
-139.70454963
 10
20.84888413
 20
-143.20454975
  0
LINE
  5
1B3
100
AcDbEntity
  8
MST_1_1
 62
   251
  6
CONTINUOUS
100
AcDbLine
 10
17.00399192
 20
-142.53454975
 30
2500.0
 11
18.53841414
 21
-142.53454975
 31
2500.0
  0
LINE
  5
1B4
100
AcDbEntity
  8
MST_1_1
 62
   251
  6
CONTINUOUS
100
AcDbLine
 10
19.00399192
 20
-142.53454975
 30
2500.0
 11
20.53841414
 21
-142.53454975
 31
2500.0
  0
LINE
  5
1B5
100
AcDbEntity
  8
MST_1_1
 62
   251
  6
CONTINUOUS
100
AcDbLine
 10
17.53749597
 20
-140.37454975
 30
2500.0
 11
16.00307375
 21
-140.37454975
 31
2500.0
  0
LINE
  5
1B6
100
AcDbEntity
  8
MST_1_1
 62
   251
  6
CONTINUOUS
100
AcDbLine
 10
19.53749597
 20
-140.37454975
 30
2500.0
 11
18.00307375
 21
-140.37454975
 31
2500.0
  0
LWPOLYLINE
  5
1B7
100
AcDbEntity
  8
MST_1_1
 62
   137
  6
CONTINUOUS
100
AcDbPolyline
 90
        6
 70
     0
 43
0.0
 38
2500.0
 10
13.6926037
 20
-139.70454963
 10
13.53749597
 20
-140.37454975
 10
14.84888413
 20
-143.20454975
 10
15.00399192
 20
-142.53454975
 10
13.6926037
 20
-139.70454963
 10
14.84888413
 20
-143.20454975
  0
LWPOLYLINE
  5
1B8
100
AcDbEntity
  8
MST_1_1
 62
   137
  6
CONTINUOUS
100
AcDbPolyline
 90
        6
 70
     0
 43
0.0
 38
2500.0
 10
15.6926037
 20
-139.70454963
 10
15.53749597
 20
-140.37454975
 10
16.84888413
 20
-143.20454975
 10
17.00399192
 20
-142.53454975
 10
15.6926037
 20
-139.70454963
 10
16.84888413
 20
-143.20454975
  0
LINE
  5
1B9
100
AcDbEntity
  8
MST_1_1
 62
   251
  6
CONTINUOUS
100
AcDbLine
 10
13.00399192
 20
-142.53454975
 30
2500.0
 11
14.53841414
 21
-142.53454975
 31
2500.0
  0
LINE
  5
1BA
100
AcDbEntity
  8
MST_1_1
 62
   251
  6
CONTINUOUS
100
AcDbLine
 10
15.00399192
 20
-142.53454975
 30
2500.0
 11
16.53841414
 21
-142.53454975
 31
2500.0
  0
LINE
  5
1BB
100
AcDbEntity
  8
MST_1_1
 62
   251
  6
CONTINUOUS
100
AcDbLine
 10
13.53749597
 20
-140.37454975
 30
2500.0
 11
12.00307375
 21
-140.37454975
 31
2500.0
  0
LINE
  5
1BC
100
AcDbEntity
  8
MST_1_1
 62
   251
  6
CONTINUOUS
100
AcDbLine
 10
15.53749597
 20
-140.37454975
 30
2500.0
 11
14.00307375
 21
-140.37454975
 31
2500.0
  0
LWPOLYLINE
  5
1BD
100
AcDbEntity
  8
MST_1_1
 62
   137
  6
CONTINUOUS
100
AcDbPolyline
 90
        6
 70
     0
 43
0.0
 38
2500.0
 10
11.6926037
 20
-139.70454963
 10
11.53749597
 20
-140.37454975
 10
12.84888413
 20
-143.20454975
 10
13.00399192
 20
-142.53454975
 10
11.6926037
 20
-139.70454963
 10
12.84888413
 20
-143.20454975
  0
LINE
  5
1BE
100
AcDbEntity
  8
MST_1_1
 62
   251
  6
CONTINUOUS
100
AcDbLine
 10
11.00399192
 20
-142.53454975
 30
2500.0
 11
12.53841414
 21
-142.53454975
 31
2500.0
  0
LINE
  5
1BF
100
AcDbEntity
  8
MST_1_1
 62
   251
  6
CONTINUOUS
100
AcDbLine
 10
11.53749597
 20
-140.37454975
 30
2500.0
 11
10.00307375
 21
-140.37454975
 31
2500.0
  0
LWPOLYLINE
  5
1C0
100
AcDbEntity
  8
MST_1_1
 62
   137
  6
CONTINUOUS
100
AcDbPolyline
 90
        6
 70
     0
 43
0.0
 38
2500.0
 10
20.6926037
 20
-169.70454963
 10
20.53749597
 20
-170.37454975
 10
21.84888413
 20
-173.20454975
 10
22.00399192
 20
-172.53454975
 10
20.6926037
 20
-169.70454963
 10
21.84888413
 20
-173.20454975
  0
LWPOLYLINE
  5
1C1
100
AcDbEntity
  8
MST_1_1
 62
   137
  6
CONTINUOUS
100
AcDbPolyline
 90
        6
 70
     0
 43
0.0
 38
2500.0
 10
22.6926037
 20
-169.70454963
 10
22.53749597
 20
-170.37454975
 10
23.84888413
 20
-173.20454975
 10
24.00399192
 20
-172.53454975
 10
22.6926037
 20
-169.70454963
 10
23.84888413
 20
-173.20454975
  0
LWPOLYLINE
  5
1C2
100
AcDbEntity
  8
MST_1_1
 62
   137
  6
CONTINUOUS
100
AcDbPolyline
 90
        6
 70
     0
 43
0.0
 38
2500.0
 10
24.6926037
 20
-169.70454963
 10
24.53749597
 20
-170.37454975
 10
25.84888413
 20
-173.20454975
 10
26.00399192
 20
-172.53454975
 10
24.6926037
 20
-169.70454963
 10
25.84888413
 20
-173.20454975
  0
LINE
  5
1C3
100
AcDbEntity
  8
MST_1_1
 62
   251
  6
CONTINUOUS
100
AcDbLine
 10
20.00399192
 20
-172.53454975
 30
2500.0
 11
21.53841414
 21
-172.53454975
 31
2500.0
  0
LINE
  5
1C4
100
AcDbEntity
  8
MST_1_1
 62
   251
  6
CONTINUOUS
100
AcDbLine
 10
22.00399192
 20
-172.53454975
 30
2500.0
 11
23.53841414
 21
-172.53454975
 31
2500.0
  0
LINE
  5
1C5
100
AcDbEntity
  8
MST_1_1
 62
   251
  6
CONTINUOUS
100
AcDbLine
 10
24.00399192
 20
-172.53454975
 30
2500.0
 11
25.53841414
 21
-172.53454975
 31
2500.0
  0
LINE
  5
1C6
100
AcDbEntity
  8
MST_1_1
 62
   251
  6
CONTINUOUS
100
AcDbLine
 10
20.53749597
 20
-170.37454975
 30
2500.0
 11
19.00307375
 21
-170.37454975
 31
2500.0
  0
LINE
  5
1C7
100
AcDbEntity
  8
MST_1_1
 62
   251
  6
CONTINUOUS
100
AcDbLine
 10
22.53749597
 20
-170.37454975
 30
2500.0
 11
21.00307375
 21
-170.37454975
 31
2500.0
  0
LINE
  5
1C8
100
AcDbEntity
  8
MST_1_1
 62
   251
  6
CONTINUOUS
100
AcDbLine
 10
24.53749597
 20
-170.37454975
 30
2500.0
 11
23.00307375
 21
-170.37454975
 31
2500.0
  0
LWPOLYLINE
  5
1C9
100
AcDbEntity
  8
MST_1_1
 62
   137
  6
CONTINUOUS
100
AcDbPolyline
 90
        6
 70
     0
 43
0.0
 38
2500.0
 10
14.6926037
 20
-169.70454963
 10
14.53749597
 20
-170.37454975
 10
15.84888413
 20
-173.20454975
 10
16.00399192
 20
-172.53454975
 10
14.6926037
 20
-169.70454963
 10
15.84888413
 20
-173.20454975
  0
LWPOLYLINE
  5
1CA
100
AcDbEntity
  8
MST_1_1
 62
   137
  6
CONTINUOUS
100
AcDbPolyline
 90
        6
 70
     0
 43
0.0
 38
2500.0
 10
16.6926037
 20
-169.70454963
 10
16.53749597
 20
-170.37454975
 10
17.84888413
 20
-173.20454975
 10
18.00399192
 20
-172.53454975
 10
16.6926037
 20
-169.70454963
 10
17.84888413
 20
-173.20454975
  0
LWPOLYLINE
  5
1CB
100
AcDbEntity
  8
MST_1_1
 62
   137
  6
CONTINUOUS
100
AcDbPolyline
 90
        6
 70
     0
 43
0.0
 38
2500.0
 10
18.6926037
 20
-169.70454963
 10
18.53749597
 20
-170.37454975
 10
19.84888413
 20
-173.20454975
 10
20.00399192
 20
-172.53454975
 10
18.6926037
 20
-169.70454963
 10
19.84888413
 20
-173.20454975
  0
LINE
  5
1CC
100
AcDbEntity
  8
MST_1_1
 62
   251
  6
CONTINUOUS
100
AcDbLine
 10
14.00399192
 20
-172.53454975
 30
2500.0
 11
15.53841414
 21
-172.53454975
 31
2500.0
  0
LINE
  5
1CD
100
AcDbEntity
  8
MST_1_1
 62
   251
  6
CONTINUOUS
100
AcDbLine
 10
16.00399192
 20
-172.53454975
 30
2500.0
 11
17.53841414
 21
-172.53454975
 31
2500.0
  0
LINE
  5
1CE
100
AcDbEntity
  8
MST_1_1
 62
   251
  6
CONTINUOUS
100
AcDbLine
 10
18.00399192
 20
-172.53454975
 30
2500.0
 11
19.53841414
 21
-172.53454975
 31
2500.0
  0
LINE
  5
1CF
100
AcDbEntity
  8
MST_1_1
 62
   251
  6
CONTINUOUS
100
AcDbLine
 10
14.53749597
 20
-170.37454975
 30
2500.0
 11
13.00307375
 21
-170.37454975
 31
2500.0
  0
LINE
  5
1D0
100
AcDbEntity
  8
MST_1_1
 62
   251
  6
CONTINUOUS
100
AcDbLine
 10
16.53749597
 20
-170.37454975
 30
2500.0
 11
15.00307375
 21
-170.37454975
 31
2500.0
  0
LINE
  5
1D1
100
AcDbEntity
  8
MST_1_1
 62
   251
  6
CONTINUOUS
100
AcDbLine
 10
18.53749597
 20
-170.37454975
 30
2500.0
 11
17.00307375
 21
-170.37454975
 31
2500.0
  0
LWPOLYLINE
  5
1D2
100
AcDbEntity
  8
MST_1_1
 62
   137
  6
CONTINUOUS
100
AcDbPolyline
 90
        6
 70
     0
 43
0.0
 38
2500.0
 10
12.6926037
 20
-169.70454963
 10
12.53749597
 20
-170.37454975
 10
13.84888413
 20
-173.20454975
 10
14.00399192
 20
-172.53454975
 10
12.6926037
 20
-169.70454963
 10
13.84888413
 20
-173.20454975
  0
LINE
  5
1D3
100
AcDbEntity
  8
MST_1_1
 62
   251
  6
CONTINUOUS
100
AcDbLine
 10
12.00399192
 20
-172.53454975
 30
2500.0
 11
13.53841414
 21
-172.53454975
 31
2500.0
  0
LINE
  5
1D4
100
AcDbEntity
  8
MST_1_1
 62
   251
  6
CONTINUOUS
100
AcDbLine
 10
12.53749597
 20
-170.37454975
 30
2500.0
 11
11.00307375
 21
-170.37454975
 31
2500.0
  0
LWPOLYLINE
  5
1D5
100
AcDbEntity
  8
MST_1_1
 62
   137
  6
CONTINUOUS
100
AcDbPolyline
 90
        6
 70
     0
 43
0.0
 38
2500.0
 10
28.6926037
 20
-199.70454963
 10
28.53749597
 20
-200.37454975
 10
29.84888413
 20
-203.20454975
 10
30.00399192
 20
-202.53454975
 10
28.6926037
 20
-199.70454963
 10
29.84888413
 20
-203.20454975
  0
LWPOLYLINE
  5
1D6
100
AcDbEntity
  8
MST_1_1
 62
   137
  6
CONTINUOUS
100
AcDbPolyline
 90
        6
 70
     0
 43
0.0
 38
2500.0
 10
30.6926037
 20
-199.70454963
 10
30.53749597
 20
-200.37454975
 10
31.84888413
 20
-203.20454975
 10
32.00399192
 20
-202.53454975
 10
30.6926037
 20
-199.70454963
 10
31.84888413
 20
-203.20454975
  0
LWPOLYLINE
  5
1D7
100
AcDbEntity
  8
MST_1_1
 62
   137
  6
CONTINUOUS
100
AcDbPolyline
 90
        6
 70
     0
 43
0.0
 38
2500.0
 10
32.6926037
 20
-199.70454963
 10
32.53749597
 20
-200.37454975
 10
33.84888413
 20
-203.20454975
 10
34.00399192
 20
-202.53454975
 10
32.6926037
 20
-199.70454963
 10
33.84888413
 20
-203.20454975
  0
LINE
  5
1D8
100
AcDbEntity
  8
MST_1_1
 62
   251
  6
CONTINUOUS
100
AcDbLine
 10
28.00399192
 20
-202.53454975
 30
2500.0
 11
29.53841414
 21
-202.53454975
 31
2500.0
  0
LINE
  5
1D9
100
AcDbEntity
  8
MST_1_1
 62
   251
  6
CONTINUOUS
100
AcDbLine
 10
30.00399192
 20
-202.53454975
 30
2500.0
 11
31.53841414
 21
-202.53454975
 31
2500.0
  0
LINE
  5
1DA
100
AcDbEntity
  8
MST_1_1
 62
   251
  6
CONTINUOUS
100
AcDbLine
 10
32.00399192
 20
-202.53454975
 30
2500.0
 11
33.53841414
 21
-202.53454975
 31
2500.0
  0
LINE
  5
1DB
100
AcDbEntity
  8
MST_1_1
 62
   251
  6
CONTINUOUS
100
AcDbLine
 10
28.53749597
 20
-200.37454975
 30
2500.0
 11
27.00307375
 21
-200.37454975
 31
2500.0
  0
LINE
  5
1DC
100
AcDbEntity
  8
MST_1_1
 62
   251
  6
CONTINUOUS
100
AcDbLine
 10
30.53749597
 20
-200.37454975
 30
2500.0
 11
29.00307375
 21
-200.37454975
 31
2500.0
  0
LINE
  5
1DD
100
AcDbEntity
  8
MST_1_1
 62
   251
  6
CONTINUOUS
100
AcDbLine
 10
32.53749597
 20
-200.37454975
 30
2500.0
 11
31.00307375
 21
-200.37454975
 31
2500.0
  0
LWPOLYLINE
  5
1DE
100
AcDbEntity
  8
MST_1_1
 62
   137
  6
CONTINUOUS
100
AcDbPolyline
 90
        6
 70
     0
 43
0.0
 38
2500.0
 10
22.6926037
 20
-199.70454963
 10
22.53749597
 20
-200.37454975
 10
23.84888413
 20
-203.20454975
 10
24.00399192
 20
-202.53454975
 10
22.6926037
 20
-199.70454963
 10
23.84888413
 20
-203.20454975
  0
LWPOLYLINE
  5
1DF
100
AcDbEntity
  8
MST_1_1
 62
   137
  6
CONTINUOUS
100
AcDbPolyline
 90
        6
 70
     0
 43
0.0
 38
2500.0
 10
24.6926037
 20
-199.70454963
 10
24.53749597
 20
-200.37454975
 10
25.84888413
 20
-203.20454975
 10
26.00399192
 20
-202.53454975
 10
24.6926037
 20
-199.70454963
 10
25.84888413
 20
-203.20454975
  0
LWPOLYLINE
  5
1E0
100
AcDbEntity
  8
MST_1_1
 62
   137
  6
CONTINUOUS
100
AcDbPolyline
 90
        6
 70
     0
 43
0.0
 38
2500.0
 10
26.6926037
 20
-199.70454963
 10
26.53749597
 20
-200.37454975
 10
27.84888413
 20
-203.20454975
 10
28.00399192
 20
-202.53454975
 10
26.6926037
 20
-199.70454963
 10
27.84888413
 20
-203.20454975
  0
LINE
  5
1E1
100
AcDbEntity
  8
MST_1_1
 62
   251
  6
CONTINUOUS
100
AcDbLine
 10
22.00399192
 20
-202.53454975
 30
2500.0
 11
23.53841414
 21
-202.53454975
 31
2500.0
  0
LINE
  5
1E2
100
AcDbEntity
  8
MST_1_1
 62
   251
  6
CONTINUOUS
100
AcDbLine
 10
24.00399192
 20
-202.53454975
 30
2500.0
 11
25.53841414
 21
-202.53454975
 31
2500.0
  0
LINE
  5
1E3
100
AcDbEntity
  8
MST_1_1
 62
   251
  6
CONTINUOUS
100
AcDbLine
 10
26.00399192
 20
-202.53454975
 30
2500.0
 11
27.53841414
 21
-202.53454975
 31
2500.0
  0
LINE
  5
1E4
100
AcDbEntity
  8
MST_1_1
 62
   251
  6
CONTINUOUS
100
AcDbLine
 10
22.53749597
 20
-200.37454975
 30
2500.0
 11
21.00307375
 21
-200.37454975
 31
2500.0
  0
LINE
  5
1E5
100
AcDbEntity
  8
MST_1_1
 62
   251
  6
CONTINUOUS
100
AcDbLine
 10
24.53749597
 20
-200.37454975
 30
2500.0
 11
23.00307375
 21
-200.37454975
 31
2500.0
  0
LINE
  5
1E6
100
AcDbEntity
  8
MST_1_1
 62
   251
  6
CONTINUOUS
100
AcDbLine
 10
26.53749597
 20
-200.37454975
 30
2500.0
 11
25.00307375
 21
-200.37454975
 31
2500.0
  0
LWPOLYLINE
  5
1E7
100
AcDbEntity
  8
MST_1_1
 62
   137
  6
CONTINUOUS
100
AcDbPolyline
 90
        6
 70
     0
 43
0.0
 38
2500.0
 10
16.6926037
 20
-199.70454963
 10
16.53749597
 20
-200.37454975
 10
17.84888413
 20
-203.20454975
 10
18.00399192
 20
-202.53454975
 10
16.6926037
 20
-199.70454963
 10
17.84888413
 20
-203.20454975
  0
LWPOLYLINE
  5
1E8
100
AcDbEntity
  8
MST_1_1
 62
   137
  6
CONTINUOUS
100
AcDbPolyline
 90
        6
 70
     0
 43
0.0
 38
2500.0
 10
18.6926037
 20
-199.70454963
 10
18.53749597
 20
-200.37454975
 10
19.84888413
 20
-203.20454975
 10
20.00399192
 20
-202.53454975
 10
18.6926037
 20
-199.70454963
 10
19.84888413
 20
-203.20454975
  0
LWPOLYLINE
  5
1E9
100
AcDbEntity
  8
MST_1_1
 62
   137
  6
CONTINUOUS
100
AcDbPolyline
 90
        6
 70
     0
 43
0.0
 38
2500.0
 10
20.6926037
 20
-199.70454963
 10
20.53749597
 20
-200.37454975
 10
21.84888413
 20
-203.20454975
 10
22.00399192
 20
-202.53454975
 10
20.6926037
 20
-199.70454963
 10
21.84888413
 20
-203.20454975
  0
LINE
  5
1EA
100
AcDbEntity
  8
MST_1_1
 62
   251
  6
CONTINUOUS
100
AcDbLine
 10
16.00399192
 20
-202.53454975
 30
2500.0
 11
17.53841414
 21
-202.53454975
 31
2500.0
  0
LINE
  5
1EB
100
AcDbEntity
  8
MST_1_1
 62
   251
  6
CONTINUOUS
100
AcDbLine
 10
18.00399192
 20
-202.53454975
 30
2500.0
 11
19.53841414
 21
-202.53454975
 31
2500.0
  0
LINE
  5
1EC
100
AcDbEntity
  8
MST_1_1
 62
   251
  6
CONTINUOUS
100
AcDbLine
 10
20.00399192
 20
-202.53454975
 30
2500.0
 11
21.53841414
 21
-202.53454975
 31
2500.0
  0
LINE
  5
1ED
100
AcDbEntity
  8
MST_1_1
 62
   251
  6
CONTINUOUS
100
AcDbLine
 10
16.53749597
 20
-200.37454975
 30
2500.0
 11
15.00307375
 21
-200.37454975
 31
2500.0
  0
LINE
  5
1EE
100
AcDbEntity
  8
MST_1_1
 62
   251
  6
CONTINUOUS
100
AcDbLine
 10
18.53749597
 20
-200.37454975
 30
2500.0
 11
17.00307375
 21
-200.37454975
 31
2500.0
  0
LINE
  5
1EF
100
AcDbEntity
  8
MST_1_1
 62
   251
  6
CONTINUOUS
100
AcDbLine
 10
20.53749597
 20
-200.37454975
 30
2500.0
 11
19.00307375
 21
-200.37454975
 31
2500.0
  0
LWPOLYLINE
  5
1F0
100
AcDbEntity
  8
MST_1_1
 62
   137
  6
CONTINUOUS
100
AcDbPolyline
 90
        6
 70
     0
 43
0.0
 38
2500.0
 10
10.6926037
 20
-199.70454963
 10
10.53749597
 20
-200.37454975
 10
11.84888413
 20
-203.20454975
 10
12.00399192
 20
-202.53454975
 10
10.6926037
 20
-199.70454963
 10
11.84888413
 20
-203.20454975
  0
LWPOLYLINE
  5
1F1
100
AcDbEntity
  8
MST_1_1
 62
   137
  6
CONTINUOUS
100
AcDbPolyline
 90
        6
 70
     0
 43
0.0
 38
2500.0
 10
12.6926037
 20
-199.70454963
 10
12.53749597
 20
-200.37454975
 10
13.84888413
 20
-203.20454975
 10
14.00399192
 20
-202.53454975
 10
12.6926037
 20
-199.70454963
 10
13.84888413
 20
-203.20454975
  0
LWPOLYLINE
  5
1F2
100
AcDbEntity
  8
MST_1_1
 62
   137
  6
CONTINUOUS
100
AcDbPolyline
 90
        6
 70
     0
 43
0.0
 38
2500.0
 10
14.6926037
 20
-199.70454963
 10
14.53749597
 20
-200.37454975
 10
15.84888413
 20
-203.20454975
 10
16.00399192
 20
-202.53454975
 10
14.6926037
 20
-199.70454963
 10
15.84888413
 20
-203.20454975
  0
LINE
  5
1F3
100
AcDbEntity
  8
MST_1_1
 62
   251
  6
CONTINUOUS
100
AcDbLine
 10
10.00399192
 20
-202.53454975
 30
2500.0
 11
11.53841414
 21
-202.53454975
 31
2500.0
  0
LINE
  5
1F4
100
AcDbEntity
  8
MST_1_1
 62
   251
  6
CONTINUOUS
100
AcDbLine
 10
12.00399192
 20
-202.53454975
 30
2500.0
 11
13.53841414
 21
-202.53454975
 31
2500.0
  0
LINE
  5
1F5
100
AcDbEntity
  8
MST_1_1
 62
   251
  6
CONTINUOUS
100
AcDbLine
 10
14.00399192
 20
-202.53454975
 30
2500.0
 11
15.53841414
 21
-202.53454975
 31
2500.0
  0
LINE
  5
1F6
100
AcDbEntity
  8
MST_1_1
 62
   251
  6
CONTINUOUS
100
AcDbLine
 10
10.53749597
 20
-200.37454975
 30
2500.0
 11
9.00307375
 21
-200.37454975
 31
2500.0
  0
LINE
  5
1F7
100
AcDbEntity
  8
MST_1_1
 62
   251
  6
CONTINUOUS
100
AcDbLine
 10
12.53749597
 20
-200.37454975
 30
2500.0
 11
11.00307375
 21
-200.37454975
 31
2500.0
  0
LINE
  5
1F8
100
AcDbEntity
  8
MST_1_1
 62
   251
  6
CONTINUOUS
100
AcDbLine
 10
14.53749597
 20
-200.37454975
 30
2500.0
 11
13.00307375
 21
-200.37454975
 31
2500.0
  0
CIRCLE
  5
1F9
100
AcDbEntity
  8
MST_1_1
 62
   137
  6
CONTINUOUS
100
AcDbCircle
 10
-96.54013987
 20
8.54545025
 30
0.0
 40
1.89428533
  0
CIRCLE
  5
1FA
100
AcDbEntity
  8
MST_1_1
 62
   137
  6
CONTINUOUS
100
AcDbCircle
 10
-96.54013987
 20
8.54545025
 30
0.0
 40
1.06049438
  0
CIRCLE
  5
1FB
100
AcDbEntity
  8
MST_1_1
 62
   137
  6
CONTINUOUS
100
AcDbCircle
 10
-96.54013987
 20
8.54545025
 30
0.0
 40
1.89428533
  0
CIRCLE
  5
1FC
100
AcDbEntity
  8
MST_1_1
 62
   137
  6
CONTINUOUS
100
AcDbCircle
 10
-96.54013987
 20
8.54545025
 30
0.0
 40
1.06049438
  0
CIRCLE
  5
1FD
100
AcDbEntity
  8
MST_1_1
 62
   137
  6
CONTINUOUS
100
AcDbCircle
 10
-96.54013987
 20
8.54545025
 30
0.0
 40
1.89428533
  0
CIRCLE
  5
1FE
100
AcDbEntity
  8
MST_1_1
 62
   137
  6
CONTINUOUS
100
AcDbCircle
 10
-96.54013987
 20
8.54545025
 30
0.0
 40
1.06049438
  0
CIRCLE
  5
1FF
100
AcDbEntity
  8
MST_1_1
 62
   137
  6
CONTINUOUS
100
AcDbCircle
 10
-96.54013987
 20
8.54545025
 30
0.0
 40
1.59428533
  0
CIRCLE
  5
200
100
AcDbEntity
  8
MST_1_1
 62
   137
  6
CONTINUOUS
100
AcDbCircle
 10
-96.54013987
 20
8.54545025
 30
0.0
 40
1.99428533
  0
CIRCLE
  5
201
100
AcDbEntity
  8
MST_1_1
 62
   137
  6
CONTINUOUS
100
AcDbCircle
 10
-96.54013987
 20
8.54545025
 30
0.0
 40
1.125
  0
CIRCLE
  5
202
100
AcDbEntity
  8
MST_1_1
 62
   137
  6
CONTINUOUS
100
AcDbCircle
 10
-96.54013987
 20
8.54545025
 30
0.0
 40
3.5
  0
ARC
  5
203
100
AcDbEntity
  8
MST_1_1
 62
   137
  6
CONTINUOUS
100
AcDbCircle
 10
-97.91213985
 20
8.54545025
 30
0.0
 40
0.303
100
AcDbArc
 50
104.00039951
 51
255.99961051
  0
ARC
  5
204
100
AcDbEntity
  8
MST_1_1
 62
   137
  6
CONTINUOUS
100
AcDbCircle
 10
-98.14285743
 20
7.62012082
 30
0.0
 40
0.65065883
100
AcDbArc
 50
344.00042282
 51
75.99958535
  0
ARC
  5
205
100
AcDbEntity
  8
MST_1_1
 62
   137
  6
CONTINUOUS
100
AcDbCircle
 10
-97.22613984
 20
7.35726341
 30
0.0
 40
0.30299999
100
AcDbArc
 50
164.00040911
 51
315.99959504
  0
ARC
  5
206
100
AcDbEntity
  8
MST_1_1
 62
   137
  6
CONTINUOUS
100
AcDbCircle
 10
-96.54013987
 20
6.6947915
 30
0.0
 40
0.65065875
100
AcDbArc
 50
44.00040429
 51
135.99959571
  0
ARC
  5
207
100
AcDbEntity
  8
MST_1_1
 62
   137
  6
CONTINUOUS
100
AcDbCircle
 10
-95.85413987
 20
7.35726336
 30
0.0
 40
0.30299998
100
AcDbArc
 50
224.00041508
 51
15.9996008
  0
ARC
  5
208
100
AcDbEntity
  8
MST_1_1
 62
   137
  6
CONTINUOUS
100
AcDbCircle
 10
-95.16813989
 20
8.54545025
 30
0.0
 40
0.303
100
AcDbArc
 50
284.00040953
 51
75.99960049
  0
ARC
  5
209
100
AcDbEntity
  8
MST_1_1
 62
   137
  6
CONTINUOUS
100
AcDbCircle
 10
-94.93742231
 20
9.47077969
 30
0.0
 40
0.65065883
100
AcDbArc
 50
164.00041281
 51
255.99959537
  0
ARC
  5
20A
100
AcDbEntity
  8
MST_1_1
 62
   137
  6
CONTINUOUS
100
AcDbCircle
 10
-95.8541399
 20
9.7336371
 30
0.0
 40
0.30299999
100
AcDbArc
 50
344.00041913
 51
135.99958502
  0
ARC
  5
20B
100
AcDbEntity
  8
MST_1_1
 62
   137
  6
CONTINUOUS
100
AcDbCircle
 10
-96.54013987
 20
10.396109
 30
0.0
 40
0.65065875
100
AcDbArc
 50
224.00041431
 51
315.99960573
  0
ARC
  5
20C
100
AcDbEntity
  8
MST_1_1
 62
   137
  6
CONTINUOUS
100
AcDbCircle
 10
-97.22613987
 20
9.73363715
 30
0.0
 40
0.30299998
100
AcDbArc
 50
44.00040506
 51
195.99961082
  0
ARC
  5
20D
100
AcDbEntity
  8
MST_1_1
 62
   137
  6
CONTINUOUS
100
AcDbCircle
 10
-98.14285742
 20
9.47077969
 30
0.0
 40
0.65065883
100
AcDbArc
 50
284.00042461
 51
15.99958726
  0
LWPOLYLINE
  5
20E
100
AcDbEntity
  8
MST_1_1
 62
   137
  6
CONTINUOUS
100
AcDbPolyline
 90
        9
 70
     0
 43
0.0
 10
-97.83060977
 20
6.30038613
 10
-97.82154381
 20
6.30945209
 10
-97.81247144
 20
6.31852456
 10
-97.8033928
 20
6.3276031
 10
-97.79430774
 20
6.33668815
 10
-97.78521652
 20
6.34577949
 10
-97.7761189
 20
6.35487711
 10
-97.7670151
 20
6.36398079
 10
-97.75790514
 20
6.37309075
  0
ARC
  5
20F
100
AcDbEntity
  8
MST_1_1
 62
   137
  6
CONTINUOUS
100
AcDbCircle
 10
-97.60574981
 20
6.49979025
 30
0.0
 40
0.19800002
100
AcDbArc
 50
50.21591721
 51
219.78410477
  0
LWPOLYLINE
  5
210
100
AcDbEntity
  8
MST_1_1
 62
   137
  6
CONTINUOUS
100
AcDbPolyline
 90
        9
 70
     0
 43
0.0
 10
-97.47905034
 20
6.65194561
 10
-97.46997908
 20
6.66101693
 10
-97.46090299
 20
6.67009302
 10
-97.45182207
 20
6.67917388
 10
-97.44273627
 20
6.68825963
 10
-97.43364574
 20
6.69735027
 10
-97.42455045
 20
6.70644556
 10
-97.41545038
 20
6.71554552
 10
-97.40634565
 20
6.72465024
  0
LWPOLYLINE
  5
211
100
AcDbEntity
  8
MST_1_1
 62
   137
  6
CONTINUOUS
100
AcDbPolyline
 90
        9
 70
     0
 43
0.0
 10
-97.40634565
 20
6.72465024
 10
-97.46069513
 20
6.77899978
 10
-97.51509677
 20
6.83340136
 10
-97.56954398
 20
6.88784857
 10
-97.62402985
 20
6.94233444
 10
-97.67854784
 20
6.99685243
 10
-97.7330911
 20
7.05139569
 10
-97.78765298
 20
7.10595757
 10
-97.84222662
 20
7.16053121
  0
LWPOLYLINE
  5
212
100
AcDbEntity
  8
MST_1_1
 62
   137
  6
CONTINUOUS
100
AcDbPolyline
 90
        9
 70
     0
 43
0.0
 10
-97.84222662
 20
7.16053121
 10
-97.84544864
 20
7.1573093
 10
-97.84866997
 20
7.15408785
 10
-97.85189084
 20
7.15086711
 10
-97.85511112
 20
7.14764683
 10
-97.8583307
 20
7.14442713
 10
-97.86154982
 20
7.14120813
 10
-97.86476823
 20
7.13798959
 10
-97.86798619
 20
7.13477176
  0
LWPOLYLINE
  5
213
100
AcDbEntity
  8
MST_1_1
 62
   137
  6
CONTINUOUS
100
AcDbPolyline
 90
       25
 70
     0
 43
0.0
 10
-97.86798619
 20
7.13477172
 10
-97.87067851
 20
7.13891871
 10
-97.87344229
 20
7.14301069
 10
-97.8762768
 20
7.14704692
 10
-97.87918127
 20
7.15102663
 10
-97.88215497
 20
7.15494908
 10
-97.88519716
 20
7.15881354
 10
-97.88830708
 20
7.16261924
 10
-97.891484
 20
7.16636545
 10
-97.89472717
 20
7.17005142
 10
-97.89803585
 20
7.1736764
 10
-97.90140928
 20
7.17723964
 10
-97.90484673
 20
7.18074039
 10
-97.90834746
 20
7.18417792
 10
-97.91191071
 20
7.18755147
 10
-97.91553574
 20
7.1908603
 10
-97.91922181
 20
7.19410365
 10
-97.92296817
 20
7.19728079
 10
-97.92677409
 20
7.20039097
 10
-97.93063881
 20
7.20343343
 10
-97.93456158
 20
7.20640743
 10
-97.93854168
 20
7.20931223
 10
-97.94257834
 20
7.21214708
 10
-97.94667083
 20
7.21491123
 10
-97.95081841
 20
7.21760394
  0
LWPOLYLINE
  5
214
100
AcDbEntity
  8
MST_1_1
 62
   137
  6
CONTINUOUS
100
AcDbPolyline
 90
        9
 70
     0
 43
0.0
 10
-97.95081836
 20
7.21760394
 10
-97.94760053
 20
7.22082189
 10
-97.94438199
 20
7.22404031
 10
-97.94116299
 20
7.22725942
 10
-97.9379433
 20
7.23047901
 10
-97.93472302
 20
7.23369929
 10
-97.93150227
 20
7.23692015
 10
-97.92828082
 20
7.24014148
 10
-97.92505891
 20
7.2433635
  0
LWPOLYLINE
  5
215
100
AcDbEntity
  8
MST_1_1
 62
   137
  6
CONTINUOUS
100
AcDbPolyline
 90
        9
 70
     0
 43
0.0
 10
-97.92505891
 20
7.2433635
 10
-97.97963255
 20
7.29793714
 10
-98.03419444
 20
7.35249903
 10
-98.08873769
 20
7.40704228
 10
-98.14325569
 20
7.46156028
 10
-98.19774155
 20
7.51604614
 10
-98.25218876
 20
7.57049335
 10
-98.30659034
 20
7.62489499
 10
-98.36093988
 20
7.67924447
  0
LWPOLYLINE
  5
216
100
AcDbEntity
  8
MST_1_1
 62
   137
  6
CONTINUOUS
100
AcDbPolyline
 90
        9
 70
     0
 43
0.0
 10
-98.36093988
 20
7.67924447
 10
-98.37004461
 20
7.67013975
 10
-98.37914456
 20
7.66103968
 10
-98.38823986
 20
7.65194438
 10
-98.3973305
 20
7.64285386
 10
-98.40641625
 20
7.63376805
 10
-98.41549711
 20
7.62468713
 10
-98.42457319
 20
7.61561104
 10
-98.43364451
 20
7.60653979
  0
ARC
  5
217
100
AcDbEntity
  8
MST_1_1
 62
   137
  6
CONTINUOUS
100
AcDbCircle
 10
-98.58579988
 20
7.47984033
 30
0.0
 40
0.19800002
100
AcDbArc
 50
230.21591956
 51
39.7840785
  0
LWPOLYLINE
  5
218
100
AcDbEntity
  8
MST_1_1
 62
   137
  6
CONTINUOUS
100
AcDbPolyline
 90
        9
 70
     0
 43
0.0
 10
-98.71249937
 20
7.32768498
 10
-98.72160933
 20
7.31857502
 10
-98.73071301
 20
7.30947123
 10
-98.73981064
 20
7.3003736
 10
-98.74890197
 20
7.29128238
 10
-98.75798703
 20
7.28219733
 10
-98.76706556
 20
7.27311868
 10
-98.77613804
 20
7.26404632
 10
-98.785204
 20
7.25498036
  0
LWPOLYLINE
  5
219
100
AcDbEntity
  8
MST_1_1
 62
   137
  6
CONTINUOUS
100
AcDbPolyline
 90
        9
 70
     0
 43
0.0
 10
-98.785204
 20
7.25498036
 10
-98.73086226
 20
7.20063885
 10
-98.67646557
 20
7.14624204
 10
-98.62202068
 20
7.09179704
 10
-98.56753459
 20
7.03731106
 10
-98.51301473
 20
6.98279121
 10
-98.4584681
 20
6.92824457
 10
-98.40390179
 20
6.87367827
 10
-98.34932291
 20
6.81909939
  0
LWPOLYLINE
  5
21A
100
AcDbEntity
  8
MST_1_1
 62
   137
  6
CONTINUOUS
100
AcDbPolyline
 90
        9
 70
     0
 43
0.0
 10
-98.34932291
 20
6.81909939
 10
-98.34610578
 20
6.82231653
 10
-98.34288782
 20
6.82553448
 10
-98.33966906
 20
6.82875325
 10
-98.33644947
 20
6.83197283
 10
-98.33322919
 20
6.83519311
 10
-98.3300081
 20
6.83841432
 10
-98.32678607
 20
6.84163623
 10
-98.32356334
 20
6.84485896
  0
LWPOLYLINE
  5
21B
100
AcDbEntity
  8
MST_1_1
 62
   137
  6
CONTINUOUS
100
AcDbPolyline
 90
       25
 70
     0
 43
0.0
 10
-98.32356339
 20
6.84485895
 10
-98.32087127
 20
6.84071229
 10
-98.31810763
 20
6.83662056
 10
-98.31527321
 20
6.83258453
 10
-98.31236877
 20
6.82860495
 10
-98.30939505
 20
6.82468256
 10
-98.30635282
 20
6.82081813
 10
-98.30324281
 20
6.8170124
 10
-98.30006578
 20
6.81326614
 10
-98.29682248
 20
6.80958008
 10
-98.29351367
 20
6.80595499
 10
-98.29014008
 20
6.80239161
 10
-98.28670248
 20
6.79889071
 10
-98.28320161
 20
6.79545303
 10
-98.27963823
 20
6.79207932
 10
-98.27601308
 20
6.78877035
 10
-98.27232691
 20
6.78552686
 10
-98.26858048
 20
6.78234961
 10
-98.26477454
 20
6.77923935
 10
-98.26090984
 20
6.77619683
 10
-98.25698713
 20
6.77322281
 10
-98.25300715
 20
6.77031803
 10
-98.24897067
 20
6.76748326
 10
-98.24487842
 20
6.76471924
 10
-98.24073117
 20
6.76202673
  0
LWPOLYLINE
  5
21C
100
AcDbEntity
  8
MST_1_1
 62
   137
  6
CONTINUOUS
100
AcDbPolyline
 90
        9
 70
     0
 43
0.0
 10
-98.24073117
 20
6.76202678
 10
-98.24395389
 20
6.75880405
 10
-98.2471758
 20
6.75558203
 10
-98.25039701
 20
6.75236093
 10
-98.25361729
 20
6.74914065
 10
-98.25683688
 20
6.74592107
 10
-98.26005564
 20
6.7427023
 10
-98.2632736
 20
6.73948435
 10
-98.26649073
 20
6.73626721
  0
LWPOLYLINE
  5
21D
100
AcDbEntity
  8
MST_1_1
 62
   137
  6
CONTINUOUS
100
AcDbPolyline
 90
        9
 70
     0
 43
0.0
 10
-98.26649073
 20
6.73626721
 10
-98.21191185
 20
6.68168833
 10
-98.15734555
 20
6.62712202
 10
-98.10279892
 20
6.57257539
 10
-98.04827906
 20
6.51805554
 10
-97.99379308
 20
6.46356944
 10
-97.93934808
 20
6.40912456
 10
-97.88495127
 20
6.35472787
 10
-97.83060977
 20
6.30038613
  0
CIRCLE
  5
21E
100
AcDbEntity
  8
MST_1_1
 62
   137
  6
CONTINUOUS
100
AcDbCircle
 10
-96.54013987
 20
8.54545025
 30
0.0
 40
3.324953
  0
ARC
  5
21F
100
AcDbEntity
  8
MST_1_1
 62
   137
  6
CONTINUOUS
100
AcDbCircle
 10
-94.93742232
 20
7.62012082
 30
0.0
 40
0.65065883
100
AcDbArc
 50
104.00041459
 51
195.99959727
  0
LWPOLYLINE
  5
220
100
AcDbEntity
  8
MST_1_1
 62
   137
  6
CONTINUOUS
100
AcDbPolyline
 90
        9
 70
     0
 43
0.0
 10
-98.03681879
 20
7.25330002
 10
-98.0725449
 20
7.28902613
 10
-98.10826357
 20
7.3247448
 10
-98.14397304
 20
7.36045427
 10
-98.17967133
 20
7.39615256
 10
-98.21535658
 20
7.43183781
 10
-98.25102682
 20
7.46750817
 10
-98.28668029
 20
7.50316164
 10
-98.32231502
 20
7.53879637
  0
ARC
  5
221
100
AcDbEntity
  8
MST_1_1
 62
   137
  6
CONTINUOUS
100
AcDbCircle
 10
-98.0957749
 20
6.98981599
 30
0.0
 40
0.26999936
100
AcDbArc
 50
77.38747914
 51
127.33780242
  0
LINE
  5
222
100
AcDbEntity
  8
MST_1_1
 62
   137
  6
CONTINUOUS
100
AcDbLine
 10
-97.8811048
 20
6.82605707
 30
0.0
 11
-98.25953306
 21
7.20448533
 31
0.0
  0
ARC
  5
223
100
AcDbEntity
  8
MST_1_1
 62
   137
  6
CONTINUOUS
100
AcDbCircle
 10
-98.09577425
 20
6.98981525
 30
0.0
 40
0.26999948
100
AcDbArc
 50
322.66221884
 51
12.61250962
  0
LWPOLYLINE
  5
224
100
AcDbEntity
  8
MST_1_1
 62
   137
  6
CONTINUOUS
100
AcDbPolyline
 90
        9
 70
     0
 43
0.0
 10
-97.54679375
 20
6.7632751
 10
-97.58242848
 20
6.79890983
 10
-97.61808195
 20
6.8345633
 10
-97.65375231
 20
6.87023354
 10
-97.68943756
 20
6.90591879
 10
-97.72513585
 20
6.94161709
 10
-97.76084532
 20
6.97732655
 10
-97.79656399
 20
7.01304522
 10
-97.8322901
 20
7.04877134
  0
ARC
  5
225
100
AcDbEntity
  8
MST_1_1
 62
   137
  6
CONTINUOUS
100
AcDbCircle
 10
-97.60574969
 20
6.49979031
 30
0.0
 40
0.27000007
100
AcDbArc
 50
77.38755048
 51
192.61243885
  0
LWPOLYLINE
  5
226
100
AcDbEntity
  8
MST_1_1
 62
   137
  6
CONTINUOUS
100
AcDbPolyline
 90
        9
 70
     0
 43
0.0
 10
-98.15473074
 20
6.72633058
 10
-98.119003
 20
6.69060283
 10
-98.08328294
 20
6.65488277
 10
-98.04757254
 20
6.61917237
 10
-98.01187366
 20
6.5834735
 10
-97.97618852
 20
6.54778848
 10
-97.94051898
 20
6.51211882
 10
-97.90486691
 20
6.47646686
 10
-97.86923451
 20
6.44083446
  0
ARC
  5
227
100
AcDbEntity
  8
MST_1_1
 62
   137
  6
CONTINUOUS
100
AcDbCircle
 10
-98.09577497
 20
6.98981617
 30
0.0
 40
0.27000082
100
AcDbArc
 50
257.38763285
 51
307.33766874
  0
LWPOLYLINE
  5
228
100
AcDbEntity
  8
MST_1_1
 62
   137
  6
CONTINUOUS
100
AcDbPolyline
 90
        9
 70
     0
 43
0.0
 10
-98.31044485
 20
7.15357365
 10
-98.26315706
 20
7.10628598
 10
-98.21585577
 20
7.05898468
 10
-98.16854552
 20
7.01167431
 10
-98.12123061
 20
6.96435952
 10
-98.07391581
 20
6.9170446
 10
-98.02660544
 20
6.86973435
 10
-97.97930415
 20
6.82243306
 10
-97.93201648
 20
6.77514527
  0
ARC
  5
229
100
AcDbEntity
  8
MST_1_1
 62
   137
  6
CONTINUOUS
100
AcDbCircle
 10
-98.09577469
 20
6.98981532
 30
0.0
 40
0.27000013
100
AcDbArc
 50
142.662273
 51
192.61245546
  0
LWPOLYLINE
  5
22A
100
AcDbEntity
  8
MST_1_1
 62
   137
  6
CONTINUOUS
100
AcDbPolyline
 90
        9
 70
     0
 43
0.0
 10
-98.64475566
 20
7.21635562
 10
-98.60912326
 20
7.18072321
 10
-98.5734713
 20
7.14507114
 10
-98.53780165
 20
7.1094016
 10
-98.50211663
 20
7.07371646
 10
-98.46641775
 20
7.03801759
 10
-98.43070735
 20
7.00230719
 10
-98.39498729
 20
6.96658712
 10
-98.35925954
 20
6.93085938
  0
ARC
  5
22B
100
AcDbEntity
  8
MST_1_1
 62
   137
  6
CONTINUOUS
100
AcDbCircle
 10
-98.58579956
 20
7.47984017
 30
0.0
 40
0.26999988
100
AcDbArc
 50
257.38751638
 51
12.61251432
  0
LWPOLYLINE
  5
22C
100
AcDbEntity
  8
MST_1_1
 62
   137
  6
CONTINUOUS
100
AcDbPolyline
 90
        9
 70
     0
 43
0.0
 10
-98.1752855
 20
7.17114945
 10
-98.14268502
 20
7.13854897
 10
-98.11008011
 20
7.10594406
 10
-98.07747241
 20
7.07333625
 10
-98.04486309
 20
7.04072704
 10
-98.01225387
 20
7.00811771
 10
-97.97964606
 20
6.97551001
 10
-97.94704115
 20
6.9429051
 10
-97.91444067
 20
6.91030462
  0
ARC
  5
22D
100
AcDbEntity
  8
MST_1_1
 62
   137
  6
CONTINUOUS
100
AcDbCircle
 10
-98.09577485
 20
6.98981527
 30
0.0
 40
0.19800007
100
AcDbArc
 50
336.32372311
 51
113.6762869
  0
LWPOLYLINE
  5
22E
100
AcDbEntity
  8
MST_1_1
 62
   137
  6
CONTINUOUS
100
AcDbPolyline
 90
        9
 70
     0
 43
0.0
 10
-98.01626403
 20
6.80848126
 10
-98.04886451
 20
6.84108163
 10
-98.0814693
 20
6.87368653
 10
-98.11407712
 20
6.90629435
 10
-98.14668645
 20
6.93890368
 10
-98.17929577
 20
6.97151301
 10
-98.21190359
 20
7.00412082
 10
-98.24450849
 20
7.03672561
 10
-98.27710886
 20
7.06932609
  0
ARC
  5
22F
100
AcDbEntity
  8
MST_1_1
 62
   137
  6
CONTINUOUS
100
AcDbCircle
 10
-98.09577473
 20
6.98981539
 30
0.0
 40
0.19800004
100
AcDbArc
 50
156.32369345
 51
293.67631657
  0
LINE
  5
230
100
AcDbEntity
  8
MST_1_1
 62
   147
  6
CONTINUOUS
100
AcDbLine
 10
-2.98989189
 20
10.5768228
 30
2500.0
 11
-2.98989189
 21
6.5140777
 31
2500.0
  0
LWPOLYLINE
  5
231
100
AcDbEntity
  8
MST_1_1
 62
   147
  6
CONTINUOUS
100
AcDbPolyline
 90
       13
 70
     0
 43
0.0
 38
2500.0
 10
-2.98989189
 20
10.5768228
 10
-2.98819953
 20
10.71795524
 10
-2.97173442
 20
10.85853429
 10
-2.94060165
 20
10.99766272
 10
-2.89499993
 20
11.13445252
 10
-2.83522031
 20
11.26803064
 10
-2.76164432
 20
11.39754452
 10
-2.67474159
 20
11.52216752
 10
-2.57506675
 20
11.64110424
 10
-2.46325599
 20
11.75359556
 10
-2.34002295
 20
11.85892351
 10
-2.20615416
 20
11.95641582
 10
-2.06250403
 20
12.04545025
  0
LWPOLYLINE
  5
232
100
AcDbEntity
  8
MST_1_1
 62
   147
  6
CONTINUOUS
100
AcDbPolyline
 90
       13
 70
     0
 43
0.0
 38
2500.0
 10
-2.98989189
 20
6.5140777
 10
-2.98819953
 20
6.37294527
 10
-2.97173442
 20
6.23236621
 10
-2.94060165
 20
6.09323779
 10
-2.89499993
 20
5.95644798
 10
-2.83522031
 20
5.82286986
 10
-2.76164432
 20
5.69335599
 10
-2.67474159
 20
5.56873298
 10
-2.57506675
 20
5.44979626
 10
-2.46325599
 20
5.33730494
 10
-2.34002295
 20
5.231977
 10
-2.20615416
 20
5.13448468
 10
-2.06250403
 20
5.04545025
  0
LINE
  5
233
100
AcDbEntity
  8
MST_1_1
 62
   147
  6
CONTINUOUS
100
AcDbLine
 10
-2.98989189
 20
-19.4231772
 30
2500.0
 11
-2.98989189
 21
-23.4859223
 31
2500.0
  0
LWPOLYLINE
  5
234
100
AcDbEntity
  8
MST_1_1
 62
   147
  6
CONTINUOUS
100
AcDbPolyline
 90
       13
 70
     0
 43
0.0
 38
2500.0
 10
-2.98989189
 20
-19.4231772
 10
-2.98819953
 20
-19.28204476
 10
-2.97173442
 20
-19.14146571
 10
-2.94060165
 20
-19.00233728
 10
-2.89499993
 20
-18.86554748
 10
-2.83522031
 20
-18.73196936
 10
-2.76164432
 20
-18.60245548
 10
-2.67474159
 20
-18.47783248
 10
-2.57506675
 20
-18.35889576
 10
-2.46325599
 20
-18.24640444
 10
-2.34002295
 20
-18.14107649
 10
-2.20615416
 20
-18.04358418
 10
-2.06250403
 20
-17.95454975
  0
LWPOLYLINE
  5
235
100
AcDbEntity
  8
MST_1_1
 62
   147
  6
CONTINUOUS
100
AcDbPolyline
 90
       13
 70
     0
 43
0.0
 38
2500.0
 10
-2.98989189
 20
-23.4859223
 10
-2.98819953
 20
-23.62705473
 10
-2.97173442
 20
-23.76763379
 10
-2.94060165
 20
-23.90676221
 10
-2.89499993
 20
-24.04355202
 10
-2.83522031
 20
-24.17713014
 10
-2.76164432
 20
-24.30664401
 10
-2.67474159
 20
-24.43126702
 10
-2.57506675
 20
-24.55020374
 10
-2.46325599
 20
-24.66269506
 10
-2.34002295
 20
-24.768023
 10
-2.20615416
 20
-24.86551532
 10
-2.06250403
 20
-24.95454975
  0
LINE
  5
236
100
AcDbEntity
  8
MST_1_1
 62
   147
  6
CONTINUOUS
100
AcDbLine
 10
-2.98989189
 20
-49.4231772
 30
2500.0
 11
-2.98989189
 21
-53.4859223
 31
2500.0
  0
LWPOLYLINE
  5
237
100
AcDbEntity
  8
MST_1_1
 62
   147
  6
CONTINUOUS
100
AcDbPolyline
 90
       13
 70
     0
 43
0.0
 38
2500.0
 10
-2.98989189
 20
-49.4231772
 10
-2.98819953
 20
-49.28204476
 10
-2.97173442
 20
-49.14146571
 10
-2.94060165
 20
-49.00233728
 10
-2.89499993
 20
-48.86554748
 10
-2.83522031
 20
-48.73196936
 10
-2.76164432
 20
-48.60245548
 10
-2.67474159
 20
-48.47783248
 10
-2.57506675
 20
-48.35889576
 10
-2.46325599
 20
-48.24640444
 10
-2.34002295
 20
-48.14107649
 10
-2.20615416
 20
-48.04358418
 10
-2.06250403
 20
-47.95454975
  0
LWPOLYLINE
  5
238
100
AcDbEntity
  8
MST_1_1
 62
   147
  6
CONTINUOUS
100
AcDbPolyline
 90
       13
 70
     0
 43
0.0
 38
2500.0
 10
-2.98989189
 20
-53.4859223
 10
-2.98819953
 20
-53.62705473
 10
-2.97173442
 20
-53.76763379
 10
-2.94060165
 20
-53.90676221
 10
-2.89499993
 20
-54.04355202
 10
-2.83522031
 20
-54.17713014
 10
-2.76164432
 20
-54.30664401
 10
-2.67474159
 20
-54.43126702
 10
-2.57506675
 20
-54.55020374
 10
-2.46325599
 20
-54.66269506
 10
-2.34002295
 20
-54.768023
 10
-2.20615416
 20
-54.86551532
 10
-2.06250403
 20
-54.95454975
  0
LINE
  5
239
100
AcDbEntity
  8
MST_1_1
 62
   147
  6
CONTINUOUS
100
AcDbLine
 10
-2.98989189
 20
-79.4231772
 30
2500.0
 11
-2.98989189
 21
-83.4859223
 31
2500.0
  0
LWPOLYLINE
  5
23A
100
AcDbEntity
  8
MST_1_1
 62
   147
  6
CONTINUOUS
100
AcDbPolyline
 90
       13
 70
     0
 43
0.0
 38
2500.0
 10
-2.98989189
 20
-79.4231772
 10
-2.98819953
 20
-79.28204476
 10
-2.97173442
 20
-79.14146571
 10
-2.94060165
 20
-79.00233728
 10
-2.89499993
 20
-78.86554748
 10
-2.83522031
 20
-78.73196936
 10
-2.76164432
 20
-78.60245548
 10
-2.67474159
 20
-78.47783248
 10
-2.57506675
 20
-78.35889576
 10
-2.46325599
 20
-78.24640444
 10
-2.34002295
 20
-78.14107649
 10
-2.20615416
 20
-78.04358418
 10
-2.06250403
 20
-77.95454975
  0
LWPOLYLINE
  5
23B
100
AcDbEntity
  8
MST_1_1
 62
   147
  6
CONTINUOUS
100
AcDbPolyline
 90
       13
 70
     0
 43
0.0
 38
2500.0
 10
-2.98989189
 20
-83.4859223
 10
-2.98819953
 20
-83.62705473
 10
-2.97173442
 20
-83.76763379
 10
-2.94060165
 20
-83.90676221
 10
-2.89499993
 20
-84.04355202
 10
-2.83522031
 20
-84.17713014
 10
-2.76164432
 20
-84.30664401
 10
-2.67474159
 20
-84.43126702
 10
-2.57506675
 20
-84.55020374
 10
-2.46325599
 20
-84.66269506
 10
-2.34002295
 20
-84.768023
 10
-2.20615416
 20
-84.86551532
 10
-2.06250403
 20
-84.95454975
  0
LINE
  5
23C
100
AcDbEntity
  8
MST_1_1
 62
   147
  6
CONTINUOUS
100
AcDbLine
 10
-2.98989189
 20
-109.4231772
 30
2500.0
 11
-2.98989189
 21
-113.4859223
 31
2500.0
  0
LWPOLYLINE
  5
23D
100
AcDbEntity
  8
MST_1_1
 62
   147
  6
CONTINUOUS
100
AcDbPolyline
 90
       13
 70
     0
 43
0.0
 38
2500.0
 10
-2.98989189
 20
-109.4231772
 10
-2.98819953
 20
-109.28204476
 10
-2.97173442
 20
-109.14146571
 10
-2.94060165
 20
-109.00233728
 10
-2.89499993
 20
-108.86554748
 10
-2.83522031
 20
-108.73196936
 10
-2.76164432
 20
-108.60245548
 10
-2.67474159
 20
-108.47783248
 10
-2.57506675
 20
-108.35889576
 10
-2.46325599
 20
-108.24640444
 10
-2.34002295
 20
-108.14107649
 10
-2.20615416
 20
-108.04358418
 10
-2.06250403
 20
-107.95454975
  0
LWPOLYLINE
  5
23E
100
AcDbEntity
  8
MST_1_1
 62
   147
  6
CONTINUOUS
100
AcDbPolyline
 90
       13
 70
     0
 43
0.0
 38
2500.0
 10
-2.98989189
 20
-113.4859223
 10
-2.98819953
 20
-113.62705473
 10
-2.97173442
 20
-113.76763379
 10
-2.94060165
 20
-113.90676221
 10
-2.89499993
 20
-114.04355202
 10
-2.83522031
 20
-114.17713014
 10
-2.76164432
 20
-114.30664401
 10
-2.67474159
 20
-114.43126702
 10
-2.57506675
 20
-114.55020374
 10
-2.46325599
 20
-114.66269506
 10
-2.34002295
 20
-114.768023
 10
-2.20615416
 20
-114.86551532
 10
-2.06250403
 20
-114.95454975
  0
LINE
  5
23F
100
AcDbEntity
  8
MST_1_1
 62
   147
  6
CONTINUOUS
100
AcDbLine
 10
-2.98989189
 20
-139.4231772
 30
2500.0
 11
-2.98989189
 21
-143.4859223
 31
2500.0
  0
LWPOLYLINE
  5
240
100
AcDbEntity
  8
MST_1_1
 62
   147
  6
CONTINUOUS
100
AcDbPolyline
 90
       13
 70
     0
 43
0.0
 38
2500.0
 10
-2.98989189
 20
-139.4231772
 10
-2.98819953
 20
-139.28204476
 10
-2.97173442
 20
-139.14146571
 10
-2.94060165
 20
-139.00233728
 10
-2.89499993
 20
-138.86554748
 10
-2.83522031
 20
-138.73196936
 10
-2.76164432
 20
-138.60245548
 10
-2.67474159
 20
-138.47783248
 10
-2.57506675
 20
-138.35889576
 10
-2.46325599
 20
-138.24640444
 10
-2.34002295
 20
-138.14107649
 10
-2.20615416
 20
-138.04358418
 10
-2.06250403
 20
-137.95454975
  0
LWPOLYLINE
  5
241
100
AcDbEntity
  8
MST_1_1
 62
   147
  6
CONTINUOUS
100
AcDbPolyline
 90
       13
 70
     0
 43
0.0
 38
2500.0
 10
-2.98989189
 20
-143.4859223
 10
-2.98819953
 20
-143.62705473
 10
-2.97173442
 20
-143.76763379
 10
-2.94060165
 20
-143.90676221
 10
-2.89499993
 20
-144.04355202
 10
-2.83522031
 20
-144.17713014
 10
-2.76164432
 20
-144.30664401
 10
-2.67474159
 20
-144.43126702
 10
-2.57506675
 20
-144.55020374
 10
-2.46325599
 20
-144.66269506
 10
-2.34002295
 20
-144.768023
 10
-2.20615416
 20
-144.86551532
 10
-2.06250403
 20
-144.95454975
  0
LINE
  5
242
100
AcDbEntity
  8
MST_1_1
 62
   147
  6
CONTINUOUS
100
AcDbLine
 10
-2.98989189
 20
-169.4231772
 30
2500.0
 11
-2.98989189
 21
-173.4859223
 31
2500.0
  0
LWPOLYLINE
  5
243
100
AcDbEntity
  8
MST_1_1
 62
   147
  6
CONTINUOUS
100
AcDbPolyline
 90
       13
 70
     0
 43
0.0
 38
2500.0
 10
-2.98989189
 20
-169.4231772
 10
-2.98819953
 20
-169.28204476
 10
-2.97173442
 20
-169.14146571
 10
-2.94060165
 20
-169.00233728
 10
-2.89499993
 20
-168.86554748
 10
-2.83522031
 20
-168.73196936
 10
-2.76164432
 20
-168.60245548
 10
-2.67474159
 20
-168.47783248
 10
-2.57506675
 20
-168.35889576
 10
-2.46325599
 20
-168.24640444
 10
-2.34002295
 20
-168.14107649
 10
-2.20615416
 20
-168.04358418
 10
-2.06250403
 20
-167.95454975
  0
LWPOLYLINE
  5
244
100
AcDbEntity
  8
MST_1_1
 62
   147
  6
CONTINUOUS
100
AcDbPolyline
 90
       13
 70
     0
 43
0.0
 38
2500.0
 10
-2.98989189
 20
-173.4859223
 10
-2.98819953
 20
-173.62705473
 10
-2.97173442
 20
-173.76763379
 10
-2.94060165
 20
-173.90676221
 10
-2.89499993
 20
-174.04355202
 10
-2.83522031
 20
-174.17713014
 10
-2.76164432
 20
-174.30664401
 10
-2.67474159
 20
-174.43126702
 10
-2.57506675
 20
-174.55020374
 10
-2.46325599
 20
-174.66269506
 10
-2.34002295
 20
-174.768023
 10
-2.20615416
 20
-174.86551532
 10
-2.06250403
 20
-174.95454975
  0
LINE
  5
245
100
AcDbEntity
  8
MST_1_1
 62
   147
  6
CONTINUOUS
100
AcDbLine
 10
-2.98989189
 20
-199.4231772
 30
2500.0
 11
-2.98989189
 21
-203.4859223
 31
2500.0
  0
LWPOLYLINE
  5
246
100
AcDbEntity
  8
MST_1_1
 62
   147
  6
CONTINUOUS
100
AcDbPolyline
 90
       13
 70
     0
 43
0.0
 38
2500.0
 10
-2.98989189
 20
-199.4231772
 10
-2.98819953
 20
-199.28204476
 10
-2.97173442
 20
-199.14146571
 10
-2.94060165
 20
-199.00233728
 10
-2.89499993
 20
-198.86554748
 10
-2.83522031
 20
-198.73196936
 10
-2.76164432
 20
-198.60245548
 10
-2.67474159
 20
-198.47783248
 10
-2.57506675
 20
-198.35889576
 10
-2.46325599
 20
-198.24640444
 10
-2.34002295
 20
-198.14107649
 10
-2.20615416
 20
-198.04358418
 10
-2.06250403
 20
-197.95454975
  0
LWPOLYLINE
  5
247
100
AcDbEntity
  8
MST_1_1
 62
   147
  6
CONTINUOUS
100
AcDbPolyline
 90
       13
 70
     0
 43
0.0
 38
2500.0
 10
-2.98989189
 20
-203.4859223
 10
-2.98819953
 20
-203.62705473
 10
-2.97173442
 20
-203.76763379
 10
-2.94060165
 20
-203.90676221
 10
-2.89499993
 20
-204.04355202
 10
-2.83522031
 20
-204.17713014
 10
-2.76164432
 20
-204.30664401
 10
-2.67474159
 20
-204.43126702
 10
-2.57506675
 20
-204.55020374
 10
-2.46325599
 20
-204.66269506
 10
-2.34002295
 20
-204.768023
 10
-2.20615416
 20
-204.86551532
 10
-2.06250403
 20
-204.95454975
  0
CIRCLE
  5
248
100
AcDbEntity
  8
MST_1_1
 62
   137
  6
CONTINUOUS
100
AcDbCircle
 10
-96.54013987
 20
-21.45454975
 30
0.0
 40
1.89428533
  0
CIRCLE
  5
249
100
AcDbEntity
  8
MST_1_1
 62
   137
  6
CONTINUOUS
100
AcDbCircle
 10
-96.54013987
 20
-21.45454975
 30
0.0
 40
1.06049438
  0
CIRCLE
  5
24A
100
AcDbEntity
  8
MST_1_1
 62
   137
  6
CONTINUOUS
100
AcDbCircle
 10
-96.54013987
 20
-21.45454975
 30
0.0
 40
1.89428533
  0
CIRCLE
  5
24B
100
AcDbEntity
  8
MST_1_1
 62
   137
  6
CONTINUOUS
100
AcDbCircle
 10
-96.54013987
 20
-21.45454975
 30
0.0
 40
1.06049438
  0
CIRCLE
  5
24C
100
AcDbEntity
  8
MST_1_1
 62
   137
  6
CONTINUOUS
100
AcDbCircle
 10
-96.54013987
 20
-21.45454975
 30
0.0
 40
1.89428533
  0
CIRCLE
  5
24D
100
AcDbEntity
  8
MST_1_1
 62
   137
  6
CONTINUOUS
100
AcDbCircle
 10
-96.54013987
 20
-21.45454975
 30
0.0
 40
1.06049438
  0
CIRCLE
  5
24E
100
AcDbEntity
  8
MST_1_1
 62
   137
  6
CONTINUOUS
100
AcDbCircle
 10
-96.54013987
 20
-21.45454975
 30
0.0
 40
1.59428533
  0
CIRCLE
  5
24F
100
AcDbEntity
  8
MST_1_1
 62
   137
  6
CONTINUOUS
100
AcDbCircle
 10
-96.54013987
 20
-21.45454975
 30
0.0
 40
1.99428533
  0
CIRCLE
  5
250
100
AcDbEntity
  8
MST_1_1
 62
   137
  6
CONTINUOUS
100
AcDbCircle
 10
-96.54013987
 20
-21.45454975
 30
0.0
 40
1.125
  0
CIRCLE
  5
251
100
AcDbEntity
  8
MST_1_1
 62
   137
  6
CONTINUOUS
100
AcDbCircle
 10
-96.54013987
 20
-21.45454975
 30
0.0
 40
3.5
  0
ARC
  5
252
100
AcDbEntity
  8
MST_1_1
 62
   137
  6
CONTINUOUS
100
AcDbCircle
 10
-97.91213985
 20
-21.45454975
 30
0.0
 40
0.303
100
AcDbArc
 50
104.00039951
 51
255.99961051
  0
ARC
  5
253
100
AcDbEntity
  8
MST_1_1
 62
   137
  6
CONTINUOUS
100
AcDbCircle
 10
-98.14285743
 20
-22.37987918
 30
0.0
 40
0.65065883
100
AcDbArc
 50
344.00042282
 51
75.99958535
  0
ARC
  5
254
100
AcDbEntity
  8
MST_1_1
 62
   137
  6
CONTINUOUS
100
AcDbCircle
 10
-97.22613984
 20
-22.64273659
 30
0.0
 40
0.30299999
100
AcDbArc
 50
164.00040911
 51
315.99959504
  0
ARC
  5
255
100
AcDbEntity
  8
MST_1_1
 62
   137
  6
CONTINUOUS
100
AcDbCircle
 10
-96.54013987
 20
-23.3052085
 30
0.0
 40
0.65065875
100
AcDbArc
 50
44.00040429
 51
135.99959571
  0
ARC
  5
256
100
AcDbEntity
  8
MST_1_1
 62
   137
  6
CONTINUOUS
100
AcDbCircle
 10
-95.85413987
 20
-22.64273664
 30
0.0
 40
0.30299998
100
AcDbArc
 50
224.00041508
 51
15.9996008
  0
ARC
  5
257
100
AcDbEntity
  8
MST_1_1
 62
   137
  6
CONTINUOUS
100
AcDbCircle
 10
-95.16813989
 20
-21.45454975
 30
0.0
 40
0.303
100
AcDbArc
 50
284.00040953
 51
75.99960049
  0
ARC
  5
258
100
AcDbEntity
  8
MST_1_1
 62
   137
  6
CONTINUOUS
100
AcDbCircle
 10
-94.93742231
 20
-20.52922031
 30
0.0
 40
0.65065883
100
AcDbArc
 50
164.00041281
 51
255.99959537
  0
ARC
  5
259
100
AcDbEntity
  8
MST_1_1
 62
   137
  6
CONTINUOUS
100
AcDbCircle
 10
-95.8541399
 20
-20.2663629
 30
0.0
 40
0.30299999
100
AcDbArc
 50
344.00041913
 51
135.99958502
  0
ARC
  5
25A
100
AcDbEntity
  8
MST_1_1
 62
   137
  6
CONTINUOUS
100
AcDbCircle
 10
-96.54013987
 20
-19.603891
 30
0.0
 40
0.65065875
100
AcDbArc
 50
224.00041431
 51
315.99960573
  0
ARC
  5
25B
100
AcDbEntity
  8
MST_1_1
 62
   137
  6
CONTINUOUS
100
AcDbCircle
 10
-97.22613987
 20
-20.26636285
 30
0.0
 40
0.30299998
100
AcDbArc
 50
44.00040506
 51
195.99961082
  0
ARC
  5
25C
100
AcDbEntity
  8
MST_1_1
 62
   137
  6
CONTINUOUS
100
AcDbCircle
 10
-98.14285742
 20
-20.52922031
 30
0.0
 40
0.65065883
100
AcDbArc
 50
284.00042461
 51
15.99958726
  0
LWPOLYLINE
  5
25D
100
AcDbEntity
  8
MST_1_1
 62
   137
  6
CONTINUOUS
100
AcDbPolyline
 90
        9
 70
     0
 43
0.0
 10
-97.83060977
 20
-23.69961387
 10
-97.82154381
 20
-23.69054791
 10
-97.81247144
 20
-23.68147544
 10
-97.8033928
 20
-23.6723969
 10
-97.79430774
 20
-23.66331185
 10
-97.78521652
 20
-23.65422051
 10
-97.7761189
 20
-23.64512289
 10
-97.7670151
 20
-23.63601921
 10
-97.75790514
 20
-23.62690925
  0
ARC
  5
25E
100
AcDbEntity
  8
MST_1_1
 62
   137
  6
CONTINUOUS
100
AcDbCircle
 10
-97.60574981
 20
-23.50020975
 30
0.0
 40
0.19800002
100
AcDbArc
 50
50.21591721
 51
219.78410477
  0
LWPOLYLINE
  5
25F
100
AcDbEntity
  8
MST_1_1
 62
   137
  6
CONTINUOUS
100
AcDbPolyline
 90
        9
 70
     0
 43
0.0
 10
-97.47905034
 20
-23.34805439
 10
-97.46997908
 20
-23.33898307
 10
-97.46090299
 20
-23.32990698
 10
-97.45182207
 20
-23.32082612
 10
-97.44273627
 20
-23.31174037
 10
-97.43364574
 20
-23.30264973
 10
-97.42455045
 20
-23.29355444
 10
-97.41545038
 20
-23.28445448
 10
-97.40634565
 20
-23.27534976
  0
LWPOLYLINE
  5
260
100
AcDbEntity
  8
MST_1_1
 62
   137
  6
CONTINUOUS
100
AcDbPolyline
 90
        9
 70
     0
 43
0.0
 10
-97.40634565
 20
-23.27534976
 10
-97.46069513
 20
-23.22100022
 10
-97.51509677
 20
-23.16659864
 10
-97.56954398
 20
-23.11215143
 10
-97.62402985
 20
-23.05766556
 10
-97.67854784
 20
-23.00314757
 10
-97.7330911
 20
-22.94860431
 10
-97.78765298
 20
-22.89404243
 10
-97.84222662
 20
-22.83946879
  0
LWPOLYLINE
  5
261
100
AcDbEntity
  8
MST_1_1
 62
   137
  6
CONTINUOUS
100
AcDbPolyline
 90
        9
 70
     0
 43
0.0
 10
-97.84222662
 20
-22.83946879
 10
-97.84544864
 20
-22.8426907
 10
-97.84866997
 20
-22.84591215
 10
-97.85189084
 20
-22.84913289
 10
-97.85511112
 20
-22.85235317
 10
-97.8583307
 20
-22.85557287
 10
-97.86154982
 20
-22.85879187
 10
-97.86476823
 20
-22.86201041
 10
-97.86798619
 20
-22.86522824
  0
LWPOLYLINE
  5
262
100
AcDbEntity
  8
MST_1_1
 62
   137
  6
CONTINUOUS
100
AcDbPolyline
 90
       25
 70
     0
 43
0.0
 10
-97.86798619
 20
-22.86522828
 10
-97.87067851
 20
-22.86108129
 10
-97.87344229
 20
-22.85698931
 10
-97.8762768
 20
-22.85295308
 10
-97.87918127
 20
-22.84897337
 10
-97.88215497
 20
-22.84505092
 10
-97.88519716
 20
-22.84118646
 10
-97.88830708
 20
-22.83738076
 10
-97.891484
 20
-22.83363455
 10
-97.89472717
 20
-22.82994858
 10
-97.89803585
 20
-22.8263236
 10
-97.90140928
 20
-22.82276036
 10
-97.90484673
 20
-22.81925961
 10
-97.90834746
 20
-22.81582208
 10
-97.91191071
 20
-22.81244853
 10
-97.91553574
 20
-22.8091397
 10
-97.91922181
 20
-22.80589635
 10
-97.92296817
 20
-22.80271921
 10
-97.92677409
 20
-22.79960903
 10
-97.93063881
 20
-22.79656657
 10
-97.93456158
 20
-22.79359257
 10
-97.93854168
 20
-22.79068777
 10
-97.94257834
 20
-22.78785292
 10
-97.94667083
 20
-22.78508877
 10
-97.95081841
 20
-22.78239606
  0
LWPOLYLINE
  5
263
100
AcDbEntity
  8
MST_1_1
 62
   137
  6
CONTINUOUS
100
AcDbPolyline
 90
        9
 70
     0
 43
0.0
 10
-97.95081836
 20
-22.78239606
 10
-97.94760053
 20
-22.77917811
 10
-97.94438199
 20
-22.77595969
 10
-97.94116299
 20
-22.77274058
 10
-97.9379433
 20
-22.76952099
 10
-97.93472302
 20
-22.76630071
 10
-97.93150227
 20
-22.76307985
 10
-97.92828082
 20
-22.75985852
 10
-97.92505891
 20
-22.7566365
  0
LWPOLYLINE
  5
264
100
AcDbEntity
  8
MST_1_1
 62
   137
  6
CONTINUOUS
100
AcDbPolyline
 90
        9
 70
     0
 43
0.0
 10
-97.92505891
 20
-22.7566365
 10
-97.97963255
 20
-22.70206286
 10
-98.03419444
 20
-22.64750097
 10
-98.08873769
 20
-22.59295772
 10
-98.14325569
 20
-22.53843972
 10
-98.19774155
 20
-22.48395386
 10
-98.25218876
 20
-22.42950665
 10
-98.30659034
 20
-22.37510501
 10
-98.36093988
 20
-22.32075553
  0
LWPOLYLINE
  5
265
100
AcDbEntity
  8
MST_1_1
 62
   137
  6
CONTINUOUS
100
AcDbPolyline
 90
        9
 70
     0
 43
0.0
 10
-98.36093988
 20
-22.32075553
 10
-98.37004461
 20
-22.32986025
 10
-98.37914456
 20
-22.33896032
 10
-98.38823986
 20
-22.34805562
 10
-98.3973305
 20
-22.35714614
 10
-98.40641625
 20
-22.36623195
 10
-98.41549711
 20
-22.37531287
 10
-98.42457319
 20
-22.38438896
 10
-98.43364451
 20
-22.39346021
  0
ARC
  5
266
100
AcDbEntity
  8
MST_1_1
 62
   137
  6
CONTINUOUS
100
AcDbCircle
 10
-98.58579988
 20
-22.52015967
 30
0.0
 40
0.19800002
100
AcDbArc
 50
230.21591956
 51
39.7840785
  0
LWPOLYLINE
  5
267
100
AcDbEntity
  8
MST_1_1
 62
   137
  6
CONTINUOUS
100
AcDbPolyline
 90
        9
 70
     0
 43
0.0
 10
-98.71249937
 20
-22.67231502
 10
-98.72160933
 20
-22.68142498
 10
-98.73071301
 20
-22.69052877
 10
-98.73981064
 20
-22.6996264
 10
-98.74890197
 20
-22.70871762
 10
-98.75798703
 20
-22.71780267
 10
-98.76706556
 20
-22.72688132
 10
-98.77613804
 20
-22.73595368
 10
-98.785204
 20
-22.74501964
  0
LWPOLYLINE
  5
268
100
AcDbEntity
  8
MST_1_1
 62
   137
  6
CONTINUOUS
100
AcDbPolyline
 90
        9
 70
     0
 43
0.0
 10
-98.785204
 20
-22.74501964
 10
-98.73086226
 20
-22.79936115
 10
-98.67646557
 20
-22.85375796
 10
-98.62202068
 20
-22.90820296
 10
-98.56753459
 20
-22.96268894
 10
-98.51301473
 20
-23.01720879
 10
-98.4584681
 20
-23.07175543
 10
-98.40390179
 20
-23.12632173
 10
-98.34932291
 20
-23.18090061
  0
LWPOLYLINE
  5
269
100
AcDbEntity
  8
MST_1_1
 62
   137
  6
CONTINUOUS
100
AcDbPolyline
 90
        9
 70
     0
 43
0.0
 10
-98.34932291
 20
-23.18090061
 10
-98.34610578
 20
-23.17768347
 10
-98.34288782
 20
-23.17446552
 10
-98.33966906
 20
-23.17124675
 10
-98.33644947
 20
-23.16802717
 10
-98.33322919
 20
-23.16480689
 10
-98.3300081
 20
-23.16158568
 10
-98.32678607
 20
-23.15836377
 10
-98.32356334
 20
-23.15514104
  0
LWPOLYLINE
  5
26A
100
AcDbEntity
  8
MST_1_1
 62
   137
  6
CONTINUOUS
100
AcDbPolyline
 90
       25
 70
     0
 43
0.0
 10
-98.32356339
 20
-23.15514105
 10
-98.32087127
 20
-23.15928771
 10
-98.31810763
 20
-23.16337944
 10
-98.31527321
 20
-23.16741547
 10
-98.31236877
 20
-23.17139505
 10
-98.30939505
 20
-23.17531744
 10
-98.30635282
 20
-23.17918187
 10
-98.30324281
 20
-23.1829876
 10
-98.30006578
 20
-23.18673386
 10
-98.29682248
 20
-23.19041992
 10
-98.29351367
 20
-23.19404501
 10
-98.29014008
 20
-23.19760839
 10
-98.28670248
 20
-23.20110929
 10
-98.28320161
 20
-23.20454697
 10
-98.27963823
 20
-23.20792068
 10
-98.27601308
 20
-23.21122965
 10
-98.27232691
 20
-23.21447314
 10
-98.26858048
 20
-23.21765039
 10
-98.26477454
 20
-23.22076065
 10
-98.26090984
 20
-23.22380317
 10
-98.25698713
 20
-23.22677719
 10
-98.25300715
 20
-23.22968197
 10
-98.24897067
 20
-23.23251674
 10
-98.24487842
 20
-23.23528076
 10
-98.24073117
 20
-23.23797327
  0
LWPOLYLINE
  5
26B
100
AcDbEntity
  8
MST_1_1
 62
   137
  6
CONTINUOUS
100
AcDbPolyline
 90
        9
 70
     0
 43
0.0
 10
-98.24073117
 20
-23.23797322
 10
-98.24395389
 20
-23.24119595
 10
-98.2471758
 20
-23.24441797
 10
-98.25039701
 20
-23.24763907
 10
-98.25361729
 20
-23.25085935
 10
-98.25683688
 20
-23.25407893
 10
-98.26005564
 20
-23.2572977
 10
-98.2632736
 20
-23.26051565
 10
-98.26649073
 20
-23.26373279
  0
LWPOLYLINE
  5
26C
100
AcDbEntity
  8
MST_1_1
 62
   137
  6
CONTINUOUS
100
AcDbPolyline
 90
        9
 70
     0
 43
0.0
 10
-98.26649073
 20
-23.26373279
 10
-98.21191185
 20
-23.31831167
 10
-98.15734555
 20
-23.37287798
 10
-98.10279892
 20
-23.42742461
 10
-98.04827906
 20
-23.48194446
 10
-97.99379308
 20
-23.53643056
 10
-97.93934808
 20
-23.59087544
 10
-97.88495127
 20
-23.64527213
 10
-97.83060977
 20
-23.69961387
  0
CIRCLE
  5
26D
100
AcDbEntity
  8
MST_1_1
 62
   137
  6
CONTINUOUS
100
AcDbCircle
 10
-96.54013987
 20
-21.45454975
 30
0.0
 40
3.324953
  0
ARC
  5
26E
100
AcDbEntity
  8
MST_1_1
 62
   137
  6
CONTINUOUS
100
AcDbCircle
 10
-94.93742232
 20
-22.37987918
 30
0.0
 40
0.65065883
100
AcDbArc
 50
104.00041459
 51
195.99959727
  0
LWPOLYLINE
  5
26F
100
AcDbEntity
  8
MST_1_1
 62
   137
  6
CONTINUOUS
100
AcDbPolyline
 90
        9
 70
     0
 43
0.0
 10
-98.03681879
 20
-22.74669998
 10
-98.0725449
 20
-22.71097387
 10
-98.10826357
 20
-22.6752552
 10
-98.14397304
 20
-22.63954573
 10
-98.17967133
 20
-22.60384744
 10
-98.21535658
 20
-22.56816219
 10
-98.25102682
 20
-22.53249183
 10
-98.28668029
 20
-22.49683836
 10
-98.32231502
 20
-22.46120363
  0
ARC
  5
270
100
AcDbEntity
  8
MST_1_1
 62
   137
  6
CONTINUOUS
100
AcDbCircle
 10
-98.0957749
 20
-23.01018401
 30
0.0
 40
0.26999936
100
AcDbArc
 50
77.38747914
 51
127.33780242
  0
LINE
  5
271
100
AcDbEntity
  8
MST_1_1
 62
   137
  6
CONTINUOUS
100
AcDbLine
 10
-97.8811048
 20
-23.17394293
 30
0.0
 11
-98.25953306
 21
-22.79551467
 31
0.0
  0
ARC
  5
272
100
AcDbEntity
  8
MST_1_1
 62
   137
  6
CONTINUOUS
100
AcDbCircle
 10
-98.09577425
 20
-23.01018475
 30
0.0
 40
0.26999948
100
AcDbArc
 50
322.66221884
 51
12.61250962
  0
LWPOLYLINE
  5
273
100
AcDbEntity
  8
MST_1_1
 62
   137
  6
CONTINUOUS
100
AcDbPolyline
 90
        9
 70
     0
 43
0.0
 10
-97.54679375
 20
-23.2367249
 10
-97.58242848
 20
-23.20109017
 10
-97.61808195
 20
-23.1654367
 10
-97.65375231
 20
-23.12976646
 10
-97.68943756
 20
-23.09408121
 10
-97.72513585
 20
-23.05838291
 10
-97.76084532
 20
-23.02267345
 10
-97.79656399
 20
-22.98695478
 10
-97.8322901
 20
-22.95122866
  0
ARC
  5
274
100
AcDbEntity
  8
MST_1_1
 62
   137
  6
CONTINUOUS
100
AcDbCircle
 10
-97.60574969
 20
-23.50020969
 30
0.0
 40
0.27000007
100
AcDbArc
 50
77.38755048
 51
192.61243885
  0
LWPOLYLINE
  5
275
100
AcDbEntity
  8
MST_1_1
 62
   137
  6
CONTINUOUS
100
AcDbPolyline
 90
        9
 70
     0
 43
0.0
 10
-98.15473074
 20
-23.27366942
 10
-98.119003
 20
-23.30939717
 10
-98.08328294
 20
-23.34511723
 10
-98.04757254
 20
-23.38082763
 10
-98.01187366
 20
-23.4165265
 10
-97.97618852
 20
-23.45221152
 10
-97.94051898
 20
-23.48788118
 10
-97.90486691
 20
-23.52353314
 10
-97.86923451
 20
-23.55916554
  0
ARC
  5
276
100
AcDbEntity
  8
MST_1_1
 62
   137
  6
CONTINUOUS
100
AcDbCircle
 10
-98.09577497
 20
-23.01018383
 30
0.0
 40
0.27000082
100
AcDbArc
 50
257.38763285
 51
307.33766874
  0
LWPOLYLINE
  5
277
100
AcDbEntity
  8
MST_1_1
 62
   137
  6
CONTINUOUS
100
AcDbPolyline
 90
        9
 70
     0
 43
0.0
 10
-98.31044485
 20
-22.84642635
 10
-98.26315706
 20
-22.89371402
 10
-98.21585577
 20
-22.94101532
 10
-98.16854552
 20
-22.98832569
 10
-98.12123061
 20
-23.03564048
 10
-98.07391581
 20
-23.0829554
 10
-98.02660544
 20
-23.13026565
 10
-97.97930415
 20
-23.17756694
 10
-97.93201648
 20
-23.22485473
  0
ARC
  5
278
100
AcDbEntity
  8
MST_1_1
 62
   137
  6
CONTINUOUS
100
AcDbCircle
 10
-98.09577469
 20
-23.01018468
 30
0.0
 40
0.27000013
100
AcDbArc
 50
142.662273
 51
192.61245546
  0
LWPOLYLINE
  5
279
100
AcDbEntity
  8
MST_1_1
 62
   137
  6
CONTINUOUS
100
AcDbPolyline
 90
        9
 70
     0
 43
0.0
 10
-98.64475566
 20
-22.78364438
 10
-98.60912326
 20
-22.81927679
 10
-98.5734713
 20
-22.85492886
 10
-98.53780165
 20
-22.8905984
 10
-98.50211663
 20
-22.92628354
 10
-98.46641775
 20
-22.96198241
 10
-98.43070735
 20
-22.99769281
 10
-98.39498729
 20
-23.03341288
 10
-98.35925954
 20
-23.06914062
  0
ARC
  5
27A
100
AcDbEntity
  8
MST_1_1
 62
   137
  6
CONTINUOUS
100
AcDbCircle
 10
-98.58579956
 20
-22.52015983
 30
0.0
 40
0.26999988
100
AcDbArc
 50
257.38751638
 51
12.61251432
  0
LWPOLYLINE
  5
27B
100
AcDbEntity
  8
MST_1_1
 62
   137
  6
CONTINUOUS
100
AcDbPolyline
 90
        9
 70
     0
 43
0.0
 10
-98.1752855
 20
-22.82885055
 10
-98.14268502
 20
-22.86145103
 10
-98.11008011
 20
-22.89405594
 10
-98.07747241
 20
-22.92666375
 10
-98.04486309
 20
-22.95927296
 10
-98.01225387
 20
-22.99188229
 10
-97.97964606
 20
-23.02448999
 10
-97.94704115
 20
-23.0570949
 10
-97.91444067
 20
-23.08969538
  0
ARC
  5
27C
100
AcDbEntity
  8
MST_1_1
 62
   137
  6
CONTINUOUS
100
AcDbCircle
 10
-98.09577485
 20
-23.01018473
 30
0.0
 40
0.19800007
100
AcDbArc
 50
336.32372311
 51
113.6762869
  0
LWPOLYLINE
  5
27D
100
AcDbEntity
  8
MST_1_1
 62
   137
  6
CONTINUOUS
100
AcDbPolyline
 90
        9
 70
     0
 43
0.0
 10
-98.01626403
 20
-23.19151874
 10
-98.04886451
 20
-23.15891837
 10
-98.0814693
 20
-23.12631347
 10
-98.11407712
 20
-23.09370565
 10
-98.14668645
 20
-23.06109632
 10
-98.17929577
 20
-23.02848699
 10
-98.21190359
 20
-22.99587918
 10
-98.24450849
 20
-22.96327439
 10
-98.27710886
 20
-22.93067391
  0
ARC
  5
27E
100
AcDbEntity
  8
MST_1_1
 62
   137
  6
CONTINUOUS
100
AcDbCircle
 10
-98.09577473
 20
-23.01018461
 30
0.0
 40
0.19800004
100
AcDbArc
 50
156.32369345
 51
293.67631657
  0
CIRCLE
  5
27F
100
AcDbEntity
  8
MST_1_1
 62
   137
  6
CONTINUOUS
100
AcDbCircle
 10
-96.54013987
 20
-51.45454975
 30
0.0
 40
1.89428533
  0
CIRCLE
  5
280
100
AcDbEntity
  8
MST_1_1
 62
   137
  6
CONTINUOUS
100
AcDbCircle
 10
-96.54013987
 20
-51.45454975
 30
0.0
 40
1.06049438
  0
CIRCLE
  5
281
100
AcDbEntity
  8
MST_1_1
 62
   137
  6
CONTINUOUS
100
AcDbCircle
 10
-96.54013987
 20
-51.45454975
 30
0.0
 40
1.89428533
  0
CIRCLE
  5
282
100
AcDbEntity
  8
MST_1_1
 62
   137
  6
CONTINUOUS
100
AcDbCircle
 10
-96.54013987
 20
-51.45454975
 30
0.0
 40
1.06049438
  0
CIRCLE
  5
283
100
AcDbEntity
  8
MST_1_1
 62
   137
  6
CONTINUOUS
100
AcDbCircle
 10
-96.54013987
 20
-51.45454975
 30
0.0
 40
1.89428533
  0
CIRCLE
  5
284
100
AcDbEntity
  8
MST_1_1
 62
   137
  6
CONTINUOUS
100
AcDbCircle
 10
-96.54013987
 20
-51.45454975
 30
0.0
 40
1.06049438
  0
CIRCLE
  5
285
100
AcDbEntity
  8
MST_1_1
 62
   137
  6
CONTINUOUS
100
AcDbCircle
 10
-96.54013987
 20
-51.45454975
 30
0.0
 40
1.59428533
  0
CIRCLE
  5
286
100
AcDbEntity
  8
MST_1_1
 62
   137
  6
CONTINUOUS
100
AcDbCircle
 10
-96.54013987
 20
-51.45454975
 30
0.0
 40
1.99428533
  0
CIRCLE
  5
287
100
AcDbEntity
  8
MST_1_1
 62
   137
  6
CONTINUOUS
100
AcDbCircle
 10
-96.54013987
 20
-51.45454975
 30
0.0
 40
1.125
  0
CIRCLE
  5
288
100
AcDbEntity
  8
MST_1_1
 62
   137
  6
CONTINUOUS
100
AcDbCircle
 10
-96.54013987
 20
-51.45454975
 30
0.0
 40
3.5
  0
ARC
  5
289
100
AcDbEntity
  8
MST_1_1
 62
   137
  6
CONTINUOUS
100
AcDbCircle
 10
-97.91213985
 20
-51.45454975
 30
0.0
 40
0.303
100
AcDbArc
 50
104.00039951
 51
255.99961051
  0
ARC
  5
28A
100
AcDbEntity
  8
MST_1_1
 62
   137
  6
CONTINUOUS
100
AcDbCircle
 10
-98.14285743
 20
-52.37987918
 30
0.0
 40
0.65065883
100
AcDbArc
 50
344.00042282
 51
75.99958535
  0
ARC
  5
28B
100
AcDbEntity
  8
MST_1_1
 62
   137
  6
CONTINUOUS
100
AcDbCircle
 10
-97.22613984
 20
-52.64273659
 30
0.0
 40
0.30299999
100
AcDbArc
 50
164.00040911
 51
315.99959504
  0
ARC
  5
28C
100
AcDbEntity
  8
MST_1_1
 62
   137
  6
CONTINUOUS
100
AcDbCircle
 10
-96.54013987
 20
-53.3052085
 30
0.0
 40
0.65065875
100
AcDbArc
 50
44.00040429
 51
135.99959571
  0
ARC
  5
28D
100
AcDbEntity
  8
MST_1_1
 62
   137
  6
CONTINUOUS
100
AcDbCircle
 10
-95.85413987
 20
-52.64273664
 30
0.0
 40
0.30299998
100
AcDbArc
 50
224.00041508
 51
15.9996008
  0
ARC
  5
28E
100
AcDbEntity
  8
MST_1_1
 62
   137
  6
CONTINUOUS
100
AcDbCircle
 10
-95.16813989
 20
-51.45454975
 30
0.0
 40
0.303
100
AcDbArc
 50
284.00040953
 51
75.99960049
  0
ARC
  5
28F
100
AcDbEntity
  8
MST_1_1
 62
   137
  6
CONTINUOUS
100
AcDbCircle
 10
-94.93742231
 20
-50.52922031
 30
0.0
 40
0.65065883
100
AcDbArc
 50
164.00041281
 51
255.99959537
  0
ARC
  5
290
100
AcDbEntity
  8
MST_1_1
 62
   137
  6
CONTINUOUS
100
AcDbCircle
 10
-95.8541399
 20
-50.2663629
 30
0.0
 40
0.30299999
100
AcDbArc
 50
344.00041913
 51
135.99958502
  0
ARC
  5
291
100
AcDbEntity
  8
MST_1_1
 62
   137
  6
CONTINUOUS
100
AcDbCircle
 10
-96.54013987
 20
-49.603891
 30
0.0
 40
0.65065875
100
AcDbArc
 50
224.00041431
 51
315.99960573
  0
ARC
  5
292
100
AcDbEntity
  8
MST_1_1
 62
   137
  6
CONTINUOUS
100
AcDbCircle
 10
-97.22613987
 20
-50.26636285
 30
0.0
 40
0.30299998
100
AcDbArc
 50
44.00040506
 51
195.99961082
  0
ARC
  5
293
100
AcDbEntity
  8
MST_1_1
 62
   137
  6
CONTINUOUS
100
AcDbCircle
 10
-98.14285742
 20
-50.52922031
 30
0.0
 40
0.65065883
100
AcDbArc
 50
284.00042461
 51
15.99958726
  0
LWPOLYLINE
  5
294
100
AcDbEntity
  8
MST_1_1
 62
   137
  6
CONTINUOUS
100
AcDbPolyline
 90
        9
 70
     0
 43
0.0
 10
-97.83060977
 20
-53.69961387
 10
-97.82154381
 20
-53.69054791
 10
-97.81247144
 20
-53.68147544
 10
-97.8033928
 20
-53.6723969
 10
-97.79430774
 20
-53.66331185
 10
-97.78521652
 20
-53.65422051
 10
-97.7761189
 20
-53.64512289
 10
-97.7670151
 20
-53.63601921
 10
-97.75790514
 20
-53.62690925
  0
ARC
  5
295
100
AcDbEntity
  8
MST_1_1
 62
   137
  6
CONTINUOUS
100
AcDbCircle
 10
-97.60574981
 20
-53.50020975
 30
0.0
 40
0.19800002
100
AcDbArc
 50
50.21591721
 51
219.78410477
  0
LWPOLYLINE
  5
296
100
AcDbEntity
  8
MST_1_1
 62
   137
  6
CONTINUOUS
100
AcDbPolyline
 90
        9
 70
     0
 43
0.0
 10
-97.47905034
 20
-53.34805439
 10
-97.46997908
 20
-53.33898307
 10
-97.46090299
 20
-53.32990698
 10
-97.45182207
 20
-53.32082612
 10
-97.44273627
 20
-53.31174037
 10
-97.43364574
 20
-53.30264973
 10
-97.42455045
 20
-53.29355444
 10
-97.41545038
 20
-53.28445448
 10
-97.40634565
 20
-53.27534976
  0
LWPOLYLINE
  5
297
100
AcDbEntity
  8
MST_1_1
 62
   137
  6
CONTINUOUS
100
AcDbPolyline
 90
        9
 70
     0
 43
0.0
 10
-97.40634565
 20
-53.27534976
 10
-97.46069513
 20
-53.22100022
 10
-97.51509677
 20
-53.16659864
 10
-97.56954398
 20
-53.11215143
 10
-97.62402985
 20
-53.05766556
 10
-97.67854784
 20
-53.00314757
 10
-97.7330911
 20
-52.94860431
 10
-97.78765298
 20
-52.89404243
 10
-97.84222662
 20
-52.83946879
  0
LWPOLYLINE
  5
298
100
AcDbEntity
  8
MST_1_1
 62
   137
  6
CONTINUOUS
100
AcDbPolyline
 90
        9
 70
     0
 43
0.0
 10
-97.84222662
 20
-52.83946879
 10
-97.84544864
 20
-52.8426907
 10
-97.84866997
 20
-52.84591215
 10
-97.85189084
 20
-52.84913289
 10
-97.85511112
 20
-52.85235317
 10
-97.8583307
 20
-52.85557287
 10
-97.86154982
 20
-52.85879187
 10
-97.86476823
 20
-52.86201041
 10
-97.86798619
 20
-52.86522824
  0
LWPOLYLINE
  5
299
100
AcDbEntity
  8
MST_1_1
 62
   137
  6
CONTINUOUS
100
AcDbPolyline
 90
       25
 70
     0
 43
0.0
 10
-97.86798619
 20
-52.86522828
 10
-97.87067851
 20
-52.86108129
 10
-97.87344229
 20
-52.85698931
 10
-97.8762768
 20
-52.85295308
 10
-97.87918127
 20
-52.84897337
 10
-97.88215497
 20
-52.84505092
 10
-97.88519716
 20
-52.84118646
 10
-97.88830708
 20
-52.83738076
 10
-97.891484
 20
-52.83363455
 10
-97.89472717
 20
-52.82994858
 10
-97.89803585
 20
-52.8263236
 10
-97.90140928
 20
-52.82276036
 10
-97.90484673
 20
-52.81925961
 10
-97.90834746
 20
-52.81582208
 10
-97.91191071
 20
-52.81244853
 10
-97.91553574
 20
-52.8091397
 10
-97.91922181
 20
-52.80589635
 10
-97.92296817
 20
-52.80271921
 10
-97.92677409
 20
-52.79960903
 10
-97.93063881
 20
-52.79656657
 10
-97.93456158
 20
-52.79359257
 10
-97.93854168
 20
-52.79068777
 10
-97.94257834
 20
-52.78785292
 10
-97.94667083
 20
-52.78508877
 10
-97.95081841
 20
-52.78239606
  0
LWPOLYLINE
  5
29A
100
AcDbEntity
  8
MST_1_1
 62
   137
  6
CONTINUOUS
100
AcDbPolyline
 90
        9
 70
     0
 43
0.0
 10
-97.95081836
 20
-52.78239606
 10
-97.94760053
 20
-52.77917811
 10
-97.94438199
 20
-52.77595969
 10
-97.94116299
 20
-52.77274058
 10
-97.9379433
 20
-52.76952099
 10
-97.93472302
 20
-52.76630071
 10
-97.93150227
 20
-52.76307985
 10
-97.92828082
 20
-52.75985852
 10
-97.92505891
 20
-52.7566365
  0
LWPOLYLINE
  5
29B
100
AcDbEntity
  8
MST_1_1
 62
   137
  6
CONTINUOUS
100
AcDbPolyline
 90
        9
 70
     0
 43
0.0
 10
-97.92505891
 20
-52.7566365
 10
-97.97963255
 20
-52.70206286
 10
-98.03419444
 20
-52.64750097
 10
-98.08873769
 20
-52.59295772
 10
-98.14325569
 20
-52.53843972
 10
-98.19774155
 20
-52.48395386
 10
-98.25218876
 20
-52.42950665
 10
-98.30659034
 20
-52.37510501
 10
-98.36093988
 20
-52.32075553
  0
LWPOLYLINE
  5
29C
100
AcDbEntity
  8
MST_1_1
 62
   137
  6
CONTINUOUS
100
AcDbPolyline
 90
        9
 70
     0
 43
0.0
 10
-98.36093988
 20
-52.32075553
 10
-98.37004461
 20
-52.32986025
 10
-98.37914456
 20
-52.33896032
 10
-98.38823986
 20
-52.34805562
 10
-98.3973305
 20
-52.35714614
 10
-98.40641625
 20
-52.36623195
 10
-98.41549711
 20
-52.37531287
 10
-98.42457319
 20
-52.38438896
 10
-98.43364451
 20
-52.39346021
  0
ARC
  5
29D
100
AcDbEntity
  8
MST_1_1
 62
   137
  6
CONTINUOUS
100
AcDbCircle
 10
-98.58579988
 20
-52.52015967
 30
0.0
 40
0.19800002
100
AcDbArc
 50
230.21591956
 51
39.7840785
  0
LWPOLYLINE
  5
29E
100
AcDbEntity
  8
MST_1_1
 62
   137
  6
CONTINUOUS
100
AcDbPolyline
 90
        9
 70
     0
 43
0.0
 10
-98.71249937
 20
-52.67231502
 10
-98.72160933
 20
-52.68142498
 10
-98.73071301
 20
-52.69052877
 10
-98.73981064
 20
-52.6996264
 10
-98.74890197
 20
-52.70871762
 10
-98.75798703
 20
-52.71780267
 10
-98.76706556
 20
-52.72688132
 10
-98.77613804
 20
-52.73595368
 10
-98.785204
 20
-52.74501964
  0
LWPOLYLINE
  5
29F
100
AcDbEntity
  8
MST_1_1
 62
   137
  6
CONTINUOUS
100
AcDbPolyline
 90
        9
 70
     0
 43
0.0
 10
-98.785204
 20
-52.74501964
 10
-98.73086226
 20
-52.79936115
 10
-98.67646557
 20
-52.85375796
 10
-98.62202068
 20
-52.90820296
 10
-98.56753459
 20
-52.96268894
 10
-98.51301473
 20
-53.01720879
 10
-98.4584681
 20
-53.07175543
 10
-98.40390179
 20
-53.12632173
 10
-98.34932291
 20
-53.18090061
  0
LWPOLYLINE
  5
2A0
100
AcDbEntity
  8
MST_1_1
 62
   137
  6
CONTINUOUS
100
AcDbPolyline
 90
        9
 70
     0
 43
0.0
 10
-98.34932291
 20
-53.18090061
 10
-98.34610578
 20
-53.17768347
 10
-98.34288782
 20
-53.17446552
 10
-98.33966906
 20
-53.17124675
 10
-98.33644947
 20
-53.16802717
 10
-98.33322919
 20
-53.16480689
 10
-98.3300081
 20
-53.16158568
 10
-98.32678607
 20
-53.15836377
 10
-98.32356334
 20
-53.15514104
  0
LWPOLYLINE
  5
2A1
100
AcDbEntity
  8
MST_1_1
 62
   137
  6
CONTINUOUS
100
AcDbPolyline
 90
       25
 70
     0
 43
0.0
 10
-98.32356339
 20
-53.15514105
 10
-98.32087127
 20
-53.15928771
 10
-98.31810763
 20
-53.16337944
 10
-98.31527321
 20
-53.16741547
 10
-98.31236877
 20
-53.17139505
 10
-98.30939505
 20
-53.17531744
 10
-98.30635282
 20
-53.17918187
 10
-98.30324281
 20
-53.1829876
 10
-98.30006578
 20
-53.18673386
 10
-98.29682248
 20
-53.19041992
 10
-98.29351367
 20
-53.19404501
 10
-98.29014008
 20
-53.19760839
 10
-98.28670248
 20
-53.20110929
 10
-98.28320161
 20
-53.20454697
 10
-98.27963823
 20
-53.20792068
 10
-98.27601308
 20
-53.21122965
 10
-98.27232691
 20
-53.21447314
 10
-98.26858048
 20
-53.21765039
 10
-98.26477454
 20
-53.22076065
 10
-98.26090984
 20
-53.22380317
 10
-98.25698713
 20
-53.22677719
 10
-98.25300715
 20
-53.22968197
 10
-98.24897067
 20
-53.23251674
 10
-98.24487842
 20
-53.23528076
 10
-98.24073117
 20
-53.23797327
  0
LWPOLYLINE
  5
2A2
100
AcDbEntity
  8
MST_1_1
 62
   137
  6
CONTINUOUS
100
AcDbPolyline
 90
        9
 70
     0
 43
0.0
 10
-98.24073117
 20
-53.23797322
 10
-98.24395389
 20
-53.24119595
 10
-98.2471758
 20
-53.24441797
 10
-98.25039701
 20
-53.24763907
 10
-98.25361729
 20
-53.25085935
 10
-98.25683688
 20
-53.25407893
 10
-98.26005564
 20
-53.2572977
 10
-98.2632736
 20
-53.26051565
 10
-98.26649073
 20
-53.26373279
  0
LWPOLYLINE
  5
2A3
100
AcDbEntity
  8
MST_1_1
 62
   137
  6
CONTINUOUS
100
AcDbPolyline
 90
        9
 70
     0
 43
0.0
 10
-98.26649073
 20
-53.26373279
 10
-98.21191185
 20
-53.31831167
 10
-98.15734555
 20
-53.37287798
 10
-98.10279892
 20
-53.42742461
 10
-98.04827906
 20
-53.48194446
 10
-97.99379308
 20
-53.53643056
 10
-97.93934808
 20
-53.59087544
 10
-97.88495127
 20
-53.64527213
 10
-97.83060977
 20
-53.69961387
  0
CIRCLE
  5
2A4
100
AcDbEntity
  8
MST_1_1
 62
   137
  6
CONTINUOUS
100
AcDbCircle
 10
-96.54013987
 20
-51.45454975
 30
0.0
 40
3.324953
  0
ARC
  5
2A5
100
AcDbEntity
  8
MST_1_1
 62
   137
  6
CONTINUOUS
100
AcDbCircle
 10
-94.93742232
 20
-52.37987918
 30
0.0
 40
0.65065883
100
AcDbArc
 50
104.00041459
 51
195.99959727
  0
LWPOLYLINE
  5
2A6
100
AcDbEntity
  8
MST_1_1
 62
   137
  6
CONTINUOUS
100
AcDbPolyline
 90
        9
 70
     0
 43
0.0
 10
-98.03681879
 20
-52.74669998
 10
-98.0725449
 20
-52.71097387
 10
-98.10826357
 20
-52.6752552
 10
-98.14397304
 20
-52.63954573
 10
-98.17967133
 20
-52.60384744
 10
-98.21535658
 20
-52.56816219
 10
-98.25102682
 20
-52.53249183
 10
-98.28668029
 20
-52.49683836
 10
-98.32231502
 20
-52.46120363
  0
ARC
  5
2A7
100
AcDbEntity
  8
MST_1_1
 62
   137
  6
CONTINUOUS
100
AcDbCircle
 10
-98.0957749
 20
-53.01018401
 30
0.0
 40
0.26999936
100
AcDbArc
 50
77.38747914
 51
127.33780242
  0
LINE
  5
2A8
100
AcDbEntity
  8
MST_1_1
 62
   137
  6
CONTINUOUS
100
AcDbLine
 10
-97.8811048
 20
-53.17394293
 30
0.0
 11
-98.25953306
 21
-52.79551467
 31
0.0
  0
ARC
  5
2A9
100
AcDbEntity
  8
MST_1_1
 62
   137
  6
CONTINUOUS
100
AcDbCircle
 10
-98.09577425
 20
-53.01018475
 30
0.0
 40
0.26999948
100
AcDbArc
 50
322.66221884
 51
12.61250962
  0
LWPOLYLINE
  5
2AA
100
AcDbEntity
  8
MST_1_1
 62
   137
  6
CONTINUOUS
100
AcDbPolyline
 90
        9
 70
     0
 43
0.0
 10
-97.54679375
 20
-53.2367249
 10
-97.58242848
 20
-53.20109017
 10
-97.61808195
 20
-53.1654367
 10
-97.65375231
 20
-53.12976646
 10
-97.68943756
 20
-53.09408121
 10
-97.72513585
 20
-53.05838291
 10
-97.76084532
 20
-53.02267345
 10
-97.79656399
 20
-52.98695478
 10
-97.8322901
 20
-52.95122866
  0
ARC
  5
2AB
100
AcDbEntity
  8
MST_1_1
 62
   137
  6
CONTINUOUS
100
AcDbCircle
 10
-97.60574969
 20
-53.50020969
 30
0.0
 40
0.27000007
100
AcDbArc
 50
77.38755048
 51
192.61243885
  0
LWPOLYLINE
  5
2AC
100
AcDbEntity
  8
MST_1_1
 62
   137
  6
CONTINUOUS
100
AcDbPolyline
 90
        9
 70
     0
 43
0.0
 10
-98.15473074
 20
-53.27366942
 10
-98.119003
 20
-53.30939717
 10
-98.08328294
 20
-53.34511723
 10
-98.04757254
 20
-53.38082763
 10
-98.01187366
 20
-53.4165265
 10
-97.97618852
 20
-53.45221152
 10
-97.94051898
 20
-53.48788118
 10
-97.90486691
 20
-53.52353314
 10
-97.86923451
 20
-53.55916554
  0
ARC
  5
2AD
100
AcDbEntity
  8
MST_1_1
 62
   137
  6
CONTINUOUS
100
AcDbCircle
 10
-98.09577497
 20
-53.01018383
 30
0.0
 40
0.27000082
100
AcDbArc
 50
257.38763285
 51
307.33766874
  0
LWPOLYLINE
  5
2AE
100
AcDbEntity
  8
MST_1_1
 62
   137
  6
CONTINUOUS
100
AcDbPolyline
 90
        9
 70
     0
 43
0.0
 10
-98.31044485
 20
-52.84642635
 10
-98.26315706
 20
-52.89371402
 10
-98.21585577
 20
-52.94101532
 10
-98.16854552
 20
-52.98832569
 10
-98.12123061
 20
-53.03564048
 10
-98.07391581
 20
-53.0829554
 10
-98.02660544
 20
-53.13026565
 10
-97.97930415
 20
-53.17756694
 10
-97.93201648
 20
-53.22485473
  0
ARC
  5
2AF
100
AcDbEntity
  8
MST_1_1
 62
   137
  6
CONTINUOUS
100
AcDbCircle
 10
-98.09577469
 20
-53.01018468
 30
0.0
 40
0.27000013
100
AcDbArc
 50
142.662273
 51
192.61245546
  0
LWPOLYLINE
  5
2B0
100
AcDbEntity
  8
MST_1_1
 62
   137
  6
CONTINUOUS
100
AcDbPolyline
 90
        9
 70
     0
 43
0.0
 10
-98.64475566
 20
-52.78364438
 10
-98.60912326
 20
-52.81927679
 10
-98.5734713
 20
-52.85492886
 10
-98.53780165
 20
-52.8905984
 10
-98.50211663
 20
-52.92628354
 10
-98.46641775
 20
-52.96198241
 10
-98.43070735
 20
-52.99769281
 10
-98.39498729
 20
-53.03341288
 10
-98.35925954
 20
-53.06914062
  0
ARC
  5
2B1
100
AcDbEntity
  8
MST_1_1
 62
   137
  6
CONTINUOUS
100
AcDbCircle
 10
-98.58579956
 20
-52.52015983
 30
0.0
 40
0.26999988
100
AcDbArc
 50
257.38751638
 51
12.61251432
  0
LWPOLYLINE
  5
2B2
100
AcDbEntity
  8
MST_1_1
 62
   137
  6
CONTINUOUS
100
AcDbPolyline
 90
        9
 70
     0
 43
0.0
 10
-98.1752855
 20
-52.82885055
 10
-98.14268502
 20
-52.86145103
 10
-98.11008011
 20
-52.89405594
 10
-98.07747241
 20
-52.92666375
 10
-98.04486309
 20
-52.95927296
 10
-98.01225387
 20
-52.99188229
 10
-97.97964606
 20
-53.02448999
 10
-97.94704115
 20
-53.0570949
 10
-97.91444067
 20
-53.08969538
  0
ARC
  5
2B3
100
AcDbEntity
  8
MST_1_1
 62
   137
  6
CONTINUOUS
100
AcDbCircle
 10
-98.09577485
 20
-53.01018473
 30
0.0
 40
0.19800007
100
AcDbArc
 50
336.32372311
 51
113.6762869
  0
LWPOLYLINE
  5
2B4
100
AcDbEntity
  8
MST_1_1
 62
   137
  6
CONTINUOUS
100
AcDbPolyline
 90
        9
 70
     0
 43
0.0
 10
-98.01626403
 20
-53.19151874
 10
-98.04886451
 20
-53.15891837
 10
-98.0814693
 20
-53.12631347
 10
-98.11407712
 20
-53.09370565
 10
-98.14668645
 20
-53.06109632
 10
-98.17929577
 20
-53.02848699
 10
-98.21190359
 20
-52.99587918
 10
-98.24450849
 20
-52.96327439
 10
-98.27710886
 20
-52.93067391
  0
ARC
  5
2B5
100
AcDbEntity
  8
MST_1_1
 62
   137
  6
CONTINUOUS
100
AcDbCircle
 10
-98.09577473
 20
-53.01018461
 30
0.0
 40
0.19800004
100
AcDbArc
 50
156.32369345
 51
293.67631657
  0
CIRCLE
  5
2B6
100
AcDbEntity
  8
MST_1_1
 62
   137
  6
CONTINUOUS
100
AcDbCircle
 10
-96.54013987
 20
-81.45454975
 30
0.0
 40
1.89428533
  0
CIRCLE
  5
2B7
100
AcDbEntity
  8
MST_1_1
 62
   137
  6
CONTINUOUS
100
AcDbCircle
 10
-96.54013987
 20
-81.45454975
 30
0.0
 40
1.06049438
  0
CIRCLE
  5
2B8
100
AcDbEntity
  8
MST_1_1
 62
   137
  6
CONTINUOUS
100
AcDbCircle
 10
-96.54013987
 20
-81.45454975
 30
0.0
 40
1.89428533
  0
CIRCLE
  5
2B9
100
AcDbEntity
  8
MST_1_1
 62
   137
  6
CONTINUOUS
100
AcDbCircle
 10
-96.54013987
 20
-81.45454975
 30
0.0
 40
1.06049438
  0
CIRCLE
  5
2BA
100
AcDbEntity
  8
MST_1_1
 62
   137
  6
CONTINUOUS
100
AcDbCircle
 10
-96.54013987
 20
-81.45454975
 30
0.0
 40
1.89428533
  0
CIRCLE
  5
2BB
100
AcDbEntity
  8
MST_1_1
 62
   137
  6
CONTINUOUS
100
AcDbCircle
 10
-96.54013987
 20
-81.45454975
 30
0.0
 40
1.06049438
  0
CIRCLE
  5
2BC
100
AcDbEntity
  8
MST_1_1
 62
   137
  6
CONTINUOUS
100
AcDbCircle
 10
-96.54013987
 20
-81.45454975
 30
0.0
 40
1.59428533
  0
CIRCLE
  5
2BD
100
AcDbEntity
  8
MST_1_1
 62
   137
  6
CONTINUOUS
100
AcDbCircle
 10
-96.54013987
 20
-81.45454975
 30
0.0
 40
1.99428533
  0
CIRCLE
  5
2BE
100
AcDbEntity
  8
MST_1_1
 62
   137
  6
CONTINUOUS
100
AcDbCircle
 10
-96.54013987
 20
-81.45454975
 30
0.0
 40
1.125
  0
CIRCLE
  5
2BF
100
AcDbEntity
  8
MST_1_1
 62
   137
  6
CONTINUOUS
100
AcDbCircle
 10
-96.54013987
 20
-81.45454975
 30
0.0
 40
3.5
  0
ARC
  5
2C0
100
AcDbEntity
  8
MST_1_1
 62
   137
  6
CONTINUOUS
100
AcDbCircle
 10
-97.91213985
 20
-81.45454975
 30
0.0
 40
0.303
100
AcDbArc
 50
104.00039951
 51
255.99961051
  0
ARC
  5
2C1
100
AcDbEntity
  8
MST_1_1
 62
   137
  6
CONTINUOUS
100
AcDbCircle
 10
-98.14285743
 20
-82.37987918
 30
0.0
 40
0.65065883
100
AcDbArc
 50
344.00042282
 51
75.99958535
  0
ARC
  5
2C2
100
AcDbEntity
  8
MST_1_1
 62
   137
  6
CONTINUOUS
100
AcDbCircle
 10
-97.22613984
 20
-82.64273659
 30
0.0
 40
0.30299999
100
AcDbArc
 50
164.00040911
 51
315.99959504
  0
ARC
  5
2C3
100
AcDbEntity
  8
MST_1_1
 62
   137
  6
CONTINUOUS
100
AcDbCircle
 10
-96.54013987
 20
-83.3052085
 30
0.0
 40
0.65065875
100
AcDbArc
 50
44.00040429
 51
135.99959571
  0
ARC
  5
2C4
100
AcDbEntity
  8
MST_1_1
 62
   137
  6
CONTINUOUS
100
AcDbCircle
 10
-95.85413987
 20
-82.64273664
 30
0.0
 40
0.30299998
100
AcDbArc
 50
224.00041508
 51
15.9996008
  0
ARC
  5
2C5
100
AcDbEntity
  8
MST_1_1
 62
   137
  6
CONTINUOUS
100
AcDbCircle
 10
-95.16813989
 20
-81.45454975
 30
0.0
 40
0.303
100
AcDbArc
 50
284.00040953
 51
75.99960049
  0
ARC
  5
2C6
100
AcDbEntity
  8
MST_1_1
 62
   137
  6
CONTINUOUS
100
AcDbCircle
 10
-94.93742231
 20
-80.52922031
 30
0.0
 40
0.65065883
100
AcDbArc
 50
164.00041281
 51
255.99959537
  0
ARC
  5
2C7
100
AcDbEntity
  8
MST_1_1
 62
   137
  6
CONTINUOUS
100
AcDbCircle
 10
-95.8541399
 20
-80.2663629
 30
0.0
 40
0.30299999
100
AcDbArc
 50
344.00041913
 51
135.99958502
  0
ARC
  5
2C8
100
AcDbEntity
  8
MST_1_1
 62
   137
  6
CONTINUOUS
100
AcDbCircle
 10
-96.54013987
 20
-79.603891
 30
0.0
 40
0.65065875
100
AcDbArc
 50
224.00041431
 51
315.99960573
  0
ARC
  5
2C9
100
AcDbEntity
  8
MST_1_1
 62
   137
  6
CONTINUOUS
100
AcDbCircle
 10
-97.22613987
 20
-80.26636285
 30
0.0
 40
0.30299998
100
AcDbArc
 50
44.00040506
 51
195.99961082
  0
ARC
  5
2CA
100
AcDbEntity
  8
MST_1_1
 62
   137
  6
CONTINUOUS
100
AcDbCircle
 10
-98.14285742
 20
-80.52922031
 30
0.0
 40
0.65065883
100
AcDbArc
 50
284.00042461
 51
15.99958726
  0
LWPOLYLINE
  5
2CB
100
AcDbEntity
  8
MST_1_1
 62
   137
  6
CONTINUOUS
100
AcDbPolyline
 90
        9
 70
     0
 43
0.0
 10
-97.83060977
 20
-83.69961387
 10
-97.82154381
 20
-83.69054791
 10
-97.81247144
 20
-83.68147544
 10
-97.8033928
 20
-83.6723969
 10
-97.79430774
 20
-83.66331185
 10
-97.78521652
 20
-83.65422051
 10
-97.7761189
 20
-83.64512289
 10
-97.7670151
 20
-83.63601921
 10
-97.75790514
 20
-83.62690925
  0
ARC
  5
2CC
100
AcDbEntity
  8
MST_1_1
 62
   137
  6
CONTINUOUS
100
AcDbCircle
 10
-97.60574981
 20
-83.50020975
 30
0.0
 40
0.19800002
100
AcDbArc
 50
50.21591721
 51
219.78410477
  0
LWPOLYLINE
  5
2CD
100
AcDbEntity
  8
MST_1_1
 62
   137
  6
CONTINUOUS
100
AcDbPolyline
 90
        9
 70
     0
 43
0.0
 10
-97.47905034
 20
-83.34805439
 10
-97.46997908
 20
-83.33898307
 10
-97.46090299
 20
-83.32990698
 10
-97.45182207
 20
-83.32082612
 10
-97.44273627
 20
-83.31174037
 10
-97.43364574
 20
-83.30264973
 10
-97.42455045
 20
-83.29355444
 10
-97.41545038
 20
-83.28445448
 10
-97.40634565
 20
-83.27534976
  0
LWPOLYLINE
  5
2CE
100
AcDbEntity
  8
MST_1_1
 62
   137
  6
CONTINUOUS
100
AcDbPolyline
 90
        9
 70
     0
 43
0.0
 10
-97.40634565
 20
-83.27534976
 10
-97.46069513
 20
-83.22100022
 10
-97.51509677
 20
-83.16659864
 10
-97.56954398
 20
-83.11215143
 10
-97.62402985
 20
-83.05766556
 10
-97.67854784
 20
-83.00314757
 10
-97.7330911
 20
-82.94860431
 10
-97.78765298
 20
-82.89404243
 10
-97.84222662
 20
-82.83946879
  0
LWPOLYLINE
  5
2CF
100
AcDbEntity
  8
MST_1_1
 62
   137
  6
CONTINUOUS
100
AcDbPolyline
 90
        9
 70
     0
 43
0.0
 10
-97.84222662
 20
-82.83946879
 10
-97.84544864
 20
-82.8426907
 10
-97.84866997
 20
-82.84591215
 10
-97.85189084
 20
-82.84913289
 10
-97.85511112
 20
-82.85235317
 10
-97.8583307
 20
-82.85557287
 10
-97.86154982
 20
-82.85879187
 10
-97.86476823
 20
-82.86201041
 10
-97.86798619
 20
-82.86522824
  0
LWPOLYLINE
  5
2D0
100
AcDbEntity
  8
MST_1_1
 62
   137
  6
CONTINUOUS
100
AcDbPolyline
 90
       25
 70
     0
 43
0.0
 10
-97.86798619
 20
-82.86522828
 10
-97.87067851
 20
-82.86108129
 10
-97.87344229
 20
-82.85698931
 10
-97.8762768
 20
-82.85295308
 10
-97.87918127
 20
-82.84897337
 10
-97.88215497
 20
-82.84505092
 10
-97.88519716
 20
-82.84118646
 10
-97.88830708
 20
-82.83738076
 10
-97.891484
 20
-82.83363455
 10
-97.89472717
 20
-82.82994858
 10
-97.89803585
 20
-82.8263236
 10
-97.90140928
 20
-82.82276036
 10
-97.90484673
 20
-82.81925961
 10
-97.90834746
 20
-82.81582208
 10
-97.91191071
 20
-82.81244853
 10
-97.91553574
 20
-82.8091397
 10
-97.91922181
 20
-82.80589635
 10
-97.92296817
 20
-82.80271921
 10
-97.92677409
 20
-82.79960903
 10
-97.93063881
 20
-82.79656657
 10
-97.93456158
 20
-82.79359257
 10
-97.93854168
 20
-82.79068777
 10
-97.94257834
 20
-82.78785292
 10
-97.94667083
 20
-82.78508877
 10
-97.95081841
 20
-82.78239606
  0
LWPOLYLINE
  5
2D1
100
AcDbEntity
  8
MST_1_1
 62
   137
  6
CONTINUOUS
100
AcDbPolyline
 90
        9
 70
     0
 43
0.0
 10
-97.95081836
 20
-82.78239606
 10
-97.94760053
 20
-82.77917811
 10
-97.94438199
 20
-82.77595969
 10
-97.94116299
 20
-82.77274058
 10
-97.9379433
 20
-82.76952099
 10
-97.93472302
 20
-82.76630071
 10
-97.93150227
 20
-82.76307985
 10
-97.92828082
 20
-82.75985852
 10
-97.92505891
 20
-82.7566365
  0
LWPOLYLINE
  5
2D2
100
AcDbEntity
  8
MST_1_1
 62
   137
  6
CONTINUOUS
100
AcDbPolyline
 90
        9
 70
     0
 43
0.0
 10
-97.92505891
 20
-82.7566365
 10
-97.97963255
 20
-82.70206286
 10
-98.03419444
 20
-82.64750097
 10
-98.08873769
 20
-82.59295772
 10
-98.14325569
 20
-82.53843972
 10
-98.19774155
 20
-82.48395386
 10
-98.25218876
 20
-82.42950665
 10
-98.30659034
 20
-82.37510501
 10
-98.36093988
 20
-82.32075553
  0
LWPOLYLINE
  5
2D3
100
AcDbEntity
  8
MST_1_1
 62
   137
  6
CONTINUOUS
100
AcDbPolyline
 90
        9
 70
     0
 43
0.0
 10
-98.36093988
 20
-82.32075553
 10
-98.37004461
 20
-82.32986025
 10
-98.37914456
 20
-82.33896032
 10
-98.38823986
 20
-82.34805562
 10
-98.3973305
 20
-82.35714614
 10
-98.40641625
 20
-82.36623195
 10
-98.41549711
 20
-82.37531287
 10
-98.42457319
 20
-82.38438896
 10
-98.43364451
 20
-82.39346021
  0
ARC
  5
2D4
100
AcDbEntity
  8
MST_1_1
 62
   137
  6
CONTINUOUS
100
AcDbCircle
 10
-98.58579988
 20
-82.52015967
 30
0.0
 40
0.19800002
100
AcDbArc
 50
230.21591956
 51
39.7840785
  0
LWPOLYLINE
  5
2D5
100
AcDbEntity
  8
MST_1_1
 62
   137
  6
CONTINUOUS
100
AcDbPolyline
 90
        9
 70
     0
 43
0.0
 10
-98.71249937
 20
-82.67231502
 10
-98.72160933
 20
-82.68142498
 10
-98.73071301
 20
-82.69052877
 10
-98.73981064
 20
-82.6996264
 10
-98.74890197
 20
-82.70871762
 10
-98.75798703
 20
-82.71780267
 10
-98.76706556
 20
-82.72688132
 10
-98.77613804
 20
-82.73595368
 10
-98.785204
 20
-82.74501964
  0
LWPOLYLINE
  5
2D6
100
AcDbEntity
  8
MST_1_1
 62
   137
  6
CONTINUOUS
100
AcDbPolyline
 90
        9
 70
     0
 43
0.0
 10
-98.785204
 20
-82.74501964
 10
-98.73086226
 20
-82.79936115
 10
-98.67646557
 20
-82.85375796
 10
-98.62202068
 20
-82.90820296
 10
-98.56753459
 20
-82.96268894
 10
-98.51301473
 20
-83.01720879
 10
-98.4584681
 20
-83.07175543
 10
-98.40390179
 20
-83.12632173
 10
-98.34932291
 20
-83.18090061
  0
LWPOLYLINE
  5
2D7
100
AcDbEntity
  8
MST_1_1
 62
   137
  6
CONTINUOUS
100
AcDbPolyline
 90
        9
 70
     0
 43
0.0
 10
-98.34932291
 20
-83.18090061
 10
-98.34610578
 20
-83.17768347
 10
-98.34288782
 20
-83.17446552
 10
-98.33966906
 20
-83.17124675
 10
-98.33644947
 20
-83.16802717
 10
-98.33322919
 20
-83.16480689
 10
-98.3300081
 20
-83.16158568
 10
-98.32678607
 20
-83.15836377
 10
-98.32356334
 20
-83.15514104
  0
LWPOLYLINE
  5
2D8
100
AcDbEntity
  8
MST_1_1
 62
   137
  6
CONTINUOUS
100
AcDbPolyline
 90
       25
 70
     0
 43
0.0
 10
-98.32356339
 20
-83.15514105
 10
-98.32087127
 20
-83.15928771
 10
-98.31810763
 20
-83.16337944
 10
-98.31527321
 20
-83.16741547
 10
-98.31236877
 20
-83.17139505
 10
-98.30939505
 20
-83.17531744
 10
-98.30635282
 20
-83.17918187
 10
-98.30324281
 20
-83.1829876
 10
-98.30006578
 20
-83.18673386
 10
-98.29682248
 20
-83.19041992
 10
-98.29351367
 20
-83.19404501
 10
-98.29014008
 20
-83.19760839
 10
-98.28670248
 20
-83.20110929
 10
-98.28320161
 20
-83.20454697
 10
-98.27963823
 20
-83.20792068
 10
-98.27601308
 20
-83.21122965
 10
-98.27232691
 20
-83.21447314
 10
-98.26858048
 20
-83.21765039
 10
-98.26477454
 20
-83.22076065
 10
-98.26090984
 20
-83.22380317
 10
-98.25698713
 20
-83.22677719
 10
-98.25300715
 20
-83.22968197
 10
-98.24897067
 20
-83.23251674
 10
-98.24487842
 20
-83.23528076
 10
-98.24073117
 20
-83.23797327
  0
LWPOLYLINE
  5
2D9
100
AcDbEntity
  8
MST_1_1
 62
   137
  6
CONTINUOUS
100
AcDbPolyline
 90
        9
 70
     0
 43
0.0
 10
-98.24073117
 20
-83.23797322
 10
-98.24395389
 20
-83.24119595
 10
-98.2471758
 20
-83.24441797
 10
-98.25039701
 20
-83.24763907
 10
-98.25361729
 20
-83.25085935
 10
-98.25683688
 20
-83.25407893
 10
-98.26005564
 20
-83.2572977
 10
-98.2632736
 20
-83.26051565
 10
-98.26649073
 20
-83.26373279
  0
LWPOLYLINE
  5
2DA
100
AcDbEntity
  8
MST_1_1
 62
   137
  6
CONTINUOUS
100
AcDbPolyline
 90
        9
 70
     0
 43
0.0
 10
-98.26649073
 20
-83.26373279
 10
-98.21191185
 20
-83.31831167
 10
-98.15734555
 20
-83.37287798
 10
-98.10279892
 20
-83.42742461
 10
-98.04827906
 20
-83.48194446
 10
-97.99379308
 20
-83.53643056
 10
-97.93934808
 20
-83.59087544
 10
-97.88495127
 20
-83.64527213
 10
-97.83060977
 20
-83.69961387
  0
CIRCLE
  5
2DB
100
AcDbEntity
  8
MST_1_1
 62
   137
  6
CONTINUOUS
100
AcDbCircle
 10
-96.54013987
 20
-81.45454975
 30
0.0
 40
3.324953
  0
ARC
  5
2DC
100
AcDbEntity
  8
MST_1_1
 62
   137
  6
CONTINUOUS
100
AcDbCircle
 10
-94.93742232
 20
-82.37987918
 30
0.0
 40
0.65065883
100
AcDbArc
 50
104.00041459
 51
195.99959727
  0
LWPOLYLINE
  5
2DD
100
AcDbEntity
  8
MST_1_1
 62
   137
  6
CONTINUOUS
100
AcDbPolyline
 90
        9
 70
     0
 43
0.0
 10
-98.03681879
 20
-82.74669998
 10
-98.0725449
 20
-82.71097387
 10
-98.10826357
 20
-82.6752552
 10
-98.14397304
 20
-82.63954573
 10
-98.17967133
 20
-82.60384744
 10
-98.21535658
 20
-82.56816219
 10
-98.25102682
 20
-82.53249183
 10
-98.28668029
 20
-82.49683836
 10
-98.32231502
 20
-82.46120363
  0
ARC
  5
2DE
100
AcDbEntity
  8
MST_1_1
 62
   137
  6
CONTINUOUS
100
AcDbCircle
 10
-98.0957749
 20
-83.01018401
 30
0.0
 40
0.26999936
100
AcDbArc
 50
77.38747914
 51
127.33780242
  0
LINE
  5
2DF
100
AcDbEntity
  8
MST_1_1
 62
   137
  6
CONTINUOUS
100
AcDbLine
 10
-97.8811048
 20
-83.17394293
 30
0.0
 11
-98.25953306
 21
-82.79551467
 31
0.0
  0
ARC
  5
2E0
100
AcDbEntity
  8
MST_1_1
 62
   137
  6
CONTINUOUS
100
AcDbCircle
 10
-98.09577425
 20
-83.01018475
 30
0.0
 40
0.26999948
100
AcDbArc
 50
322.66221884
 51
12.61250962
  0
LWPOLYLINE
  5
2E1
100
AcDbEntity
  8
MST_1_1
 62
   137
  6
CONTINUOUS
100
AcDbPolyline
 90
        9
 70
     0
 43
0.0
 10
-97.54679375
 20
-83.2367249
 10
-97.58242848
 20
-83.20109017
 10
-97.61808195
 20
-83.1654367
 10
-97.65375231
 20
-83.12976646
 10
-97.68943756
 20
-83.09408121
 10
-97.72513585
 20
-83.05838291
 10
-97.76084532
 20
-83.02267345
 10
-97.79656399
 20
-82.98695478
 10
-97.8322901
 20
-82.95122866
  0
ARC
  5
2E2
100
AcDbEntity
  8
MST_1_1
 62
   137
  6
CONTINUOUS
100
AcDbCircle
 10
-97.60574969
 20
-83.50020969
 30
0.0
 40
0.27000007
100
AcDbArc
 50
77.38755048
 51
192.61243885
  0
LWPOLYLINE
  5
2E3
100
AcDbEntity
  8
MST_1_1
 62
   137
  6
CONTINUOUS
100
AcDbPolyline
 90
        9
 70
     0
 43
0.0
 10
-98.15473074
 20
-83.27366942
 10
-98.119003
 20
-83.30939717
 10
-98.08328294
 20
-83.34511723
 10
-98.04757254
 20
-83.38082763
 10
-98.01187366
 20
-83.4165265
 10
-97.97618852
 20
-83.45221152
 10
-97.94051898
 20
-83.48788118
 10
-97.90486691
 20
-83.52353314
 10
-97.86923451
 20
-83.55916554
  0
ARC
  5
2E4
100
AcDbEntity
  8
MST_1_1
 62
   137
  6
CONTINUOUS
100
AcDbCircle
 10
-98.09577497
 20
-83.01018383
 30
0.0
 40
0.27000082
100
AcDbArc
 50
257.38763285
 51
307.33766874
  0
LWPOLYLINE
  5
2E5
100
AcDbEntity
  8
MST_1_1
 62
   137
  6
CONTINUOUS
100
AcDbPolyline
 90
        9
 70
     0
 43
0.0
 10
-98.31044485
 20
-82.84642635
 10
-98.26315706
 20
-82.89371402
 10
-98.21585577
 20
-82.94101532
 10
-98.16854552
 20
-82.98832569
 10
-98.12123061
 20
-83.03564048
 10
-98.07391581
 20
-83.0829554
 10
-98.02660544
 20
-83.13026565
 10
-97.97930415
 20
-83.17756694
 10
-97.93201648
 20
-83.22485473
  0
ARC
  5
2E6
100
AcDbEntity
  8
MST_1_1
 62
   137
  6
CONTINUOUS
100
AcDbCircle
 10
-98.09577469
 20
-83.01018468
 30
0.0
 40
0.27000013
100
AcDbArc
 50
142.662273
 51
192.61245546
  0
LWPOLYLINE
  5
2E7
100
AcDbEntity
  8
MST_1_1
 62
   137
  6
CONTINUOUS
100
AcDbPolyline
 90
        9
 70
     0
 43
0.0
 10
-98.64475566
 20
-82.78364438
 10
-98.60912326
 20
-82.81927679
 10
-98.5734713
 20
-82.85492886
 10
-98.53780165
 20
-82.8905984
 10
-98.50211663
 20
-82.92628354
 10
-98.46641775
 20
-82.96198241
 10
-98.43070735
 20
-82.99769281
 10
-98.39498729
 20
-83.03341288
 10
-98.35925954
 20
-83.06914062
  0
ARC
  5
2E8
100
AcDbEntity
  8
MST_1_1
 62
   137
  6
CONTINUOUS
100
AcDbCircle
 10
-98.58579956
 20
-82.52015983
 30
0.0
 40
0.26999988
100
AcDbArc
 50
257.38751638
 51
12.61251432
  0
LWPOLYLINE
  5
2E9
100
AcDbEntity
  8
MST_1_1
 62
   137
  6
CONTINUOUS
100
AcDbPolyline
 90
        9
 70
     0
 43
0.0
 10
-98.1752855
 20
-82.82885055
 10
-98.14268502
 20
-82.86145103
 10
-98.11008011
 20
-82.89405594
 10
-98.07747241
 20
-82.92666375
 10
-98.04486309
 20
-82.95927296
 10
-98.01225387
 20
-82.99188229
 10
-97.97964606
 20
-83.02448999
 10
-97.94704115
 20
-83.0570949
 10
-97.91444067
 20
-83.08969538
  0
ARC
  5
2EA
100
AcDbEntity
  8
MST_1_1
 62
   137
  6
CONTINUOUS
100
AcDbCircle
 10
-98.09577485
 20
-83.01018473
 30
0.0
 40
0.19800007
100
AcDbArc
 50
336.32372311
 51
113.6762869
  0
LWPOLYLINE
  5
2EB
100
AcDbEntity
  8
MST_1_1
 62
   137
  6
CONTINUOUS
100
AcDbPolyline
 90
        9
 70
     0
 43
0.0
 10
-98.01626403
 20
-83.19151874
 10
-98.04886451
 20
-83.15891837
 10
-98.0814693
 20
-83.12631347
 10
-98.11407712
 20
-83.09370565
 10
-98.14668645
 20
-83.06109632
 10
-98.17929577
 20
-83.02848699
 10
-98.21190359
 20
-82.99587918
 10
-98.24450849
 20
-82.96327439
 10
-98.27710886
 20
-82.93067391
  0
ARC
  5
2EC
100
AcDbEntity
  8
MST_1_1
 62
   137
  6
CONTINUOUS
100
AcDbCircle
 10
-98.09577473
 20
-83.01018461
 30
0.0
 40
0.19800004
100
AcDbArc
 50
156.32369345
 51
293.67631657
  0
CIRCLE
  5
2ED
100
AcDbEntity
  8
MST_1_1
 62
   137
  6
CONTINUOUS
100
AcDbCircle
 10
-96.54013987
 20
-111.45454975
 30
0.0
 40
1.89428533
  0
CIRCLE
  5
2EE
100
AcDbEntity
  8
MST_1_1
 62
   137
  6
CONTINUOUS
100
AcDbCircle
 10
-96.54013987
 20
-111.45454975
 30
0.0
 40
1.06049438
  0
CIRCLE
  5
2EF
100
AcDbEntity
  8
MST_1_1
 62
   137
  6
CONTINUOUS
100
AcDbCircle
 10
-96.54013987
 20
-111.45454975
 30
0.0
 40
1.89428533
  0
CIRCLE
  5
2F0
100
AcDbEntity
  8
MST_1_1
 62
   137
  6
CONTINUOUS
100
AcDbCircle
 10
-96.54013987
 20
-111.45454975
 30
0.0
 40
1.06049438
  0
CIRCLE
  5
2F1
100
AcDbEntity
  8
MST_1_1
 62
   137
  6
CONTINUOUS
100
AcDbCircle
 10
-96.54013987
 20
-111.45454975
 30
0.0
 40
1.89428533
  0
CIRCLE
  5
2F2
100
AcDbEntity
  8
MST_1_1
 62
   137
  6
CONTINUOUS
100
AcDbCircle
 10
-96.54013987
 20
-111.45454975
 30
0.0
 40
1.06049438
  0
CIRCLE
  5
2F3
100
AcDbEntity
  8
MST_1_1
 62
   137
  6
CONTINUOUS
100
AcDbCircle
 10
-96.54013987
 20
-111.45454975
 30
0.0
 40
1.59428533
  0
CIRCLE
  5
2F4
100
AcDbEntity
  8
MST_1_1
 62
   137
  6
CONTINUOUS
100
AcDbCircle
 10
-96.54013987
 20
-111.45454975
 30
0.0
 40
1.99428533
  0
CIRCLE
  5
2F5
100
AcDbEntity
  8
MST_1_1
 62
   137
  6
CONTINUOUS
100
AcDbCircle
 10
-96.54013987
 20
-111.45454975
 30
0.0
 40
1.125
  0
CIRCLE
  5
2F6
100
AcDbEntity
  8
MST_1_1
 62
   137
  6
CONTINUOUS
100
AcDbCircle
 10
-96.54013987
 20
-111.45454975
 30
0.0
 40
3.5
  0
ARC
  5
2F7
100
AcDbEntity
  8
MST_1_1
 62
   137
  6
CONTINUOUS
100
AcDbCircle
 10
-97.91213985
 20
-111.45454975
 30
0.0
 40
0.303
100
AcDbArc
 50
104.00039951
 51
255.99961051
  0
ARC
  5
2F8
100
AcDbEntity
  8
MST_1_1
 62
   137
  6
CONTINUOUS
100
AcDbCircle
 10
-98.14285743
 20
-112.37987918
 30
0.0
 40
0.65065883
100
AcDbArc
 50
344.00042282
 51
75.99958535
  0
ARC
  5
2F9
100
AcDbEntity
  8
MST_1_1
 62
   137
  6
CONTINUOUS
100
AcDbCircle
 10
-97.22613984
 20
-112.64273659
 30
0.0
 40
0.30299999
100
AcDbArc
 50
164.00040911
 51
315.99959504
  0
ARC
  5
2FA
100
AcDbEntity
  8
MST_1_1
 62
   137
  6
CONTINUOUS
100
AcDbCircle
 10
-96.54013987
 20
-113.3052085
 30
0.0
 40
0.65065875
100
AcDbArc
 50
44.00040429
 51
135.99959571
  0
ARC
  5
2FB
100
AcDbEntity
  8
MST_1_1
 62
   137
  6
CONTINUOUS
100
AcDbCircle
 10
-95.85413987
 20
-112.64273664
 30
0.0
 40
0.30299998
100
AcDbArc
 50
224.00041508
 51
15.9996008
  0
ARC
  5
2FC
100
AcDbEntity
  8
MST_1_1
 62
   137
  6
CONTINUOUS
100
AcDbCircle
 10
-95.16813989
 20
-111.45454975
 30
0.0
 40
0.303
100
AcDbArc
 50
284.00040953
 51
75.99960049
  0
ARC
  5
2FD
100
AcDbEntity
  8
MST_1_1
 62
   137
  6
CONTINUOUS
100
AcDbCircle
 10
-94.93742231
 20
-110.52922031
 30
0.0
 40
0.65065883
100
AcDbArc
 50
164.00041281
 51
255.99959537
  0
ARC
  5
2FE
100
AcDbEntity
  8
MST_1_1
 62
   137
  6
CONTINUOUS
100
AcDbCircle
 10
-95.8541399
 20
-110.2663629
 30
0.0
 40
0.30299999
100
AcDbArc
 50
344.00041913
 51
135.99958502
  0
ARC
  5
2FF
100
AcDbEntity
  8
MST_1_1
 62
   137
  6
CONTINUOUS
100
AcDbCircle
 10
-96.54013987
 20
-109.603891
 30
0.0
 40
0.65065875
100
AcDbArc
 50
224.00041431
 51
315.99960573
  0
ARC
  5
300
100
AcDbEntity
  8
MST_1_1
 62
   137
  6
CONTINUOUS
100
AcDbCircle
 10
-97.22613987
 20
-110.26636285
 30
0.0
 40
0.30299998
100
AcDbArc
 50
44.00040506
 51
195.99961082
  0
ARC
  5
301
100
AcDbEntity
  8
MST_1_1
 62
   137
  6
CONTINUOUS
100
AcDbCircle
 10
-98.14285742
 20
-110.52922031
 30
0.0
 40
0.65065883
100
AcDbArc
 50
284.00042461
 51
15.99958726
  0
LWPOLYLINE
  5
302
100
AcDbEntity
  8
MST_1_1
 62
   137
  6
CONTINUOUS
100
AcDbPolyline
 90
        9
 70
     0
 43
0.0
 10
-97.83060977
 20
-113.69961387
 10
-97.82154381
 20
-113.69054791
 10
-97.81247144
 20
-113.68147544
 10
-97.8033928
 20
-113.6723969
 10
-97.79430774
 20
-113.66331185
 10
-97.78521652
 20
-113.65422051
 10
-97.7761189
 20
-113.64512289
 10
-97.7670151
 20
-113.63601921
 10
-97.75790514
 20
-113.62690925
  0
ARC
  5
303
100
AcDbEntity
  8
MST_1_1
 62
   137
  6
CONTINUOUS
100
AcDbCircle
 10
-97.60574981
 20
-113.50020975
 30
0.0
 40
0.19800002
100
AcDbArc
 50
50.21591721
 51
219.78410477
  0
LWPOLYLINE
  5
304
100
AcDbEntity
  8
MST_1_1
 62
   137
  6
CONTINUOUS
100
AcDbPolyline
 90
        9
 70
     0
 43
0.0
 10
-97.47905034
 20
-113.34805439
 10
-97.46997908
 20
-113.33898307
 10
-97.46090299
 20
-113.32990698
 10
-97.45182207
 20
-113.32082612
 10
-97.44273627
 20
-113.31174037
 10
-97.43364574
 20
-113.30264973
 10
-97.42455045
 20
-113.29355444
 10
-97.41545038
 20
-113.28445448
 10
-97.40634565
 20
-113.27534976
  0
LWPOLYLINE
  5
305
100
AcDbEntity
  8
MST_1_1
 62
   137
  6
CONTINUOUS
100
AcDbPolyline
 90
        9
 70
     0
 43
0.0
 10
-97.40634565
 20
-113.27534976
 10
-97.46069513
 20
-113.22100022
 10
-97.51509677
 20
-113.16659864
 10
-97.56954398
 20
-113.11215143
 10
-97.62402985
 20
-113.05766556
 10
-97.67854784
 20
-113.00314757
 10
-97.7330911
 20
-112.94860431
 10
-97.78765298
 20
-112.89404243
 10
-97.84222662
 20
-112.83946879
  0
LWPOLYLINE
  5
306
100
AcDbEntity
  8
MST_1_1
 62
   137
  6
CONTINUOUS
100
AcDbPolyline
 90
        9
 70
     0
 43
0.0
 10
-97.84222662
 20
-112.83946879
 10
-97.84544864
 20
-112.8426907
 10
-97.84866997
 20
-112.84591215
 10
-97.85189084
 20
-112.84913289
 10
-97.85511112
 20
-112.85235317
 10
-97.8583307
 20
-112.85557287
 10
-97.86154982
 20
-112.85879187
 10
-97.86476823
 20
-112.86201041
 10
-97.86798619
 20
-112.86522824
  0
LWPOLYLINE
  5
307
100
AcDbEntity
  8
MST_1_1
 62
   137
  6
CONTINUOUS
100
AcDbPolyline
 90
       25
 70
     0
 43
0.0
 10
-97.86798619
 20
-112.86522828
 10
-97.87067851
 20
-112.86108129
 10
-97.87344229
 20
-112.85698931
 10
-97.8762768
 20
-112.85295308
 10
-97.87918127
 20
-112.84897337
 10
-97.88215497
 20
-112.84505092
 10
-97.88519716
 20
-112.84118646
 10
-97.88830708
 20
-112.83738076
 10
-97.891484
 20
-112.83363455
 10
-97.89472717
 20
-112.82994858
 10
-97.89803585
 20
-112.8263236
 10
-97.90140928
 20
-112.82276036
 10
-97.90484673
 20
-112.81925961
 10
-97.90834746
 20
-112.81582208
 10
-97.91191071
 20
-112.81244853
 10
-97.91553574
 20
-112.8091397
 10
-97.91922181
 20
-112.80589635
 10
-97.92296817
 20
-112.80271921
 10
-97.92677409
 20
-112.79960903
 10
-97.93063881
 20
-112.79656657
 10
-97.93456158
 20
-112.79359257
 10
-97.93854168
 20
-112.79068777
 10
-97.94257834
 20
-112.78785292
 10
-97.94667083
 20
-112.78508877
 10
-97.95081841
 20
-112.78239606
  0
LWPOLYLINE
  5
308
100
AcDbEntity
  8
MST_1_1
 62
   137
  6
CONTINUOUS
100
AcDbPolyline
 90
        9
 70
     0
 43
0.0
 10
-97.95081836
 20
-112.78239606
 10
-97.94760053
 20
-112.77917811
 10
-97.94438199
 20
-112.77595969
 10
-97.94116299
 20
-112.77274058
 10
-97.9379433
 20
-112.76952099
 10
-97.93472302
 20
-112.76630071
 10
-97.93150227
 20
-112.76307985
 10
-97.92828082
 20
-112.75985852
 10
-97.92505891
 20
-112.7566365
  0
LWPOLYLINE
  5
309
100
AcDbEntity
  8
MST_1_1
 62
   137
  6
CONTINUOUS
100
AcDbPolyline
 90
        9
 70
     0
 43
0.0
 10
-97.92505891
 20
-112.7566365
 10
-97.97963255
 20
-112.70206286
 10
-98.03419444
 20
-112.64750097
 10
-98.08873769
 20
-112.59295772
 10
-98.14325569
 20
-112.53843972
 10
-98.19774155
 20
-112.48395386
 10
-98.25218876
 20
-112.42950665
 10
-98.30659034
 20
-112.37510501
 10
-98.36093988
 20
-112.32075553
  0
LWPOLYLINE
  5
30A
100
AcDbEntity
  8
MST_1_1
 62
   137
  6
CONTINUOUS
100
AcDbPolyline
 90
        9
 70
     0
 43
0.0
 10
-98.36093988
 20
-112.32075553
 10
-98.37004461
 20
-112.32986025
 10
-98.37914456
 20
-112.33896032
 10
-98.38823986
 20
-112.34805562
 10
-98.3973305
 20
-112.35714614
 10
-98.40641625
 20
-112.36623195
 10
-98.41549711
 20
-112.37531287
 10
-98.42457319
 20
-112.38438896
 10
-98.43364451
 20
-112.39346021
  0
ARC
  5
30B
100
AcDbEntity
  8
MST_1_1
 62
   137
  6
CONTINUOUS
100
AcDbCircle
 10
-98.58579988
 20
-112.52015967
 30
0.0
 40
0.19800002
100
AcDbArc
 50
230.21591956
 51
39.7840785
  0
LWPOLYLINE
  5
30C
100
AcDbEntity
  8
MST_1_1
 62
   137
  6
CONTINUOUS
100
AcDbPolyline
 90
        9
 70
     0
 43
0.0
 10
-98.71249937
 20
-112.67231502
 10
-98.72160933
 20
-112.68142498
 10
-98.73071301
 20
-112.69052877
 10
-98.73981064
 20
-112.6996264
 10
-98.74890197
 20
-112.70871762
 10
-98.75798703
 20
-112.71780267
 10
-98.76706556
 20
-112.72688132
 10
-98.77613804
 20
-112.73595368
 10
-98.785204
 20
-112.74501964
  0
LWPOLYLINE
  5
30D
100
AcDbEntity
  8
MST_1_1
 62
   137
  6
CONTINUOUS
100
AcDbPolyline
 90
        9
 70
     0
 43
0.0
 10
-98.785204
 20
-112.74501964
 10
-98.73086226
 20
-112.79936115
 10
-98.67646557
 20
-112.85375796
 10
-98.62202068
 20
-112.90820296
 10
-98.56753459
 20
-112.96268894
 10
-98.51301473
 20
-113.01720879
 10
-98.4584681
 20
-113.07175543
 10
-98.40390179
 20
-113.12632173
 10
-98.34932291
 20
-113.18090061
  0
LWPOLYLINE
  5
30E
100
AcDbEntity
  8
MST_1_1
 62
   137
  6
CONTINUOUS
100
AcDbPolyline
 90
        9
 70
     0
 43
0.0
 10
-98.34932291
 20
-113.18090061
 10
-98.34610578
 20
-113.17768347
 10
-98.34288782
 20
-113.17446552
 10
-98.33966906
 20
-113.17124675
 10
-98.33644947
 20
-113.16802717
 10
-98.33322919
 20
-113.16480689
 10
-98.3300081
 20
-113.16158568
 10
-98.32678607
 20
-113.15836377
 10
-98.32356334
 20
-113.15514104
  0
LWPOLYLINE
  5
30F
100
AcDbEntity
  8
MST_1_1
 62
   137
  6
CONTINUOUS
100
AcDbPolyline
 90
       25
 70
     0
 43
0.0
 10
-98.32356339
 20
-113.15514105
 10
-98.32087127
 20
-113.15928771
 10
-98.31810763
 20
-113.16337944
 10
-98.31527321
 20
-113.16741547
 10
-98.31236877
 20
-113.17139505
 10
-98.30939505
 20
-113.17531744
 10
-98.30635282
 20
-113.17918187
 10
-98.30324281
 20
-113.1829876
 10
-98.30006578
 20
-113.18673386
 10
-98.29682248
 20
-113.19041992
 10
-98.29351367
 20
-113.19404501
 10
-98.29014008
 20
-113.19760839
 10
-98.28670248
 20
-113.20110929
 10
-98.28320161
 20
-113.20454697
 10
-98.27963823
 20
-113.20792068
 10
-98.27601308
 20
-113.21122965
 10
-98.27232691
 20
-113.21447314
 10
-98.26858048
 20
-113.21765039
 10
-98.26477454
 20
-113.22076065
 10
-98.26090984
 20
-113.22380317
 10
-98.25698713
 20
-113.22677719
 10
-98.25300715
 20
-113.22968197
 10
-98.24897067
 20
-113.23251674
 10
-98.24487842
 20
-113.23528076
 10
-98.24073117
 20
-113.23797327
  0
LWPOLYLINE
  5
310
100
AcDbEntity
  8
MST_1_1
 62
   137
  6
CONTINUOUS
100
AcDbPolyline
 90
        9
 70
     0
 43
0.0
 10
-98.24073117
 20
-113.23797322
 10
-98.24395389
 20
-113.24119595
 10
-98.2471758
 20
-113.24441797
 10
-98.25039701
 20
-113.24763907
 10
-98.25361729
 20
-113.25085935
 10
-98.25683688
 20
-113.25407893
 10
-98.26005564
 20
-113.2572977
 10
-98.2632736
 20
-113.26051565
 10
-98.26649073
 20
-113.26373279
  0
LWPOLYLINE
  5
311
100
AcDbEntity
  8
MST_1_1
 62
   137
  6
CONTINUOUS
100
AcDbPolyline
 90
        9
 70
     0
 43
0.0
 10
-98.26649073
 20
-113.26373279
 10
-98.21191185
 20
-113.31831167
 10
-98.15734555
 20
-113.37287798
 10
-98.10279892
 20
-113.42742461
 10
-98.04827906
 20
-113.48194446
 10
-97.99379308
 20
-113.53643056
 10
-97.93934808
 20
-113.59087544
 10
-97.88495127
 20
-113.64527213
 10
-97.83060977
 20
-113.69961387
  0
CIRCLE
  5
312
100
AcDbEntity
  8
MST_1_1
 62
   137
  6
CONTINUOUS
100
AcDbCircle
 10
-96.54013987
 20
-111.45454975
 30
0.0
 40
3.324953
  0
ARC
  5
313
100
AcDbEntity
  8
MST_1_1
 62
   137
  6
CONTINUOUS
100
AcDbCircle
 10
-94.93742232
 20
-112.37987918
 30
0.0
 40
0.65065883
100
AcDbArc
 50
104.00041459
 51
195.99959727
  0
LWPOLYLINE
  5
314
100
AcDbEntity
  8
MST_1_1
 62
   137
  6
CONTINUOUS
100
AcDbPolyline
 90
        9
 70
     0
 43
0.0
 10
-98.03681879
 20
-112.74669998
 10
-98.0725449
 20
-112.71097387
 10
-98.10826357
 20
-112.6752552
 10
-98.14397304
 20
-112.63954573
 10
-98.17967133
 20
-112.60384744
 10
-98.21535658
 20
-112.56816219
 10
-98.25102682
 20
-112.53249183
 10
-98.28668029
 20
-112.49683836
 10
-98.32231502
 20
-112.46120363
  0
ARC
  5
315
100
AcDbEntity
  8
MST_1_1
 62
   137
  6
CONTINUOUS
100
AcDbCircle
 10
-98.0957749
 20
-113.01018401
 30
0.0
 40
0.26999936
100
AcDbArc
 50
77.38747914
 51
127.33780242
  0
LINE
  5
316
100
AcDbEntity
  8
MST_1_1
 62
   137
  6
CONTINUOUS
100
AcDbLine
 10
-97.8811048
 20
-113.17394293
 30
0.0
 11
-98.25953306
 21
-112.79551467
 31
0.0
  0
ARC
  5
317
100
AcDbEntity
  8
MST_1_1
 62
   137
  6
CONTINUOUS
100
AcDbCircle
 10
-98.09577425
 20
-113.01018475
 30
0.0
 40
0.26999948
100
AcDbArc
 50
322.66221884
 51
12.61250962
  0
LWPOLYLINE
  5
318
100
AcDbEntity
  8
MST_1_1
 62
   137
  6
CONTINUOUS
100
AcDbPolyline
 90
        9
 70
     0
 43
0.0
 10
-97.54679375
 20
-113.2367249
 10
-97.58242848
 20
-113.20109017
 10
-97.61808195
 20
-113.1654367
 10
-97.65375231
 20
-113.12976646
 10
-97.68943756
 20
-113.09408121
 10
-97.72513585
 20
-113.05838291
 10
-97.76084532
 20
-113.02267345
 10
-97.79656399
 20
-112.98695478
 10
-97.8322901
 20
-112.95122866
  0
ARC
  5
319
100
AcDbEntity
  8
MST_1_1
 62
   137
  6
CONTINUOUS
100
AcDbCircle
 10
-97.60574969
 20
-113.50020969
 30
0.0
 40
0.27000007
100
AcDbArc
 50
77.38755048
 51
192.61243885
  0
LWPOLYLINE
  5
31A
100
AcDbEntity
  8
MST_1_1
 62
   137
  6
CONTINUOUS
100
AcDbPolyline
 90
        9
 70
     0
 43
0.0
 10
-98.15473074
 20
-113.27366942
 10
-98.119003
 20
-113.30939717
 10
-98.08328294
 20
-113.34511723
 10
-98.04757254
 20
-113.38082763
 10
-98.01187366
 20
-113.4165265
 10
-97.97618852
 20
-113.45221152
 10
-97.94051898
 20
-113.48788118
 10
-97.90486691
 20
-113.52353314
 10
-97.86923451
 20
-113.55916554
  0
ARC
  5
31B
100
AcDbEntity
  8
MST_1_1
 62
   137
  6
CONTINUOUS
100
AcDbCircle
 10
-98.09577497
 20
-113.01018383
 30
0.0
 40
0.27000082
100
AcDbArc
 50
257.38763285
 51
307.33766874
  0
LWPOLYLINE
  5
31C
100
AcDbEntity
  8
MST_1_1
 62
   137
  6
CONTINUOUS
100
AcDbPolyline
 90
        9
 70
     0
 43
0.0
 10
-98.31044485
 20
-112.84642635
 10
-98.26315706
 20
-112.89371402
 10
-98.21585577
 20
-112.94101532
 10
-98.16854552
 20
-112.98832569
 10
-98.12123061
 20
-113.03564048
 10
-98.07391581
 20
-113.0829554
 10
-98.02660544
 20
-113.13026565
 10
-97.97930415
 20
-113.17756694
 10
-97.93201648
 20
-113.22485473
  0
ARC
  5
31D
100
AcDbEntity
  8
MST_1_1
 62
   137
  6
CONTINUOUS
100
AcDbCircle
 10
-98.09577469
 20
-113.01018468
 30
0.0
 40
0.27000013
100
AcDbArc
 50
142.662273
 51
192.61245546
  0
LWPOLYLINE
  5
31E
100
AcDbEntity
  8
MST_1_1
 62
   137
  6
CONTINUOUS
100
AcDbPolyline
 90
        9
 70
     0
 43
0.0
 10
-98.64475566
 20
-112.78364438
 10
-98.60912326
 20
-112.81927679
 10
-98.5734713
 20
-112.85492886
 10
-98.53780165
 20
-112.8905984
 10
-98.50211663
 20
-112.92628354
 10
-98.46641775
 20
-112.96198241
 10
-98.43070735
 20
-112.99769281
 10
-98.39498729
 20
-113.03341288
 10
-98.35925954
 20
-113.06914062
  0
ARC
  5
31F
100
AcDbEntity
  8
MST_1_1
 62
   137
  6
CONTINUOUS
100
AcDbCircle
 10
-98.58579956
 20
-112.52015983
 30
0.0
 40
0.26999988
100
AcDbArc
 50
257.38751638
 51
12.61251432
  0
LWPOLYLINE
  5
320
100
AcDbEntity
  8
MST_1_1
 62
   137
  6
CONTINUOUS
100
AcDbPolyline
 90
        9
 70
     0
 43
0.0
 10
-98.1752855
 20
-112.82885055
 10
-98.14268502
 20
-112.86145103
 10
-98.11008011
 20
-112.89405594
 10
-98.07747241
 20
-112.92666375
 10
-98.04486309
 20
-112.95927296
 10
-98.01225387
 20
-112.99188229
 10
-97.97964606
 20
-113.02448999
 10
-97.94704115
 20
-113.0570949
 10
-97.91444067
 20
-113.08969538
  0
ARC
  5
321
100
AcDbEntity
  8
MST_1_1
 62
   137
  6
CONTINUOUS
100
AcDbCircle
 10
-98.09577485
 20
-113.01018473
 30
0.0
 40
0.19800007
100
AcDbArc
 50
336.32372311
 51
113.6762869
  0
LWPOLYLINE
  5
322
100
AcDbEntity
  8
MST_1_1
 62
   137
  6
CONTINUOUS
100
AcDbPolyline
 90
        9
 70
     0
 43
0.0
 10
-98.01626403
 20
-113.19151874
 10
-98.04886451
 20
-113.15891837
 10
-98.0814693
 20
-113.12631347
 10
-98.11407712
 20
-113.09370565
 10
-98.14668645
 20
-113.06109632
 10
-98.17929577
 20
-113.02848699
 10
-98.21190359
 20
-112.99587918
 10
-98.24450849
 20
-112.96327439
 10
-98.27710886
 20
-112.93067391
  0
ARC
  5
323
100
AcDbEntity
  8
MST_1_1
 62
   137
  6
CONTINUOUS
100
AcDbCircle
 10
-98.09577473
 20
-113.01018461
 30
0.0
 40
0.19800004
100
AcDbArc
 50
156.32369345
 51
293.67631657
  0
CIRCLE
  5
324
100
AcDbEntity
  8
MST_1_1
 62
   137
  6
CONTINUOUS
100
AcDbCircle
 10
-96.54013987
 20
-141.45454975
 30
0.0
 40
1.89428533
  0
CIRCLE
  5
325
100
AcDbEntity
  8
MST_1_1
 62
   137
  6
CONTINUOUS
100
AcDbCircle
 10
-96.54013987
 20
-141.45454975
 30
0.0
 40
1.06049438
  0
CIRCLE
  5
326
100
AcDbEntity
  8
MST_1_1
 62
   137
  6
CONTINUOUS
100
AcDbCircle
 10
-96.54013987
 20
-141.45454975
 30
0.0
 40
1.89428533
  0
CIRCLE
  5
327
100
AcDbEntity
  8
MST_1_1
 62
   137
  6
CONTINUOUS
100
AcDbCircle
 10
-96.54013987
 20
-141.45454975
 30
0.0
 40
1.06049438
  0
CIRCLE
  5
328
100
AcDbEntity
  8
MST_1_1
 62
   137
  6
CONTINUOUS
100
AcDbCircle
 10
-96.54013987
 20
-141.45454975
 30
0.0
 40
1.89428533
  0
CIRCLE
  5
329
100
AcDbEntity
  8
MST_1_1
 62
   137
  6
CONTINUOUS
100
AcDbCircle
 10
-96.54013987
 20
-141.45454975
 30
0.0
 40
1.06049438
  0
CIRCLE
  5
32A
100
AcDbEntity
  8
MST_1_1
 62
   137
  6
CONTINUOUS
100
AcDbCircle
 10
-96.54013987
 20
-141.45454975
 30
0.0
 40
1.59428533
  0
CIRCLE
  5
32B
100
AcDbEntity
  8
MST_1_1
 62
   137
  6
CONTINUOUS
100
AcDbCircle
 10
-96.54013987
 20
-141.45454975
 30
0.0
 40
1.99428533
  0
CIRCLE
  5
32C
100
AcDbEntity
  8
MST_1_1
 62
   137
  6
CONTINUOUS
100
AcDbCircle
 10
-96.54013987
 20
-141.45454975
 30
0.0
 40
1.125
  0
CIRCLE
  5
32D
100
AcDbEntity
  8
MST_1_1
 62
   137
  6
CONTINUOUS
100
AcDbCircle
 10
-96.54013987
 20
-141.45454975
 30
0.0
 40
3.5
  0
ARC
  5
32E
100
AcDbEntity
  8
MST_1_1
 62
   137
  6
CONTINUOUS
100
AcDbCircle
 10
-97.91213985
 20
-141.45454975
 30
0.0
 40
0.303
100
AcDbArc
 50
104.00039951
 51
255.99961051
  0
ARC
  5
32F
100
AcDbEntity
  8
MST_1_1
 62
   137
  6
CONTINUOUS
100
AcDbCircle
 10
-98.14285743
 20
-142.37987918
 30
0.0
 40
0.65065883
100
AcDbArc
 50
344.00042282
 51
75.99958535
  0
ARC
  5
330
100
AcDbEntity
  8
MST_1_1
 62
   137
  6
CONTINUOUS
100
AcDbCircle
 10
-97.22613984
 20
-142.64273659
 30
0.0
 40
0.30299999
100
AcDbArc
 50
164.00040911
 51
315.99959504
  0
ARC
  5
331
100
AcDbEntity
  8
MST_1_1
 62
   137
  6
CONTINUOUS
100
AcDbCircle
 10
-96.54013987
 20
-143.3052085
 30
0.0
 40
0.65065875
100
AcDbArc
 50
44.00040429
 51
135.99959571
  0
ARC
  5
332
100
AcDbEntity
  8
MST_1_1
 62
   137
  6
CONTINUOUS
100
AcDbCircle
 10
-95.85413987
 20
-142.64273664
 30
0.0
 40
0.30299998
100
AcDbArc
 50
224.00041508
 51
15.9996008
  0
ARC
  5
333
100
AcDbEntity
  8
MST_1_1
 62
   137
  6
CONTINUOUS
100
AcDbCircle
 10
-95.16813989
 20
-141.45454975
 30
0.0
 40
0.303
100
AcDbArc
 50
284.00040953
 51
75.99960049
  0
ARC
  5
334
100
AcDbEntity
  8
MST_1_1
 62
   137
  6
CONTINUOUS
100
AcDbCircle
 10
-94.93742231
 20
-140.52922031
 30
0.0
 40
0.65065883
100
AcDbArc
 50
164.00041281
 51
255.99959537
  0
ARC
  5
335
100
AcDbEntity
  8
MST_1_1
 62
   137
  6
CONTINUOUS
100
AcDbCircle
 10
-95.8541399
 20
-140.2663629
 30
0.0
 40
0.30299999
100
AcDbArc
 50
344.00041913
 51
135.99958502
  0
ARC
  5
336
100
AcDbEntity
  8
MST_1_1
 62
   137
  6
CONTINUOUS
100
AcDbCircle
 10
-96.54013987
 20
-139.603891
 30
0.0
 40
0.65065875
100
AcDbArc
 50
224.00041431
 51
315.99960573
  0
ARC
  5
337
100
AcDbEntity
  8
MST_1_1
 62
   137
  6
CONTINUOUS
100
AcDbCircle
 10
-97.22613987
 20
-140.26636285
 30
0.0
 40
0.30299998
100
AcDbArc
 50
44.00040506
 51
195.99961082
  0
ARC
  5
338
100
AcDbEntity
  8
MST_1_1
 62
   137
  6
CONTINUOUS
100
AcDbCircle
 10
-98.14285742
 20
-140.52922031
 30
0.0
 40
0.65065883
100
AcDbArc
 50
284.00042461
 51
15.99958726
  0
LWPOLYLINE
  5
339
100
AcDbEntity
  8
MST_1_1
 62
   137
  6
CONTINUOUS
100
AcDbPolyline
 90
        9
 70
     0
 43
0.0
 10
-97.83060977
 20
-143.69961387
 10
-97.82154381
 20
-143.69054791
 10
-97.81247144
 20
-143.68147544
 10
-97.8033928
 20
-143.6723969
 10
-97.79430774
 20
-143.66331185
 10
-97.78521652
 20
-143.65422051
 10
-97.7761189
 20
-143.64512289
 10
-97.7670151
 20
-143.63601921
 10
-97.75790514
 20
-143.62690925
  0
ARC
  5
33A
100
AcDbEntity
  8
MST_1_1
 62
   137
  6
CONTINUOUS
100
AcDbCircle
 10
-97.60574981
 20
-143.50020975
 30
0.0
 40
0.19800002
100
AcDbArc
 50
50.21591721
 51
219.78410477
  0
LWPOLYLINE
  5
33B
100
AcDbEntity
  8
MST_1_1
 62
   137
  6
CONTINUOUS
100
AcDbPolyline
 90
        9
 70
     0
 43
0.0
 10
-97.47905034
 20
-143.34805439
 10
-97.46997908
 20
-143.33898307
 10
-97.46090299
 20
-143.32990698
 10
-97.45182207
 20
-143.32082612
 10
-97.44273627
 20
-143.31174037
 10
-97.43364574
 20
-143.30264973
 10
-97.42455045
 20
-143.29355444
 10
-97.41545038
 20
-143.28445448
 10
-97.40634565
 20
-143.27534976
  0
LWPOLYLINE
  5
33C
100
AcDbEntity
  8
MST_1_1
 62
   137
  6
CONTINUOUS
100
AcDbPolyline
 90
        9
 70
     0
 43
0.0
 10
-97.40634565
 20
-143.27534976
 10
-97.46069513
 20
-143.22100022
 10
-97.51509677
 20
-143.16659864
 10
-97.56954398
 20
-143.11215143
 10
-97.62402985
 20
-143.05766556
 10
-97.67854784
 20
-143.00314757
 10
-97.7330911
 20
-142.94860431
 10
-97.78765298
 20
-142.89404243
 10
-97.84222662
 20
-142.83946879
  0
LWPOLYLINE
  5
33D
100
AcDbEntity
  8
MST_1_1
 62
   137
  6
CONTINUOUS
100
AcDbPolyline
 90
        9
 70
     0
 43
0.0
 10
-97.84222662
 20
-142.83946879
 10
-97.84544864
 20
-142.8426907
 10
-97.84866997
 20
-142.84591215
 10
-97.85189084
 20
-142.84913289
 10
-97.85511112
 20
-142.85235317
 10
-97.8583307
 20
-142.85557287
 10
-97.86154982
 20
-142.85879187
 10
-97.86476823
 20
-142.86201041
 10
-97.86798619
 20
-142.86522824
  0
LWPOLYLINE
  5
33E
100
AcDbEntity
  8
MST_1_1
 62
   137
  6
CONTINUOUS
100
AcDbPolyline
 90
       25
 70
     0
 43
0.0
 10
-97.86798619
 20
-142.86522828
 10
-97.87067851
 20
-142.86108129
 10
-97.87344229
 20
-142.85698931
 10
-97.8762768
 20
-142.85295308
 10
-97.87918127
 20
-142.84897337
 10
-97.88215497
 20
-142.84505092
 10
-97.88519716
 20
-142.84118646
 10
-97.88830708
 20
-142.83738076
 10
-97.891484
 20
-142.83363455
 10
-97.89472717
 20
-142.82994858
 10
-97.89803585
 20
-142.8263236
 10
-97.90140928
 20
-142.82276036
 10
-97.90484673
 20
-142.81925961
 10
-97.90834746
 20
-142.81582208
 10
-97.91191071
 20
-142.81244853
 10
-97.91553574
 20
-142.8091397
 10
-97.91922181
 20
-142.80589635
 10
-97.92296817
 20
-142.80271921
 10
-97.92677409
 20
-142.79960903
 10
-97.93063881
 20
-142.79656657
 10
-97.93456158
 20
-142.79359257
 10
-97.93854168
 20
-142.79068777
 10
-97.94257834
 20
-142.78785292
 10
-97.94667083
 20
-142.78508877
 10
-97.95081841
 20
-142.78239606
  0
LWPOLYLINE
  5
33F
100
AcDbEntity
  8
MST_1_1
 62
   137
  6
CONTINUOUS
100
AcDbPolyline
 90
        9
 70
     0
 43
0.0
 10
-97.95081836
 20
-142.78239606
 10
-97.94760053
 20
-142.77917811
 10
-97.94438199
 20
-142.77595969
 10
-97.94116299
 20
-142.77274058
 10
-97.9379433
 20
-142.76952099
 10
-97.93472302
 20
-142.76630071
 10
-97.93150227
 20
-142.76307985
 10
-97.92828082
 20
-142.75985852
 10
-97.92505891
 20
-142.7566365
  0
LWPOLYLINE
  5
340
100
AcDbEntity
  8
MST_1_1
 62
   137
  6
CONTINUOUS
100
AcDbPolyline
 90
        9
 70
     0
 43
0.0
 10
-97.92505891
 20
-142.7566365
 10
-97.97963255
 20
-142.70206286
 10
-98.03419444
 20
-142.64750097
 10
-98.08873769
 20
-142.59295772
 10
-98.14325569
 20
-142.53843972
 10
-98.19774155
 20
-142.48395386
 10
-98.25218876
 20
-142.42950665
 10
-98.30659034
 20
-142.37510501
 10
-98.36093988
 20
-142.32075553
  0
LWPOLYLINE
  5
341
100
AcDbEntity
  8
MST_1_1
 62
   137
  6
CONTINUOUS
100
AcDbPolyline
 90
        9
 70
     0
 43
0.0
 10
-98.36093988
 20
-142.32075553
 10
-98.37004461
 20
-142.32986025
 10
-98.37914456
 20
-142.33896032
 10
-98.38823986
 20
-142.34805562
 10
-98.3973305
 20
-142.35714614
 10
-98.40641625
 20
-142.36623195
 10
-98.41549711
 20
-142.37531287
 10
-98.42457319
 20
-142.38438896
 10
-98.43364451
 20
-142.39346021
  0
ARC
  5
342
100
AcDbEntity
  8
MST_1_1
 62
   137
  6
CONTINUOUS
100
AcDbCircle
 10
-98.58579988
 20
-142.52015967
 30
0.0
 40
0.19800002
100
AcDbArc
 50
230.21591956
 51
39.7840785
  0
LWPOLYLINE
  5
343
100
AcDbEntity
  8
MST_1_1
 62
   137
  6
CONTINUOUS
100
AcDbPolyline
 90
        9
 70
     0
 43
0.0
 10
-98.71249937
 20
-142.67231502
 10
-98.72160933
 20
-142.68142498
 10
-98.73071301
 20
-142.69052877
 10
-98.73981064
 20
-142.6996264
 10
-98.74890197
 20
-142.70871762
 10
-98.75798703
 20
-142.71780267
 10
-98.76706556
 20
-142.72688132
 10
-98.77613804
 20
-142.73595368
 10
-98.785204
 20
-142.74501964
  0
LWPOLYLINE
  5
344
100
AcDbEntity
  8
MST_1_1
 62
   137
  6
CONTINUOUS
100
AcDbPolyline
 90
        9
 70
     0
 43
0.0
 10
-98.785204
 20
-142.74501964
 10
-98.73086226
 20
-142.79936115
 10
-98.67646557
 20
-142.85375796
 10
-98.62202068
 20
-142.90820296
 10
-98.56753459
 20
-142.96268894
 10
-98.51301473
 20
-143.01720879
 10
-98.4584681
 20
-143.07175543
 10
-98.40390179
 20
-143.12632173
 10
-98.34932291
 20
-143.18090061
  0
LWPOLYLINE
  5
345
100
AcDbEntity
  8
MST_1_1
 62
   137
  6
CONTINUOUS
100
AcDbPolyline
 90
        9
 70
     0
 43
0.0
 10
-98.34932291
 20
-143.18090061
 10
-98.34610578
 20
-143.17768347
 10
-98.34288782
 20
-143.17446552
 10
-98.33966906
 20
-143.17124675
 10
-98.33644947
 20
-143.16802717
 10
-98.33322919
 20
-143.16480689
 10
-98.3300081
 20
-143.16158568
 10
-98.32678607
 20
-143.15836377
 10
-98.32356334
 20
-143.15514104
  0
LWPOLYLINE
  5
346
100
AcDbEntity
  8
MST_1_1
 62
   137
  6
CONTINUOUS
100
AcDbPolyline
 90
       25
 70
     0
 43
0.0
 10
-98.32356339
 20
-143.15514105
 10
-98.32087127
 20
-143.15928771
 10
-98.31810763
 20
-143.16337944
 10
-98.31527321
 20
-143.16741547
 10
-98.31236877
 20
-143.17139505
 10
-98.30939505
 20
-143.17531744
 10
-98.30635282
 20
-143.17918187
 10
-98.30324281
 20
-143.1829876
 10
-98.30006578
 20
-143.18673386
 10
-98.29682248
 20
-143.19041992
 10
-98.29351367
 20
-143.19404501
 10
-98.29014008
 20
-143.19760839
 10
-98.28670248
 20
-143.20110929
 10
-98.28320161
 20
-143.20454697
 10
-98.27963823
 20
-143.20792068
 10
-98.27601308
 20
-143.21122965
 10
-98.27232691
 20
-143.21447314
 10
-98.26858048
 20
-143.21765039
 10
-98.26477454
 20
-143.22076065
 10
-98.26090984
 20
-143.22380317
 10
-98.25698713
 20
-143.22677719
 10
-98.25300715
 20
-143.22968197
 10
-98.24897067
 20
-143.23251674
 10
-98.24487842
 20
-143.23528076
 10
-98.24073117
 20
-143.23797327
  0
LWPOLYLINE
  5
347
100
AcDbEntity
  8
MST_1_1
 62
   137
  6
CONTINUOUS
100
AcDbPolyline
 90
        9
 70
     0
 43
0.0
 10
-98.24073117
 20
-143.23797322
 10
-98.24395389
 20
-143.24119595
 10
-98.2471758
 20
-143.24441797
 10
-98.25039701
 20
-143.24763907
 10
-98.25361729
 20
-143.25085935
 10
-98.25683688
 20
-143.25407893
 10
-98.26005564
 20
-143.2572977
 10
-98.2632736
 20
-143.26051565
 10
-98.26649073
 20
-143.26373279
  0
LWPOLYLINE
  5
348
100
AcDbEntity
  8
MST_1_1
 62
   137
  6
CONTINUOUS
100
AcDbPolyline
 90
        9
 70
     0
 43
0.0
 10
-98.26649073
 20
-143.26373279
 10
-98.21191185
 20
-143.31831167
 10
-98.15734555
 20
-143.37287798
 10
-98.10279892
 20
-143.42742461
 10
-98.04827906
 20
-143.48194446
 10
-97.99379308
 20
-143.53643056
 10
-97.93934808
 20
-143.59087544
 10
-97.88495127
 20
-143.64527213
 10
-97.83060977
 20
-143.69961387
  0
CIRCLE
  5
349
100
AcDbEntity
  8
MST_1_1
 62
   137
  6
CONTINUOUS
100
AcDbCircle
 10
-96.54013987
 20
-141.45454975
 30
0.0
 40
3.324953
  0
ARC
  5
34A
100
AcDbEntity
  8
MST_1_1
 62
   137
  6
CONTINUOUS
100
AcDbCircle
 10
-94.93742232
 20
-142.37987918
 30
0.0
 40
0.65065883
100
AcDbArc
 50
104.00041459
 51
195.99959727
  0
LWPOLYLINE
  5
34B
100
AcDbEntity
  8
MST_1_1
 62
   137
  6
CONTINUOUS
100
AcDbPolyline
 90
        9
 70
     0
 43
0.0
 10
-98.03681879
 20
-142.74669998
 10
-98.0725449
 20
-142.71097387
 10
-98.10826357
 20
-142.6752552
 10
-98.14397304
 20
-142.63954573
 10
-98.17967133
 20
-142.60384744
 10
-98.21535658
 20
-142.56816219
 10
-98.25102682
 20
-142.53249183
 10
-98.28668029
 20
-142.49683836
 10
-98.32231502
 20
-142.46120363
  0
ARC
  5
34C
100
AcDbEntity
  8
MST_1_1
 62
   137
  6
CONTINUOUS
100
AcDbCircle
 10
-98.0957749
 20
-143.01018401
 30
0.0
 40
0.26999936
100
AcDbArc
 50
77.38747914
 51
127.33780242
  0
LINE
  5
34D
100
AcDbEntity
  8
MST_1_1
 62
   137
  6
CONTINUOUS
100
AcDbLine
 10
-97.8811048
 20
-143.17394293
 30
0.0
 11
-98.25953306
 21
-142.79551467
 31
0.0
  0
ARC
  5
34E
100
AcDbEntity
  8
MST_1_1
 62
   137
  6
CONTINUOUS
100
AcDbCircle
 10
-98.09577425
 20
-143.01018475
 30
0.0
 40
0.26999948
100
AcDbArc
 50
322.66221884
 51
12.61250962
  0
LWPOLYLINE
  5
34F
100
AcDbEntity
  8
MST_1_1
 62
   137
  6
CONTINUOUS
100
AcDbPolyline
 90
        9
 70
     0
 43
0.0
 10
-97.54679375
 20
-143.2367249
 10
-97.58242848
 20
-143.20109017
 10
-97.61808195
 20
-143.1654367
 10
-97.65375231
 20
-143.12976646
 10
-97.68943756
 20
-143.09408121
 10
-97.72513585
 20
-143.05838291
 10
-97.76084532
 20
-143.02267345
 10
-97.79656399
 20
-142.98695478
 10
-97.8322901
 20
-142.95122866
  0
ARC
  5
350
100
AcDbEntity
  8
MST_1_1
 62
   137
  6
CONTINUOUS
100
AcDbCircle
 10
-97.60574969
 20
-143.50020969
 30
0.0
 40
0.27000007
100
AcDbArc
 50
77.38755048
 51
192.61243885
  0
LWPOLYLINE
  5
351
100
AcDbEntity
  8
MST_1_1
 62
   137
  6
CONTINUOUS
100
AcDbPolyline
 90
        9
 70
     0
 43
0.0
 10
-98.15473074
 20
-143.27366942
 10
-98.119003
 20
-143.30939717
 10
-98.08328294
 20
-143.34511723
 10
-98.04757254
 20
-143.38082763
 10
-98.01187366
 20
-143.4165265
 10
-97.97618852
 20
-143.45221152
 10
-97.94051898
 20
-143.48788118
 10
-97.90486691
 20
-143.52353314
 10
-97.86923451
 20
-143.55916554
  0
ARC
  5
352
100
AcDbEntity
  8
MST_1_1
 62
   137
  6
CONTINUOUS
100
AcDbCircle
 10
-98.09577497
 20
-143.01018383
 30
0.0
 40
0.27000082
100
AcDbArc
 50
257.38763285
 51
307.33766874
  0
LWPOLYLINE
  5
353
100
AcDbEntity
  8
MST_1_1
 62
   137
  6
CONTINUOUS
100
AcDbPolyline
 90
        9
 70
     0
 43
0.0
 10
-98.31044485
 20
-142.84642635
 10
-98.26315706
 20
-142.89371402
 10
-98.21585577
 20
-142.94101532
 10
-98.16854552
 20
-142.98832569
 10
-98.12123061
 20
-143.03564048
 10
-98.07391581
 20
-143.0829554
 10
-98.02660544
 20
-143.13026565
 10
-97.97930415
 20
-143.17756694
 10
-97.93201648
 20
-143.22485473
  0
ARC
  5
354
100
AcDbEntity
  8
MST_1_1
 62
   137
  6
CONTINUOUS
100
AcDbCircle
 10
-98.09577469
 20
-143.01018468
 30
0.0
 40
0.27000013
100
AcDbArc
 50
142.662273
 51
192.61245546
  0
LWPOLYLINE
  5
355
100
AcDbEntity
  8
MST_1_1
 62
   137
  6
CONTINUOUS
100
AcDbPolyline
 90
        9
 70
     0
 43
0.0
 10
-98.64475566
 20
-142.78364438
 10
-98.60912326
 20
-142.81927679
 10
-98.5734713
 20
-142.85492886
 10
-98.53780165
 20
-142.8905984
 10
-98.50211663
 20
-142.92628354
 10
-98.46641775
 20
-142.96198241
 10
-98.43070735
 20
-142.99769281
 10
-98.39498729
 20
-143.03341288
 10
-98.35925954
 20
-143.06914062
  0
ARC
  5
356
100
AcDbEntity
  8
MST_1_1
 62
   137
  6
CONTINUOUS
100
AcDbCircle
 10
-98.58579956
 20
-142.52015983
 30
0.0
 40
0.26999988
100
AcDbArc
 50
257.38751638
 51
12.61251432
  0
LWPOLYLINE
  5
357
100
AcDbEntity
  8
MST_1_1
 62
   137
  6
CONTINUOUS
100
AcDbPolyline
 90
        9
 70
     0
 43
0.0
 10
-98.1752855
 20
-142.82885055
 10
-98.14268502
 20
-142.86145103
 10
-98.11008011
 20
-142.89405594
 10
-98.07747241
 20
-142.92666375
 10
-98.04486309
 20
-142.95927296
 10
-98.01225387
 20
-142.99188229
 10
-97.97964606
 20
-143.02448999
 10
-97.94704115
 20
-143.0570949
 10
-97.91444067
 20
-143.08969538
  0
ARC
  5
358
100
AcDbEntity
  8
MST_1_1
 62
   137
  6
CONTINUOUS
100
AcDbCircle
 10
-98.09577485
 20
-143.01018473
 30
0.0
 40
0.19800007
100
AcDbArc
 50
336.32372311
 51
113.6762869
  0
LWPOLYLINE
  5
359
100
AcDbEntity
  8
MST_1_1
 62
   137
  6
CONTINUOUS
100
AcDbPolyline
 90
        9
 70
     0
 43
0.0
 10
-98.01626403
 20
-143.19151874
 10
-98.04886451
 20
-143.15891837
 10
-98.0814693
 20
-143.12631347
 10
-98.11407712
 20
-143.09370565
 10
-98.14668645
 20
-143.06109632
 10
-98.17929577
 20
-143.02848699
 10
-98.21190359
 20
-142.99587918
 10
-98.24450849
 20
-142.96327439
 10
-98.27710886
 20
-142.93067391
  0
ARC
  5
35A
100
AcDbEntity
  8
MST_1_1
 62
   137
  6
CONTINUOUS
100
AcDbCircle
 10
-98.09577473
 20
-143.01018461
 30
0.0
 40
0.19800004
100
AcDbArc
 50
156.32369345
 51
293.67631657
  0
CIRCLE
  5
35B
100
AcDbEntity
  8
MST_1_1
 62
   137
  6
CONTINUOUS
100
AcDbCircle
 10
-96.54013987
 20
-171.45454975
 30
0.0
 40
1.89428533
  0
CIRCLE
  5
35C
100
AcDbEntity
  8
MST_1_1
 62
   137
  6
CONTINUOUS
100
AcDbCircle
 10
-96.54013987
 20
-171.45454975
 30
0.0
 40
1.06049438
  0
CIRCLE
  5
35D
100
AcDbEntity
  8
MST_1_1
 62
   137
  6
CONTINUOUS
100
AcDbCircle
 10
-96.54013987
 20
-171.45454975
 30
0.0
 40
1.89428533
  0
CIRCLE
  5
35E
100
AcDbEntity
  8
MST_1_1
 62
   137
  6
CONTINUOUS
100
AcDbCircle
 10
-96.54013987
 20
-171.45454975
 30
0.0
 40
1.06049438
  0
CIRCLE
  5
35F
100
AcDbEntity
  8
MST_1_1
 62
   137
  6
CONTINUOUS
100
AcDbCircle
 10
-96.54013987
 20
-171.45454975
 30
0.0
 40
1.89428533
  0
CIRCLE
  5
360
100
AcDbEntity
  8
MST_1_1
 62
   137
  6
CONTINUOUS
100
AcDbCircle
 10
-96.54013987
 20
-171.45454975
 30
0.0
 40
1.06049438
  0
CIRCLE
  5
361
100
AcDbEntity
  8
MST_1_1
 62
   137
  6
CONTINUOUS
100
AcDbCircle
 10
-96.54013987
 20
-171.45454975
 30
0.0
 40
1.59428533
  0
CIRCLE
  5
362
100
AcDbEntity
  8
MST_1_1
 62
   137
  6
CONTINUOUS
100
AcDbCircle
 10
-96.54013987
 20
-171.45454975
 30
0.0
 40
1.99428533
  0
CIRCLE
  5
363
100
AcDbEntity
  8
MST_1_1
 62
   137
  6
CONTINUOUS
100
AcDbCircle
 10
-96.54013987
 20
-171.45454975
 30
0.0
 40
1.125
  0
CIRCLE
  5
364
100
AcDbEntity
  8
MST_1_1
 62
   137
  6
CONTINUOUS
100
AcDbCircle
 10
-96.54013987
 20
-171.45454975
 30
0.0
 40
3.5
  0
ARC
  5
365
100
AcDbEntity
  8
MST_1_1
 62
   137
  6
CONTINUOUS
100
AcDbCircle
 10
-97.91213985
 20
-171.45454975
 30
0.0
 40
0.303
100
AcDbArc
 50
104.00039951
 51
255.99961051
  0
ARC
  5
366
100
AcDbEntity
  8
MST_1_1
 62
   137
  6
CONTINUOUS
100
AcDbCircle
 10
-98.14285743
 20
-172.37987918
 30
0.0
 40
0.65065883
100
AcDbArc
 50
344.00042282
 51
75.99958535
  0
ARC
  5
367
100
AcDbEntity
  8
MST_1_1
 62
   137
  6
CONTINUOUS
100
AcDbCircle
 10
-97.22613984
 20
-172.64273659
 30
0.0
 40
0.30299999
100
AcDbArc
 50
164.00040911
 51
315.99959504
  0
ARC
  5
368
100
AcDbEntity
  8
MST_1_1
 62
   137
  6
CONTINUOUS
100
AcDbCircle
 10
-96.54013987
 20
-173.3052085
 30
0.0
 40
0.65065875
100
AcDbArc
 50
44.00040429
 51
135.99959571
  0
ARC
  5
369
100
AcDbEntity
  8
MST_1_1
 62
   137
  6
CONTINUOUS
100
AcDbCircle
 10
-95.85413987
 20
-172.64273664
 30
0.0
 40
0.30299998
100
AcDbArc
 50
224.00041508
 51
15.9996008
  0
ARC
  5
36A
100
AcDbEntity
  8
MST_1_1
 62
   137
  6
CONTINUOUS
100
AcDbCircle
 10
-95.16813989
 20
-171.45454975
 30
0.0
 40
0.303
100
AcDbArc
 50
284.00040953
 51
75.99960049
  0
ARC
  5
36B
100
AcDbEntity
  8
MST_1_1
 62
   137
  6
CONTINUOUS
100
AcDbCircle
 10
-94.93742231
 20
-170.52922031
 30
0.0
 40
0.65065883
100
AcDbArc
 50
164.00041281
 51
255.99959537
  0
ARC
  5
36C
100
AcDbEntity
  8
MST_1_1
 62
   137
  6
CONTINUOUS
100
AcDbCircle
 10
-95.8541399
 20
-170.2663629
 30
0.0
 40
0.30299999
100
AcDbArc
 50
344.00041913
 51
135.99958502
  0
ARC
  5
36D
100
AcDbEntity
  8
MST_1_1
 62
   137
  6
CONTINUOUS
100
AcDbCircle
 10
-96.54013987
 20
-169.603891
 30
0.0
 40
0.65065875
100
AcDbArc
 50
224.00041431
 51
315.99960573
  0
ARC
  5
36E
100
AcDbEntity
  8
MST_1_1
 62
   137
  6
CONTINUOUS
100
AcDbCircle
 10
-97.22613987
 20
-170.26636285
 30
0.0
 40
0.30299998
100
AcDbArc
 50
44.00040506
 51
195.99961082
  0
ARC
  5
36F
100
AcDbEntity
  8
MST_1_1
 62
   137
  6
CONTINUOUS
100
AcDbCircle
 10
-98.14285742
 20
-170.52922031
 30
0.0
 40
0.65065883
100
AcDbArc
 50
284.00042461
 51
15.99958726
  0
LWPOLYLINE
  5
370
100
AcDbEntity
  8
MST_1_1
 62
   137
  6
CONTINUOUS
100
AcDbPolyline
 90
        9
 70
     0
 43
0.0
 10
-97.83060977
 20
-173.69961387
 10
-97.82154381
 20
-173.69054791
 10
-97.81247144
 20
-173.68147544
 10
-97.8033928
 20
-173.6723969
 10
-97.79430774
 20
-173.66331185
 10
-97.78521652
 20
-173.65422051
 10
-97.7761189
 20
-173.64512289
 10
-97.7670151
 20
-173.63601921
 10
-97.75790514
 20
-173.62690925
  0
ARC
  5
371
100
AcDbEntity
  8
MST_1_1
 62
   137
  6
CONTINUOUS
100
AcDbCircle
 10
-97.60574981
 20
-173.50020975
 30
0.0
 40
0.19800002
100
AcDbArc
 50
50.21591721
 51
219.78410477
  0
LWPOLYLINE
  5
372
100
AcDbEntity
  8
MST_1_1
 62
   137
  6
CONTINUOUS
100
AcDbPolyline
 90
        9
 70
     0
 43
0.0
 10
-97.47905034
 20
-173.34805439
 10
-97.46997908
 20
-173.33898307
 10
-97.46090299
 20
-173.32990698
 10
-97.45182207
 20
-173.32082612
 10
-97.44273627
 20
-173.31174037
 10
-97.43364574
 20
-173.30264973
 10
-97.42455045
 20
-173.29355444
 10
-97.41545038
 20
-173.28445448
 10
-97.40634565
 20
-173.27534976
  0
LWPOLYLINE
  5
373
100
AcDbEntity
  8
MST_1_1
 62
   137
  6
CONTINUOUS
100
AcDbPolyline
 90
        9
 70
     0
 43
0.0
 10
-97.40634565
 20
-173.27534976
 10
-97.46069513
 20
-173.22100022
 10
-97.51509677
 20
-173.16659864
 10
-97.56954398
 20
-173.11215143
 10
-97.62402985
 20
-173.05766556
 10
-97.67854784
 20
-173.00314757
 10
-97.7330911
 20
-172.94860431
 10
-97.78765298
 20
-172.89404243
 10
-97.84222662
 20
-172.83946879
  0
LWPOLYLINE
  5
374
100
AcDbEntity
  8
MST_1_1
 62
   137
  6
CONTINUOUS
100
AcDbPolyline
 90
        9
 70
     0
 43
0.0
 10
-97.84222662
 20
-172.83946879
 10
-97.84544864
 20
-172.8426907
 10
-97.84866997
 20
-172.84591215
 10
-97.85189084
 20
-172.84913289
 10
-97.85511112
 20
-172.85235317
 10
-97.8583307
 20
-172.85557287
 10
-97.86154982
 20
-172.85879187
 10
-97.86476823
 20
-172.86201041
 10
-97.86798619
 20
-172.86522824
  0
LWPOLYLINE
  5
375
100
AcDbEntity
  8
MST_1_1
 62
   137
  6
CONTINUOUS
100
AcDbPolyline
 90
       25
 70
     0
 43
0.0
 10
-97.86798619
 20
-172.86522828
 10
-97.87067851
 20
-172.86108129
 10
-97.87344229
 20
-172.85698931
 10
-97.8762768
 20
-172.85295308
 10
-97.87918127
 20
-172.84897337
 10
-97.88215497
 20
-172.84505092
 10
-97.88519716
 20
-172.84118646
 10
-97.88830708
 20
-172.83738076
 10
-97.891484
 20
-172.83363455
 10
-97.89472717
 20
-172.82994858
 10
-97.89803585
 20
-172.8263236
 10
-97.90140928
 20
-172.82276036
 10
-97.90484673
 20
-172.81925961
 10
-97.90834746
 20
-172.81582208
 10
-97.91191071
 20
-172.81244853
 10
-97.91553574
 20
-172.8091397
 10
-97.91922181
 20
-172.80589635
 10
-97.92296817
 20
-172.80271921
 10
-97.92677409
 20
-172.79960903
 10
-97.93063881
 20
-172.79656657
 10
-97.93456158
 20
-172.79359257
 10
-97.93854168
 20
-172.79068777
 10
-97.94257834
 20
-172.78785292
 10
-97.94667083
 20
-172.78508877
 10
-97.95081841
 20
-172.78239606
  0
LWPOLYLINE
  5
376
100
AcDbEntity
  8
MST_1_1
 62
   137
  6
CONTINUOUS
100
AcDbPolyline
 90
        9
 70
     0
 43
0.0
 10
-97.95081836
 20
-172.78239606
 10
-97.94760053
 20
-172.77917811
 10
-97.94438199
 20
-172.77595969
 10
-97.94116299
 20
-172.77274058
 10
-97.9379433
 20
-172.76952099
 10
-97.93472302
 20
-172.76630071
 10
-97.93150227
 20
-172.76307985
 10
-97.92828082
 20
-172.75985852
 10
-97.92505891
 20
-172.7566365
  0
LWPOLYLINE
  5
377
100
AcDbEntity
  8
MST_1_1
 62
   137
  6
CONTINUOUS
100
AcDbPolyline
 90
        9
 70
     0
 43
0.0
 10
-97.92505891
 20
-172.7566365
 10
-97.97963255
 20
-172.70206286
 10
-98.03419444
 20
-172.64750097
 10
-98.08873769
 20
-172.59295772
 10
-98.14325569
 20
-172.53843972
 10
-98.19774155
 20
-172.48395386
 10
-98.25218876
 20
-172.42950665
 10
-98.30659034
 20
-172.37510501
 10
-98.36093988
 20
-172.32075553
  0
LWPOLYLINE
  5
378
100
AcDbEntity
  8
MST_1_1
 62
   137
  6
CONTINUOUS
100
AcDbPolyline
 90
        9
 70
     0
 43
0.0
 10
-98.36093988
 20
-172.32075553
 10
-98.37004461
 20
-172.32986025
 10
-98.37914456
 20
-172.33896032
 10
-98.38823986
 20
-172.34805562
 10
-98.3973305
 20
-172.35714614
 10
-98.40641625
 20
-172.36623195
 10
-98.41549711
 20
-172.37531287
 10
-98.42457319
 20
-172.38438896
 10
-98.43364451
 20
-172.39346021
  0
ARC
  5
379
100
AcDbEntity
  8
MST_1_1
 62
   137
  6
CONTINUOUS
100
AcDbCircle
 10
-98.58579988
 20
-172.52015967
 30
0.0
 40
0.19800002
100
AcDbArc
 50
230.21591956
 51
39.7840785
  0
LWPOLYLINE
  5
37A
100
AcDbEntity
  8
MST_1_1
 62
   137
  6
CONTINUOUS
100
AcDbPolyline
 90
        9
 70
     0
 43
0.0
 10
-98.71249937
 20
-172.67231502
 10
-98.72160933
 20
-172.68142498
 10
-98.73071301
 20
-172.69052877
 10
-98.73981064
 20
-172.6996264
 10
-98.74890197
 20
-172.70871762
 10
-98.75798703
 20
-172.71780267
 10
-98.76706556
 20
-172.72688132
 10
-98.77613804
 20
-172.73595368
 10
-98.785204
 20
-172.74501964
  0
LWPOLYLINE
  5
37B
100
AcDbEntity
  8
MST_1_1
 62
   137
  6
CONTINUOUS
100
AcDbPolyline
 90
        9
 70
     0
 43
0.0
 10
-98.785204
 20
-172.74501964
 10
-98.73086226
 20
-172.79936115
 10
-98.67646557
 20
-172.85375796
 10
-98.62202068
 20
-172.90820296
 10
-98.56753459
 20
-172.96268894
 10
-98.51301473
 20
-173.01720879
 10
-98.4584681
 20
-173.07175543
 10
-98.40390179
 20
-173.12632173
 10
-98.34932291
 20
-173.18090061
  0
LWPOLYLINE
  5
37C
100
AcDbEntity
  8
MST_1_1
 62
   137
  6
CONTINUOUS
100
AcDbPolyline
 90
        9
 70
     0
 43
0.0
 10
-98.34932291
 20
-173.18090061
 10
-98.34610578
 20
-173.17768347
 10
-98.34288782
 20
-173.17446552
 10
-98.33966906
 20
-173.17124675
 10
-98.33644947
 20
-173.16802717
 10
-98.33322919
 20
-173.16480689
 10
-98.3300081
 20
-173.16158568
 10
-98.32678607
 20
-173.15836377
 10
-98.32356334
 20
-173.15514104
  0
LWPOLYLINE
  5
37D
100
AcDbEntity
  8
MST_1_1
 62
   137
  6
CONTINUOUS
100
AcDbPolyline
 90
       25
 70
     0
 43
0.0
 10
-98.32356339
 20
-173.15514105
 10
-98.32087127
 20
-173.15928771
 10
-98.31810763
 20
-173.16337944
 10
-98.31527321
 20
-173.16741547
 10
-98.31236877
 20
-173.17139505
 10
-98.30939505
 20
-173.17531744
 10
-98.30635282
 20
-173.17918187
 10
-98.30324281
 20
-173.1829876
 10
-98.30006578
 20
-173.18673386
 10
-98.29682248
 20
-173.19041992
 10
-98.29351367
 20
-173.19404501
 10
-98.29014008
 20
-173.19760839
 10
-98.28670248
 20
-173.20110929
 10
-98.28320161
 20
-173.20454697
 10
-98.27963823
 20
-173.20792068
 10
-98.27601308
 20
-173.21122965
 10
-98.27232691
 20
-173.21447314
 10
-98.26858048
 20
-173.21765039
 10
-98.26477454
 20
-173.22076065
 10
-98.26090984
 20
-173.22380317
 10
-98.25698713
 20
-173.22677719
 10
-98.25300715
 20
-173.22968197
 10
-98.24897067
 20
-173.23251674
 10
-98.24487842
 20
-173.23528076
 10
-98.24073117
 20
-173.23797327
  0
LWPOLYLINE
  5
37E
100
AcDbEntity
  8
MST_1_1
 62
   137
  6
CONTINUOUS
100
AcDbPolyline
 90
        9
 70
     0
 43
0.0
 10
-98.24073117
 20
-173.23797322
 10
-98.24395389
 20
-173.24119595
 10
-98.2471758
 20
-173.24441797
 10
-98.25039701
 20
-173.24763907
 10
-98.25361729
 20
-173.25085935
 10
-98.25683688
 20
-173.25407893
 10
-98.26005564
 20
-173.2572977
 10
-98.2632736
 20
-173.26051565
 10
-98.26649073
 20
-173.26373279
  0
LWPOLYLINE
  5
37F
100
AcDbEntity
  8
MST_1_1
 62
   137
  6
CONTINUOUS
100
AcDbPolyline
 90
        9
 70
     0
 43
0.0
 10
-98.26649073
 20
-173.26373279
 10
-98.21191185
 20
-173.31831167
 10
-98.15734555
 20
-173.37287798
 10
-98.10279892
 20
-173.42742461
 10
-98.04827906
 20
-173.48194446
 10
-97.99379308
 20
-173.53643056
 10
-97.93934808
 20
-173.59087544
 10
-97.88495127
 20
-173.64527213
 10
-97.83060977
 20
-173.69961387
  0
CIRCLE
  5
380
100
AcDbEntity
  8
MST_1_1
 62
   137
  6
CONTINUOUS
100
AcDbCircle
 10
-96.54013987
 20
-171.45454975
 30
0.0
 40
3.324953
  0
ARC
  5
381
100
AcDbEntity
  8
MST_1_1
 62
   137
  6
CONTINUOUS
100
AcDbCircle
 10
-94.93742232
 20
-172.37987918
 30
0.0
 40
0.65065883
100
AcDbArc
 50
104.00041459
 51
195.99959727
  0
LWPOLYLINE
  5
382
100
AcDbEntity
  8
MST_1_1
 62
   137
  6
CONTINUOUS
100
AcDbPolyline
 90
        9
 70
     0
 43
0.0
 10
-98.03681879
 20
-172.74669998
 10
-98.0725449
 20
-172.71097387
 10
-98.10826357
 20
-172.6752552
 10
-98.14397304
 20
-172.63954573
 10
-98.17967133
 20
-172.60384744
 10
-98.21535658
 20
-172.56816219
 10
-98.25102682
 20
-172.53249183
 10
-98.28668029
 20
-172.49683836
 10
-98.32231502
 20
-172.46120363
  0
ARC
  5
383
100
AcDbEntity
  8
MST_1_1
 62
   137
  6
CONTINUOUS
100
AcDbCircle
 10
-98.0957749
 20
-173.01018401
 30
0.0
 40
0.26999936
100
AcDbArc
 50
77.38747914
 51
127.33780242
  0
LINE
  5
384
100
AcDbEntity
  8
MST_1_1
 62
   137
  6
CONTINUOUS
100
AcDbLine
 10
-97.8811048
 20
-173.17394293
 30
0.0
 11
-98.25953306
 21
-172.79551467
 31
0.0
  0
ARC
  5
385
100
AcDbEntity
  8
MST_1_1
 62
   137
  6
CONTINUOUS
100
AcDbCircle
 10
-98.09577425
 20
-173.01018475
 30
0.0
 40
0.26999948
100
AcDbArc
 50
322.66221884
 51
12.61250962
  0
LWPOLYLINE
  5
386
100
AcDbEntity
  8
MST_1_1
 62
   137
  6
CONTINUOUS
100
AcDbPolyline
 90
        9
 70
     0
 43
0.0
 10
-97.54679375
 20
-173.2367249
 10
-97.58242848
 20
-173.20109017
 10
-97.61808195
 20
-173.1654367
 10
-97.65375231
 20
-173.12976646
 10
-97.68943756
 20
-173.09408121
 10
-97.72513585
 20
-173.05838291
 10
-97.76084532
 20
-173.02267345
 10
-97.79656399
 20
-172.98695478
 10
-97.8322901
 20
-172.95122866
  0
ARC
  5
387
100
AcDbEntity
  8
MST_1_1
 62
   137
  6
CONTINUOUS
100
AcDbCircle
 10
-97.60574969
 20
-173.50020969
 30
0.0
 40
0.27000007
100
AcDbArc
 50
77.38755048
 51
192.61243885
  0
LWPOLYLINE
  5
388
100
AcDbEntity
  8
MST_1_1
 62
   137
  6
CONTINUOUS
100
AcDbPolyline
 90
        9
 70
     0
 43
0.0
 10
-98.15473074
 20
-173.27366942
 10
-98.119003
 20
-173.30939717
 10
-98.08328294
 20
-173.34511723
 10
-98.04757254
 20
-173.38082763
 10
-98.01187366
 20
-173.4165265
 10
-97.97618852
 20
-173.45221152
 10
-97.94051898
 20
-173.48788118
 10
-97.90486691
 20
-173.52353314
 10
-97.86923451
 20
-173.55916554
  0
ARC
  5
389
100
AcDbEntity
  8
MST_1_1
 62
   137
  6
CONTINUOUS
100
AcDbCircle
 10
-98.09577497
 20
-173.01018383
 30
0.0
 40
0.27000082
100
AcDbArc
 50
257.38763285
 51
307.33766874
  0
LWPOLYLINE
  5
38A
100
AcDbEntity
  8
MST_1_1
 62
   137
  6
CONTINUOUS
100
AcDbPolyline
 90
        9
 70
     0
 43
0.0
 10
-98.31044485
 20
-172.84642635
 10
-98.26315706
 20
-172.89371402
 10
-98.21585577
 20
-172.94101532
 10
-98.16854552
 20
-172.98832569
 10
-98.12123061
 20
-173.03564048
 10
-98.07391581
 20
-173.0829554
 10
-98.02660544
 20
-173.13026565
 10
-97.97930415
 20
-173.17756694
 10
-97.93201648
 20
-173.22485473
  0
ARC
  5
38B
100
AcDbEntity
  8
MST_1_1
 62
   137
  6
CONTINUOUS
100
AcDbCircle
 10
-98.09577469
 20
-173.01018468
 30
0.0
 40
0.27000013
100
AcDbArc
 50
142.662273
 51
192.61245546
  0
LWPOLYLINE
  5
38C
100
AcDbEntity
  8
MST_1_1
 62
   137
  6
CONTINUOUS
100
AcDbPolyline
 90
        9
 70
     0
 43
0.0
 10
-98.64475566
 20
-172.78364438
 10
-98.60912326
 20
-172.81927679
 10
-98.5734713
 20
-172.85492886
 10
-98.53780165
 20
-172.8905984
 10
-98.50211663
 20
-172.92628354
 10
-98.46641775
 20
-172.96198241
 10
-98.43070735
 20
-172.99769281
 10
-98.39498729
 20
-173.03341288
 10
-98.35925954
 20
-173.06914062
  0
ARC
  5
38D
100
AcDbEntity
  8
MST_1_1
 62
   137
  6
CONTINUOUS
100
AcDbCircle
 10
-98.58579956
 20
-172.52015983
 30
0.0
 40
0.26999988
100
AcDbArc
 50
257.38751638
 51
12.61251432
  0
LWPOLYLINE
  5
38E
100
AcDbEntity
  8
MST_1_1
 62
   137
  6
CONTINUOUS
100
AcDbPolyline
 90
        9
 70
     0
 43
0.0
 10
-98.1752855
 20
-172.82885055
 10
-98.14268502
 20
-172.86145103
 10
-98.11008011
 20
-172.89405594
 10
-98.07747241
 20
-172.92666375
 10
-98.04486309
 20
-172.95927296
 10
-98.01225387
 20
-172.99188229
 10
-97.97964606
 20
-173.02448999
 10
-97.94704115
 20
-173.0570949
 10
-97.91444067
 20
-173.08969538
  0
ARC
  5
38F
100
AcDbEntity
  8
MST_1_1
 62
   137
  6
CONTINUOUS
100
AcDbCircle
 10
-98.09577485
 20
-173.01018473
 30
0.0
 40
0.19800007
100
AcDbArc
 50
336.32372311
 51
113.6762869
  0
LWPOLYLINE
  5
390
100
AcDbEntity
  8
MST_1_1
 62
   137
  6
CONTINUOUS
100
AcDbPolyline
 90
        9
 70
     0
 43
0.0
 10
-98.01626403
 20
-173.19151874
 10
-98.04886451
 20
-173.15891837
 10
-98.0814693
 20
-173.12631347
 10
-98.11407712
 20
-173.09370565
 10
-98.14668645
 20
-173.06109632
 10
-98.17929577
 20
-173.02848699
 10
-98.21190359
 20
-172.99587918
 10
-98.24450849
 20
-172.96327439
 10
-98.27710886
 20
-172.93067391
  0
ARC
  5
391
100
AcDbEntity
  8
MST_1_1
 62
   137
  6
CONTINUOUS
100
AcDbCircle
 10
-98.09577473
 20
-173.01018461
 30
0.0
 40
0.19800004
100
AcDbArc
 50
156.32369345
 51
293.67631657
  0
CIRCLE
  5
392
100
AcDbEntity
  8
MST_1_1
 62
   137
  6
CONTINUOUS
100
AcDbCircle
 10
-96.54013987
 20
-201.45454975
 30
0.0
 40
1.89428533
  0
CIRCLE
  5
393
100
AcDbEntity
  8
MST_1_1
 62
   137
  6
CONTINUOUS
100
AcDbCircle
 10
-96.54013987
 20
-201.45454975
 30
0.0
 40
1.06049438
  0
CIRCLE
  5
394
100
AcDbEntity
  8
MST_1_1
 62
   137
  6
CONTINUOUS
100
AcDbCircle
 10
-96.54013987
 20
-201.45454975
 30
0.0
 40
1.89428533
  0
CIRCLE
  5
395
100
AcDbEntity
  8
MST_1_1
 62
   137
  6
CONTINUOUS
100
AcDbCircle
 10
-96.54013987
 20
-201.45454975
 30
0.0
 40
1.06049438
  0
CIRCLE
  5
396
100
AcDbEntity
  8
MST_1_1
 62
   137
  6
CONTINUOUS
100
AcDbCircle
 10
-96.54013987
 20
-201.45454975
 30
0.0
 40
1.89428533
  0
CIRCLE
  5
397
100
AcDbEntity
  8
MST_1_1
 62
   137
  6
CONTINUOUS
100
AcDbCircle
 10
-96.54013987
 20
-201.45454975
 30
0.0
 40
1.06049438
  0
CIRCLE
  5
398
100
AcDbEntity
  8
MST_1_1
 62
   137
  6
CONTINUOUS
100
AcDbCircle
 10
-96.54013987
 20
-201.45454975
 30
0.0
 40
1.59428533
  0
CIRCLE
  5
399
100
AcDbEntity
  8
MST_1_1
 62
   137
  6
CONTINUOUS
100
AcDbCircle
 10
-96.54013987
 20
-201.45454975
 30
0.0
 40
1.99428533
  0
CIRCLE
  5
39A
100
AcDbEntity
  8
MST_1_1
 62
   137
  6
CONTINUOUS
100
AcDbCircle
 10
-96.54013987
 20
-201.45454975
 30
0.0
 40
1.125
  0
CIRCLE
  5
39B
100
AcDbEntity
  8
MST_1_1
 62
   137
  6
CONTINUOUS
100
AcDbCircle
 10
-96.54013987
 20
-201.45454975
 30
0.0
 40
3.5
  0
ARC
  5
39C
100
AcDbEntity
  8
MST_1_1
 62
   137
  6
CONTINUOUS
100
AcDbCircle
 10
-97.91213985
 20
-201.45454975
 30
0.0
 40
0.303
100
AcDbArc
 50
104.00039951
 51
255.99961051
  0
ARC
  5
39D
100
AcDbEntity
  8
MST_1_1
 62
   137
  6
CONTINUOUS
100
AcDbCircle
 10
-98.14285743
 20
-202.37987918
 30
0.0
 40
0.65065883
100
AcDbArc
 50
344.00042282
 51
75.99958535
  0
ARC
  5
39E
100
AcDbEntity
  8
MST_1_1
 62
   137
  6
CONTINUOUS
100
AcDbCircle
 10
-97.22613984
 20
-202.64273659
 30
0.0
 40
0.30299999
100
AcDbArc
 50
164.00040911
 51
315.99959504
  0
ARC
  5
39F
100
AcDbEntity
  8
MST_1_1
 62
   137
  6
CONTINUOUS
100
AcDbCircle
 10
-96.54013987
 20
-203.3052085
 30
0.0
 40
0.65065875
100
AcDbArc
 50
44.00040429
 51
135.99959571
  0
ARC
  5
3A0
100
AcDbEntity
  8
MST_1_1
 62
   137
  6
CONTINUOUS
100
AcDbCircle
 10
-95.85413987
 20
-202.64273664
 30
0.0
 40
0.30299998
100
AcDbArc
 50
224.00041508
 51
15.9996008
  0
ARC
  5
3A1
100
AcDbEntity
  8
MST_1_1
 62
   137
  6
CONTINUOUS
100
AcDbCircle
 10
-95.16813989
 20
-201.45454975
 30
0.0
 40
0.303
100
AcDbArc
 50
284.00040953
 51
75.99960049
  0
ARC
  5
3A2
100
AcDbEntity
  8
MST_1_1
 62
   137
  6
CONTINUOUS
100
AcDbCircle
 10
-94.93742231
 20
-200.52922031
 30
0.0
 40
0.65065883
100
AcDbArc
 50
164.00041281
 51
255.99959537
  0
ARC
  5
3A3
100
AcDbEntity
  8
MST_1_1
 62
   137
  6
CONTINUOUS
100
AcDbCircle
 10
-95.8541399
 20
-200.2663629
 30
0.0
 40
0.30299999
100
AcDbArc
 50
344.00041913
 51
135.99958502
  0
ARC
  5
3A4
100
AcDbEntity
  8
MST_1_1
 62
   137
  6
CONTINUOUS
100
AcDbCircle
 10
-96.54013987
 20
-199.603891
 30
0.0
 40
0.65065875
100
AcDbArc
 50
224.00041431
 51
315.99960573
  0
ARC
  5
3A5
100
AcDbEntity
  8
MST_1_1
 62
   137
  6
CONTINUOUS
100
AcDbCircle
 10
-97.22613987
 20
-200.26636285
 30
0.0
 40
0.30299998
100
AcDbArc
 50
44.00040506
 51
195.99961082
  0
ARC
  5
3A6
100
AcDbEntity
  8
MST_1_1
 62
   137
  6
CONTINUOUS
100
AcDbCircle
 10
-98.14285742
 20
-200.52922031
 30
0.0
 40
0.65065883
100
AcDbArc
 50
284.00042461
 51
15.99958726
  0
LWPOLYLINE
  5
3A7
100
AcDbEntity
  8
MST_1_1
 62
   137
  6
CONTINUOUS
100
AcDbPolyline
 90
        9
 70
     0
 43
0.0
 10
-97.83060977
 20
-203.69961387
 10
-97.82154381
 20
-203.69054791
 10
-97.81247144
 20
-203.68147544
 10
-97.8033928
 20
-203.6723969
 10
-97.79430774
 20
-203.66331185
 10
-97.78521652
 20
-203.65422051
 10
-97.7761189
 20
-203.64512289
 10
-97.7670151
 20
-203.63601921
 10
-97.75790514
 20
-203.62690925
  0
ARC
  5
3A8
100
AcDbEntity
  8
MST_1_1
 62
   137
  6
CONTINUOUS
100
AcDbCircle
 10
-97.60574981
 20
-203.50020975
 30
0.0
 40
0.19800002
100
AcDbArc
 50
50.21591721
 51
219.78410477
  0
LWPOLYLINE
  5
3A9
100
AcDbEntity
  8
MST_1_1
 62
   137
  6
CONTINUOUS
100
AcDbPolyline
 90
        9
 70
     0
 43
0.0
 10
-97.47905034
 20
-203.34805439
 10
-97.46997908
 20
-203.33898307
 10
-97.46090299
 20
-203.32990698
 10
-97.45182207
 20
-203.32082612
 10
-97.44273627
 20
-203.31174037
 10
-97.43364574
 20
-203.30264973
 10
-97.42455045
 20
-203.29355444
 10
-97.41545038
 20
-203.28445448
 10
-97.40634565
 20
-203.27534976
  0
LWPOLYLINE
  5
3AA
100
AcDbEntity
  8
MST_1_1
 62
   137
  6
CONTINUOUS
100
AcDbPolyline
 90
        9
 70
     0
 43
0.0
 10
-97.40634565
 20
-203.27534976
 10
-97.46069513
 20
-203.22100022
 10
-97.51509677
 20
-203.16659864
 10
-97.56954398
 20
-203.11215143
 10
-97.62402985
 20
-203.05766556
 10
-97.67854784
 20
-203.00314757
 10
-97.7330911
 20
-202.94860431
 10
-97.78765298
 20
-202.89404243
 10
-97.84222662
 20
-202.83946879
  0
LWPOLYLINE
  5
3AB
100
AcDbEntity
  8
MST_1_1
 62
   137
  6
CONTINUOUS
100
AcDbPolyline
 90
        9
 70
     0
 43
0.0
 10
-97.84222662
 20
-202.83946879
 10
-97.84544864
 20
-202.8426907
 10
-97.84866997
 20
-202.84591215
 10
-97.85189084
 20
-202.84913289
 10
-97.85511112
 20
-202.85235317
 10
-97.8583307
 20
-202.85557287
 10
-97.86154982
 20
-202.85879187
 10
-97.86476823
 20
-202.86201041
 10
-97.86798619
 20
-202.86522824
  0
LWPOLYLINE
  5
3AC
100
AcDbEntity
  8
MST_1_1
 62
   137
  6
CONTINUOUS
100
AcDbPolyline
 90
       25
 70
     0
 43
0.0
 10
-97.86798619
 20
-202.86522828
 10
-97.87067851
 20
-202.86108129
 10
-97.87344229
 20
-202.85698931
 10
-97.8762768
 20
-202.85295308
 10
-97.87918127
 20
-202.84897337
 10
-97.88215497
 20
-202.84505092
 10
-97.88519716
 20
-202.84118646
 10
-97.88830708
 20
-202.83738076
 10
-97.891484
 20
-202.83363455
 10
-97.89472717
 20
-202.82994858
 10
-97.89803585
 20
-202.8263236
 10
-97.90140928
 20
-202.82276036
 10
-97.90484673
 20
-202.81925961
 10
-97.90834746
 20
-202.81582208
 10
-97.91191071
 20
-202.81244853
 10
-97.91553574
 20
-202.8091397
 10
-97.91922181
 20
-202.80589635
 10
-97.92296817
 20
-202.80271921
 10
-97.92677409
 20
-202.79960903
 10
-97.93063881
 20
-202.79656657
 10
-97.93456158
 20
-202.79359257
 10
-97.93854168
 20
-202.79068777
 10
-97.94257834
 20
-202.78785292
 10
-97.94667083
 20
-202.78508877
 10
-97.95081841
 20
-202.78239606
  0
LWPOLYLINE
  5
3AD
100
AcDbEntity
  8
MST_1_1
 62
   137
  6
CONTINUOUS
100
AcDbPolyline
 90
        9
 70
     0
 43
0.0
 10
-97.95081836
 20
-202.78239606
 10
-97.94760053
 20
-202.77917811
 10
-97.94438199
 20
-202.77595969
 10
-97.94116299
 20
-202.77274058
 10
-97.9379433
 20
-202.76952099
 10
-97.93472302
 20
-202.76630071
 10
-97.93150227
 20
-202.76307985
 10
-97.92828082
 20
-202.75985852
 10
-97.92505891
 20
-202.7566365
  0
LWPOLYLINE
  5
3AE
100
AcDbEntity
  8
MST_1_1
 62
   137
  6
CONTINUOUS
100
AcDbPolyline
 90
        9
 70
     0
 43
0.0
 10
-97.92505891
 20
-202.7566365
 10
-97.97963255
 20
-202.70206286
 10
-98.03419444
 20
-202.64750097
 10
-98.08873769
 20
-202.59295772
 10
-98.14325569
 20
-202.53843972
 10
-98.19774155
 20
-202.48395386
 10
-98.25218876
 20
-202.42950665
 10
-98.30659034
 20
-202.37510501
 10
-98.36093988
 20
-202.32075553
  0
LWPOLYLINE
  5
3AF
100
AcDbEntity
  8
MST_1_1
 62
   137
  6
CONTINUOUS
100
AcDbPolyline
 90
        9
 70
     0
 43
0.0
 10
-98.36093988
 20
-202.32075553
 10
-98.37004461
 20
-202.32986025
 10
-98.37914456
 20
-202.33896032
 10
-98.38823986
 20
-202.34805562
 10
-98.3973305
 20
-202.35714614
 10
-98.40641625
 20
-202.36623195
 10
-98.41549711
 20
-202.37531287
 10
-98.42457319
 20
-202.38438896
 10
-98.43364451
 20
-202.39346021
  0
ARC
  5
3B0
100
AcDbEntity
  8
MST_1_1
 62
   137
  6
CONTINUOUS
100
AcDbCircle
 10
-98.58579988
 20
-202.52015967
 30
0.0
 40
0.19800002
100
AcDbArc
 50
230.21591956
 51
39.7840785
  0
LWPOLYLINE
  5
3B1
100
AcDbEntity
  8
MST_1_1
 62
   137
  6
CONTINUOUS
100
AcDbPolyline
 90
        9
 70
     0
 43
0.0
 10
-98.71249937
 20
-202.67231502
 10
-98.72160933
 20
-202.68142498
 10
-98.73071301
 20
-202.69052877
 10
-98.73981064
 20
-202.6996264
 10
-98.74890197
 20
-202.70871762
 10
-98.75798703
 20
-202.71780267
 10
-98.76706556
 20
-202.72688132
 10
-98.77613804
 20
-202.73595368
 10
-98.785204
 20
-202.74501964
  0
LWPOLYLINE
  5
3B2
100
AcDbEntity
  8
MST_1_1
 62
   137
  6
CONTINUOUS
100
AcDbPolyline
 90
        9
 70
     0
 43
0.0
 10
-98.785204
 20
-202.74501964
 10
-98.73086226
 20
-202.79936115
 10
-98.67646557
 20
-202.85375796
 10
-98.62202068
 20
-202.90820296
 10
-98.56753459
 20
-202.96268894
 10
-98.51301473
 20
-203.01720879
 10
-98.4584681
 20
-203.07175543
 10
-98.40390179
 20
-203.12632173
 10
-98.34932291
 20
-203.18090061
  0
LWPOLYLINE
  5
3B3
100
AcDbEntity
  8
MST_1_1
 62
   137
  6
CONTINUOUS
100
AcDbPolyline
 90
        9
 70
     0
 43
0.0
 10
-98.34932291
 20
-203.18090061
 10
-98.34610578
 20
-203.17768347
 10
-98.34288782
 20
-203.17446552
 10
-98.33966906
 20
-203.17124675
 10
-98.33644947
 20
-203.16802717
 10
-98.33322919
 20
-203.16480689
 10
-98.3300081
 20
-203.16158568
 10
-98.32678607
 20
-203.15836377
 10
-98.32356334
 20
-203.15514104
  0
LWPOLYLINE
  5
3B4
100
AcDbEntity
  8
MST_1_1
 62
   137
  6
CONTINUOUS
100
AcDbPolyline
 90
       25
 70
     0
 43
0.0
 10
-98.32356339
 20
-203.15514105
 10
-98.32087127
 20
-203.15928771
 10
-98.31810763
 20
-203.16337944
 10
-98.31527321
 20
-203.16741547
 10
-98.31236877
 20
-203.17139505
 10
-98.30939505
 20
-203.17531744
 10
-98.30635282
 20
-203.17918187
 10
-98.30324281
 20
-203.1829876
 10
-98.30006578
 20
-203.18673386
 10
-98.29682248
 20
-203.19041992
 10
-98.29351367
 20
-203.19404501
 10
-98.29014008
 20
-203.19760839
 10
-98.28670248
 20
-203.20110929
 10
-98.28320161
 20
-203.20454697
 10
-98.27963823
 20
-203.20792068
 10
-98.27601308
 20
-203.21122965
 10
-98.27232691
 20
-203.21447314
 10
-98.26858048
 20
-203.21765039
 10
-98.26477454
 20
-203.22076065
 10
-98.26090984
 20
-203.22380317
 10
-98.25698713
 20
-203.22677719
 10
-98.25300715
 20
-203.22968197
 10
-98.24897067
 20
-203.23251674
 10
-98.24487842
 20
-203.23528076
 10
-98.24073117
 20
-203.23797327
  0
LWPOLYLINE
  5
3B5
100
AcDbEntity
  8
MST_1_1
 62
   137
  6
CONTINUOUS
100
AcDbPolyline
 90
        9
 70
     0
 43
0.0
 10
-98.24073117
 20
-203.23797322
 10
-98.24395389
 20
-203.24119595
 10
-98.2471758
 20
-203.24441797
 10
-98.25039701
 20
-203.24763907
 10
-98.25361729
 20
-203.25085935
 10
-98.25683688
 20
-203.25407893
 10
-98.26005564
 20
-203.2572977
 10
-98.2632736
 20
-203.26051565
 10
-98.26649073
 20
-203.26373279
  0
LWPOLYLINE
  5
3B6
100
AcDbEntity
  8
MST_1_1
 62
   137
  6
CONTINUOUS
100
AcDbPolyline
 90
        9
 70
     0
 43
0.0
 10
-98.26649073
 20
-203.26373279
 10
-98.21191185
 20
-203.31831167
 10
-98.15734555
 20
-203.37287798
 10
-98.10279892
 20
-203.42742461
 10
-98.04827906
 20
-203.48194446
 10
-97.99379308
 20
-203.53643056
 10
-97.93934808
 20
-203.59087544
 10
-97.88495127
 20
-203.64527213
 10
-97.83060977
 20
-203.69961387
  0
CIRCLE
  5
3B7
100
AcDbEntity
  8
MST_1_1
 62
   137
  6
CONTINUOUS
100
AcDbCircle
 10
-96.54013987
 20
-201.45454975
 30
0.0
 40
3.324953
  0
ARC
  5
3B8
100
AcDbEntity
  8
MST_1_1
 62
   137
  6
CONTINUOUS
100
AcDbCircle
 10
-94.93742232
 20
-202.37987918
 30
0.0
 40
0.65065883
100
AcDbArc
 50
104.00041459
 51
195.99959727
  0
LWPOLYLINE
  5
3B9
100
AcDbEntity
  8
MST_1_1
 62
   137
  6
CONTINUOUS
100
AcDbPolyline
 90
        9
 70
     0
 43
0.0
 10
-98.03681879
 20
-202.74669998
 10
-98.0725449
 20
-202.71097387
 10
-98.10826357
 20
-202.6752552
 10
-98.14397304
 20
-202.63954573
 10
-98.17967133
 20
-202.60384744
 10
-98.21535658
 20
-202.56816219
 10
-98.25102682
 20
-202.53249183
 10
-98.28668029
 20
-202.49683836
 10
-98.32231502
 20
-202.46120363
  0
ARC
  5
3BA
100
AcDbEntity
  8
MST_1_1
 62
   137
  6
CONTINUOUS
100
AcDbCircle
 10
-98.0957749
 20
-203.01018401
 30
0.0
 40
0.26999936
100
AcDbArc
 50
77.38747914
 51
127.33780242
  0
LINE
  5
3BB
100
AcDbEntity
  8
MST_1_1
 62
   137
  6
CONTINUOUS
100
AcDbLine
 10
-97.8811048
 20
-203.17394293
 30
0.0
 11
-98.25953306
 21
-202.79551467
 31
0.0
  0
ARC
  5
3BC
100
AcDbEntity
  8
MST_1_1
 62
   137
  6
CONTINUOUS
100
AcDbCircle
 10
-98.09577425
 20
-203.01018475
 30
0.0
 40
0.26999948
100
AcDbArc
 50
322.66221884
 51
12.61250962
  0
LWPOLYLINE
  5
3BD
100
AcDbEntity
  8
MST_1_1
 62
   137
  6
CONTINUOUS
100
AcDbPolyline
 90
        9
 70
     0
 43
0.0
 10
-97.54679375
 20
-203.2367249
 10
-97.58242848
 20
-203.20109017
 10
-97.61808195
 20
-203.1654367
 10
-97.65375231
 20
-203.12976646
 10
-97.68943756
 20
-203.09408121
 10
-97.72513585
 20
-203.05838291
 10
-97.76084532
 20
-203.02267345
 10
-97.79656399
 20
-202.98695478
 10
-97.8322901
 20
-202.95122866
  0
ARC
  5
3BE
100
AcDbEntity
  8
MST_1_1
 62
   137
  6
CONTINUOUS
100
AcDbCircle
 10
-97.60574969
 20
-203.50020969
 30
0.0
 40
0.27000007
100
AcDbArc
 50
77.38755048
 51
192.61243885
  0
LWPOLYLINE
  5
3BF
100
AcDbEntity
  8
MST_1_1
 62
   137
  6
CONTINUOUS
100
AcDbPolyline
 90
        9
 70
     0
 43
0.0
 10
-98.15473074
 20
-203.27366942
 10
-98.119003
 20
-203.30939717
 10
-98.08328294
 20
-203.34511723
 10
-98.04757254
 20
-203.38082763
 10
-98.01187366
 20
-203.4165265
 10
-97.97618852
 20
-203.45221152
 10
-97.94051898
 20
-203.48788118
 10
-97.90486691
 20
-203.52353314
 10
-97.86923451
 20
-203.55916554
  0
ARC
  5
3C0
100
AcDbEntity
  8
MST_1_1
 62
   137
  6
CONTINUOUS
100
AcDbCircle
 10
-98.09577497
 20
-203.01018383
 30
0.0
 40
0.27000082
100
AcDbArc
 50
257.38763285
 51
307.33766874
  0
LWPOLYLINE
  5
3C1
100
AcDbEntity
  8
MST_1_1
 62
   137
  6
CONTINUOUS
100
AcDbPolyline
 90
        9
 70
     0
 43
0.0
 10
-98.31044485
 20
-202.84642635
 10
-98.26315706
 20
-202.89371402
 10
-98.21585577
 20
-202.94101532
 10
-98.16854552
 20
-202.98832569
 10
-98.12123061
 20
-203.03564048
 10
-98.07391581
 20
-203.0829554
 10
-98.02660544
 20
-203.13026565
 10
-97.97930415
 20
-203.17756694
 10
-97.93201648
 20
-203.22485473
  0
ARC
  5
3C2
100
AcDbEntity
  8
MST_1_1
 62
   137
  6
CONTINUOUS
100
AcDbCircle
 10
-98.09577469
 20
-203.01018468
 30
0.0
 40
0.27000013
100
AcDbArc
 50
142.662273
 51
192.61245546
  0
LWPOLYLINE
  5
3C3
100
AcDbEntity
  8
MST_1_1
 62
   137
  6
CONTINUOUS
100
AcDbPolyline
 90
        9
 70
     0
 43
0.0
 10
-98.64475566
 20
-202.78364438
 10
-98.60912326
 20
-202.81927679
 10
-98.5734713
 20
-202.85492886
 10
-98.53780165
 20
-202.8905984
 10
-98.50211663
 20
-202.92628354
 10
-98.46641775
 20
-202.96198241
 10
-98.43070735
 20
-202.99769281
 10
-98.39498729
 20
-203.03341288
 10
-98.35925954
 20
-203.06914062
  0
ARC
  5
3C4
100
AcDbEntity
  8
MST_1_1
 62
   137
  6
CONTINUOUS
100
AcDbCircle
 10
-98.58579956
 20
-202.52015983
 30
0.0
 40
0.26999988
100
AcDbArc
 50
257.38751638
 51
12.61251432
  0
LWPOLYLINE
  5
3C5
100
AcDbEntity
  8
MST_1_1
 62
   137
  6
CONTINUOUS
100
AcDbPolyline
 90
        9
 70
     0
 43
0.0
 10
-98.1752855
 20
-202.82885055
 10
-98.14268502
 20
-202.86145103
 10
-98.11008011
 20
-202.89405594
 10
-98.07747241
 20
-202.92666375
 10
-98.04486309
 20
-202.95927296
 10
-98.01225387
 20
-202.99188229
 10
-97.97964606
 20
-203.02448999
 10
-97.94704115
 20
-203.0570949
 10
-97.91444067
 20
-203.08969538
  0
ARC
  5
3C6
100
AcDbEntity
  8
MST_1_1
 62
   137
  6
CONTINUOUS
100
AcDbCircle
 10
-98.09577485
 20
-203.01018473
 30
0.0
 40
0.19800007
100
AcDbArc
 50
336.32372311
 51
113.6762869
  0
LWPOLYLINE
  5
3C7
100
AcDbEntity
  8
MST_1_1
 62
   137
  6
CONTINUOUS
100
AcDbPolyline
 90
        9
 70
     0
 43
0.0
 10
-98.01626403
 20
-203.19151874
 10
-98.04886451
 20
-203.15891837
 10
-98.0814693
 20
-203.12631347
 10
-98.11407712
 20
-203.09370565
 10
-98.14668645
 20
-203.06109632
 10
-98.17929577
 20
-203.02848699
 10
-98.21190359
 20
-202.99587918
 10
-98.24450849
 20
-202.96327439
 10
-98.27710886
 20
-202.93067391
  0
ARC
  5
3C8
100
AcDbEntity
  8
MST_1_1
 62
   137
  6
CONTINUOUS
100
AcDbCircle
 10
-98.09577473
 20
-203.01018461
 30
0.0
 40
0.19800004
100
AcDbArc
 50
156.32369345
 51
293.67631657
  0
TEXT
  5
3C9
100
AcDbEntity
  8
MST_1_1
 62
     7
100
AcDbText
 10
52.93749597
 20
28.54545025
 30
0.0
 40
5.0
  1
50
  7
ARIAL
 50
89.9999975
 41
0.8
 51
0.0
100
AcDbText
  0
TEXT
  5
3CA
100
AcDbEntity
  8
MST_1_1
 62
     7
100
AcDbText
 10
42.93749597
 20
28.54545025
 30
0.0
 40
5.0
  1
40
  7
ARIAL
 50
89.9999975
 41
0.8
 51
0.0
100
AcDbText
  0
TEXT
  5
3CB
100
AcDbEntity
  8
MST_1_1
 62
     7
100
AcDbText
 10
37.93749597
 20
18.54545025
 30
0.0
 40
5.0
  1
35
  7
ARIAL
 50
89.9999975
 41
0.8
 51
0.0
100
AcDbText
  0
TEXT
  5
3CC
100
AcDbEntity
  8
MST_1_1
 62
     7
100
AcDbText
 10
32.93749597
 20
28.54545025
 30
0.0
 40
5.0
  1
30
  7
ARIAL
 50
89.9999975
 41
0.8
 51
0.0
100
AcDbText
  0
TEXT
  5
3CD
100
AcDbEntity
  8
MST_1_1
 62
     7
100
AcDbText
 10
22.93749597
 20
28.54545025
 30
0.0
 40
5.0
  1
20
  7
ARIAL
 50
89.9999975
 41
0.8
 51
0.0
100
AcDbText
  0
TEXT
  5
3CE
100
AcDbEntity
  8
MST_1_1
 62
     7
100
AcDbText
 10
27.93749597
 20
18.54545025
 30
0.0
 40
5.0
  1
25
  7
ARIAL
 50
89.9999975
 41
0.8
 51
0.0
100
AcDbText
  0
TEXT
  5
3CF
100
AcDbEntity
  8
MST_1_1
 62
     7
100
AcDbText
 10
18.93749597
 20
18.54545025
 30
0.0
 40
5.0
  1
16
  7
ARIAL
 50
89.9999975
 41
0.8
 51
0.0
100
AcDbText
  0
TEXT
  5
3D0
100
AcDbEntity
  8
MST_1_1
 62
     7
100
AcDbText
 10
14.93749597
 20
28.54545025
 30
0.0
 40
5.0
  1
12
  7
ARIAL
 50
89.9999975
 41
0.8
 51
0.0
100
AcDbText
  0
TEXT
  5
3D1
100
AcDbEntity
  8
MST_1_1
 62
     7
100
AcDbText
 10
-85.07629795
 20
6.04545025
 30
0.0
 40
5.0
  1
HECO-FIX-plus LSK 3.5x12
  7
ARIAL
 50
0.0
 41
0.8
 51
0.0
100
AcDbText
  0
TEXT
  5
3D2
100
AcDbEntity
  8
MST_1_1
 62
     7
100
AcDbText
 10
-85.07629795
 20
-23.95454975
 30
0.0
 40
5.0
  1
HECO-FIX-plus LSK 3.5x16
  7
ARIAL
 50
0.0
 41
0.8
 51
0.0
100
AcDbText
  0
TEXT
  5
3D3
100
AcDbEntity
  8
MST_1_1
 62
     7
100
AcDbText
 10
-85.07629795
 20
-53.95454975
 30
0.0
 40
5.0
  1
HECO-FIX-plus LSK 3.5x20
  7
ARIAL
 50
0.0
 41
0.8
 51
0.0
100
AcDbText
  0
TEXT
  5
3D4
100
AcDbEntity
  8
MST_1_1
 62
     7
100
AcDbText
 10
-85.07629795
 20
-83.95454975
 30
0.0
 40
5.0
  1
HECO-FIX-plus LSK 3.5x25
  7
ARIAL
 50
0.0
 41
0.8
 51
0.0
100
AcDbText
  0
TEXT
  5
3D5
100
AcDbEntity
  8
MST_1_1
 62
     7
100
AcDbText
 10
-85.07629795
 20
-113.95454975
 30
0.0
 40
5.0
  1
HECO-FIX-plus LSK 3.5x30
  7
ARIAL
 50
0.0
 41
0.8
 51
0.0
100
AcDbText
  0
TEXT
  5
3D6
100
AcDbEntity
  8
MST_1_1
 62
     7
100
AcDbText
 10
-85.07629795
 20
-143.95454975
 30
0.0
 40
5.0
  1
HECO-FIX-plus LSK 3.5x35
  7
ARIAL
 50
0.0
 41
0.8
 51
0.0
100
AcDbText
  0
TEXT
  5
3D7
100
AcDbEntity
  8
MST_1_1
 62
     7
100
AcDbText
 10
-85.07629795
 20
-173.95454975
 30
0.0
 40
5.0
  1
HECO-FIX-plus LSK 3.5x40
  7
ARIAL
 50
0.0
 41
0.8
 51
0.0
100
AcDbText
  0
TEXT
  5
3D8
100
AcDbEntity
  8
MST_1_1
 62
     7
100
AcDbText
 10
-85.07629795
 20
-203.95454975
 30
0.0
 40
5.0
  1
HECO-FIX-plus LSK 3.5x50
  7
ARIAL
 50
0.0
 41
0.8
 51
0.0
100
AcDbText
  0
TEXT
  5
3D9
100
AcDbEntity
  8
MST_1_1
 62
     7
100
AcDbText
 10
-151.2715462
 20
95.5657199
 30
0.0
 40
20.0
  1
HECO-FIX-plus 3.5mm LSK vernickelt
  7
ARIAL
 50
0.0
 41
1.0
 51
0.0
100
AcDbText
  0
TEXT
  5
3DA
100
AcDbEntity
  8
MST_1_1
 62
     7
100
AcDbText
 10
-151.2715462
 20
45.5657199
 30
0.0
 40
20.0
  1
35.001
  7
ARIAL
 50
0.0
 41
1.0
 51
0.0
100
AcDbText
  0
TEXT
  5
3DB
100
AcDbEntity
  8
MST_1_1
 62
     7
100
AcDbText
 10
-151.2715462
 20
139.94836729
 30
0.0
 40
20.0
  1
Spanplattenschrauben
  7
ARIAL
 50
0.0
 41
1.0
 51
0.0
100
AcDbText
  0
TEXT
  5
3DC
100
AcDbEntity
  8
MST_1_1
 62
     7
100
AcDbText
 10
-134.87228415
 20
6.04545025
 30
0.0
 40
5.0
  1
T-Drive T15
  7
ARIAL
 50
0.0
 41
0.8
 51
0.0
100
AcDbText
  0
TEXT
  5
3DD
100
AcDbEntity
  8
MST_1_1
 62
     7
100
AcDbText
 10
-134.87228415
 20
-6.45454975
 30
0.0
 40
5.0
  1

  7
ARIAL
 50
0.0
 41
0.8
 51
0.0
100
AcDbText
  0
TEXT
  5
3DE
100
AcDbEntity
  8
MST_1_1
 62
     7
100
AcDbText
 10
-134.87228415
 20
-23.95454975
 30
0.0
 40
5.0
  1
T-Drive T15
  7
ARIAL
 50
0.0
 41
0.8
 51
0.0
100
AcDbText
  0
TEXT
  5
3DF
100
AcDbEntity
  8
MST_1_1
 62
     7
100
AcDbText
 10
-134.87228415
 20
-53.95454975
 30
0.0
 40
5.0
  1
T-Drive T15
  7
ARIAL
 50
0.0
 41
0.8
 51
0.0
100
AcDbText
  0
TEXT
  5
3E0
100
AcDbEntity
  8
MST_1_1
 62
     7
100
AcDbText
 10
-134.87228415
 20
-83.95454975
 30
0.0
 40
5.0
  1
T-Drive T15
  7
ARIAL
 50
0.0
 41
0.8
 51
0.0
100
AcDbText
  0
TEXT
  5
3E1
100
AcDbEntity
  8
MST_1_1
 62
     7
100
AcDbText
 10
-134.87228415
 20
-113.95454975
 30
0.0
 40
5.0
  1
T-Drive T15
  7
ARIAL
 50
0.0
 41
0.8
 51
0.0
100
AcDbText
  0
TEXT
  5
3E2
100
AcDbEntity
  8
MST_1_1
 62
     7
100
AcDbText
 10
-134.87228415
 20
-143.95454975
 30
0.0
 40
5.0
  1
T-Drive T15
  7
ARIAL
 50
0.0
 41
0.8
 51
0.0
100
AcDbText
  0
TEXT
  5
3E3
100
AcDbEntity
  8
MST_1_1
 62
     7
100
AcDbText
 10
-134.87228415
 20
-173.95454975
 30
0.0
 40
5.0
  1
T-Drive T15
  7
ARIAL
 50
0.0
 41
0.8
 51
0.0
100
AcDbText
  0
TEXT
  5
3E4
100
AcDbEntity
  8
MST_1_1
 62
     7
100
AcDbText
 10
-134.87228415
 20
-203.95454975
 30
0.0
 40
5.0
  1
T-Drive T15
  7
ARIAL
 50
0.0
 41
0.8
 51
0.0
100
AcDbText
  0
ENDSEC
  0
SECTION
  2
OBJECTS
  0
DICTIONARY
  5
1
100
AcDbDictionary
  3
ACAD_GROUP
350
2
  3
ACAD_MLINESTYLE
350
3
  0
DICTIONARY
  5
2
102
{CDWK_REACTORS
330
1
102
}
100
AcDbDictionary
  0
DICTIONARY
  5
3
102
{CDWK_REACTORS
330
1
102
}
100
AcDbDictionary
  3
STANDARD
350
4
  0
MLINESTYLE
  5
4
102
{CDWK_REACTORS
330
3
102
}
100
AcDbMlineStyle
  2
STANDARD
 70
     0
  3

 62
     0
 51
90.0
 52
90.0
 71
     2
 49
0.5
 62
   256
  6
BYLAYER
 49
-0.5
 62
   256
  6
BYLAYER
  0
ENDSEC
  0
EOF
