  0
SECTION
  2
HEADER
  9
$ACADVER
  1
AC1012
  9
$DWGCODEPAGE
  3
ANSI_1252
  9
$INSBASE
 10
0.0
 20
0.0
 30
0.0
  9
$EXTMIN
 10
-151.04493733
 20
-403.31633507
  9
$EXTMAX
 10
280.75995251
 20
190.68937633
  9
$LIMMIN
 10
-151.04493733
 20
-403.31633507
  9
$LIMMAX
 10
280.75995251
 20
190.68937633
  9
$ORTHOMODE
 70
     0
  9
$REGENMODE
 70
     1
  9
$FILLMODE
 70
     1
  9
$QTEXTMODE
 70
     0
  9
$MIRRTEXT
 70
     1
  9
$DRAGMODE
 70
     2
  9
$LTSCALE
 40
1.0
  9
$OSMODE
 70
     0
  9
$ATTMODE
 70
     1
  9
$TEXTSIZE
 40
3.5
  9
$TRACEWID
 40
1.0
  9
$TEXTSTYLE
  7
STANDARD
  9
$CLAYER
  8
0
  9
$CELTYPE
  6
BYLAYER
  9
$CECOLOR
 62
   256
  9
$DIMSCALE
 40
1.0
  9
$DIMASZ
 40
2.0
  9
$DIMEXO
 40
5.0
  9
$DIMDLI
 40
10.0
  9
$DIMRND
 40
0.0
  9
$DIMDLE
 40
2.0
  9
$DIMEXE
 40
2.0
  9
$DIMTP
 40
0.0
  9
$DIMTM
 40
0.0
  9
$DIMTXT
 40
2.5
  9
$DIMCEN
 40
1.5
  9
$DIMTSZ
 40
0.0
  9
$DIMTOL
 70
     0
  9
$DIMLIM
 70
     0
  9
$DIMTIH
 70
     1
  9
$DIMTOH
 70
     0
  9
$DIMSE1
 70
     0
  9
$DIMSE2
 70
     0
  9
$DIMTAD
 70
     1
  9
$DIMZIN
 70
     8
  9
$DIMBLK
  1

  9
$DIMASO
 70
     1
  9
$DIMSHO
 70
     1
  9
$DIMPOST
  1

  9
$DIMAPOST
  1

  9
$DIMALT
 70
     0
  9
$DIMALTD
 70
     2
  9
$DIMALTF
 40
25.4
  9
$DIMLFAC
 40
1.0
  9
$DIMTOFL
 70
     0
  9
$DIMTVP
 40
0.0
  9
$DIMTIX
 70
     0
  9
$DIMSOXD
 70
     0
  9
$DIMSAH
 70
     0
  9
$DIMBLK1
  1

  9
$DIMBLK2
  1

  9
$DIMSTYLE
  2
*UNNAMED
  9
$DIMCLRD
 70
     9
  9
$DIMCLRE
 70
     9
  9
$DIMCLRT
 70
     7
  9
$DIMTFAC
 40
1.0
  9
$DIMGAP
 40
0.09
  9
$DIMUNIT
 70
     2
  9
$LUNITS
 70
     2
  9
$LUPREC
 70
     6
  9
$AXISMODE
 70
     0
  9
$AXISUNIT
 10
0.0
 20
0.0
  9
$SKETCHINC
 40
0.1
  9
$FILLETRAD
 40
0.0
  9
$AUNITS
 70
     0
  9
$AUPREC
 70
     0
  9
$MENU
  1
ACAD
  9
$ELEVATION
 40
0.0
  9
$PELEVATION
 40
0.0
  9
$THICKNESS
 40
0.0
  9
$LIMCHECK
 70
     0
  9
$BLIPMODE
 70
     1
  9
$CHAMFERA
 40
0.0
  9
$CHAMFERB
 40
0.0
  9
$SKPOLY
 70
     1
  9
$TDCREATE
 40
2456119.0000000000
  9
$TDUPDATE
 40
2456119.0000000000
  9
$TDINDWG
 40
0.0
  9
$TDUSRTIMER
 40
0.0
  9
$USRTIMER
 70
     1
  9
$ANGBASE
 50
0.0
  9
$ANGDIR
 70
     0
  9
$PDMODE
 70
     0
  9
$PDSIZE
 40
0.0
  9
$PLINEWID
 40
0.0
  9
$COORDS
 70
     2
  9
$SPLFRAME
 70
     0
  9
$SPLINETYPE
 70
     6
  9
$SPLINESEGS
 70
     8
  9
$ATTDIA
 70
     1
  9
$ATTREQ
 70
     1
  9
$HANDLING
 70
     1
  9
$HANDSEED
  5
     420
  9
$SURFTAB1
 70
     6
  9
$SURFTAB2
 70
     6
  9
$SURFTYPE
 70
     6
  9
$SURFU
 70
     6
  9
$SURFV
 70
     6
  9
$UCSNAME
  2

  9
$UCSORG
 10
0.0
 20
0.0
 30
0.0
  9
$UCSXDIR
 10
1.0
 20
0.0
 30
0.0
  9
$UCSYDIR
 10
0.0
 20
1.0
 30
0.0
  9
$PUCSNAME
  2

  9
$PUCSORG
 10
0.0
 20
0.0
 30
0.0
  9
$PUCSXDIR
 10
1.0
 20
0.0
 30
0.0
  9
$PUCSYDIR
 10
0.0
 20
1.0
 30
0.0
  9
$USERI1
 70
     0
  9
$USERI2
 70
     0
  9
$USERI3
 70
     0
  9
$USERI4
 70
     0
  9
$USERI5
 70
     0
  9
$USERR1
 40
0.0
  9
$USERR2
 40
0.0
  9
$USERR3
 40
0.0
  9
$USERR4
 40
0.0
  9
$USERR5
 40
0.0
  9
$WORLDVIEW
 70
     1
  9
$SHADEDGE
 70
     3
  9
$SHADEDIF
 70
    70
  9
$TILEMODE
 70
     1
  9
$MAXACTVP
 70
    16
  9
$PINSBASE
 10
0.0
 20
0.0
 30
0.0
  9
$PLIMCHECK
 70
     0
  9
$PEXTMIN
 10
1.0000000000000E+20
 20
1.0000000000000E+20
 30
1.0000000000000E+20
  9
$PEXTMAX
 10
-1.0000000000000E+20
 20
-1.0000000000000E+20
 30
-1.0000000000000E+20
  9
$PLIMMIN
 10
0.0
 20
0.0
  9
$UNITMODE
 70
     0
  9
$VISRETAIN
 70
     0
  9
$MEASUREMENT
 70
     1
  0
ENDSEC
  0
SECTION
  2
TABLES
  0
TABLE
  2
VPORT
  5
37
100
AcDbSymbolTable
 70
     1
  0
ENDTAB
  0
TABLE
  2
STYLE
  5
38
100
AcDbSymbolTable
 70
     4
  0
STYLE
  5
39
100
AcDbSymbolTableRecord
100
AcDbTextStyleTableRecord
  2
STANDARD
 70
     0
 40
0.0
 41
1.0
 50
0.0
 71
     0
 42
3.5
  3
MONOTXT
  4

  0
STYLE
  5
3A
100
AcDbSymbolTableRecord
100
AcDbTextStyleTableRecord
  2
CADWORK1
 70
     0
 40
0.0
 41
1.0
 50
0.0
 71
     0
 42
3.5
  3
MONOTXT
  4

  0
STYLE
  5
3B
100
AcDbSymbolTableRecord
100
AcDbTextStyleTableRecord
  2
MONOTXT
 70
     0
 40
0.0
 41
1.0
 50
0.0
 71
     0
 42
3.5
  3
MONOTXT
  4

  0
STYLE
  5
3C
100
AcDbSymbolTableRecord
100
AcDbTextStyleTableRecord
  2
TAHOMA
 70
     0
 40
0.0
 41
1.0
 50
0.0
 71
     0
 42
3.5
  3

  4

1001
ACAD
1000
Tahoma
1071
        0
  0
STYLE
  5
3D
100
AcDbSymbolTableRecord
100
AcDbTextStyleTableRecord
  2
ARIAL
 70
     0
 40
0.0
 41
1.0
 50
0.0
 71
     0
 42
3.5
  3

  4

1001
ACAD
1000
Arial
1071
        0
  0
ENDTAB
  0
TABLE
  2
LTYPE
  5
3E
100
AcDbSymbolTable
 70
    12
  0
LTYPE
  5
3F
100
AcDbSymbolTableRecord
100
AcDbLinetypeTableRecord
  2
BYBLOCK
 70
    64
  3

 72
    65
 73
     0
 40
0.0
  0
LTYPE
  5
40
100
AcDbSymbolTableRecord
100
AcDbLinetypeTableRecord
  2
BYLAYER
 70
    64
  3

 72
    65
 73
     0
 40
0.0
  0
LTYPE
  5
41
100
AcDbSymbolTableRecord
100
AcDbLinetypeTableRecord
  2
CONTINUOUS
 70
    64
  3
Solid line
 72
    65
 73
     0
 40
0.0
  0
LTYPE
  5
42
100
AcDbSymbolTableRecord
100
AcDbLinetypeTableRecord
  2
DOT
 70
    64
  3
. . . . . . . . . . . . . . . . . . . . . . . .
 72
    65
 73
     2
 40
2.5
 49
0.0
 74
     0
 49
-2.5
 74
     0
  0
LTYPE
  5
43
100
AcDbSymbolTableRecord
100
AcDbLinetypeTableRecord
  2
DASHED
 70
    64
  3
__ __ __ __ __ __ __ __ __ __ __ __ __ __ __ __
 72
    65
 73
     2
 40
7.5
 49
5.0
 74
     0
 49
-2.5
 74
     0
  0
LTYPE
  5
44
100
AcDbSymbolTableRecord
100
AcDbLinetypeTableRecord
  2
BORDER
 70
    64
  3
 __ __ . __ __ . __ __ . __ __ . __ __ . __ __ .
 72
    65
 73
     6
 40
17.0
 49
5.0
 74
     0
 49
-2.0
 74
     0
 49
5.0
 74
     0
 49
-2.0
 74
     0
 49
1.0
 74
     0
 49
-2.0
 74
     0
  0
LTYPE
  5
45
100
AcDbSymbolTableRecord
100
AcDbLinetypeTableRecord
  2
DAL
 70
    64
  3
Solid line (for MAPS)
 72
    65
 73
     0
 40
0.0
  0
LTYPE
  5
46
100
AcDbSymbolTableRecord
100
AcDbLinetypeTableRecord
  2
MUR
 70
    64
  3
Solid line (for MAPS)
 72
    65
 73
     0
 40
0.0
  0
LTYPE
  5
47
100
AcDbSymbolTableRecord
100
AcDbLinetypeTableRecord
  2
SOM
 70
    64
  3
Solid line (for MAPS)
 72
    65
 73
     0
 40
0.0
  0
LTYPE
  5
48
100
AcDbSymbolTableRecord
100
AcDbLinetypeTableRecord
  2
COL
 70
    64
  3
Solid line (for MAPS)
 72
    65
 73
     0
 40
0.0
  0
LTYPE
  5
49
100
AcDbSymbolTableRecord
100
AcDbLinetypeTableRecord
  2
LGN
 70
    64
  3
Solid line (for MAPS)
 72
    65
 73
     0
 40
0.0
  0
LTYPE
  5
4A
100
AcDbSymbolTableRecord
100
AcDbLinetypeTableRecord
  2
PNT
 70
    64
  3
Solid line (for MAPS)
 72
    65
 73
     0
 40
0.0
  0
ENDTAB
  0
TABLE
  2
LAYER
  5
4B
100
AcDbSymbolTable
 70
     1
  0
LAYER
  5
4C
100
AcDbSymbolTableRecord
100
AcDbLayerTableRecord
  2
0
 70
     0
 62
     1
  6
CONTINUOUS
  0
LAYER
  5
4D
100
AcDbSymbolTableRecord
100
AcDbLayerTableRecord
  2
MST_1_1
 70
     0
 62
     7
  6
CONTINUOUS
  0
ENDTAB
  0
TABLE
  2
VIEW
  5
4E
100
AcDbSymbolTable
 70
     0
  0
ENDTAB
  0
TABLE
  2
UCS
  5
4F
100
AcDbSymbolTable
 70
     0
  0
ENDTAB
  0
TABLE
  2
APPID
  5
50
100
AcDbSymbolTable
 70
     1
  0
APPID
  5
51
100
AcDbSymbolTableRecord
100
AcDbRegAppTableRecord
  2
ACAD
 70
     0
  0
ENDTAB
  0
TABLE
  2
DIMSTYLE
  5
52
100
AcDbSymbolTable
 70
     0
  0
ENDTAB
  0
TABLE
  2
BLOCK_RECORD
  5
53
100
AcDbSymbolTable
 70
     0
  0
BLOCK_RECORD
  5
54
100
AcDbSymbolTableRecord
100
AcDbBlockTableRecord
  2
*MODEL_SPACE
  0
BLOCK_RECORD
  5
55
100
AcDbSymbolTableRecord
100
AcDbBlockTableRecord
  2
*PAPER_SPACE
  0
BLOCK_RECORD
  5
56
100
AcDbSymbolTableRecord
100
AcDbBlockTableRecord
  2
CDWK_EXTR_0
  0
BLOCK_RECORD
  5
57
100
AcDbSymbolTableRecord
100
AcDbBlockTableRecord
  2
CDWK_EXTR_1D
  0
BLOCK_RECORD
  5
58
100
AcDbSymbolTableRecord
100
AcDbBlockTableRecord
  2
CDWK_EXTR_1G
  0
BLOCK_RECORD
  5
59
100
AcDbSymbolTableRecord
100
AcDbBlockTableRecord
  2
CDWK_EXTR_2
  0
BLOCK_RECORD
  5
5A
100
AcDbSymbolTableRecord
100
AcDbBlockTableRecord
  2
CDWK_EXTR_3
  0
BLOCK_RECORD
  5
5B
100
AcDbSymbolTableRecord
100
AcDbBlockTableRecord
  2
CDWK_EXTR_4
  0
BLOCK_RECORD
  5
5C
100
AcDbSymbolTableRecord
100
AcDbBlockTableRecord
  2
CDWK_PTTYP0
  0
ENDTAB
  0
ENDSEC
  0
SECTION
  2
BLOCKS
  0
BLOCK
  5
5D
100
AcDbEntity
  8
0
100
AcDbBlockBegin
  2
*MODEL_SPACE
 70
     0
 10
0.0
 20
0.0
 30
0.0
  3
*MODEL_SPACE
  1

  0
ENDBLK
  5
5E
100
AcDbEntity
100
AcDbBlockEnd
  0
BLOCK
  5
5F
100
AcDbEntity
  8
0
100
AcDbBlockBegin
  2
*PAPER_SPACE
 70
     0
 10
0.0
 20
0.0
 30
0.0
  3
*PAPER_SPACE
  1

  0
ENDBLK
  5
60
100
AcDbEntity
100
AcDbBlockEnd
  0
BLOCK
  5
61
100
AcDbEntity
  8
0
100
AcDbBlockBegin
  2
CDWK_EXTR_0
 70
     0
 10
0.0
 20
0.0
 30
0.0
  3
CDWK_EXTR_0
  1

  4
Cadwork line-extremity
  0
LINE
  5
62
100
AcDbEntity
  8
0
 62
     0
100
AcDbLine
 10
0.0
 20
0.0
 30
0.0
 11
2.0
 21
0.5
 31
0.0
  0
LINE
  5
63
100
AcDbEntity
  8
0
 62
     0
100
AcDbLine
 10
0.0
 20
0.0
 30
0.0
 11
2.0
 21
-0.5
 31
0.0
  0
LINE
  5
64
100
AcDbEntity
  8
0
 62
     0
100
AcDbLine
 10
2.0
 20
0.5
 30
0.0
 11
2.0
 21
-0.5
 31
0.0
  0
ENDBLK
  5
65
100
AcDbEntity
100
AcDbBlockEnd
  0
BLOCK
  5
66
100
AcDbEntity
  8
0
100
AcDbBlockBegin
  2
CDWK_EXTR_1D
 70
     0
 10
0.0
 20
0.0
 30
0.0
  3
CDWK_EXTR_1D
  1

  4
Cadwork line-extremity
  0
LINE
  5
67
100
AcDbEntity
  8
0
 62
     0
100
AcDbLine
 10
0.0
 20
0.0
 30
0.0
 11
0.0
 21
1.0
 31
0.0
  0
LINE
  5
68
100
AcDbEntity
  8
0
 62
     0
100
AcDbLine
 10
0.0
 20
1.0
 30
0.0
 11
0.5
 21
1.5
 31
0.0
  0
LINE
  5
69
100
AcDbEntity
  8
0
 62
     0
100
AcDbLine
 10
0.5
 20
1.5
 30
0.0
 11
1.5
 21
1.5
 31
0.0
  0
ENDBLK
  5
6A
100
AcDbEntity
100
AcDbBlockEnd
  0
BLOCK
  5
6B
100
AcDbEntity
  8
0
100
AcDbBlockBegin
  2
CDWK_EXTR_1G
 70
     0
 10
0.0
 20
0.0
 30
0.0
  3
CDWK_EXTR_1G
  1

  4
Cadwork line-extremity
  0
LINE
  5
6C
100
AcDbEntity
  8
0
 62
     0
100
AcDbLine
 10
0.0
 20
0.0
 30
0.0
 11
0.0
 21
-1.0
 31
0.0
  0
LINE
  5
6D
100
AcDbEntity
  8
0
 62
     0
100
AcDbLine
 10
0.0
 20
-1.0
 30
0.0
 11
0.5
 21
-1.5
 31
0.0
  0
LINE
  5
6E
100
AcDbEntity
  8
0
 62
     0
100
AcDbLine
 10
0.5
 20
-1.5
 30
0.0
 11
1.5
 21
-1.5
 31
0.0
  0
ENDBLK
  5
6F
100
AcDbEntity
100
AcDbBlockEnd
  0
BLOCK
  5
70
100
AcDbEntity
  8
0
100
AcDbBlockBegin
  2
CDWK_EXTR_2
 70
     0
 10
0.0
 20
0.0
 30
0.0
  3
CDWK_EXTR_2
  1

  4
Cadwork line-extremity
  0
SOLID
  5
71
100
AcDbEntity
  8
0
 62
     0
100
AcDbTrace
 10
0.0
 20
0.0
 11
2.0
 21
0.5
 12
2.0
 22
-0.5
 13
2.0
 23
-0.5
  0
ENDBLK
  5
72
100
AcDbEntity
100
AcDbBlockEnd
  0
BLOCK
  5
73
100
AcDbEntity
  8
0
100
AcDbBlockBegin
  2
CDWK_EXTR_3
 70
     0
 10
0.0
 20
0.0
 30
0.0
  3
CDWK_EXTR_3
  1

  4
Cadwork line-extremity
  0
SOLID
  5
74
100
AcDbEntity
  8
0
 62
     0
100
AcDbTrace
 10
0.0
 20
0.0
 11
2.0
 21
0.5
 12
2.0
 22
-0.5
 13
2.0
 23
-0.5
  0
LINE
  5
75
100
AcDbEntity
  8
0
 62
     0
100
AcDbLine
 10
0.0
 20
1.0
 30
0.0
 11
0.0
 21
-1.0
 31
0.0
  0
ENDBLK
  5
76
100
AcDbEntity
100
AcDbBlockEnd
  0
BLOCK
  5
77
100
AcDbEntity
  8
0
100
AcDbBlockBegin
  2
CDWK_EXTR_4
 70
     0
 10
0.0
 20
0.0
 30
0.0
  3
CDWK_EXTR_4
  1

  4
Cadwork line-extremity
  0
POLYLINE
  5
78
100
AcDbEntity
  8
0
 62
     0
100
AcDb2dPolyline
 70
     1
 66
     1
 10
0.0
 20
0.0
 30
0.0
 40
0.5
 41
0.5
  0
VERTEX
  5
79
100
AcDbEntity
  8
0
100
AcDbVertex
100
AcDb2dVertex
 10
-0.25
 20
0.0
 30
0.0
 42
1.0
  0
VERTEX
  5
7A
100
AcDbEntity
  8
0
100
AcDbVertex
100
AcDb2dVertex
 10
0.25
 20
0.0
 30
0.0
 42
1.0
  0
SEQEND
  5
7B
100
AcDbEntity
  0
ENDBLK
  5
7C
100
AcDbEntity
100
AcDbBlockEnd
  0
BLOCK
  5
7D
100
AcDbEntity
  8
0
100
AcDbBlockBegin
  2
CDWK_PTTYP0
 70
     0
 10
0.0
 20
0.0
 30
0.0
  3
CDWK_PTTYP0
  1

  4
Cadwork point
  0
POINT
  5
7E
100
AcDbEntity
  8
0
 62
     0
100
AcDbPoint
 10
0.0
 20
0.0
 30
0.0
  0
ENDBLK
  5
7F
100
AcDbEntity
100
AcDbBlockEnd
  0
ENDSEC
  0
SECTION
  2
ENTITIES
  0
LINE
  5
80
100
AcDbEntity
  8
MST_1_1
 62
     7
  6
DASHED
100
AcDbLine
 10
-2.06250403
 20
28.54545025
 30
0.0
 11
-2.06250403
 21
-216.45454975
 31
0.0
  0
LINE
  5
81
100
AcDbEntity
  8
MST_1_1
 62
     7
  6
DASHED
100
AcDbLine
 10
37.93749597
 20
28.54545025
 30
0.0
 11
37.93749597
 21
-186.45454975
 31
0.0
  0
LINE
  5
82
100
AcDbEntity
  8
MST_1_1
 62
     7
  6
DASHED
100
AcDbLine
 10
32.93749597
 20
18.54545025
 30
0.0
 11
32.93749597
 21
-156.45454975
 31
0.0
  0
LINE
  5
83
100
AcDbEntity
  8
MST_1_1
 62
     7
  6
DASHED
100
AcDbLine
 10
27.93749597
 20
28.54545025
 30
0.0
 11
27.93749597
 21
-126.45454975
 31
0.0
  0
LWPOLYLINE
  5
84
100
AcDbEntity
  8
MST_1_1
 62
     1
  6
BORDER
100
AcDbPolyline
 90
        3
 70
     0
 43
0.0
 10
22.93749597
 20
-81.45454975
 10
-2.06250403
 20
-81.45454975
 10
-7.06250403
 20
-81.45454975
  0
LINE
  5
85
100
AcDbEntity
  8
MST_1_1
 62
   137
  6
CONTINUOUS
100
AcDbLine
 10
-2.06250403
 20
-81.45454975
 30
0.0
 11
-2.06250403
 21
-78.50454975
 31
0.0
  0
LINE
  5
86
100
AcDbEntity
  8
MST_1_1
 62
   137
  6
CONTINUOUS
100
AcDbLine
 10
-2.06250403
 20
-78.50454975
 30
0.0
 11
-1.98750405
 21
-78.50454975
 31
0.0
  0
LWPOLYLINE
  5
87
100
AcDbEntity
  8
MST_1_1
 62
   137
  6
CONTINUOUS
100
AcDbPolyline
 90
        6
 70
     0
 43
0.0
 38
2500.0
 10
1.29901688
 20
-79.95454964
 10
1.1660674
 20
-80.52883546
 10
2.29011439
 20
-82.95454975
 10
2.42306393
 20
-82.38026403
 10
1.29901688
 20
-79.95454964
 10
2.29011439
 20
-82.95454975
  0
LINE
  5
88
100
AcDbEntity
  8
MST_1_1
 62
   137
  6
CONTINUOUS
100
AcDbLine
 10
-0.16250403
 20
-80.52883546
 30
2500.0
 11
1.1660674
 21
-80.52883546
 31
2500.0
  0
LWPOLYLINE
  5
89
100
AcDbEntity
  8
MST_1_1
 62
   137
  6
CONTINUOUS
100
AcDbPolyline
 90
        4
 70
     0
 43
0.0
 38
2500.0
 10
0.30971155
 20
-82.38026403
 10
0.57582868
 20
-82.95454975
 10
0.70877821
 20
-82.38026403
 10
0.50936348
 20
-81.94992335
  0
LINE
  5
8A
100
AcDbEntity
  8
MST_1_1
 62
   137
  6
CONTINUOUS
100
AcDbLine
 10
0.35433118
 20
-82.28408844
 30
2500.0
 11
0.57582868
 21
-82.95454975
 31
2500.0
  0
LINE
  5
8B
100
AcDbEntity
  8
MST_1_1
 62
   137
  6
CONTINUOUS
100
AcDbLine
 10
0.30971155
 20
-82.38026403
 30
2500.0
 11
0.50936348
 21
-81.94992335
 31
2500.0
  0
LINE
  5
8C
100
AcDbEntity
  8
MST_1_1
 62
   137
  6
CONTINUOUS
100
AcDbLine
 10
2.02399726
 20
-82.38026403
 30
2500.0
 11
0.70877821
 21
-82.38026403
 31
2500.0
  0
LINE
  5
8D
100
AcDbEntity
  8
MST_1_1
 62
   137
  6
CONTINUOUS
100
AcDbLine
 10
0.30971155
 20
-82.38026403
 30
2500.0
 11
-0.16250403
 21
-82.38026403
 31
2500.0
  0
LINE
  5
8E
100
AcDbEntity
  8
MST_1_1
 62
     7
  6
DASHED
100
AcDbLine
 10
22.93749597
 20
18.54545025
 30
0.0
 11
22.93749597
 21
-96.45454975
 31
0.0
  0
LINE
  5
8F
100
AcDbEntity
  8
MST_1_1
 62
     7
  6
DASHED
100
AcDbLine
 10
17.93749597
 20
28.54545025
 30
0.0
 11
17.93749597
 21
-66.45454975
 31
0.0
  0
LINE
  5
90
100
AcDbEntity
  8
MST_1_1
 62
     7
  6
DASHED
100
AcDbLine
 10
13.93749597
 20
18.54545025
 30
0.0
 11
13.93749597
 21
-36.45454975
 31
0.0
  0
LINE
  5
91
100
AcDbEntity
  8
MST_1_1
 62
     7
  6
DASHED
100
AcDbLine
 10
9.93749597
 20
28.54545025
 30
0.0
 11
9.93749597
 21
-6.45454975
 31
0.0
  0
LINE
  5
92
100
AcDbEntity
  8
MST_1_1
 62
   137
  6
CONTINUOUS
100
AcDbLine
 10
-1.98750405
 20
-78.50454975
 30
0.0
 11
-0.16250403
 21
-80.52883546
 31
0.0
  0
LINE
  5
93
100
AcDbEntity
  8
MST_1_1
 62
   137
  6
CONTINUOUS
100
AcDbLine
 10
-0.16250403
 20
-82.38026403
 30
0.0
 11
-1.98750405
 21
-84.40454975
 31
0.0
  0
LINE
  5
94
100
AcDbEntity
  8
MST_1_1
 62
   137
  6
CONTINUOUS
100
AcDbLine
 10
-1.98750405
 20
-84.40454975
 30
0.0
 11
-2.06250403
 21
-84.40454975
 31
0.0
  0
LINE
  5
95
100
AcDbEntity
  8
MST_1_1
 62
   137
  6
CONTINUOUS
100
AcDbLine
 10
-2.06250403
 20
-84.40454975
 30
0.0
 11
-2.06250403
 21
-81.45454975
 31
0.0
  0
LWPOLYLINE
  5
96
100
AcDbEntity
  8
MST_1_1
 62
   137
  6
CONTINUOUS
100
AcDbPolyline
 90
        6
 70
     0
 43
0.0
 38
2500.0
 10
3.0133026
 20
-79.95454964
 10
2.88035311
 20
-80.52883546
 10
4.00440011
 20
-82.95454975
 10
4.13734964
 20
-82.38026403
 10
3.0133026
 20
-79.95454964
 10
4.00440011
 20
-82.95454975
  0
LWPOLYLINE
  5
97
100
AcDbEntity
  8
MST_1_1
 62
   137
  6
CONTINUOUS
100
AcDbPolyline
 90
        6
 70
     0
 43
0.0
 38
2500.0
 10
4.72758831
 20
-79.95454964
 10
4.59463883
 20
-80.52883546
 10
5.71868582
 20
-82.95454975
 10
5.85163535
 20
-82.38026403
 10
4.72758831
 20
-79.95454964
 10
5.71868582
 20
-82.95454975
  0
LWPOLYLINE
  5
98
100
AcDbEntity
  8
MST_1_1
 62
   137
  6
CONTINUOUS
100
AcDbPolyline
 90
        6
 70
     0
 43
0.0
 38
2500.0
 10
6.44187402
 20
-79.95454964
 10
6.30892454
 20
-80.52883546
 10
7.43297154
 20
-82.95454975
 10
7.56592107
 20
-82.38026403
 10
6.44187402
 20
-79.95454964
 10
7.43297154
 20
-82.95454975
  0
LWPOLYLINE
  5
99
100
AcDbEntity
  8
MST_1_1
 62
   137
  6
CONTINUOUS
100
AcDbPolyline
 90
        6
 70
     0
 43
0.0
 38
2500.0
 10
8.15615974
 20
-79.95454964
 10
8.02321025
 20
-80.52883546
 10
9.14725725
 20
-82.95454975
 10
9.28020678
 20
-82.38026403
 10
8.15615974
 20
-79.95454964
 10
9.14725725
 20
-82.95454975
  0
LWPOLYLINE
  5
9A
100
AcDbEntity
  8
MST_1_1
 62
   137
  6
CONTINUOUS
100
AcDbPolyline
 90
        6
 70
     0
 43
0.0
 38
2500.0
 10
13.29901688
 20
-79.95454964
 10
13.1660674
 20
-80.52883546
 10
14.29011439
 20
-82.95454975
 10
14.42306393
 20
-82.38026403
 10
13.29901688
 20
-79.95454964
 10
14.29011439
 20
-82.95454975
  0
LWPOLYLINE
  5
9B
100
AcDbEntity
  8
MST_1_1
 62
   137
  6
CONTINUOUS
100
AcDbPolyline
 90
        6
 70
     0
 43
0.0
 38
2500.0
 10
15.0133026
 20
-79.95454964
 10
14.88035311
 20
-80.52883546
 10
16.00440011
 20
-82.95454975
 10
16.13734964
 20
-82.38026403
 10
15.0133026
 20
-79.95454964
 10
16.00440011
 20
-82.95454975
  0
LWPOLYLINE
  5
9C
100
AcDbEntity
  8
MST_1_1
 62
   137
  6
CONTINUOUS
100
AcDbPolyline
 90
        6
 70
     0
 43
0.0
 38
2500.0
 10
16.72758831
 20
-79.95454964
 10
16.59463883
 20
-80.52883546
 10
17.71868582
 20
-82.95454975
 10
17.83137886
 20
-82.33655014
 10
16.72758831
 20
-79.95454964
 10
17.71868582
 20
-82.95454975
  0
LWPOLYLINE
  5
9D
100
AcDbEntity
  8
MST_1_1
 62
   137
  6
CONTINUOUS
100
AcDbPolyline
 90
        6
 70
     0
 43
0.0
 38
2500.0
 10
18.41661362
 20
-80.14971192
 10
18.30892454
 20
-80.61488344
 10
19.23718234
 20
-82.61808101
 10
19.34487143
 20
-82.1529095
 10
18.41661362
 20
-80.14971192
 10
19.21940261
 20
-82.57971201
  0
LINE
  5
9E
100
AcDbEntity
  8
MST_1_1
 62
   251
  6
CONTINUOUS
100
AcDbLine
 10
2.42306393
 20
-82.38026403
 30
2500.0
 11
3.73828297
 21
-82.38026403
 31
2500.0
  0
LINE
  5
9F
100
AcDbEntity
  8
MST_1_1
 62
   251
  6
CONTINUOUS
100
AcDbLine
 10
4.13734964
 20
-82.38026403
 30
2500.0
 11
5.45256869
 21
-82.38026403
 31
2500.0
  0
LINE
  5
A0
100
AcDbEntity
  8
MST_1_1
 62
   251
  6
CONTINUOUS
100
AcDbLine
 10
5.85163535
 20
-82.38026403
 30
2500.0
 11
7.1668544
 21
-82.38026403
 31
2500.0
  0
LINE
  5
A1
100
AcDbEntity
  8
MST_1_1
 62
   251
  6
CONTINUOUS
100
AcDbLine
 10
7.56592107
 20
-82.38026403
 30
2500.0
 11
8.88114012
 21
-82.38026403
 31
2500.0
  0
LINE
  5
A2
100
AcDbEntity
  8
MST_1_1
 62
   251
  6
CONTINUOUS
100
AcDbLine
 10
12.70877821
 20
-82.38026403
 30
2500.0
 11
14.02399726
 21
-82.38026403
 31
2500.0
  0
LINE
  5
A3
100
AcDbEntity
  8
MST_1_1
 62
   251
  6
CONTINUOUS
100
AcDbLine
 10
14.42306393
 20
-82.38026403
 30
2500.0
 11
15.73828297
 21
-82.38026403
 31
2500.0
  0
LINE
  5
A4
100
AcDbEntity
  8
MST_1_1
 62
   251
  6
CONTINUOUS
100
AcDbLine
 10
16.13734964
 20
-82.38026403
 30
2500.0
 11
16.99546217
 21
-82.37647309
 31
2500.0
  0
LINE
  5
A5
100
AcDbEntity
  8
MST_1_1
 62
   251
  6
CONTINUOUS
100
AcDbLine
 10
2.88035311
 20
-80.52883546
 30
2500.0
 11
1.56513406
 21
-80.52883546
 31
2500.0
  0
LINE
  5
A6
100
AcDbEntity
  8
MST_1_1
 62
   251
  6
CONTINUOUS
100
AcDbLine
 10
4.59463883
 20
-80.52883546
 30
2500.0
 11
3.27941978
 21
-80.52883546
 31
2500.0
  0
LINE
  5
A7
100
AcDbEntity
  8
MST_1_1
 62
   251
  6
CONTINUOUS
100
AcDbLine
 10
6.30892454
 20
-80.52883546
 30
2500.0
 11
4.99370549
 21
-80.52883546
 31
2500.0
  0
LINE
  5
A8
100
AcDbEntity
  8
MST_1_1
 62
   251
  6
CONTINUOUS
100
AcDbLine
 10
8.02321025
 20
-80.52883546
 30
2500.0
 11
6.70799121
 21
-80.52883546
 31
2500.0
  0
LINE
  5
A9
100
AcDbEntity
  8
MST_1_1
 62
   251
  6
CONTINUOUS
100
AcDbLine
 10
13.1660674
 20
-80.52883546
 30
2500.0
 11
11.85084835
 21
-80.52883546
 31
2500.0
  0
LINE
  5
AA
100
AcDbEntity
  8
MST_1_1
 62
   251
  6
CONTINUOUS
100
AcDbLine
 10
14.88035311
 20
-80.52883546
 30
2500.0
 11
13.56513406
 21
-80.52883546
 31
2500.0
  0
LINE
  5
AB
100
AcDbEntity
  8
MST_1_1
 62
   251
  6
CONTINUOUS
100
AcDbLine
 10
16.59463883
 20
-80.52883546
 30
2500.0
 11
15.27941978
 21
-80.52883546
 31
2500.0
  0
ARC
  5
AC
100
AcDbEntity
  8
MST_1_1
 62
   251
  6
CONTINUOUS
100
AcDbCircle
 10
16.64209713
 20
-96.70275235
 30
2500.0
 40
16.17398651
100
AcDbArc
 50
84.08482032
 51
88.74811714
  0
LWPOLYLINE
  5
AD
100
AcDbEntity
  8
MST_1_1
 62
   251
  6
CONTINUOUS
100
AcDbPolyline
 90
        3
 70
     0
 43
0.0
 38
2500.0
 10
22.93749597
 20
-81.45454975
 10
19.75122202
 20
-80.83041219
 42
0.01723995
 10
18.65025591
 20
-80.65391631
  0
ARC
  5
AE
100
AcDbEntity
  8
MST_1_1
 62
   251
  6
CONTINUOUS
100
AcDbCircle
 10
16.64209713
 20
-66.20634715
 30
2500.0
 40
16.17398651
100
AcDbArc
 50
271.25189287
 51
272.83975061
  0
LWPOLYLINE
  5
AF
100
AcDbEntity
  8
MST_1_1
 62
   251
  6
CONTINUOUS
100
AcDbPolyline
 90
        3
 70
     0
 43
0.0
 38
2500.0
 10
22.93749597
 20
-81.45454975
 10
19.75122202
 20
-82.07868731
 42
-0.0063851
 10
19.34487143
 20
-82.1529095
  0
ARC
  5
B0
100
AcDbEntity
  8
MST_1_1
 62
   251
  6
CONTINUOUS
100
AcDbCircle
 10
16.64209713
 20
-66.20634715
 30
2500.0
 40
16.17398651
100
AcDbArc
 50
274.21680449
 51
278.53995004
  0
LWPOLYLINE
  5
B1
100
AcDbEntity
  8
MST_1_1
 62
   137
  6
CONTINUOUS
100
AcDbPolyline
 90
        6
 70
     0
 43
0.0
 38
2500.0
 10
20.09428505
 20
-80.57667692
 10
20.02321025
 20
-80.88369012
 10
20.6358604
 20
-82.20580051
 10
20.70383049
 20
-81.8920873
 10
20.09428505
 20
-80.57667692
 10
20.62412578
 20
-82.18047697
  0
LINE
  5
B2
100
AcDbEntity
  8
MST_1_1
 62
     7
  6
DASHED
100
AcDbLine
 10
42.93749597
 20
18.54545025
 30
0.0
 11
42.93749597
 21
-216.45454975
 31
0.0
  0
LWPOLYLINE
  5
B3
100
AcDbEntity
  8
MST_1_1
 62
   137
  6
CONTINUOUS
100
AcDbPolyline
 90
        6
 70
     0
 43
0.0
 38
2500.0
 10
9.87044545
 20
-79.95454964
 10
9.73749597
 20
-80.52883546
 10
10.86154296
 20
-82.95454975
 10
10.9944925
 20
-82.38026403
 10
9.87044545
 20
-79.95454964
 10
10.86154296
 20
-82.95454975
  0
LWPOLYLINE
  5
B4
100
AcDbEntity
  8
MST_1_1
 62
   137
  6
CONTINUOUS
100
AcDbPolyline
 90
        6
 70
     0
 43
0.0
 38
2500.0
 10
11.58473117
 20
-79.95454964
 10
11.45178168
 20
-80.52883546
 10
12.57582868
 20
-82.95454975
 10
12.70877821
 20
-82.38026403
 10
11.58473117
 20
-79.95454964
 10
12.57582868
 20
-82.95454975
  0
LINE
  5
B5
100
AcDbEntity
  8
MST_1_1
 62
   251
  6
CONTINUOUS
100
AcDbLine
 10
9.28020678
 20
-82.38026403
 30
2500.0
 11
10.59542583
 21
-82.38026403
 31
2500.0
  0
LINE
  5
B6
100
AcDbEntity
  8
MST_1_1
 62
   251
  6
CONTINUOUS
100
AcDbLine
 10
10.9944925
 20
-82.38026403
 30
2500.0
 11
12.30971155
 21
-82.38026403
 31
2500.0
  0
LINE
  5
B7
100
AcDbEntity
  8
MST_1_1
 62
   251
  6
CONTINUOUS
100
AcDbLine
 10
9.73749597
 20
-80.52883546
 30
2500.0
 11
8.42227692
 21
-80.52883546
 31
2500.0
  0
LINE
  5
B8
100
AcDbEntity
  8
MST_1_1
 62
   251
  6
CONTINUOUS
100
AcDbLine
 10
11.45178168
 20
-80.52883546
 30
2500.0
 11
10.13656263
 21
-80.52883546
 31
2500.0
  0
LWPOLYLINE
  5
B9
100
AcDbEntity
  8
MST_1_1
 62
     1
  6
BORDER
100
AcDbPolyline
 90
        3
 70
     0
 43
0.0
 10
27.93749597
 20
-111.45454975
 10
-2.06250403
 20
-111.45454975
 10
-7.06250403
 20
-111.45454975
  0
LINE
  5
BA
100
AcDbEntity
  8
MST_1_1
 62
   137
  6
CONTINUOUS
100
AcDbLine
 10
-2.06250403
 20
-111.45454975
 30
0.0
 11
-2.06250403
 21
-108.50454975
 31
0.0
  0
LINE
  5
BB
100
AcDbEntity
  8
MST_1_1
 62
   137
  6
CONTINUOUS
100
AcDbLine
 10
-2.06250403
 20
-108.50454975
 30
0.0
 11
-1.98750405
 21
-108.50454975
 31
0.0
  0
LWPOLYLINE
  5
BC
100
AcDbEntity
  8
MST_1_1
 62
   137
  6
CONTINUOUS
100
AcDbPolyline
 90
        6
 70
     0
 43
0.0
 38
2500.0
 10
1.15615974
 20
-109.95454964
 10
1.02321025
 20
-110.52883546
 10
2.14725725
 20
-112.95454975
 10
2.28020678
 20
-112.38026403
 10
1.15615974
 20
-109.95454964
 10
2.14725725
 20
-112.95454975
  0
LINE
  5
BD
100
AcDbEntity
  8
MST_1_1
 62
   137
  6
CONTINUOUS
100
AcDbLine
 10
-0.16250403
 20
-110.52883546
 30
2500.0
 11
1.02321025
 21
-110.52883546
 31
2500.0
  0
LWPOLYLINE
  5
BE
100
AcDbEntity
  8
MST_1_1
 62
   137
  6
CONTINUOUS
100
AcDbPolyline
 90
        4
 70
     0
 43
0.0
 38
2500.0
 10
0.1668544
 20
-112.38026403
 10
0.43297154
 20
-112.95454975
 10
0.56592107
 20
-112.38026403
 10
0.36650634
 20
-111.94992335
  0
LINE
  5
BF
100
AcDbEntity
  8
MST_1_1
 62
   137
  6
CONTINUOUS
100
AcDbLine
 10
0.21147403
 20
-112.28408844
 30
2500.0
 11
0.43297154
 21
-112.95454975
 31
2500.0
  0
LINE
  5
C0
100
AcDbEntity
  8
MST_1_1
 62
   137
  6
CONTINUOUS
100
AcDbLine
 10
0.1668544
 20
-112.38026403
 30
2500.0
 11
0.36650634
 21
-111.94992335
 31
2500.0
  0
LINE
  5
C1
100
AcDbEntity
  8
MST_1_1
 62
   137
  6
CONTINUOUS
100
AcDbLine
 10
1.88114012
 20
-112.38026403
 30
2500.0
 11
0.56592107
 21
-112.38026403
 31
2500.0
  0
LINE
  5
C2
100
AcDbEntity
  8
MST_1_1
 62
   137
  6
CONTINUOUS
100
AcDbLine
 10
0.1668544
 20
-112.38026403
 30
2500.0
 11
-0.16250403
 21
-112.38026403
 31
2500.0
  0
LINE
  5
C3
100
AcDbEntity
  8
MST_1_1
 62
   137
  6
CONTINUOUS
100
AcDbLine
 10
-1.98750405
 20
-108.50454975
 30
0.0
 11
-0.16250403
 21
-110.52883546
 31
0.0
  0
LINE
  5
C4
100
AcDbEntity
  8
MST_1_1
 62
   137
  6
CONTINUOUS
100
AcDbLine
 10
-0.16250403
 20
-112.38026403
 30
0.0
 11
-1.98750405
 21
-114.40454975
 31
0.0
  0
LINE
  5
C5
100
AcDbEntity
  8
MST_1_1
 62
   137
  6
CONTINUOUS
100
AcDbLine
 10
-1.98750405
 20
-114.40454975
 30
0.0
 11
-2.06250403
 21
-114.40454975
 31
0.0
  0
LINE
  5
C6
100
AcDbEntity
  8
MST_1_1
 62
   137
  6
CONTINUOUS
100
AcDbLine
 10
-2.06250403
 20
-114.40454975
 30
0.0
 11
-2.06250403
 21
-111.45454975
 31
0.0
  0
LWPOLYLINE
  5
C7
100
AcDbEntity
  8
MST_1_1
 62
   137
  6
CONTINUOUS
100
AcDbPolyline
 90
        6
 70
     0
 43
0.0
 38
2500.0
 10
2.87044545
 20
-109.95454964
 10
2.73749597
 20
-110.52883546
 10
3.86154296
 20
-112.95454975
 10
3.9944925
 20
-112.38026403
 10
2.87044545
 20
-109.95454964
 10
3.86154296
 20
-112.95454975
  0
LWPOLYLINE
  5
C8
100
AcDbEntity
  8
MST_1_1
 62
   137
  6
CONTINUOUS
100
AcDbPolyline
 90
        6
 70
     0
 43
0.0
 38
2500.0
 10
4.58473117
 20
-109.95454964
 10
4.45178168
 20
-110.52883546
 10
5.57582868
 20
-112.95454975
 10
5.70877821
 20
-112.38026403
 10
4.58473117
 20
-109.95454964
 10
5.57582868
 20
-112.95454975
  0
LWPOLYLINE
  5
C9
100
AcDbEntity
  8
MST_1_1
 62
   137
  6
CONTINUOUS
100
AcDbPolyline
 90
        6
 70
     0
 43
0.0
 38
2500.0
 10
6.29901688
 20
-109.95454964
 10
6.1660674
 20
-110.52883546
 10
7.29011439
 20
-112.95454975
 10
7.42306393
 20
-112.38026403
 10
6.29901688
 20
-109.95454964
 10
7.29011439
 20
-112.95454975
  0
LWPOLYLINE
  5
CA
100
AcDbEntity
  8
MST_1_1
 62
   137
  6
CONTINUOUS
100
AcDbPolyline
 90
        6
 70
     0
 43
0.0
 38
2500.0
 10
8.0133026
 20
-109.95454964
 10
7.88035311
 20
-110.52883546
 10
9.00440011
 20
-112.95454975
 10
9.13734964
 20
-112.38026403
 10
8.0133026
 20
-109.95454964
 10
9.00440011
 20
-112.95454975
  0
LWPOLYLINE
  5
CB
100
AcDbEntity
  8
MST_1_1
 62
   137
  6
CONTINUOUS
100
AcDbPolyline
 90
        6
 70
     0
 43
0.0
 38
2500.0
 10
18.29901688
 20
-109.95454964
 10
18.1660674
 20
-110.52883546
 10
19.29011439
 20
-112.95454975
 10
19.42306393
 20
-112.38026403
 10
18.29901688
 20
-109.95454964
 10
19.29011439
 20
-112.95454975
  0
LWPOLYLINE
  5
CC
100
AcDbEntity
  8
MST_1_1
 62
   137
  6
CONTINUOUS
100
AcDbPolyline
 90
        6
 70
     0
 43
0.0
 38
2500.0
 10
20.0133026
 20
-109.95454964
 10
19.88035311
 20
-110.52883546
 10
21.00440011
 20
-112.95454975
 10
21.13734964
 20
-112.38026403
 10
20.0133026
 20
-109.95454964
 10
21.00440011
 20
-112.95454975
  0
LWPOLYLINE
  5
CD
100
AcDbEntity
  8
MST_1_1
 62
   137
  6
CONTINUOUS
100
AcDbPolyline
 90
        6
 70
     0
 43
0.0
 38
2500.0
 10
21.72758831
 20
-109.95454964
 10
21.59463883
 20
-110.52883546
 10
22.71868582
 20
-112.95454975
 10
22.83137886
 20
-112.33655014
 10
21.72758831
 20
-109.95454964
 10
22.71868582
 20
-112.95454975
  0
LWPOLYLINE
  5
CE
100
AcDbEntity
  8
MST_1_1
 62
   137
  6
CONTINUOUS
100
AcDbPolyline
 90
        6
 70
     0
 43
0.0
 38
2500.0
 10
23.41661362
 20
-110.14971192
 10
23.30892454
 20
-110.61488344
 10
24.23718234
 20
-112.61808101
 10
24.34487143
 20
-112.1529095
 10
23.41661362
 20
-110.14971192
 10
24.21940261
 20
-112.57971201
  0
LINE
  5
CF
100
AcDbEntity
  8
MST_1_1
 62
   251
  6
CONTINUOUS
100
AcDbLine
 10
2.28020678
 20
-112.38026403
 30
2500.0
 11
3.59542583
 21
-112.38026403
 31
2500.0
  0
LINE
  5
D0
100
AcDbEntity
  8
MST_1_1
 62
   251
  6
CONTINUOUS
100
AcDbLine
 10
3.9944925
 20
-112.38026403
 30
2500.0
 11
5.30971155
 21
-112.38026403
 31
2500.0
  0
LINE
  5
D1
100
AcDbEntity
  8
MST_1_1
 62
   251
  6
CONTINUOUS
100
AcDbLine
 10
5.70877821
 20
-112.38026403
 30
2500.0
 11
7.02399726
 21
-112.38026403
 31
2500.0
  0
LINE
  5
D2
100
AcDbEntity
  8
MST_1_1
 62
   251
  6
CONTINUOUS
100
AcDbLine
 10
7.42306393
 20
-112.38026403
 30
2500.0
 11
8.73828297
 21
-112.38026403
 31
2500.0
  0
LINE
  5
D3
100
AcDbEntity
  8
MST_1_1
 62
   251
  6
CONTINUOUS
100
AcDbLine
 10
17.70877821
 20
-112.38026403
 30
2500.0
 11
19.02399726
 21
-112.38026403
 31
2500.0
  0
LINE
  5
D4
100
AcDbEntity
  8
MST_1_1
 62
   251
  6
CONTINUOUS
100
AcDbLine
 10
19.42306393
 20
-112.38026403
 30
2500.0
 11
20.73828297
 21
-112.38026403
 31
2500.0
  0
LINE
  5
D5
100
AcDbEntity
  8
MST_1_1
 62
   251
  6
CONTINUOUS
100
AcDbLine
 10
21.13734964
 20
-112.38026403
 30
2500.0
 11
21.99546217
 21
-112.37647309
 31
2500.0
  0
LINE
  5
D6
100
AcDbEntity
  8
MST_1_1
 62
   251
  6
CONTINUOUS
100
AcDbLine
 10
2.73749597
 20
-110.52883546
 30
2500.0
 11
1.42227692
 21
-110.52883546
 31
2500.0
  0
LINE
  5
D7
100
AcDbEntity
  8
MST_1_1
 62
   251
  6
CONTINUOUS
100
AcDbLine
 10
4.45178168
 20
-110.52883546
 30
2500.0
 11
3.13656263
 21
-110.52883546
 31
2500.0
  0
LINE
  5
D8
100
AcDbEntity
  8
MST_1_1
 62
   251
  6
CONTINUOUS
100
AcDbLine
 10
6.1660674
 20
-110.52883546
 30
2500.0
 11
4.85084835
 21
-110.52883546
 31
2500.0
  0
LINE
  5
D9
100
AcDbEntity
  8
MST_1_1
 62
   251
  6
CONTINUOUS
100
AcDbLine
 10
7.88035311
 20
-110.52883546
 30
2500.0
 11
6.56513406
 21
-110.52883546
 31
2500.0
  0
LINE
  5
DA
100
AcDbEntity
  8
MST_1_1
 62
   251
  6
CONTINUOUS
100
AcDbLine
 10
18.1660674
 20
-110.52883546
 30
2500.0
 11
16.85084835
 21
-110.52883546
 31
2500.0
  0
LINE
  5
DB
100
AcDbEntity
  8
MST_1_1
 62
   251
  6
CONTINUOUS
100
AcDbLine
 10
19.88035311
 20
-110.52883546
 30
2500.0
 11
18.56513406
 21
-110.52883546
 31
2500.0
  0
LINE
  5
DC
100
AcDbEntity
  8
MST_1_1
 62
   251
  6
CONTINUOUS
100
AcDbLine
 10
21.59463883
 20
-110.52883546
 30
2500.0
 11
20.27941978
 21
-110.52883546
 31
2500.0
  0
ARC
  5
DD
100
AcDbEntity
  8
MST_1_1
 62
   251
  6
CONTINUOUS
100
AcDbCircle
 10
21.64209713
 20
-126.70275235
 30
2500.0
 40
16.17398651
100
AcDbArc
 50
84.08482032
 51
88.74811714
  0
LWPOLYLINE
  5
DE
100
AcDbEntity
  8
MST_1_1
 62
   251
  6
CONTINUOUS
100
AcDbPolyline
 90
        3
 70
     0
 43
0.0
 38
2500.0
 10
27.93749597
 20
-111.45454975
 10
24.75122202
 20
-110.83041219
 42
0.01723995
 10
23.65025591
 20
-110.65391631
  0
ARC
  5
DF
100
AcDbEntity
  8
MST_1_1
 62
   251
  6
CONTINUOUS
100
AcDbCircle
 10
21.64209713
 20
-96.20634715
 30
2500.0
 40
16.17398651
100
AcDbArc
 50
271.25189287
 51
272.83975061
  0
LWPOLYLINE
  5
E0
100
AcDbEntity
  8
MST_1_1
 62
   251
  6
CONTINUOUS
100
AcDbPolyline
 90
        3
 70
     0
 43
0.0
 38
2500.0
 10
27.93749597
 20
-111.45454975
 10
24.75122202
 20
-112.07868731
 42
-0.0063851
 10
24.34487143
 20
-112.1529095
  0
ARC
  5
E1
100
AcDbEntity
  8
MST_1_1
 62
   251
  6
CONTINUOUS
100
AcDbCircle
 10
21.64209713
 20
-96.20634715
 30
2500.0
 40
16.17398651
100
AcDbArc
 50
274.21680449
 51
278.53995004
  0
LWPOLYLINE
  5
E2
100
AcDbEntity
  8
MST_1_1
 62
   137
  6
CONTINUOUS
100
AcDbPolyline
 90
        6
 70
     0
 43
0.0
 38
2500.0
 10
25.09428505
 20
-110.57667692
 10
25.02321025
 20
-110.88369012
 10
25.6358604
 20
-112.20580051
 10
25.70383049
 20
-111.8920873
 10
25.09428505
 20
-110.57667692
 10
25.62412578
 20
-112.18047697
  0
LWPOLYLINE
  5
E3
100
AcDbEntity
  8
MST_1_1
 62
   137
  6
CONTINUOUS
100
AcDbPolyline
 90
        6
 70
     0
 43
0.0
 38
2500.0
 10
9.72758831
 20
-109.95454964
 10
9.59463883
 20
-110.52883546
 10
10.71868582
 20
-112.95454975
 10
10.85163535
 20
-112.38026403
 10
9.72758831
 20
-109.95454964
 10
10.71868582
 20
-112.95454975
  0
LWPOLYLINE
  5
E4
100
AcDbEntity
  8
MST_1_1
 62
   137
  6
CONTINUOUS
100
AcDbPolyline
 90
        6
 70
     0
 43
0.0
 38
2500.0
 10
11.44187402
 20
-109.95454964
 10
11.30892454
 20
-110.52883546
 10
12.43297154
 20
-112.95454975
 10
12.56592107
 20
-112.38026403
 10
11.44187402
 20
-109.95454964
 10
12.43297154
 20
-112.95454975
  0
LINE
  5
E5
100
AcDbEntity
  8
MST_1_1
 62
   251
  6
CONTINUOUS
100
AcDbLine
 10
9.13734964
 20
-112.38026403
 30
2500.0
 11
10.45256869
 21
-112.38026403
 31
2500.0
  0
LINE
  5
E6
100
AcDbEntity
  8
MST_1_1
 62
   251
  6
CONTINUOUS
100
AcDbLine
 10
10.85163535
 20
-112.38026403
 30
2500.0
 11
12.1668544
 21
-112.38026403
 31
2500.0
  0
LINE
  5
E7
100
AcDbEntity
  8
MST_1_1
 62
   251
  6
CONTINUOUS
100
AcDbLine
 10
9.59463883
 20
-110.52883546
 30
2500.0
 11
8.27941978
 21
-110.52883546
 31
2500.0
  0
LINE
  5
E8
100
AcDbEntity
  8
MST_1_1
 62
   251
  6
CONTINUOUS
100
AcDbLine
 10
11.30892454
 20
-110.52883546
 30
2500.0
 11
9.99370549
 21
-110.52883546
 31
2500.0
  0
LWPOLYLINE
  5
E9
100
AcDbEntity
  8
MST_1_1
 62
     1
  6
BORDER
100
AcDbPolyline
 90
        3
 70
     0
 43
0.0
 10
32.93749597
 20
-141.45454975
 10
-2.06250403
 20
-141.45454975
 10
-7.06250403
 20
-141.45454975
  0
LINE
  5
EA
100
AcDbEntity
  8
MST_1_1
 62
   137
  6
CONTINUOUS
100
AcDbLine
 10
-2.06250403
 20
-141.45454975
 30
0.0
 11
-2.06250403
 21
-138.50454975
 31
0.0
  0
LINE
  5
EB
100
AcDbEntity
  8
MST_1_1
 62
   137
  6
CONTINUOUS
100
AcDbLine
 10
-2.06250403
 20
-138.50454975
 30
0.0
 11
-1.98750405
 21
-138.50454975
 31
0.0
  0
LWPOLYLINE
  5
EC
100
AcDbEntity
  8
MST_1_1
 62
   137
  6
CONTINUOUS
100
AcDbPolyline
 90
        6
 70
     0
 43
0.0
 38
2500.0
 10
2.72758831
 20
-139.95454964
 10
2.59463883
 20
-140.52883546
 10
3.71868582
 20
-142.95454975
 10
3.85163535
 20
-142.38026403
 10
2.72758831
 20
-139.95454964
 10
3.71868582
 20
-142.95454975
  0
LINE
  5
ED
100
AcDbEntity
  8
MST_1_1
 62
   137
  6
CONTINUOUS
100
AcDbLine
 10
3.45256869
 20
-142.38026403
 30
2500.0
 11
2.13734964
 21
-142.38026403
 31
2500.0
  0
LINE
  5
EE
100
AcDbEntity
  8
MST_1_1
 62
   137
  6
CONTINUOUS
100
AcDbLine
 10
2.59463883
 20
-140.52883546
 30
2500.0
 11
1.27941978
 21
-140.52883546
 31
2500.0
  0
LINE
  5
EF
100
AcDbEntity
  8
MST_1_1
 62
   137
  6
CONTINUOUS
100
AcDbLine
 10
-1.98750405
 20
-138.50454975
 30
0.0
 11
-0.16250403
 21
-140.52883546
 31
0.0
  0
LINE
  5
F0
100
AcDbEntity
  8
MST_1_1
 62
   137
  6
CONTINUOUS
100
AcDbLine
 10
-0.16250403
 20
-142.38026403
 30
0.0
 11
-1.98750405
 21
-144.40454975
 31
0.0
  0
LINE
  5
F1
100
AcDbEntity
  8
MST_1_1
 62
   137
  6
CONTINUOUS
100
AcDbLine
 10
-1.98750405
 20
-144.40454975
 30
0.0
 11
-2.06250403
 21
-144.40454975
 31
0.0
  0
LINE
  5
F2
100
AcDbEntity
  8
MST_1_1
 62
   137
  6
CONTINUOUS
100
AcDbLine
 10
-2.06250403
 20
-144.40454975
 30
0.0
 11
-2.06250403
 21
-141.45454975
 31
0.0
  0
LWPOLYLINE
  5
F3
100
AcDbEntity
  8
MST_1_1
 62
   137
  6
CONTINUOUS
100
AcDbPolyline
 90
        6
 70
     0
 43
0.0
 38
2500.0
 10
4.44187402
 20
-139.95454964
 10
4.30892454
 20
-140.52883546
 10
5.43297154
 20
-142.95454975
 10
5.56592107
 20
-142.38026403
 10
4.44187402
 20
-139.95454964
 10
5.43297154
 20
-142.95454975
  0
LWPOLYLINE
  5
F4
100
AcDbEntity
  8
MST_1_1
 62
   137
  6
CONTINUOUS
100
AcDbPolyline
 90
        6
 70
     0
 43
0.0
 38
2500.0
 10
6.15615974
 20
-139.95454964
 10
6.02321025
 20
-140.52883546
 10
7.14725725
 20
-142.95454975
 10
7.28020678
 20
-142.38026403
 10
6.15615974
 20
-139.95454964
 10
7.14725725
 20
-142.95454975
  0
LWPOLYLINE
  5
F5
100
AcDbEntity
  8
MST_1_1
 62
   137
  6
CONTINUOUS
100
AcDbPolyline
 90
        6
 70
     0
 43
0.0
 38
2500.0
 10
7.87044545
 20
-139.95454964
 10
7.73749597
 20
-140.52883546
 10
8.86154296
 20
-142.95454975
 10
8.9944925
 20
-142.38026403
 10
7.87044545
 20
-139.95454964
 10
8.86154296
 20
-142.95454975
  0
LWPOLYLINE
  5
F6
100
AcDbEntity
  8
MST_1_1
 62
   137
  6
CONTINUOUS
100
AcDbPolyline
 90
        6
 70
     0
 43
0.0
 38
2500.0
 10
9.58473117
 20
-139.95454964
 10
9.45178168
 20
-140.52883546
 10
10.57582868
 20
-142.95454975
 10
10.70877821
 20
-142.38026403
 10
9.58473117
 20
-139.95454964
 10
10.57582868
 20
-142.95454975
  0
LWPOLYLINE
  5
F7
100
AcDbEntity
  8
MST_1_1
 62
   137
  6
CONTINUOUS
100
AcDbPolyline
 90
        6
 70
     0
 43
0.0
 38
2500.0
 10
14.72758831
 20
-139.95454964
 10
14.59463883
 20
-140.52883546
 10
15.71868582
 20
-142.95454975
 10
15.85163535
 20
-142.38026403
 10
14.72758831
 20
-139.95454964
 10
15.71868582
 20
-142.95454975
  0
LWPOLYLINE
  5
F8
100
AcDbEntity
  8
MST_1_1
 62
   137
  6
CONTINUOUS
100
AcDbPolyline
 90
        6
 70
     0
 43
0.0
 38
2500.0
 10
25.0133026
 20
-139.95454964
 10
24.88035311
 20
-140.52883546
 10
26.00440011
 20
-142.95454975
 10
26.13734964
 20
-142.38026403
 10
25.0133026
 20
-139.95454964
 10
26.00440011
 20
-142.95454975
  0
LWPOLYLINE
  5
F9
100
AcDbEntity
  8
MST_1_1
 62
   137
  6
CONTINUOUS
100
AcDbPolyline
 90
        6
 70
     0
 43
0.0
 38
2500.0
 10
26.72758831
 20
-139.95454964
 10
26.59463883
 20
-140.52883546
 10
27.71868582
 20
-142.95454975
 10
27.83137886
 20
-142.33655014
 10
26.72758831
 20
-139.95454964
 10
27.71868582
 20
-142.95454975
  0
LWPOLYLINE
  5
FA
100
AcDbEntity
  8
MST_1_1
 62
   137
  6
CONTINUOUS
100
AcDbPolyline
 90
        6
 70
     0
 43
0.0
 38
2500.0
 10
28.41661362
 20
-140.14971192
 10
28.30892454
 20
-140.61488344
 10
29.23718234
 20
-142.61808101
 10
29.34487143
 20
-142.1529095
 10
28.41661362
 20
-140.14971192
 10
29.21940261
 20
-142.57971201
  0
LINE
  5
FB
100
AcDbEntity
  8
MST_1_1
 62
   251
  6
CONTINUOUS
100
AcDbLine
 10
3.85163535
 20
-142.38026403
 30
2500.0
 11
5.1668544
 21
-142.38026403
 31
2500.0
  0
LINE
  5
FC
100
AcDbEntity
  8
MST_1_1
 62
   251
  6
CONTINUOUS
100
AcDbLine
 10
5.56592107
 20
-142.38026403
 30
2500.0
 11
6.88114012
 21
-142.38026403
 31
2500.0
  0
LINE
  5
FD
100
AcDbEntity
  8
MST_1_1
 62
   251
  6
CONTINUOUS
100
AcDbLine
 10
7.28020678
 20
-142.38026403
 30
2500.0
 11
8.59542583
 21
-142.38026403
 31
2500.0
  0
LINE
  5
FE
100
AcDbEntity
  8
MST_1_1
 62
   251
  6
CONTINUOUS
100
AcDbLine
 10
8.9944925
 20
-142.38026403
 30
2500.0
 11
10.30971155
 21
-142.38026403
 31
2500.0
  0
LINE
  5
FF
100
AcDbEntity
  8
MST_1_1
 62
   251
  6
CONTINUOUS
100
AcDbLine
 10
14.13734964
 20
-142.38026403
 30
2500.0
 11
15.45256869
 21
-142.38026403
 31
2500.0
  0
LINE
  5
100
100
AcDbEntity
  8
MST_1_1
 62
   251
  6
CONTINUOUS
100
AcDbLine
 10
24.42306393
 20
-142.38026403
 30
2500.0
 11
25.73828297
 21
-142.38026403
 31
2500.0
  0
LINE
  5
101
100
AcDbEntity
  8
MST_1_1
 62
   251
  6
CONTINUOUS
100
AcDbLine
 10
26.13734964
 20
-142.38026403
 30
2500.0
 11
26.99546217
 21
-142.37647309
 31
2500.0
  0
LINE
  5
102
100
AcDbEntity
  8
MST_1_1
 62
   251
  6
CONTINUOUS
100
AcDbLine
 10
4.30892454
 20
-140.52883546
 30
2500.0
 11
2.99370549
 21
-140.52883546
 31
2500.0
  0
LINE
  5
103
100
AcDbEntity
  8
MST_1_1
 62
   251
  6
CONTINUOUS
100
AcDbLine
 10
6.02321025
 20
-140.52883546
 30
2500.0
 11
4.70799121
 21
-140.52883546
 31
2500.0
  0
LINE
  5
104
100
AcDbEntity
  8
MST_1_1
 62
   251
  6
CONTINUOUS
100
AcDbLine
 10
7.73749597
 20
-140.52883546
 30
2500.0
 11
6.42227692
 21
-140.52883546
 31
2500.0
  0
LINE
  5
105
100
AcDbEntity
  8
MST_1_1
 62
   251
  6
CONTINUOUS
100
AcDbLine
 10
9.45178168
 20
-140.52883546
 30
2500.0
 11
8.13656263
 21
-140.52883546
 31
2500.0
  0
LINE
  5
106
100
AcDbEntity
  8
MST_1_1
 62
   251
  6
CONTINUOUS
100
AcDbLine
 10
14.59463883
 20
-140.52883546
 30
2500.0
 11
13.27941978
 21
-140.52883546
 31
2500.0
  0
LINE
  5
107
100
AcDbEntity
  8
MST_1_1
 62
   251
  6
CONTINUOUS
100
AcDbLine
 10
24.88035311
 20
-140.52883546
 30
2500.0
 11
23.56513406
 21
-140.52883546
 31
2500.0
  0
LINE
  5
108
100
AcDbEntity
  8
MST_1_1
 62
   251
  6
CONTINUOUS
100
AcDbLine
 10
26.59463883
 20
-140.52883546
 30
2500.0
 11
25.27941978
 21
-140.52883546
 31
2500.0
  0
ARC
  5
109
100
AcDbEntity
  8
MST_1_1
 62
   251
  6
CONTINUOUS
100
AcDbCircle
 10
26.64209713
 20
-156.70275235
 30
2500.0
 40
16.17398651
100
AcDbArc
 50
84.08482032
 51
88.74811714
  0
LWPOLYLINE
  5
10A
100
AcDbEntity
  8
MST_1_1
 62
   251
  6
CONTINUOUS
100
AcDbPolyline
 90
        3
 70
     0
 43
0.0
 38
2500.0
 10
32.93749597
 20
-141.45454975
 10
29.75122202
 20
-140.83041219
 42
0.01723995
 10
28.65025591
 20
-140.65391631
  0
ARC
  5
10B
100
AcDbEntity
  8
MST_1_1
 62
   251
  6
CONTINUOUS
100
AcDbCircle
 10
26.64209713
 20
-126.20634715
 30
2500.0
 40
16.17398651
100
AcDbArc
 50
271.25189287
 51
272.83975061
  0
LWPOLYLINE
  5
10C
100
AcDbEntity
  8
MST_1_1
 62
   251
  6
CONTINUOUS
100
AcDbPolyline
 90
        3
 70
     0
 43
0.0
 38
2500.0
 10
32.93749597
 20
-141.45454975
 10
29.75122202
 20
-142.07868731
 42
-0.0063851
 10
29.34487143
 20
-142.1529095
  0
ARC
  5
10D
100
AcDbEntity
  8
MST_1_1
 62
   251
  6
CONTINUOUS
100
AcDbCircle
 10
26.64209713
 20
-126.20634715
 30
2500.0
 40
16.17398651
100
AcDbArc
 50
274.21680449
 51
278.53995004
  0
LWPOLYLINE
  5
10E
100
AcDbEntity
  8
MST_1_1
 62
   137
  6
CONTINUOUS
100
AcDbPolyline
 90
        6
 70
     0
 43
0.0
 38
2500.0
 10
30.09428505
 20
-140.57667692
 10
30.02321025
 20
-140.88369012
 10
30.6358604
 20
-142.20580051
 10
30.70383049
 20
-141.8920873
 10
30.09428505
 20
-140.57667692
 10
30.62412578
 20
-142.18047697
  0
LWPOLYLINE
  5
10F
100
AcDbEntity
  8
MST_1_1
 62
   137
  6
CONTINUOUS
100
AcDbPolyline
 90
        6
 70
     0
 43
0.0
 38
2500.0
 10
11.29901688
 20
-139.95454964
 10
11.1660674
 20
-140.52883546
 10
12.29011439
 20
-142.95454975
 10
12.42306393
 20
-142.38026403
 10
11.29901688
 20
-139.95454964
 10
12.29011439
 20
-142.95454975
  0
LWPOLYLINE
  5
110
100
AcDbEntity
  8
MST_1_1
 62
   137
  6
CONTINUOUS
100
AcDbPolyline
 90
        6
 70
     0
 43
0.0
 38
2500.0
 10
13.0133026
 20
-139.95454964
 10
12.88035311
 20
-140.52883546
 10
14.00440011
 20
-142.95454975
 10
14.13734964
 20
-142.38026403
 10
13.0133026
 20
-139.95454964
 10
14.00440011
 20
-142.95454975
  0
LINE
  5
111
100
AcDbEntity
  8
MST_1_1
 62
   251
  6
CONTINUOUS
100
AcDbLine
 10
10.70877821
 20
-142.38026403
 30
2500.0
 11
12.02399726
 21
-142.38026403
 31
2500.0
  0
LINE
  5
112
100
AcDbEntity
  8
MST_1_1
 62
   251
  6
CONTINUOUS
100
AcDbLine
 10
12.42306393
 20
-142.38026403
 30
2500.0
 11
13.73828297
 21
-142.38026403
 31
2500.0
  0
LINE
  5
113
100
AcDbEntity
  8
MST_1_1
 62
   251
  6
CONTINUOUS
100
AcDbLine
 10
11.1660674
 20
-140.52883546
 30
2500.0
 11
9.85084835
 21
-140.52883546
 31
2500.0
  0
LINE
  5
114
100
AcDbEntity
  8
MST_1_1
 62
   251
  6
CONTINUOUS
100
AcDbLine
 10
12.88035311
 20
-140.52883546
 30
2500.0
 11
11.56513406
 21
-140.52883546
 31
2500.0
  0
LWPOLYLINE
  5
115
100
AcDbEntity
  8
MST_1_1
 62
     1
  6
BORDER
100
AcDbPolyline
 90
        3
 70
     0
 43
0.0
 10
37.93749597
 20
-171.45454975
 10
-2.06250403
 20
-171.45454975
 10
-7.06250403
 20
-171.45454975
  0
LINE
  5
116
100
AcDbEntity
  8
MST_1_1
 62
   137
  6
CONTINUOUS
100
AcDbLine
 10
-2.06250403
 20
-171.45454975
 30
0.0
 11
-2.06250403
 21
-168.50454975
 31
0.0
  0
LINE
  5
117
100
AcDbEntity
  8
MST_1_1
 62
   137
  6
CONTINUOUS
100
AcDbLine
 10
-2.06250403
 20
-168.50454975
 30
0.0
 11
-1.98750405
 21
-168.50454975
 31
0.0
  0
LWPOLYLINE
  5
118
100
AcDbEntity
  8
MST_1_1
 62
   137
  6
CONTINUOUS
100
AcDbPolyline
 90
        6
 70
     0
 43
0.0
 38
2500.0
 10
2.58473117
 20
-169.95454964
 10
2.45178168
 20
-170.52883546
 10
3.57582868
 20
-172.95454975
 10
3.70877821
 20
-172.38026403
 10
2.58473117
 20
-169.95454964
 10
3.57582868
 20
-172.95454975
  0
LINE
  5
119
100
AcDbEntity
  8
MST_1_1
 62
   137
  6
CONTINUOUS
100
AcDbLine
 10
-0.16250403
 20
-170.52883546
 30
2500.0
 11
2.45178168
 21
-170.52883546
 31
2500.0
  0
LWPOLYLINE
  5
11A
100
AcDbEntity
  8
MST_1_1
 62
   137
  6
CONTINUOUS
100
AcDbPolyline
 90
        4
 70
     0
 43
0.0
 38
2500.0
 10
1.59542583
 20
-172.38026403
 10
1.86154296
 20
-172.95454975
 10
1.9944925
 20
-172.38026403
 10
1.79507777
 20
-171.94992335
  0
LINE
  5
11B
100
AcDbEntity
  8
MST_1_1
 62
   137
  6
CONTINUOUS
100
AcDbLine
 10
1.64004546
 20
-172.28408844
 30
2500.0
 11
1.86154296
 21
-172.95454975
 31
2500.0
  0
LINE
  5
11C
100
AcDbEntity
  8
MST_1_1
 62
   137
  6
CONTINUOUS
100
AcDbLine
 10
1.59542583
 20
-172.38026403
 30
2500.0
 11
1.79507777
 21
-171.94992335
 31
2500.0
  0
LINE
  5
11D
100
AcDbEntity
  8
MST_1_1
 62
   137
  6
CONTINUOUS
100
AcDbLine
 10
3.30971155
 20
-172.38026403
 30
2500.0
 11
1.9944925
 21
-172.38026403
 31
2500.0
  0
LINE
  5
11E
100
AcDbEntity
  8
MST_1_1
 62
   137
  6
CONTINUOUS
100
AcDbLine
 10
1.59542583
 20
-172.38026403
 30
2500.0
 11
-0.16250403
 21
-172.38026403
 31
2500.0
  0
LINE
  5
11F
100
AcDbEntity
  8
MST_1_1
 62
   137
  6
CONTINUOUS
100
AcDbLine
 10
-1.98750405
 20
-168.50454975
 30
0.0
 11
-0.16250403
 21
-170.52883546
 31
0.0
  0
LINE
  5
120
100
AcDbEntity
  8
MST_1_1
 62
   137
  6
CONTINUOUS
100
AcDbLine
 10
-0.16250403
 20
-172.38026403
 30
0.0
 11
-1.98750405
 21
-174.40454975
 31
0.0
  0
LINE
  5
121
100
AcDbEntity
  8
MST_1_1
 62
   137
  6
CONTINUOUS
100
AcDbLine
 10
-1.98750405
 20
-174.40454975
 30
0.0
 11
-2.06250403
 21
-174.40454975
 31
0.0
  0
LINE
  5
122
100
AcDbEntity
  8
MST_1_1
 62
   137
  6
CONTINUOUS
100
AcDbLine
 10
-2.06250403
 20
-174.40454975
 30
0.0
 11
-2.06250403
 21
-171.45454975
 31
0.0
  0
LWPOLYLINE
  5
123
100
AcDbEntity
  8
MST_1_1
 62
   137
  6
CONTINUOUS
100
AcDbPolyline
 90
        6
 70
     0
 43
0.0
 38
2500.0
 10
4.29901688
 20
-169.95454964
 10
4.1660674
 20
-170.52883546
 10
5.29011439
 20
-172.95454975
 10
5.42306393
 20
-172.38026403
 10
4.29901688
 20
-169.95454964
 10
5.29011439
 20
-172.95454975
  0
LWPOLYLINE
  5
124
100
AcDbEntity
  8
MST_1_1
 62
   137
  6
CONTINUOUS
100
AcDbPolyline
 90
        6
 70
     0
 43
0.0
 38
2500.0
 10
6.0133026
 20
-169.95454964
 10
5.88035311
 20
-170.52883546
 10
7.00440011
 20
-172.95454975
 10
7.13734964
 20
-172.38026403
 10
6.0133026
 20
-169.95454964
 10
7.00440011
 20
-172.95454975
  0
LWPOLYLINE
  5
125
100
AcDbEntity
  8
MST_1_1
 62
   137
  6
CONTINUOUS
100
AcDbPolyline
 90
        6
 70
     0
 43
0.0
 38
2500.0
 10
7.72758831
 20
-169.95454964
 10
7.59463883
 20
-170.52883546
 10
8.71868582
 20
-172.95454975
 10
8.85163535
 20
-172.38026403
 10
7.72758831
 20
-169.95454964
 10
8.71868582
 20
-172.95454975
  0
LWPOLYLINE
  5
126
100
AcDbEntity
  8
MST_1_1
 62
   137
  6
CONTINUOUS
100
AcDbPolyline
 90
        6
 70
     0
 43
0.0
 38
2500.0
 10
9.44187402
 20
-169.95454964
 10
9.30892454
 20
-170.52883546
 10
10.43297154
 20
-172.95454975
 10
10.56592107
 20
-172.38026403
 10
9.44187402
 20
-169.95454964
 10
10.43297154
 20
-172.95454975
  0
LWPOLYLINE
  5
127
100
AcDbEntity
  8
MST_1_1
 62
   137
  6
CONTINUOUS
100
AcDbPolyline
 90
        6
 70
     0
 43
0.0
 38
2500.0
 10
14.58473117
 20
-169.95454964
 10
14.45178168
 20
-170.52883546
 10
15.57582868
 20
-172.95454975
 10
15.70877821
 20
-172.38026403
 10
14.58473117
 20
-169.95454964
 10
15.57582868
 20
-172.95454975
  0
LWPOLYLINE
  5
128
100
AcDbEntity
  8
MST_1_1
 62
   137
  6
CONTINUOUS
100
AcDbPolyline
 90
        6
 70
     0
 43
0.0
 38
2500.0
 10
30.0133026
 20
-169.95454964
 10
29.88035311
 20
-170.52883546
 10
31.00440011
 20
-172.95454975
 10
31.13734964
 20
-172.38026403
 10
30.0133026
 20
-169.95454964
 10
31.00440011
 20
-172.95454975
  0
LWPOLYLINE
  5
129
100
AcDbEntity
  8
MST_1_1
 62
   137
  6
CONTINUOUS
100
AcDbPolyline
 90
        6
 70
     0
 43
0.0
 38
2500.0
 10
31.72758831
 20
-169.95454964
 10
31.59463883
 20
-170.52883546
 10
32.71868582
 20
-172.95454975
 10
32.83137886
 20
-172.33655014
 10
31.72758831
 20
-169.95454964
 10
32.71868582
 20
-172.95454975
  0
LWPOLYLINE
  5
12A
100
AcDbEntity
  8
MST_1_1
 62
   137
  6
CONTINUOUS
100
AcDbPolyline
 90
        6
 70
     0
 43
0.0
 38
2500.0
 10
33.41661362
 20
-170.14971192
 10
33.30892454
 20
-170.61488344
 10
34.23718234
 20
-172.61808101
 10
34.34487143
 20
-172.1529095
 10
33.41661362
 20
-170.14971192
 10
34.21940261
 20
-172.57971201
  0
LINE
  5
12B
100
AcDbEntity
  8
MST_1_1
 62
   251
  6
CONTINUOUS
100
AcDbLine
 10
3.70877821
 20
-172.38026403
 30
2500.0
 11
5.02399726
 21
-172.38026403
 31
2500.0
  0
LINE
  5
12C
100
AcDbEntity
  8
MST_1_1
 62
   251
  6
CONTINUOUS
100
AcDbLine
 10
5.42306393
 20
-172.38026403
 30
2500.0
 11
6.73828297
 21
-172.38026403
 31
2500.0
  0
LINE
  5
12D
100
AcDbEntity
  8
MST_1_1
 62
   251
  6
CONTINUOUS
100
AcDbLine
 10
7.13734964
 20
-172.38026403
 30
2500.0
 11
8.45256869
 21
-172.38026403
 31
2500.0
  0
LINE
  5
12E
100
AcDbEntity
  8
MST_1_1
 62
   251
  6
CONTINUOUS
100
AcDbLine
 10
8.85163535
 20
-172.38026403
 30
2500.0
 11
10.1668544
 21
-172.38026403
 31
2500.0
  0
LINE
  5
12F
100
AcDbEntity
  8
MST_1_1
 62
   251
  6
CONTINUOUS
100
AcDbLine
 10
13.9944925
 20
-172.38026403
 30
2500.0
 11
15.30971155
 21
-172.38026403
 31
2500.0
  0
LINE
  5
130
100
AcDbEntity
  8
MST_1_1
 62
   251
  6
CONTINUOUS
100
AcDbLine
 10
29.42306393
 20
-172.38026403
 30
2500.0
 11
30.73828297
 21
-172.38026403
 31
2500.0
  0
LINE
  5
131
100
AcDbEntity
  8
MST_1_1
 62
   251
  6
CONTINUOUS
100
AcDbLine
 10
31.13734964
 20
-172.38026403
 30
2500.0
 11
31.99546217
 21
-172.37647309
 31
2500.0
  0
LINE
  5
132
100
AcDbEntity
  8
MST_1_1
 62
   251
  6
CONTINUOUS
100
AcDbLine
 10
4.1660674
 20
-170.52883546
 30
2500.0
 11
2.85084835
 21
-170.52883546
 31
2500.0
  0
LINE
  5
133
100
AcDbEntity
  8
MST_1_1
 62
   251
  6
CONTINUOUS
100
AcDbLine
 10
5.88035311
 20
-170.52883546
 30
2500.0
 11
4.56513406
 21
-170.52883546
 31
2500.0
  0
LINE
  5
134
100
AcDbEntity
  8
MST_1_1
 62
   251
  6
CONTINUOUS
100
AcDbLine
 10
7.59463883
 20
-170.52883546
 30
2500.0
 11
6.27941978
 21
-170.52883546
 31
2500.0
  0
LINE
  5
135
100
AcDbEntity
  8
MST_1_1
 62
   251
  6
CONTINUOUS
100
AcDbLine
 10
9.30892454
 20
-170.52883546
 30
2500.0
 11
7.99370549
 21
-170.52883546
 31
2500.0
  0
LINE
  5
136
100
AcDbEntity
  8
MST_1_1
 62
   251
  6
CONTINUOUS
100
AcDbLine
 10
14.45178168
 20
-170.52883546
 30
2500.0
 11
13.13656263
 21
-170.52883546
 31
2500.0
  0
LINE
  5
137
100
AcDbEntity
  8
MST_1_1
 62
   251
  6
CONTINUOUS
100
AcDbLine
 10
29.88035311
 20
-170.52883546
 30
2500.0
 11
28.56513406
 21
-170.52883546
 31
2500.0
  0
LINE
  5
138
100
AcDbEntity
  8
MST_1_1
 62
   251
  6
CONTINUOUS
100
AcDbLine
 10
31.59463883
 20
-170.52883546
 30
2500.0
 11
30.27941978
 21
-170.52883546
 31
2500.0
  0
ARC
  5
139
100
AcDbEntity
  8
MST_1_1
 62
   251
  6
CONTINUOUS
100
AcDbCircle
 10
31.64209713
 20
-186.70275235
 30
2500.0
 40
16.17398651
100
AcDbArc
 50
84.08482032
 51
88.74811714
  0
LWPOLYLINE
  5
13A
100
AcDbEntity
  8
MST_1_1
 62
   251
  6
CONTINUOUS
100
AcDbPolyline
 90
        3
 70
     0
 43
0.0
 38
2500.0
 10
37.93749597
 20
-171.45454975
 10
34.75122202
 20
-170.83041219
 42
0.01723995
 10
33.65025591
 20
-170.65391631
  0
ARC
  5
13B
100
AcDbEntity
  8
MST_1_1
 62
   251
  6
CONTINUOUS
100
AcDbCircle
 10
31.64209713
 20
-156.20634715
 30
2500.0
 40
16.17398651
100
AcDbArc
 50
271.25189287
 51
272.83975061
  0
LWPOLYLINE
  5
13C
100
AcDbEntity
  8
MST_1_1
 62
   251
  6
CONTINUOUS
100
AcDbPolyline
 90
        3
 70
     0
 43
0.0
 38
2500.0
 10
37.93749597
 20
-171.45454975
 10
34.75122202
 20
-172.07868731
 42
-0.0063851
 10
34.34487143
 20
-172.1529095
  0
ARC
  5
13D
100
AcDbEntity
  8
MST_1_1
 62
   251
  6
CONTINUOUS
100
AcDbCircle
 10
31.64209713
 20
-156.20634715
 30
2500.0
 40
16.17398651
100
AcDbArc
 50
274.21680449
 51
278.53995004
  0
LWPOLYLINE
  5
13E
100
AcDbEntity
  8
MST_1_1
 62
   137
  6
CONTINUOUS
100
AcDbPolyline
 90
        6
 70
     0
 43
0.0
 38
2500.0
 10
35.09428505
 20
-170.57667692
 10
35.02321025
 20
-170.88369012
 10
35.6358604
 20
-172.20580051
 10
35.70383049
 20
-171.8920873
 10
35.09428505
 20
-170.57667692
 10
35.62412578
 20
-172.18047697
  0
LWPOLYLINE
  5
13F
100
AcDbEntity
  8
MST_1_1
 62
   137
  6
CONTINUOUS
100
AcDbPolyline
 90
        6
 70
     0
 43
0.0
 38
2500.0
 10
11.15615974
 20
-169.95454964
 10
11.02321025
 20
-170.52883546
 10
12.14725725
 20
-172.95454975
 10
12.28020678
 20
-172.38026403
 10
11.15615974
 20
-169.95454964
 10
12.14725725
 20
-172.95454975
  0
LWPOLYLINE
  5
140
100
AcDbEntity
  8
MST_1_1
 62
   137
  6
CONTINUOUS
100
AcDbPolyline
 90
        6
 70
     0
 43
0.0
 38
2500.0
 10
12.87044545
 20
-169.95454964
 10
12.73749597
 20
-170.52883546
 10
13.86154296
 20
-172.95454975
 10
13.9944925
 20
-172.38026403
 10
12.87044545
 20
-169.95454964
 10
13.86154296
 20
-172.95454975
  0
LINE
  5
141
100
AcDbEntity
  8
MST_1_1
 62
   251
  6
CONTINUOUS
100
AcDbLine
 10
10.56592107
 20
-172.38026403
 30
2500.0
 11
11.88114012
 21
-172.38026403
 31
2500.0
  0
LINE
  5
142
100
AcDbEntity
  8
MST_1_1
 62
   251
  6
CONTINUOUS
100
AcDbLine
 10
12.28020678
 20
-172.38026403
 30
2500.0
 11
13.59542583
 21
-172.38026403
 31
2500.0
  0
LINE
  5
143
100
AcDbEntity
  8
MST_1_1
 62
   251
  6
CONTINUOUS
100
AcDbLine
 10
11.02321025
 20
-170.52883546
 30
2500.0
 11
9.70799121
 21
-170.52883546
 31
2500.0
  0
LINE
  5
144
100
AcDbEntity
  8
MST_1_1
 62
   251
  6
CONTINUOUS
100
AcDbLine
 10
12.73749597
 20
-170.52883546
 30
2500.0
 11
11.42227692
 21
-170.52883546
 31
2500.0
  0
LWPOLYLINE
  5
145
100
AcDbEntity
  8
MST_1_1
 62
     1
  6
BORDER
100
AcDbPolyline
 90
        3
 70
     0
 43
0.0
 10
42.93749597
 20
-201.45454975
 10
-2.06250403
 20
-201.45454975
 10
-7.06250403
 20
-201.45454975
  0
LINE
  5
146
100
AcDbEntity
  8
MST_1_1
 62
   137
  6
CONTINUOUS
100
AcDbLine
 10
-2.06250403
 20
-201.45454975
 30
0.0
 11
-2.06250403
 21
-198.50454975
 31
0.0
  0
LINE
  5
147
100
AcDbEntity
  8
MST_1_1
 62
   137
  6
CONTINUOUS
100
AcDbLine
 10
-2.06250403
 20
-198.50454975
 30
0.0
 11
-1.98750405
 21
-198.50454975
 31
0.0
  0
LWPOLYLINE
  5
148
100
AcDbEntity
  8
MST_1_1
 62
   137
  6
CONTINUOUS
100
AcDbPolyline
 90
        6
 70
     0
 43
0.0
 38
2500.0
 10
2.44187402
 20
-199.95454964
 10
2.30892454
 20
-200.52883546
 10
3.43297154
 20
-202.95454975
 10
3.56592107
 20
-202.38026403
 10
2.44187402
 20
-199.95454964
 10
3.43297154
 20
-202.95454975
  0
LINE
  5
149
100
AcDbEntity
  8
MST_1_1
 62
   137
  6
CONTINUOUS
100
AcDbLine
 10
-0.16250403
 20
-200.52883546
 30
2500.0
 11
2.30892454
 21
-200.52883546
 31
2500.0
  0
LWPOLYLINE
  5
14A
100
AcDbEntity
  8
MST_1_1
 62
   137
  6
CONTINUOUS
100
AcDbPolyline
 90
        4
 70
     0
 43
0.0
 38
2500.0
 10
1.45256869
 20
-202.38026403
 10
1.71868582
 20
-202.95454975
 10
1.85163535
 20
-202.38026403
 10
1.65222063
 20
-201.94992335
  0
LINE
  5
14B
100
AcDbEntity
  8
MST_1_1
 62
   137
  6
CONTINUOUS
100
AcDbLine
 10
1.49718832
 20
-202.28408844
 30
2500.0
 11
1.71868582
 21
-202.95454975
 31
2500.0
  0
LINE
  5
14C
100
AcDbEntity
  8
MST_1_1
 62
   137
  6
CONTINUOUS
100
AcDbLine
 10
1.45256869
 20
-202.38026403
 30
2500.0
 11
1.65222063
 21
-201.94992335
 31
2500.0
  0
LINE
  5
14D
100
AcDbEntity
  8
MST_1_1
 62
   137
  6
CONTINUOUS
100
AcDbLine
 10
3.1668544
 20
-202.38026403
 30
2500.0
 11
1.85163535
 21
-202.38026403
 31
2500.0
  0
LINE
  5
14E
100
AcDbEntity
  8
MST_1_1
 62
   137
  6
CONTINUOUS
100
AcDbLine
 10
1.45256869
 20
-202.38026403
 30
2500.0
 11
-0.16250403
 21
-202.38026403
 31
2500.0
  0
LINE
  5
14F
100
AcDbEntity
  8
MST_1_1
 62
   137
  6
CONTINUOUS
100
AcDbLine
 10
-1.98750405
 20
-198.50454975
 30
0.0
 11
-0.16250403
 21
-200.52883546
 31
0.0
  0
LINE
  5
150
100
AcDbEntity
  8
MST_1_1
 62
   137
  6
CONTINUOUS
100
AcDbLine
 10
-0.16250403
 20
-202.38026403
 30
0.0
 11
-1.98750405
 21
-204.40454975
 31
0.0
  0
LINE
  5
151
100
AcDbEntity
  8
MST_1_1
 62
   137
  6
CONTINUOUS
100
AcDbLine
 10
-1.98750405
 20
-204.40454975
 30
0.0
 11
-2.06250403
 21
-204.40454975
 31
0.0
  0
LINE
  5
152
100
AcDbEntity
  8
MST_1_1
 62
   137
  6
CONTINUOUS
100
AcDbLine
 10
-2.06250403
 20
-204.40454975
 30
0.0
 11
-2.06250403
 21
-201.45454975
 31
0.0
  0
LWPOLYLINE
  5
153
100
AcDbEntity
  8
MST_1_1
 62
   137
  6
CONTINUOUS
100
AcDbPolyline
 90
        6
 70
     0
 43
0.0
 38
2500.0
 10
4.15615974
 20
-199.95454964
 10
4.02321025
 20
-200.52883546
 10
5.14725725
 20
-202.95454975
 10
5.28020678
 20
-202.38026403
 10
4.15615974
 20
-199.95454964
 10
5.14725725
 20
-202.95454975
  0
LWPOLYLINE
  5
154
100
AcDbEntity
  8
MST_1_1
 62
   137
  6
CONTINUOUS
100
AcDbPolyline
 90
        6
 70
     0
 43
0.0
 38
2500.0
 10
5.87044545
 20
-199.95454964
 10
5.73749597
 20
-200.52883546
 10
6.86154296
 20
-202.95454975
 10
6.9944925
 20
-202.38026403
 10
5.87044545
 20
-199.95454964
 10
6.86154296
 20
-202.95454975
  0
LWPOLYLINE
  5
155
100
AcDbEntity
  8
MST_1_1
 62
   137
  6
CONTINUOUS
100
AcDbPolyline
 90
        6
 70
     0
 43
0.0
 38
2500.0
 10
7.58473117
 20
-199.95454964
 10
7.45178168
 20
-200.52883546
 10
8.57582868
 20
-202.95454975
 10
8.70877821
 20
-202.38026403
 10
7.58473117
 20
-199.95454964
 10
8.57582868
 20
-202.95454975
  0
LWPOLYLINE
  5
156
100
AcDbEntity
  8
MST_1_1
 62
   137
  6
CONTINUOUS
100
AcDbPolyline
 90
        6
 70
     0
 43
0.0
 38
2500.0
 10
9.29901688
 20
-199.95454964
 10
9.1660674
 20
-200.52883546
 10
10.29011439
 20
-202.95454975
 10
10.42306393
 20
-202.38026403
 10
9.29901688
 20
-199.95454964
 10
10.29011439
 20
-202.95454975
  0
LWPOLYLINE
  5
157
100
AcDbEntity
  8
MST_1_1
 62
   137
  6
CONTINUOUS
100
AcDbPolyline
 90
        6
 70
     0
 43
0.0
 38
2500.0
 10
14.44187402
 20
-199.95454964
 10
14.30892454
 20
-200.52883546
 10
15.43297154
 20
-202.95454975
 10
15.56592107
 20
-202.38026403
 10
14.44187402
 20
-199.95454964
 10
15.43297154
 20
-202.95454975
  0
LWPOLYLINE
  5
158
100
AcDbEntity
  8
MST_1_1
 62
   137
  6
CONTINUOUS
100
AcDbPolyline
 90
        6
 70
     0
 43
0.0
 38
2500.0
 10
16.15615974
 20
-199.95454964
 10
16.02321025
 20
-200.52883546
 10
17.14725725
 20
-202.95454975
 10
17.28020678
 20
-202.38026403
 10
16.15615974
 20
-199.95454964
 10
17.14725725
 20
-202.95454975
  0
LWPOLYLINE
  5
159
100
AcDbEntity
  8
MST_1_1
 62
   137
  6
CONTINUOUS
100
AcDbPolyline
 90
        6
 70
     0
 43
0.0
 38
2500.0
 10
36.72758831
 20
-199.95454964
 10
36.59463883
 20
-200.52883546
 10
37.71868582
 20
-202.95454975
 10
37.83137886
 20
-202.33655014
 10
36.72758831
 20
-199.95454964
 10
37.71868582
 20
-202.95454975
  0
LWPOLYLINE
  5
15A
100
AcDbEntity
  8
MST_1_1
 62
   137
  6
CONTINUOUS
100
AcDbPolyline
 90
        6
 70
     0
 43
0.0
 38
2500.0
 10
38.41661362
 20
-200.14971192
 10
38.30892454
 20
-200.61488344
 10
39.23718234
 20
-202.61808101
 10
39.34487143
 20
-202.1529095
 10
38.41661362
 20
-200.14971192
 10
39.21940261
 20
-202.57971201
  0
LINE
  5
15B
100
AcDbEntity
  8
MST_1_1
 62
   251
  6
CONTINUOUS
100
AcDbLine
 10
3.56592107
 20
-202.38026403
 30
2500.0
 11
4.88114012
 21
-202.38026403
 31
2500.0
  0
LINE
  5
15C
100
AcDbEntity
  8
MST_1_1
 62
   251
  6
CONTINUOUS
100
AcDbLine
 10
5.28020678
 20
-202.38026403
 30
2500.0
 11
6.59542583
 21
-202.38026403
 31
2500.0
  0
LINE
  5
15D
100
AcDbEntity
  8
MST_1_1
 62
   251
  6
CONTINUOUS
100
AcDbLine
 10
6.9944925
 20
-202.38026403
 30
2500.0
 11
8.30971155
 21
-202.38026403
 31
2500.0
  0
LINE
  5
15E
100
AcDbEntity
  8
MST_1_1
 62
   251
  6
CONTINUOUS
100
AcDbLine
 10
8.70877821
 20
-202.38026403
 30
2500.0
 11
10.02399726
 21
-202.38026403
 31
2500.0
  0
LINE
  5
15F
100
AcDbEntity
  8
MST_1_1
 62
   251
  6
CONTINUOUS
100
AcDbLine
 10
13.85163535
 20
-202.38026403
 30
2500.0
 11
15.1668544
 21
-202.38026403
 31
2500.0
  0
LINE
  5
160
100
AcDbEntity
  8
MST_1_1
 62
   251
  6
CONTINUOUS
100
AcDbLine
 10
15.56592107
 20
-202.38026403
 30
2500.0
 11
16.88114012
 21
-202.38026403
 31
2500.0
  0
LINE
  5
161
100
AcDbEntity
  8
MST_1_1
 62
   251
  6
CONTINUOUS
100
AcDbLine
 10
36.13734964
 20
-202.38026403
 30
2500.0
 11
36.99546217
 21
-202.37647309
 31
2500.0
  0
LINE
  5
162
100
AcDbEntity
  8
MST_1_1
 62
   251
  6
CONTINUOUS
100
AcDbLine
 10
4.02321025
 20
-200.52883546
 30
2500.0
 11
2.70799121
 21
-200.52883546
 31
2500.0
  0
LINE
  5
163
100
AcDbEntity
  8
MST_1_1
 62
   251
  6
CONTINUOUS
100
AcDbLine
 10
5.73749597
 20
-200.52883546
 30
2500.0
 11
4.42227692
 21
-200.52883546
 31
2500.0
  0
LINE
  5
164
100
AcDbEntity
  8
MST_1_1
 62
   251
  6
CONTINUOUS
100
AcDbLine
 10
7.45178168
 20
-200.52883546
 30
2500.0
 11
6.13656263
 21
-200.52883546
 31
2500.0
  0
LINE
  5
165
100
AcDbEntity
  8
MST_1_1
 62
   251
  6
CONTINUOUS
100
AcDbLine
 10
9.1660674
 20
-200.52883546
 30
2500.0
 11
7.85084835
 21
-200.52883546
 31
2500.0
  0
LINE
  5
166
100
AcDbEntity
  8
MST_1_1
 62
   251
  6
CONTINUOUS
100
AcDbLine
 10
14.30892454
 20
-200.52883546
 30
2500.0
 11
12.99370549
 21
-200.52883546
 31
2500.0
  0
LINE
  5
167
100
AcDbEntity
  8
MST_1_1
 62
   251
  6
CONTINUOUS
100
AcDbLine
 10
16.02321025
 20
-200.52883546
 30
2500.0
 11
14.70799121
 21
-200.52883546
 31
2500.0
  0
LINE
  5
168
100
AcDbEntity
  8
MST_1_1
 62
   251
  6
CONTINUOUS
100
AcDbLine
 10
36.59463883
 20
-200.52883546
 30
2500.0
 11
35.27941978
 21
-200.52883546
 31
2500.0
  0
ARC
  5
169
100
AcDbEntity
  8
MST_1_1
 62
   251
  6
CONTINUOUS
100
AcDbCircle
 10
36.64209713
 20
-216.70275235
 30
2500.0
 40
16.17398651
100
AcDbArc
 50
84.08482032
 51
88.74811714
  0
LWPOLYLINE
  5
16A
100
AcDbEntity
  8
MST_1_1
 62
   251
  6
CONTINUOUS
100
AcDbPolyline
 90
        3
 70
     0
 43
0.0
 38
2500.0
 10
42.93749597
 20
-201.45454975
 10
39.75122202
 20
-200.83041219
 42
0.01723995
 10
38.65025591
 20
-200.65391631
  0
ARC
  5
16B
100
AcDbEntity
  8
MST_1_1
 62
   251
  6
CONTINUOUS
100
AcDbCircle
 10
36.64209713
 20
-186.20634715
 30
2500.0
 40
16.17398651
100
AcDbArc
 50
271.25189287
 51
272.83975061
  0
LWPOLYLINE
  5
16C
100
AcDbEntity
  8
MST_1_1
 62
   251
  6
CONTINUOUS
100
AcDbPolyline
 90
        3
 70
     0
 43
0.0
 38
2500.0
 10
42.93749597
 20
-201.45454975
 10
39.75122202
 20
-202.07868731
 42
-0.0063851
 10
39.34487143
 20
-202.1529095
  0
ARC
  5
16D
100
AcDbEntity
  8
MST_1_1
 62
   251
  6
CONTINUOUS
100
AcDbCircle
 10
36.64209713
 20
-186.20634715
 30
2500.0
 40
16.17398651
100
AcDbArc
 50
274.21680449
 51
278.53995004
  0
LWPOLYLINE
  5
16E
100
AcDbEntity
  8
MST_1_1
 62
   137
  6
CONTINUOUS
100
AcDbPolyline
 90
        6
 70
     0
 43
0.0
 38
2500.0
 10
40.09428505
 20
-200.57667692
 10
40.02321025
 20
-200.88369012
 10
40.6358604
 20
-202.20580051
 10
40.70383049
 20
-201.8920873
 10
40.09428505
 20
-200.57667692
 10
40.62412578
 20
-202.18047697
  0
LWPOLYLINE
  5
16F
100
AcDbEntity
  8
MST_1_1
 62
   137
  6
CONTINUOUS
100
AcDbPolyline
 90
        6
 70
     0
 43
0.0
 38
2500.0
 10
11.0133026
 20
-199.95454964
 10
10.88035311
 20
-200.52883546
 10
12.00440011
 20
-202.95454975
 10
12.13734964
 20
-202.38026403
 10
11.0133026
 20
-199.95454964
 10
12.00440011
 20
-202.95454975
  0
LWPOLYLINE
  5
170
100
AcDbEntity
  8
MST_1_1
 62
   137
  6
CONTINUOUS
100
AcDbPolyline
 90
        6
 70
     0
 43
0.0
 38
2500.0
 10
12.72758831
 20
-199.95454964
 10
12.59463883
 20
-200.52883546
 10
13.71868582
 20
-202.95454975
 10
13.85163535
 20
-202.38026403
 10
12.72758831
 20
-199.95454964
 10
13.71868582
 20
-202.95454975
  0
LINE
  5
171
100
AcDbEntity
  8
MST_1_1
 62
   251
  6
CONTINUOUS
100
AcDbLine
 10
10.42306393
 20
-202.38026403
 30
2500.0
 11
11.73828297
 21
-202.38026403
 31
2500.0
  0
LINE
  5
172
100
AcDbEntity
  8
MST_1_1
 62
   251
  6
CONTINUOUS
100
AcDbLine
 10
12.13734964
 20
-202.38026403
 30
2500.0
 11
13.45256869
 21
-202.38026403
 31
2500.0
  0
LINE
  5
173
100
AcDbEntity
  8
MST_1_1
 62
   251
  6
CONTINUOUS
100
AcDbLine
 10
10.88035311
 20
-200.52883546
 30
2500.0
 11
9.56513406
 21
-200.52883546
 31
2500.0
  0
LINE
  5
174
100
AcDbEntity
  8
MST_1_1
 62
   251
  6
CONTINUOUS
100
AcDbLine
 10
12.59463883
 20
-200.52883546
 30
2500.0
 11
11.27941978
 21
-200.52883546
 31
2500.0
  0
LWPOLYLINE
  5
175
100
AcDbEntity
  8
MST_1_1
 62
     1
  6
BORDER
100
AcDbPolyline
 90
        3
 70
     0
 43
0.0
 10
17.93749597
 20
-51.45454975
 10
-2.06250403
 20
-51.45454975
 10
-7.06250403
 20
-51.45454975
  0
LINE
  5
176
100
AcDbEntity
  8
MST_1_1
 62
   137
  6
CONTINUOUS
100
AcDbLine
 10
-2.06250403
 20
-51.45454975
 30
0.0
 11
-2.06250403
 21
-48.50454975
 31
0.0
  0
LINE
  5
177
100
AcDbEntity
  8
MST_1_1
 62
   137
  6
CONTINUOUS
100
AcDbLine
 10
-2.06250403
 20
-48.50454975
 30
0.0
 11
-1.98750405
 21
-48.50454975
 31
0.0
  0
LWPOLYLINE
  5
178
100
AcDbEntity
  8
MST_1_1
 62
   137
  6
CONTINUOUS
100
AcDbPolyline
 90
        6
 70
     0
 43
0.0
 38
2500.0
 10
1.44187402
 20
-49.95454964
 10
1.30892454
 20
-50.52883546
 10
2.43297154
 20
-52.95454975
 10
2.56592107
 20
-52.38026403
 10
1.44187402
 20
-49.95454964
 10
2.43297154
 20
-52.95454975
  0
LINE
  5
179
100
AcDbEntity
  8
MST_1_1
 62
   137
  6
CONTINUOUS
100
AcDbLine
 10
-0.16250403
 20
-50.52883546
 30
2500.0
 11
1.30892454
 21
-50.52883546
 31
2500.0
  0
LWPOLYLINE
  5
17A
100
AcDbEntity
  8
MST_1_1
 62
   137
  6
CONTINUOUS
100
AcDbPolyline
 90
        4
 70
     0
 43
0.0
 38
2500.0
 10
0.45256869
 20
-52.38026403
 10
0.71868582
 20
-52.95454975
 10
0.85163535
 20
-52.38026403
 10
0.65222063
 20
-51.94992335
  0
LINE
  5
17B
100
AcDbEntity
  8
MST_1_1
 62
   137
  6
CONTINUOUS
100
AcDbLine
 10
0.49718832
 20
-52.28408844
 30
2500.0
 11
0.71868582
 21
-52.95454975
 31
2500.0
  0
LINE
  5
17C
100
AcDbEntity
  8
MST_1_1
 62
   137
  6
CONTINUOUS
100
AcDbLine
 10
0.45256869
 20
-52.38026403
 30
2500.0
 11
0.65222063
 21
-51.94992335
 31
2500.0
  0
LINE
  5
17D
100
AcDbEntity
  8
MST_1_1
 62
   137
  6
CONTINUOUS
100
AcDbLine
 10
2.1668544
 20
-52.38026403
 30
2500.0
 11
0.85163535
 21
-52.38026403
 31
2500.0
  0
LINE
  5
17E
100
AcDbEntity
  8
MST_1_1
 62
   137
  6
CONTINUOUS
100
AcDbLine
 10
0.45256869
 20
-52.38026403
 30
2500.0
 11
-0.16250403
 21
-52.38026403
 31
2500.0
  0
LINE
  5
17F
100
AcDbEntity
  8
MST_1_1
 62
   137
  6
CONTINUOUS
100
AcDbLine
 10
-1.98750405
 20
-48.50454975
 30
0.0
 11
-0.16250403
 21
-50.52883546
 31
0.0
  0
LINE
  5
180
100
AcDbEntity
  8
MST_1_1
 62
   137
  6
CONTINUOUS
100
AcDbLine
 10
-0.16250403
 20
-52.38026403
 30
0.0
 11
-1.98750405
 21
-54.40454975
 31
0.0
  0
LINE
  5
181
100
AcDbEntity
  8
MST_1_1
 62
   137
  6
CONTINUOUS
100
AcDbLine
 10
-1.98750405
 20
-54.40454975
 30
0.0
 11
-2.06250403
 21
-54.40454975
 31
0.0
  0
LINE
  5
182
100
AcDbEntity
  8
MST_1_1
 62
   137
  6
CONTINUOUS
100
AcDbLine
 10
-2.06250403
 20
-54.40454975
 30
0.0
 11
-2.06250403
 21
-51.45454975
 31
0.0
  0
LWPOLYLINE
  5
183
100
AcDbEntity
  8
MST_1_1
 62
   137
  6
CONTINUOUS
100
AcDbPolyline
 90
        6
 70
     0
 43
0.0
 38
2500.0
 10
3.15615974
 20
-49.95454964
 10
3.02321025
 20
-50.52883546
 10
4.14725725
 20
-52.95454975
 10
4.28020678
 20
-52.38026403
 10
3.15615974
 20
-49.95454964
 10
4.14725725
 20
-52.95454975
  0
LWPOLYLINE
  5
184
100
AcDbEntity
  8
MST_1_1
 62
   137
  6
CONTINUOUS
100
AcDbPolyline
 90
        6
 70
     0
 43
0.0
 38
2500.0
 10
8.29901688
 20
-49.95454964
 10
8.1660674
 20
-50.52883546
 10
9.29011439
 20
-52.95454975
 10
9.42306393
 20
-52.38026403
 10
8.29901688
 20
-49.95454964
 10
9.29011439
 20
-52.95454975
  0
LWPOLYLINE
  5
185
100
AcDbEntity
  8
MST_1_1
 62
   137
  6
CONTINUOUS
100
AcDbPolyline
 90
        6
 70
     0
 43
0.0
 38
2500.0
 10
10.0133026
 20
-49.95454964
 10
9.88035311
 20
-50.52883546
 10
11.00440011
 20
-52.95454975
 10
11.13734964
 20
-52.38026403
 10
10.0133026
 20
-49.95454964
 10
11.00440011
 20
-52.95454975
  0
LWPOLYLINE
  5
186
100
AcDbEntity
  8
MST_1_1
 62
   137
  6
CONTINUOUS
100
AcDbPolyline
 90
        6
 70
     0
 43
0.0
 38
2500.0
 10
11.72758831
 20
-49.95454964
 10
11.59463883
 20
-50.52883546
 10
12.71868582
 20
-52.95454975
 10
12.83137886
 20
-52.33655014
 10
11.72758831
 20
-49.95454964
 10
12.71868582
 20
-52.95454975
  0
LWPOLYLINE
  5
187
100
AcDbEntity
  8
MST_1_1
 62
   137
  6
CONTINUOUS
100
AcDbPolyline
 90
        6
 70
     0
 43
0.0
 38
2500.0
 10
13.41661362
 20
-50.14971192
 10
13.30892454
 20
-50.61488344
 10
14.23718234
 20
-52.61808101
 10
14.34487143
 20
-52.1529095
 10
13.41661362
 20
-50.14971192
 10
14.21940261
 20
-52.57971201
  0
LINE
  5
188
100
AcDbEntity
  8
MST_1_1
 62
   251
  6
CONTINUOUS
100
AcDbLine
 10
2.56592107
 20
-52.38026403
 30
2500.0
 11
3.88114012
 21
-52.38026403
 31
2500.0
  0
LINE
  5
189
100
AcDbEntity
  8
MST_1_1
 62
   251
  6
CONTINUOUS
100
AcDbLine
 10
7.70877821
 20
-52.38026403
 30
2500.0
 11
9.02399726
 21
-52.38026403
 31
2500.0
  0
LINE
  5
18A
100
AcDbEntity
  8
MST_1_1
 62
   251
  6
CONTINUOUS
100
AcDbLine
 10
9.42306393
 20
-52.38026403
 30
2500.0
 11
10.73828297
 21
-52.38026403
 31
2500.0
  0
LINE
  5
18B
100
AcDbEntity
  8
MST_1_1
 62
   251
  6
CONTINUOUS
100
AcDbLine
 10
11.13734964
 20
-52.38026403
 30
2500.0
 11
11.99546217
 21
-52.37647309
 31
2500.0
  0
LINE
  5
18C
100
AcDbEntity
  8
MST_1_1
 62
   251
  6
CONTINUOUS
100
AcDbLine
 10
3.02321025
 20
-50.52883546
 30
2500.0
 11
1.70799121
 21
-50.52883546
 31
2500.0
  0
LINE
  5
18D
100
AcDbEntity
  8
MST_1_1
 62
   251
  6
CONTINUOUS
100
AcDbLine
 10
8.1660674
 20
-50.52883546
 30
2500.0
 11
6.85084835
 21
-50.52883546
 31
2500.0
  0
LINE
  5
18E
100
AcDbEntity
  8
MST_1_1
 62
   251
  6
CONTINUOUS
100
AcDbLine
 10
9.88035311
 20
-50.52883546
 30
2500.0
 11
8.56513406
 21
-50.52883546
 31
2500.0
  0
LINE
  5
18F
100
AcDbEntity
  8
MST_1_1
 62
   251
  6
CONTINUOUS
100
AcDbLine
 10
11.59463883
 20
-50.52883546
 30
2500.0
 11
10.27941978
 21
-50.52883546
 31
2500.0
  0
ARC
  5
190
100
AcDbEntity
  8
MST_1_1
 62
   251
  6
CONTINUOUS
100
AcDbCircle
 10
11.64209713
 20
-66.70275235
 30
2500.0
 40
16.17398651
100
AcDbArc
 50
84.08482032
 51
88.74811714
  0
LWPOLYLINE
  5
191
100
AcDbEntity
  8
MST_1_1
 62
   251
  6
CONTINUOUS
100
AcDbPolyline
 90
        3
 70
     0
 43
0.0
 38
2500.0
 10
17.93749597
 20
-51.45454975
 10
14.75122202
 20
-50.83041219
 42
0.01723995
 10
13.65025591
 20
-50.65391631
  0
ARC
  5
192
100
AcDbEntity
  8
MST_1_1
 62
   251
  6
CONTINUOUS
100
AcDbCircle
 10
11.64209713
 20
-36.20634715
 30
2500.0
 40
16.17398651
100
AcDbArc
 50
271.25189287
 51
272.83975061
  0
LWPOLYLINE
  5
193
100
AcDbEntity
  8
MST_1_1
 62
   251
  6
CONTINUOUS
100
AcDbPolyline
 90
        3
 70
     0
 43
0.0
 38
2500.0
 10
17.93749597
 20
-51.45454975
 10
14.75122202
 20
-52.07868731
 42
-0.0063851
 10
14.34487143
 20
-52.1529095
  0
ARC
  5
194
100
AcDbEntity
  8
MST_1_1
 62
   251
  6
CONTINUOUS
100
AcDbCircle
 10
11.64209713
 20
-36.20634715
 30
2500.0
 40
16.17398651
100
AcDbArc
 50
274.21680449
 51
278.53995004
  0
LWPOLYLINE
  5
195
100
AcDbEntity
  8
MST_1_1
 62
   137
  6
CONTINUOUS
100
AcDbPolyline
 90
        6
 70
     0
 43
0.0
 38
2500.0
 10
15.09428505
 20
-50.57667692
 10
15.02321025
 20
-50.88369012
 10
15.6358604
 20
-52.20580051
 10
15.70383049
 20
-51.8920873
 10
15.09428505
 20
-50.57667692
 10
15.62412578
 20
-52.18047697
  0
LWPOLYLINE
  5
196
100
AcDbEntity
  8
MST_1_1
 62
   137
  6
CONTINUOUS
100
AcDbPolyline
 90
        6
 70
     0
 43
0.0
 38
2500.0
 10
6.58473117
 20
-49.95454964
 10
6.45178168
 20
-50.52883546
 10
7.57582868
 20
-52.95454975
 10
7.70877821
 20
-52.38026403
 10
6.58473117
 20
-49.95454964
 10
7.57582868
 20
-52.95454975
  0
LINE
  5
197
100
AcDbEntity
  8
MST_1_1
 62
   251
  6
CONTINUOUS
100
AcDbLine
 10
5.9944925
 20
-52.38026403
 30
2500.0
 11
7.30971155
 21
-52.38026403
 31
2500.0
  0
LINE
  5
198
100
AcDbEntity
  8
MST_1_1
 62
   251
  6
CONTINUOUS
100
AcDbLine
 10
6.45178168
 20
-50.52883546
 30
2500.0
 11
5.13656263
 21
-50.52883546
 31
2500.0
  0
LWPOLYLINE
  5
199
100
AcDbEntity
  8
MST_1_1
 62
     1
  6
BORDER
100
AcDbPolyline
 90
        3
 70
     0
 43
0.0
 10
13.93749597
 20
-21.45454975
 10
-2.06250403
 20
-21.45454975
 10
-7.06250403
 20
-21.45454975
  0
LINE
  5
19A
100
AcDbEntity
  8
MST_1_1
 62
   137
  6
CONTINUOUS
100
AcDbLine
 10
-2.06250403
 20
-21.45454975
 30
0.0
 11
-2.06250403
 21
-18.50454975
 31
0.0
  0
LINE
  5
19B
100
AcDbEntity
  8
MST_1_1
 62
   137
  6
CONTINUOUS
100
AcDbLine
 10
-2.06250403
 20
-18.50454975
 30
0.0
 11
-1.98750405
 21
-18.50454975
 31
0.0
  0
LWPOLYLINE
  5
19C
100
AcDbEntity
  8
MST_1_1
 62
   137
  6
CONTINUOUS
100
AcDbPolyline
 90
        6
 70
     0
 43
0.0
 38
2500.0
 10
2.58473117
 20
-19.95454964
 10
2.45178168
 20
-20.52883546
 10
3.57582868
 20
-22.95454975
 10
3.70877821
 20
-22.38026403
 10
2.58473117
 20
-19.95454964
 10
3.57582868
 20
-22.95454975
  0
LINE
  5
19D
100
AcDbEntity
  8
MST_1_1
 62
   137
  6
CONTINUOUS
100
AcDbLine
 10
-0.16250403
 20
-20.52883546
 30
2500.0
 11
2.45178168
 21
-20.52883546
 31
2500.0
  0
LWPOLYLINE
  5
19E
100
AcDbEntity
  8
MST_1_1
 62
   137
  6
CONTINUOUS
100
AcDbPolyline
 90
        4
 70
     0
 43
0.0
 38
2500.0
 10
1.59542583
 20
-22.38026403
 10
1.86154296
 20
-22.95454975
 10
1.9944925
 20
-22.38026403
 10
1.79507777
 20
-21.94992335
  0
LINE
  5
19F
100
AcDbEntity
  8
MST_1_1
 62
   137
  6
CONTINUOUS
100
AcDbLine
 10
1.64004546
 20
-22.28408844
 30
2500.0
 11
1.86154296
 21
-22.95454975
 31
2500.0
  0
LINE
  5
1A0
100
AcDbEntity
  8
MST_1_1
 62
   137
  6
CONTINUOUS
100
AcDbLine
 10
1.59542583
 20
-22.38026403
 30
2500.0
 11
1.79507777
 21
-21.94992335
 31
2500.0
  0
LINE
  5
1A1
100
AcDbEntity
  8
MST_1_1
 62
   137
  6
CONTINUOUS
100
AcDbLine
 10
3.30971155
 20
-22.38026403
 30
2500.0
 11
1.9944925
 21
-22.38026403
 31
2500.0
  0
LINE
  5
1A2
100
AcDbEntity
  8
MST_1_1
 62
   137
  6
CONTINUOUS
100
AcDbLine
 10
1.59542583
 20
-22.38026403
 30
2500.0
 11
-0.16250403
 21
-22.38026403
 31
2500.0
  0
LINE
  5
1A3
100
AcDbEntity
  8
MST_1_1
 62
   137
  6
CONTINUOUS
100
AcDbLine
 10
-1.98750405
 20
-18.50454975
 30
0.0
 11
-0.16250403
 21
-20.52883546
 31
0.0
  0
LINE
  5
1A4
100
AcDbEntity
  8
MST_1_1
 62
   137
  6
CONTINUOUS
100
AcDbLine
 10
-0.16250403
 20
-22.38026403
 30
0.0
 11
-1.98750405
 21
-24.40454975
 31
0.0
  0
LINE
  5
1A5
100
AcDbEntity
  8
MST_1_1
 62
   137
  6
CONTINUOUS
100
AcDbLine
 10
-1.98750405
 20
-24.40454975
 30
0.0
 11
-2.06250403
 21
-24.40454975
 31
0.0
  0
LINE
  5
1A6
100
AcDbEntity
  8
MST_1_1
 62
   137
  6
CONTINUOUS
100
AcDbLine
 10
-2.06250403
 20
-24.40454975
 30
0.0
 11
-2.06250403
 21
-21.45454975
 31
0.0
  0
LWPOLYLINE
  5
1A7
100
AcDbEntity
  8
MST_1_1
 62
   137
  6
CONTINUOUS
100
AcDbPolyline
 90
        6
 70
     0
 43
0.0
 38
2500.0
 10
4.29901688
 20
-19.95454964
 10
4.1660674
 20
-20.52883546
 10
5.29011439
 20
-22.95454975
 10
5.42306393
 20
-22.38026403
 10
4.29901688
 20
-19.95454964
 10
5.29011439
 20
-22.95454975
  0
LWPOLYLINE
  5
1A8
100
AcDbEntity
  8
MST_1_1
 62
   137
  6
CONTINUOUS
100
AcDbPolyline
 90
        6
 70
     0
 43
0.0
 38
2500.0
 10
6.0133026
 20
-19.95454964
 10
5.88035311
 20
-20.52883546
 10
7.00440011
 20
-22.95454975
 10
7.13734964
 20
-22.38026403
 10
6.0133026
 20
-19.95454964
 10
7.00440011
 20
-22.95454975
  0
LWPOLYLINE
  5
1A9
100
AcDbEntity
  8
MST_1_1
 62
   137
  6
CONTINUOUS
100
AcDbPolyline
 90
        6
 70
     0
 43
0.0
 38
2500.0
 10
7.72758831
 20
-19.95454964
 10
7.59463883
 20
-20.52883546
 10
8.71868582
 20
-22.95454975
 10
8.83137886
 20
-22.33655014
 10
7.72758831
 20
-19.95454964
 10
8.71868582
 20
-22.95454975
  0
LWPOLYLINE
  5
1AA
100
AcDbEntity
  8
MST_1_1
 62
   137
  6
CONTINUOUS
100
AcDbPolyline
 90
        6
 70
     0
 43
0.0
 38
2500.0
 10
9.41661362
 20
-20.14971192
 10
9.30892454
 20
-20.61488344
 10
10.23718234
 20
-22.61808101
 10
10.34487143
 20
-22.1529095
 10
9.41661362
 20
-20.14971192
 10
10.21940261
 20
-22.57971201
  0
LINE
  5
1AB
100
AcDbEntity
  8
MST_1_1
 62
   251
  6
CONTINUOUS
100
AcDbLine
 10
3.70877821
 20
-22.38026403
 30
2500.0
 11
5.02399726
 21
-22.38026403
 31
2500.0
  0
LINE
  5
1AC
100
AcDbEntity
  8
MST_1_1
 62
   251
  6
CONTINUOUS
100
AcDbLine
 10
5.42306393
 20
-22.38026403
 30
2500.0
 11
6.73828297
 21
-22.38026403
 31
2500.0
  0
LINE
  5
1AD
100
AcDbEntity
  8
MST_1_1
 62
   251
  6
CONTINUOUS
100
AcDbLine
 10
7.13734964
 20
-22.38026403
 30
2500.0
 11
7.99546217
 21
-22.37647309
 31
2500.0
  0
LINE
  5
1AE
100
AcDbEntity
  8
MST_1_1
 62
   251
  6
CONTINUOUS
100
AcDbLine
 10
4.1660674
 20
-20.52883546
 30
2500.0
 11
2.85084835
 21
-20.52883546
 31
2500.0
  0
LINE
  5
1AF
100
AcDbEntity
  8
MST_1_1
 62
   251
  6
CONTINUOUS
100
AcDbLine
 10
5.88035311
 20
-20.52883546
 30
2500.0
 11
4.56513406
 21
-20.52883546
 31
2500.0
  0
LINE
  5
1B0
100
AcDbEntity
  8
MST_1_1
 62
   251
  6
CONTINUOUS
100
AcDbLine
 10
7.59463883
 20
-20.52883546
 30
2500.0
 11
6.27941978
 21
-20.52883546
 31
2500.0
  0
ARC
  5
1B1
100
AcDbEntity
  8
MST_1_1
 62
   251
  6
CONTINUOUS
100
AcDbCircle
 10
7.64209713
 20
-36.70275235
 30
2500.0
 40
16.17398651
100
AcDbArc
 50
84.08482032
 51
88.74811714
  0
LWPOLYLINE
  5
1B2
100
AcDbEntity
  8
MST_1_1
 62
   251
  6
CONTINUOUS
100
AcDbPolyline
 90
        3
 70
     0
 43
0.0
 38
2500.0
 10
13.93749597
 20
-21.45454975
 10
10.75122202
 20
-20.83041219
 42
0.01723995
 10
9.65025591
 20
-20.65391631
  0
ARC
  5
1B3
100
AcDbEntity
  8
MST_1_1
 62
   251
  6
CONTINUOUS
100
AcDbCircle
 10
7.64209713
 20
-6.20634715
 30
2500.0
 40
16.17398651
100
AcDbArc
 50
271.25189287
 51
272.83975061
  0
LWPOLYLINE
  5
1B4
100
AcDbEntity
  8
MST_1_1
 62
   251
  6
CONTINUOUS
100
AcDbPolyline
 90
        3
 70
     0
 43
0.0
 38
2500.0
 10
13.93749597
 20
-21.45454975
 10
10.75122202
 20
-22.07868731
 42
-0.0063851
 10
10.34487143
 20
-22.1529095
  0
ARC
  5
1B5
100
AcDbEntity
  8
MST_1_1
 62
   251
  6
CONTINUOUS
100
AcDbCircle
 10
7.64209713
 20
-6.20634715
 30
2500.0
 40
16.17398651
100
AcDbArc
 50
274.21680449
 51
278.53995004
  0
LWPOLYLINE
  5
1B6
100
AcDbEntity
  8
MST_1_1
 62
   137
  6
CONTINUOUS
100
AcDbPolyline
 90
        6
 70
     0
 43
0.0
 38
2500.0
 10
11.09428505
 20
-20.57667692
 10
11.02321025
 20
-20.88369012
 10
11.6358604
 20
-22.20580051
 10
11.70383049
 20
-21.8920873
 10
11.09428505
 20
-20.57667692
 10
11.62412578
 20
-22.18047697
  0
LWPOLYLINE
  5
1B7
100
AcDbEntity
  8
MST_1_1
 62
     1
  6
BORDER
100
AcDbPolyline
 90
        3
 70
     0
 43
0.0
 10
9.93749597
 20
8.54545025
 10
-2.06250403
 20
8.54545025
 10
-7.06250403
 20
8.54545025
  0
LINE
  5
1B8
100
AcDbEntity
  8
MST_1_1
 62
   137
  6
CONTINUOUS
100
AcDbLine
 10
-2.06250403
 20
8.54545025
 30
0.0
 11
-2.06250403
 21
11.49545025
 31
0.0
  0
LINE
  5
1B9
100
AcDbEntity
  8
MST_1_1
 62
   137
  6
CONTINUOUS
100
AcDbLine
 10
-2.06250403
 20
11.49545025
 30
0.0
 11
-1.98750405
 21
11.49545025
 31
0.0
  0
LWPOLYLINE
  5
1BA
100
AcDbEntity
  8
MST_1_1
 62
   137
  6
CONTINUOUS
100
AcDbPolyline
 90
        6
 70
     0
 43
0.0
 38
2500.0
 10
2.0133026
 20
10.04545036
 10
1.88035311
 20
9.47116454
 10
3.00440011
 20
7.04545025
 10
3.13734964
 20
7.61973597
 10
2.0133026
 20
10.04545036
 10
3.00440011
 20
7.04545025
  0
LINE
  5
1BB
100
AcDbEntity
  8
MST_1_1
 62
   137
  6
CONTINUOUS
100
AcDbLine
 10
-0.16250403
 20
9.47116454
 30
2500.0
 11
1.88035311
 21
9.47116454
 31
2500.0
  0
LWPOLYLINE
  5
1BC
100
AcDbEntity
  8
MST_1_1
 62
   137
  6
CONTINUOUS
100
AcDbPolyline
 90
        4
 70
     0
 43
0.0
 38
2500.0
 10
1.02399726
 20
7.61973597
 10
1.29011439
 20
7.04545025
 10
1.42306393
 20
7.61973597
 10
1.2236492
 20
8.05007665
  0
LINE
  5
1BD
100
AcDbEntity
  8
MST_1_1
 62
   137
  6
CONTINUOUS
100
AcDbLine
 10
1.06861689
 20
7.71591156
 30
2500.0
 11
1.29011439
 21
7.04545025
 31
2500.0
  0
LINE
  5
1BE
100
AcDbEntity
  8
MST_1_1
 62
   137
  6
CONTINUOUS
100
AcDbLine
 10
1.02399726
 20
7.61973597
 30
2500.0
 11
1.2236492
 21
8.05007665
 31
2500.0
  0
LINE
  5
1BF
100
AcDbEntity
  8
MST_1_1
 62
   137
  6
CONTINUOUS
100
AcDbLine
 10
2.73828297
 20
7.61973597
 30
2500.0
 11
1.42306393
 21
7.61973597
 31
2500.0
  0
LINE
  5
1C0
100
AcDbEntity
  8
MST_1_1
 62
   137
  6
CONTINUOUS
100
AcDbLine
 10
1.02399726
 20
7.61973597
 30
2500.0
 11
-0.16250403
 21
7.61973597
 31
2500.0
  0
LINE
  5
1C1
100
AcDbEntity
  8
MST_1_1
 62
   137
  6
CONTINUOUS
100
AcDbLine
 10
-1.98750405
 20
11.49545025
 30
0.0
 11
-0.16250403
 21
9.47116454
 31
0.0
  0
LINE
  5
1C2
100
AcDbEntity
  8
MST_1_1
 62
   137
  6
CONTINUOUS
100
AcDbLine
 10
-0.16250403
 20
7.61973597
 30
0.0
 11
-1.98750405
 21
5.59545025
 31
0.0
  0
LINE
  5
1C3
100
AcDbEntity
  8
MST_1_1
 62
   137
  6
CONTINUOUS
100
AcDbLine
 10
-1.98750405
 20
5.59545025
 30
0.0
 11
-2.06250403
 21
5.59545025
 31
0.0
  0
LINE
  5
1C4
100
AcDbEntity
  8
MST_1_1
 62
   137
  6
CONTINUOUS
100
AcDbLine
 10
-2.06250403
 20
5.59545025
 30
0.0
 11
-2.06250403
 21
8.54545025
 31
0.0
  0
LWPOLYLINE
  5
1C5
100
AcDbEntity
  8
MST_1_1
 62
   137
  6
CONTINUOUS
100
AcDbPolyline
 90
        6
 70
     0
 43
0.0
 38
2500.0
 10
3.72758831
 20
10.04545036
 10
3.59463883
 20
9.47116454
 10
4.71868582
 20
7.04545025
 10
4.83137886
 20
7.66344986
 10
3.72758831
 20
10.04545036
 10
4.71868582
 20
7.04545025
  0
LWPOLYLINE
  5
1C6
100
AcDbEntity
  8
MST_1_1
 62
   137
  6
CONTINUOUS
100
AcDbPolyline
 90
        6
 70
     0
 43
0.0
 38
2500.0
 10
5.41661362
 20
9.85028808
 10
5.30892454
 20
9.38511656
 10
6.23718234
 20
7.38191899
 10
6.34487143
 20
7.8470905
 10
5.41661362
 20
9.85028808
 10
6.21940261
 20
7.42028799
  0
LINE
  5
1C7
100
AcDbEntity
  8
MST_1_1
 62
   251
  6
CONTINUOUS
100
AcDbLine
 10
3.13734964
 20
7.61973597
 30
2500.0
 11
3.99546217
 21
7.62352691
 31
2500.0
  0
LINE
  5
1C8
100
AcDbEntity
  8
MST_1_1
 62
   251
  6
CONTINUOUS
100
AcDbLine
 10
3.59463883
 20
9.47116454
 30
2500.0
 11
2.27941978
 21
9.47116454
 31
2500.0
  0
ARC
  5
1C9
100
AcDbEntity
  8
MST_1_1
 62
   251
  6
CONTINUOUS
100
AcDbCircle
 10
3.64209713
 20
-6.70275235
 30
2500.0
 40
16.17398651
100
AcDbArc
 50
84.08482032
 51
88.74811714
  0
LWPOLYLINE
  5
1CA
100
AcDbEntity
  8
MST_1_1
 62
   251
  6
CONTINUOUS
100
AcDbPolyline
 90
        3
 70
     0
 43
0.0
 38
2500.0
 10
9.93749597
 20
8.54545025
 10
6.75122202
 20
9.16958781
 42
0.01723995
 10
5.65025591
 20
9.34608369
  0
ARC
  5
1CB
100
AcDbEntity
  8
MST_1_1
 62
   251
  6
CONTINUOUS
100
AcDbCircle
 10
3.64209713
 20
23.79365285
 30
2500.0
 40
16.17398651
100
AcDbArc
 50
271.25189287
 51
272.83975061
  0
LWPOLYLINE
  5
1CC
100
AcDbEntity
  8
MST_1_1
 62
   251
  6
CONTINUOUS
100
AcDbPolyline
 90
        3
 70
     0
 43
0.0
 38
2500.0
 10
9.93749597
 20
8.54545025
 10
6.75122202
 20
7.92131269
 42
-0.0063851
 10
6.34487143
 20
7.8470905
  0
ARC
  5
1CD
100
AcDbEntity
  8
MST_1_1
 62
   251
  6
CONTINUOUS
100
AcDbCircle
 10
3.64209713
 20
23.79365285
 30
2500.0
 40
16.17398651
100
AcDbArc
 50
274.21680449
 51
278.53995004
  0
LWPOLYLINE
  5
1CE
100
AcDbEntity
  8
MST_1_1
 62
   137
  6
CONTINUOUS
100
AcDbPolyline
 90
        6
 70
     0
 43
0.0
 38
2500.0
 10
7.09428505
 20
9.42332308
 10
7.02321025
 20
9.11630988
 10
7.6358604
 20
7.79419949
 10
7.70383049
 20
8.1079127
 10
7.09428505
 20
9.42332308
 10
7.62412578
 20
7.81952303
  0
LWPOLYLINE
  5
1CF
100
AcDbEntity
  8
MST_1_1
 62
   137
  6
CONTINUOUS
100
AcDbPolyline
 90
        6
 70
     0
 43
0.0
 38
2500.0
 10
4.87044545
 20
-49.95454964
 10
4.73749597
 20
-50.52883546
 10
5.86154296
 20
-52.95454975
 10
5.9944925
 20
-52.38026403
 10
4.87044545
 20
-49.95454964
 10
5.86154296
 20
-52.95454975
  0
LINE
  5
1D0
100
AcDbEntity
  8
MST_1_1
 62
   251
  6
CONTINUOUS
100
AcDbLine
 10
4.28020678
 20
-52.38026403
 30
2500.0
 11
5.59542583
 21
-52.38026403
 31
2500.0
  0
LINE
  5
1D1
100
AcDbEntity
  8
MST_1_1
 62
   251
  6
CONTINUOUS
100
AcDbLine
 10
4.73749597
 20
-50.52883546
 30
2500.0
 11
3.42227692
 21
-50.52883546
 31
2500.0
  0
LWPOLYLINE
  5
1D2
100
AcDbEntity
  8
MST_1_1
 62
   137
  6
CONTINUOUS
100
AcDbPolyline
 90
        6
 70
     0
 43
0.0
 38
2500.0
 10
14.87044545
 20
-109.95454964
 10
14.73749597
 20
-110.52883546
 10
15.86154296
 20
-112.95454975
 10
15.9944925
 20
-112.38026403
 10
14.87044545
 20
-109.95454964
 10
15.86154296
 20
-112.95454975
  0
LWPOLYLINE
  5
1D3
100
AcDbEntity
  8
MST_1_1
 62
   137
  6
CONTINUOUS
100
AcDbPolyline
 90
        6
 70
     0
 43
0.0
 38
2500.0
 10
16.58473117
 20
-109.95454964
 10
16.45178168
 20
-110.52883546
 10
17.57582868
 20
-112.95454975
 10
17.70877821
 20
-112.38026403
 10
16.58473117
 20
-109.95454964
 10
17.57582868
 20
-112.95454975
  0
LINE
  5
1D4
100
AcDbEntity
  8
MST_1_1
 62
   251
  6
CONTINUOUS
100
AcDbLine
 10
14.28020678
 20
-112.38026403
 30
2500.0
 11
15.59542583
 21
-112.38026403
 31
2500.0
  0
LINE
  5
1D5
100
AcDbEntity
  8
MST_1_1
 62
   251
  6
CONTINUOUS
100
AcDbLine
 10
15.9944925
 20
-112.38026403
 30
2500.0
 11
17.30971155
 21
-112.38026403
 31
2500.0
  0
LINE
  5
1D6
100
AcDbEntity
  8
MST_1_1
 62
   251
  6
CONTINUOUS
100
AcDbLine
 10
14.73749597
 20
-110.52883546
 30
2500.0
 11
13.42227692
 21
-110.52883546
 31
2500.0
  0
LINE
  5
1D7
100
AcDbEntity
  8
MST_1_1
 62
   251
  6
CONTINUOUS
100
AcDbLine
 10
16.45178168
 20
-110.52883546
 30
2500.0
 11
15.13656263
 21
-110.52883546
 31
2500.0
  0
LWPOLYLINE
  5
1D8
100
AcDbEntity
  8
MST_1_1
 62
   137
  6
CONTINUOUS
100
AcDbPolyline
 90
        6
 70
     0
 43
0.0
 38
2500.0
 10
13.15615974
 20
-109.95454964
 10
13.02321025
 20
-110.52883546
 10
14.14725725
 20
-112.95454975
 10
14.28020678
 20
-112.38026403
 10
13.15615974
 20
-109.95454964
 10
14.14725725
 20
-112.95454975
  0
LINE
  5
1D9
100
AcDbEntity
  8
MST_1_1
 62
   251
  6
CONTINUOUS
100
AcDbLine
 10
12.56592107
 20
-112.38026403
 30
2500.0
 11
13.88114012
 21
-112.38026403
 31
2500.0
  0
LINE
  5
1DA
100
AcDbEntity
  8
MST_1_1
 62
   251
  6
CONTINUOUS
100
AcDbLine
 10
13.02321025
 20
-110.52883546
 30
2500.0
 11
11.70799121
 21
-110.52883546
 31
2500.0
  0
LWPOLYLINE
  5
1DB
100
AcDbEntity
  8
MST_1_1
 62
   137
  6
CONTINUOUS
100
AcDbPolyline
 90
        6
 70
     0
 43
0.0
 38
2500.0
 10
16.44187402
 20
-139.95454964
 10
16.30892454
 20
-140.52883546
 10
17.43297154
 20
-142.95454975
 10
17.56592107
 20
-142.38026403
 10
16.44187402
 20
-139.95454964
 10
17.43297154
 20
-142.95454975
  0
LWPOLYLINE
  5
1DC
100
AcDbEntity
  8
MST_1_1
 62
   137
  6
CONTINUOUS
100
AcDbPolyline
 90
        6
 70
     0
 43
0.0
 38
2500.0
 10
18.15615974
 20
-139.95454964
 10
18.02321025
 20
-140.52883546
 10
19.14725725
 20
-142.95454975
 10
19.28020678
 20
-142.38026403
 10
18.15615974
 20
-139.95454964
 10
19.14725725
 20
-142.95454975
  0
LWPOLYLINE
  5
1DD
100
AcDbEntity
  8
MST_1_1
 62
   137
  6
CONTINUOUS
100
AcDbPolyline
 90
        6
 70
     0
 43
0.0
 38
2500.0
 10
23.29901688
 20
-139.95454964
 10
23.1660674
 20
-140.52883546
 10
24.29011439
 20
-142.95454975
 10
24.42306393
 20
-142.38026403
 10
23.29901688
 20
-139.95454964
 10
24.29011439
 20
-142.95454975
  0
LINE
  5
1DE
100
AcDbEntity
  8
MST_1_1
 62
   251
  6
CONTINUOUS
100
AcDbLine
 10
15.85163535
 20
-142.38026403
 30
2500.0
 11
17.1668544
 21
-142.38026403
 31
2500.0
  0
LINE
  5
1DF
100
AcDbEntity
  8
MST_1_1
 62
   251
  6
CONTINUOUS
100
AcDbLine
 10
17.56592107
 20
-142.38026403
 30
2500.0
 11
18.88114012
 21
-142.38026403
 31
2500.0
  0
LINE
  5
1E0
100
AcDbEntity
  8
MST_1_1
 62
   251
  6
CONTINUOUS
100
AcDbLine
 10
22.70877821
 20
-142.38026403
 30
2500.0
 11
24.02399726
 21
-142.38026403
 31
2500.0
  0
LINE
  5
1E1
100
AcDbEntity
  8
MST_1_1
 62
   251
  6
CONTINUOUS
100
AcDbLine
 10
16.30892454
 20
-140.52883546
 30
2500.0
 11
14.99370549
 21
-140.52883546
 31
2500.0
  0
LINE
  5
1E2
100
AcDbEntity
  8
MST_1_1
 62
   251
  6
CONTINUOUS
100
AcDbLine
 10
18.02321025
 20
-140.52883546
 30
2500.0
 11
16.70799121
 21
-140.52883546
 31
2500.0
  0
LINE
  5
1E3
100
AcDbEntity
  8
MST_1_1
 62
   251
  6
CONTINUOUS
100
AcDbLine
 10
23.1660674
 20
-140.52883546
 30
2500.0
 11
21.85084835
 21
-140.52883546
 31
2500.0
  0
LWPOLYLINE
  5
1E4
100
AcDbEntity
  8
MST_1_1
 62
   137
  6
CONTINUOUS
100
AcDbPolyline
 90
        6
 70
     0
 43
0.0
 38
2500.0
 10
19.87044545
 20
-139.95454964
 10
19.73749597
 20
-140.52883546
 10
20.86154296
 20
-142.95454975
 10
20.9944925
 20
-142.38026403
 10
19.87044545
 20
-139.95454964
 10
20.86154296
 20
-142.95454975
  0
LWPOLYLINE
  5
1E5
100
AcDbEntity
  8
MST_1_1
 62
   137
  6
CONTINUOUS
100
AcDbPolyline
 90
        6
 70
     0
 43
0.0
 38
2500.0
 10
21.58473117
 20
-139.95454964
 10
21.45178168
 20
-140.52883546
 10
22.57582868
 20
-142.95454975
 10
22.70877821
 20
-142.38026403
 10
21.58473117
 20
-139.95454964
 10
22.57582868
 20
-142.95454975
  0
LINE
  5
1E6
100
AcDbEntity
  8
MST_1_1
 62
   251
  6
CONTINUOUS
100
AcDbLine
 10
19.28020678
 20
-142.38026403
 30
2500.0
 11
20.59542583
 21
-142.38026403
 31
2500.0
  0
LINE
  5
1E7
100
AcDbEntity
  8
MST_1_1
 62
   251
  6
CONTINUOUS
100
AcDbLine
 10
20.9944925
 20
-142.38026403
 30
2500.0
 11
22.30971155
 21
-142.38026403
 31
2500.0
  0
LINE
  5
1E8
100
AcDbEntity
  8
MST_1_1
 62
   251
  6
CONTINUOUS
100
AcDbLine
 10
19.73749597
 20
-140.52883546
 30
2500.0
 11
18.42227692
 21
-140.52883546
 31
2500.0
  0
LINE
  5
1E9
100
AcDbEntity
  8
MST_1_1
 62
   251
  6
CONTINUOUS
100
AcDbLine
 10
21.45178168
 20
-140.52883546
 30
2500.0
 11
20.13656263
 21
-140.52883546
 31
2500.0
  0
LWPOLYLINE
  5
1EA
100
AcDbEntity
  8
MST_1_1
 62
   137
  6
CONTINUOUS
100
AcDbPolyline
 90
        6
 70
     0
 43
0.0
 38
2500.0
 10
1.0133026
 20
-139.95454964
 10
0.88035311
 20
-140.52883546
 10
2.00440011
 20
-142.95454975
 10
2.13734964
 20
-142.38026403
 10
1.0133026
 20
-139.95454964
 10
2.00440011
 20
-142.95454975
  0
LINE
  5
1EB
100
AcDbEntity
  8
MST_1_1
 62
   251
  6
CONTINUOUS
100
AcDbLine
 10
-0.16250403
 20
-142.38026403
 30
2500.0
 11
1.73828297
 21
-142.38026403
 31
2500.0
  0
LINE
  5
1EC
100
AcDbEntity
  8
MST_1_1
 62
   251
  6
CONTINUOUS
100
AcDbLine
 10
0.88035311
 20
-140.52883546
 30
2500.0
 11
-0.16250403
 21
-140.52883546
 31
2500.0
  0
LWPOLYLINE
  5
1ED
100
AcDbEntity
  8
MST_1_1
 62
   137
  6
CONTINUOUS
100
AcDbPolyline
 90
        6
 70
     0
 43
0.0
 38
2500.0
 10
19.72758831
 20
-169.95454964
 10
19.59463883
 20
-170.52883546
 10
20.71868582
 20
-172.95454975
 10
20.85163535
 20
-172.38026403
 10
19.72758831
 20
-169.95454964
 10
20.71868582
 20
-172.95454975
  0
LWPOLYLINE
  5
1EE
100
AcDbEntity
  8
MST_1_1
 62
   137
  6
CONTINUOUS
100
AcDbPolyline
 90
        6
 70
     0
 43
0.0
 38
2500.0
 10
21.44187402
 20
-169.95454964
 10
21.30892454
 20
-170.52883546
 10
22.43297154
 20
-172.95454975
 10
22.56592107
 20
-172.38026403
 10
21.44187402
 20
-169.95454964
 10
22.43297154
 20
-172.95454975
  0
LWPOLYLINE
  5
1EF
100
AcDbEntity
  8
MST_1_1
 62
   137
  6
CONTINUOUS
100
AcDbPolyline
 90
        6
 70
     0
 43
0.0
 38
2500.0
 10
23.15615974
 20
-169.95454964
 10
23.02321025
 20
-170.52883546
 10
24.14725725
 20
-172.95454975
 10
24.28020678
 20
-172.38026403
 10
23.15615974
 20
-169.95454964
 10
24.14725725
 20
-172.95454975
  0
LWPOLYLINE
  5
1F0
100
AcDbEntity
  8
MST_1_1
 62
   137
  6
CONTINUOUS
100
AcDbPolyline
 90
        6
 70
     0
 43
0.0
 38
2500.0
 10
28.29901688
 20
-169.95454964
 10
28.1660674
 20
-170.52883546
 10
29.29011439
 20
-172.95454975
 10
29.42306393
 20
-172.38026403
 10
28.29901688
 20
-169.95454964
 10
29.29011439
 20
-172.95454975
  0
LINE
  5
1F1
100
AcDbEntity
  8
MST_1_1
 62
   251
  6
CONTINUOUS
100
AcDbLine
 10
19.13734964
 20
-172.38026403
 30
2500.0
 11
20.45256869
 21
-172.38026403
 31
2500.0
  0
LINE
  5
1F2
100
AcDbEntity
  8
MST_1_1
 62
   251
  6
CONTINUOUS
100
AcDbLine
 10
20.85163535
 20
-172.38026403
 30
2500.0
 11
22.1668544
 21
-172.38026403
 31
2500.0
  0
LINE
  5
1F3
100
AcDbEntity
  8
MST_1_1
 62
   251
  6
CONTINUOUS
100
AcDbLine
 10
22.56592107
 20
-172.38026403
 30
2500.0
 11
23.88114012
 21
-172.38026403
 31
2500.0
  0
LINE
  5
1F4
100
AcDbEntity
  8
MST_1_1
 62
   251
  6
CONTINUOUS
100
AcDbLine
 10
27.70877821
 20
-172.38026403
 30
2500.0
 11
29.02399726
 21
-172.38026403
 31
2500.0
  0
LINE
  5
1F5
100
AcDbEntity
  8
MST_1_1
 62
   251
  6
CONTINUOUS
100
AcDbLine
 10
19.59463883
 20
-170.52883546
 30
2500.0
 11
18.27941978
 21
-170.52883546
 31
2500.0
  0
LINE
  5
1F6
100
AcDbEntity
  8
MST_1_1
 62
   251
  6
CONTINUOUS
100
AcDbLine
 10
21.30892454
 20
-170.52883546
 30
2500.0
 11
19.99370549
 21
-170.52883546
 31
2500.0
  0
LINE
  5
1F7
100
AcDbEntity
  8
MST_1_1
 62
   251
  6
CONTINUOUS
100
AcDbLine
 10
23.02321025
 20
-170.52883546
 30
2500.0
 11
21.70799121
 21
-170.52883546
 31
2500.0
  0
LINE
  5
1F8
100
AcDbEntity
  8
MST_1_1
 62
   251
  6
CONTINUOUS
100
AcDbLine
 10
28.1660674
 20
-170.52883546
 30
2500.0
 11
26.85084835
 21
-170.52883546
 31
2500.0
  0
LWPOLYLINE
  5
1F9
100
AcDbEntity
  8
MST_1_1
 62
   137
  6
CONTINUOUS
100
AcDbPolyline
 90
        6
 70
     0
 43
0.0
 38
2500.0
 10
24.87044545
 20
-169.95454964
 10
24.73749597
 20
-170.52883546
 10
25.86154296
 20
-172.95454975
 10
25.9944925
 20
-172.38026403
 10
24.87044545
 20
-169.95454964
 10
25.86154296
 20
-172.95454975
  0
LWPOLYLINE
  5
1FA
100
AcDbEntity
  8
MST_1_1
 62
   137
  6
CONTINUOUS
100
AcDbPolyline
 90
        6
 70
     0
 43
0.0
 38
2500.0
 10
26.58473117
 20
-169.95454964
 10
26.45178168
 20
-170.52883546
 10
27.57582868
 20
-172.95454975
 10
27.70877821
 20
-172.38026403
 10
26.58473117
 20
-169.95454964
 10
27.57582868
 20
-172.95454975
  0
LINE
  5
1FB
100
AcDbEntity
  8
MST_1_1
 62
   251
  6
CONTINUOUS
100
AcDbLine
 10
24.28020678
 20
-172.38026403
 30
2500.0
 11
25.59542583
 21
-172.38026403
 31
2500.0
  0
LINE
  5
1FC
100
AcDbEntity
  8
MST_1_1
 62
   251
  6
CONTINUOUS
100
AcDbLine
 10
25.9944925
 20
-172.38026403
 30
2500.0
 11
27.30971155
 21
-172.38026403
 31
2500.0
  0
LINE
  5
1FD
100
AcDbEntity
  8
MST_1_1
 62
   251
  6
CONTINUOUS
100
AcDbLine
 10
24.73749597
 20
-170.52883546
 30
2500.0
 11
23.42227692
 21
-170.52883546
 31
2500.0
  0
LINE
  5
1FE
100
AcDbEntity
  8
MST_1_1
 62
   251
  6
CONTINUOUS
100
AcDbLine
 10
26.45178168
 20
-170.52883546
 30
2500.0
 11
25.13656263
 21
-170.52883546
 31
2500.0
  0
LWPOLYLINE
  5
1FF
100
AcDbEntity
  8
MST_1_1
 62
   137
  6
CONTINUOUS
100
AcDbPolyline
 90
        6
 70
     0
 43
0.0
 38
2500.0
 10
16.29901688
 20
-169.95454964
 10
16.1660674
 20
-170.52883546
 10
17.29011439
 20
-172.95454975
 10
17.42306393
 20
-172.38026403
 10
16.29901688
 20
-169.95454964
 10
17.29011439
 20
-172.95454975
  0
LWPOLYLINE
  5
200
100
AcDbEntity
  8
MST_1_1
 62
   137
  6
CONTINUOUS
100
AcDbPolyline
 90
        6
 70
     0
 43
0.0
 38
2500.0
 10
18.0133026
 20
-169.95454964
 10
17.88035311
 20
-170.52883546
 10
19.00440011
 20
-172.95454975
 10
19.13734964
 20
-172.38026403
 10
18.0133026
 20
-169.95454964
 10
19.00440011
 20
-172.95454975
  0
LINE
  5
201
100
AcDbEntity
  8
MST_1_1
 62
   251
  6
CONTINUOUS
100
AcDbLine
 10
15.70877821
 20
-172.38026403
 30
2500.0
 11
17.02399726
 21
-172.38026403
 31
2500.0
  0
LINE
  5
202
100
AcDbEntity
  8
MST_1_1
 62
   251
  6
CONTINUOUS
100
AcDbLine
 10
17.42306393
 20
-172.38026403
 30
2500.0
 11
18.73828297
 21
-172.38026403
 31
2500.0
  0
LINE
  5
203
100
AcDbEntity
  8
MST_1_1
 62
   251
  6
CONTINUOUS
100
AcDbLine
 10
16.1660674
 20
-170.52883546
 30
2500.0
 11
14.85084835
 21
-170.52883546
 31
2500.0
  0
LINE
  5
204
100
AcDbEntity
  8
MST_1_1
 62
   251
  6
CONTINUOUS
100
AcDbLine
 10
17.88035311
 20
-170.52883546
 30
2500.0
 11
16.56513406
 21
-170.52883546
 31
2500.0
  0
LWPOLYLINE
  5
205
100
AcDbEntity
  8
MST_1_1
 62
   137
  6
CONTINUOUS
100
AcDbPolyline
 90
        6
 70
     0
 43
0.0
 38
2500.0
 10
24.72758831
 20
-199.95454964
 10
24.59463883
 20
-200.52883546
 10
25.71868582
 20
-202.95454975
 10
25.85163535
 20
-202.38026403
 10
24.72758831
 20
-199.95454964
 10
25.71868582
 20
-202.95454975
  0
LWPOLYLINE
  5
206
100
AcDbEntity
  8
MST_1_1
 62
   137
  6
CONTINUOUS
100
AcDbPolyline
 90
        6
 70
     0
 43
0.0
 38
2500.0
 10
26.44187402
 20
-199.95454964
 10
26.30892454
 20
-200.52883546
 10
27.43297154
 20
-202.95454975
 10
27.56592107
 20
-202.38026403
 10
26.44187402
 20
-199.95454964
 10
27.43297154
 20
-202.95454975
  0
LWPOLYLINE
  5
207
100
AcDbEntity
  8
MST_1_1
 62
   137
  6
CONTINUOUS
100
AcDbPolyline
 90
        6
 70
     0
 43
0.0
 38
2500.0
 10
28.15615974
 20
-199.95454964
 10
28.02321025
 20
-200.52883546
 10
29.14725725
 20
-202.95454975
 10
29.28020678
 20
-202.38026403
 10
28.15615974
 20
-199.95454964
 10
29.14725725
 20
-202.95454975
  0
LWPOLYLINE
  5
208
100
AcDbEntity
  8
MST_1_1
 62
   137
  6
CONTINUOUS
100
AcDbPolyline
 90
        6
 70
     0
 43
0.0
 38
2500.0
 10
33.29901688
 20
-199.95454964
 10
33.1660674
 20
-200.52883546
 10
34.29011439
 20
-202.95454975
 10
34.42306393
 20
-202.38026403
 10
33.29901688
 20
-199.95454964
 10
34.29011439
 20
-202.95454975
  0
LWPOLYLINE
  5
209
100
AcDbEntity
  8
MST_1_1
 62
   137
  6
CONTINUOUS
100
AcDbPolyline
 90
        6
 70
     0
 43
0.0
 38
2500.0
 10
35.0133026
 20
-199.95454964
 10
34.88035311
 20
-200.52883546
 10
36.00440011
 20
-202.95454975
 10
36.13734964
 20
-202.38026403
 10
35.0133026
 20
-199.95454964
 10
36.00440011
 20
-202.95454975
  0
LINE
  5
20A
100
AcDbEntity
  8
MST_1_1
 62
   251
  6
CONTINUOUS
100
AcDbLine
 10
24.13734964
 20
-202.38026403
 30
2500.0
 11
25.45256869
 21
-202.38026403
 31
2500.0
  0
LINE
  5
20B
100
AcDbEntity
  8
MST_1_1
 62
   251
  6
CONTINUOUS
100
AcDbLine
 10
25.85163535
 20
-202.38026403
 30
2500.0
 11
27.1668544
 21
-202.38026403
 31
2500.0
  0
LINE
  5
20C
100
AcDbEntity
  8
MST_1_1
 62
   251
  6
CONTINUOUS
100
AcDbLine
 10
27.56592107
 20
-202.38026403
 30
2500.0
 11
28.88114012
 21
-202.38026403
 31
2500.0
  0
LINE
  5
20D
100
AcDbEntity
  8
MST_1_1
 62
   251
  6
CONTINUOUS
100
AcDbLine
 10
32.70877821
 20
-202.38026403
 30
2500.0
 11
34.02399726
 21
-202.38026403
 31
2500.0
  0
LINE
  5
20E
100
AcDbEntity
  8
MST_1_1
 62
   251
  6
CONTINUOUS
100
AcDbLine
 10
34.42306393
 20
-202.38026403
 30
2500.0
 11
35.73828297
 21
-202.38026403
 31
2500.0
  0
LINE
  5
20F
100
AcDbEntity
  8
MST_1_1
 62
   251
  6
CONTINUOUS
100
AcDbLine
 10
24.59463883
 20
-200.52883546
 30
2500.0
 11
23.27941978
 21
-200.52883546
 31
2500.0
  0
LINE
  5
210
100
AcDbEntity
  8
MST_1_1
 62
   251
  6
CONTINUOUS
100
AcDbLine
 10
26.30892454
 20
-200.52883546
 30
2500.0
 11
24.99370549
 21
-200.52883546
 31
2500.0
  0
LINE
  5
211
100
AcDbEntity
  8
MST_1_1
 62
   251
  6
CONTINUOUS
100
AcDbLine
 10
28.02321025
 20
-200.52883546
 30
2500.0
 11
26.70799121
 21
-200.52883546
 31
2500.0
  0
LINE
  5
212
100
AcDbEntity
  8
MST_1_1
 62
   251
  6
CONTINUOUS
100
AcDbLine
 10
33.1660674
 20
-200.52883546
 30
2500.0
 11
31.85084835
 21
-200.52883546
 31
2500.0
  0
LINE
  5
213
100
AcDbEntity
  8
MST_1_1
 62
   251
  6
CONTINUOUS
100
AcDbLine
 10
34.88035311
 20
-200.52883546
 30
2500.0
 11
33.56513406
 21
-200.52883546
 31
2500.0
  0
LWPOLYLINE
  5
214
100
AcDbEntity
  8
MST_1_1
 62
   137
  6
CONTINUOUS
100
AcDbPolyline
 90
        6
 70
     0
 43
0.0
 38
2500.0
 10
29.87044545
 20
-199.95454964
 10
29.73749597
 20
-200.52883546
 10
30.86154296
 20
-202.95454975
 10
30.9944925
 20
-202.38026403
 10
29.87044545
 20
-199.95454964
 10
30.86154296
 20
-202.95454975
  0
LWPOLYLINE
  5
215
100
AcDbEntity
  8
MST_1_1
 62
   137
  6
CONTINUOUS
100
AcDbPolyline
 90
        6
 70
     0
 43
0.0
 38
2500.0
 10
31.58473117
 20
-199.95454964
 10
31.45178168
 20
-200.52883546
 10
32.57582868
 20
-202.95454975
 10
32.70877821
 20
-202.38026403
 10
31.58473117
 20
-199.95454964
 10
32.57582868
 20
-202.95454975
  0
LINE
  5
216
100
AcDbEntity
  8
MST_1_1
 62
   251
  6
CONTINUOUS
100
AcDbLine
 10
29.28020678
 20
-202.38026403
 30
2500.0
 11
30.59542583
 21
-202.38026403
 31
2500.0
  0
LINE
  5
217
100
AcDbEntity
  8
MST_1_1
 62
   251
  6
CONTINUOUS
100
AcDbLine
 10
30.9944925
 20
-202.38026403
 30
2500.0
 11
32.30971155
 21
-202.38026403
 31
2500.0
  0
LINE
  5
218
100
AcDbEntity
  8
MST_1_1
 62
   251
  6
CONTINUOUS
100
AcDbLine
 10
29.73749597
 20
-200.52883546
 30
2500.0
 11
28.42227692
 21
-200.52883546
 31
2500.0
  0
LINE
  5
219
100
AcDbEntity
  8
MST_1_1
 62
   251
  6
CONTINUOUS
100
AcDbLine
 10
31.45178168
 20
-200.52883546
 30
2500.0
 11
30.13656263
 21
-200.52883546
 31
2500.0
  0
LWPOLYLINE
  5
21A
100
AcDbEntity
  8
MST_1_1
 62
   137
  6
CONTINUOUS
100
AcDbPolyline
 90
        6
 70
     0
 43
0.0
 38
2500.0
 10
17.87044545
 20
-199.95454964
 10
17.73749597
 20
-200.52883546
 10
18.86154296
 20
-202.95454975
 10
18.9944925
 20
-202.38026403
 10
17.87044545
 20
-199.95454964
 10
18.86154296
 20
-202.95454975
  0
LWPOLYLINE
  5
21B
100
AcDbEntity
  8
MST_1_1
 62
   137
  6
CONTINUOUS
100
AcDbPolyline
 90
        6
 70
     0
 43
0.0
 38
2500.0
 10
19.58473117
 20
-199.95454964
 10
19.45178168
 20
-200.52883546
 10
20.57582868
 20
-202.95454975
 10
20.70877821
 20
-202.38026403
 10
19.58473117
 20
-199.95454964
 10
20.57582868
 20
-202.95454975
  0
LWPOLYLINE
  5
21C
100
AcDbEntity
  8
MST_1_1
 62
   137
  6
CONTINUOUS
100
AcDbPolyline
 90
        6
 70
     0
 43
0.0
 38
2500.0
 10
21.29901688
 20
-199.95454964
 10
21.1660674
 20
-200.52883546
 10
22.29011439
 20
-202.95454975
 10
22.42306393
 20
-202.38026403
 10
21.29901688
 20
-199.95454964
 10
22.29011439
 20
-202.95454975
  0
LINE
  5
21D
100
AcDbEntity
  8
MST_1_1
 62
   251
  6
CONTINUOUS
100
AcDbLine
 10
17.28020678
 20
-202.38026403
 30
2500.0
 11
18.59542583
 21
-202.38026403
 31
2500.0
  0
LINE
  5
21E
100
AcDbEntity
  8
MST_1_1
 62
   251
  6
CONTINUOUS
100
AcDbLine
 10
18.9944925
 20
-202.38026403
 30
2500.0
 11
20.30971155
 21
-202.38026403
 31
2500.0
  0
LINE
  5
21F
100
AcDbEntity
  8
MST_1_1
 62
   251
  6
CONTINUOUS
100
AcDbLine
 10
20.70877821
 20
-202.38026403
 30
2500.0
 11
22.02399726
 21
-202.38026403
 31
2500.0
  0
LINE
  5
220
100
AcDbEntity
  8
MST_1_1
 62
   251
  6
CONTINUOUS
100
AcDbLine
 10
17.73749597
 20
-200.52883546
 30
2500.0
 11
16.42227692
 21
-200.52883546
 31
2500.0
  0
LINE
  5
221
100
AcDbEntity
  8
MST_1_1
 62
   251
  6
CONTINUOUS
100
AcDbLine
 10
19.45178168
 20
-200.52883546
 30
2500.0
 11
18.13656263
 21
-200.52883546
 31
2500.0
  0
LINE
  5
222
100
AcDbEntity
  8
MST_1_1
 62
   251
  6
CONTINUOUS
100
AcDbLine
 10
21.1660674
 20
-200.52883546
 30
2500.0
 11
19.85084835
 21
-200.52883546
 31
2500.0
  0
LWPOLYLINE
  5
223
100
AcDbEntity
  8
MST_1_1
 62
   137
  6
CONTINUOUS
100
AcDbPolyline
 90
        6
 70
     0
 43
0.0
 38
2500.0
 10
23.0133026
 20
-199.95454964
 10
22.88035311
 20
-200.52883546
 10
24.00440011
 20
-202.95454975
 10
24.13734964
 20
-202.38026403
 10
23.0133026
 20
-199.95454964
 10
24.00440011
 20
-202.95454975
  0
LINE
  5
224
100
AcDbEntity
  8
MST_1_1
 62
   251
  6
CONTINUOUS
100
AcDbLine
 10
22.42306393
 20
-202.38026403
 30
2500.0
 11
23.73828297
 21
-202.38026403
 31
2500.0
  0
LINE
  5
225
100
AcDbEntity
  8
MST_1_1
 62
   251
  6
CONTINUOUS
100
AcDbLine
 10
22.88035311
 20
-200.52883546
 30
2500.0
 11
21.56513406
 21
-200.52883546
 31
2500.0
  0
CIRCLE
  5
226
100
AcDbEntity
  8
MST_1_1
 62
   137
  6
CONTINUOUS
100
AcDbCircle
 10
-89.70142916
 20
8.54545025
 30
0.0
 40
1.59661192
  0
CIRCLE
  5
227
100
AcDbEntity
  8
MST_1_1
 62
   137
  6
CONTINUOUS
100
AcDbCircle
 10
-89.70142916
 20
8.54545025
 30
0.0
 40
0.89384526
  0
CIRCLE
  5
228
100
AcDbEntity
  8
MST_1_1
 62
   137
  6
CONTINUOUS
100
AcDbCircle
 10
-89.70142916
 20
8.54545025
 30
0.0
 40
1.59661192
  0
CIRCLE
  5
229
100
AcDbEntity
  8
MST_1_1
 62
   137
  6
CONTINUOUS
100
AcDbCircle
 10
-89.70142916
 20
8.54545025
 30
0.0
 40
0.89384526
  0
CIRCLE
  5
22A
100
AcDbEntity
  8
MST_1_1
 62
   137
  6
CONTINUOUS
100
AcDbCircle
 10
-89.70142916
 20
8.54545025
 30
0.0
 40
1.59661192
  0
CIRCLE
  5
22B
100
AcDbEntity
  8
MST_1_1
 62
   137
  6
CONTINUOUS
100
AcDbCircle
 10
-89.70142916
 20
8.54545025
 30
0.0
 40
0.89384526
  0
CIRCLE
  5
22C
100
AcDbEntity
  8
MST_1_1
 62
   137
  6
CONTINUOUS
100
AcDbCircle
 10
-89.70142916
 20
8.54545025
 30
0.0
 40
1.34375478
  0
CIRCLE
  5
22D
100
AcDbEntity
  8
MST_1_1
 62
   137
  6
CONTINUOUS
100
AcDbCircle
 10
-89.70142916
 20
8.54545025
 30
0.0
 40
1.68089764
  0
CIRCLE
  5
22E
100
AcDbEntity
  8
MST_1_1
 62
   137
  6
CONTINUOUS
100
AcDbCircle
 10
-89.70142916
 20
8.54545025
 30
0.0
 40
0.94821429
  0
CIRCLE
  5
22F
100
AcDbEntity
  8
MST_1_1
 62
   137
  6
CONTINUOUS
100
AcDbCircle
 10
-89.70142916
 20
8.54545025
 30
0.0
 40
2.95
  0
ARC
  5
230
100
AcDbEntity
  8
MST_1_1
 62
   137
  6
CONTINUOUS
100
AcDbCircle
 10
-90.85782914
 20
8.54545025
 30
0.0
 40
0.25538572
100
AcDbArc
 50
104.00039951
 51
255.99961051
  0
ARC
  5
231
100
AcDbEntity
  8
MST_1_1
 62
   137
  6
CONTINUOUS
100
AcDbCircle
 10
-91.0522911
 20
7.76552973
 30
0.0
 40
0.54841244
100
AcDbArc
 50
344.00042282
 51
75.99958535
  0
ARC
  5
232
100
AcDbEntity
  8
MST_1_1
 62
   137
  6
CONTINUOUS
100
AcDbCircle
 10
-90.27962913
 20
7.54397848
 30
0.0
 40
0.25538571
100
AcDbArc
 50
164.00040911
 51
315.99959504
  0
ARC
  5
233
100
AcDbEntity
  8
MST_1_1
 62
   137
  6
CONTINUOUS
100
AcDbCircle
 10
-89.70142916
 20
6.9856093
 30
0.0
 40
0.54841237
100
AcDbArc
 50
44.00040429
 51
135.99959571
  0
ARC
  5
234
100
AcDbEntity
  8
MST_1_1
 62
   137
  6
CONTINUOUS
100
AcDbCircle
 10
-89.12322916
 20
7.54397844
 30
0.0
 40
0.2553857
100
AcDbArc
 50
224.00041508
 51
15.9996008
  0
ARC
  5
235
100
AcDbEntity
  8
MST_1_1
 62
   137
  6
CONTINUOUS
100
AcDbCircle
 10
-88.54502917
 20
8.54545025
 30
0.0
 40
0.25538572
100
AcDbArc
 50
284.00040953
 51
75.99960049
  0
ARC
  5
236
100
AcDbEntity
  8
MST_1_1
 62
   137
  6
CONTINUOUS
100
AcDbCircle
 10
-88.35056722
 20
9.32537078
 30
0.0
 40
0.54841244
100
AcDbArc
 50
164.00041281
 51
255.99959537
  0
ARC
  5
237
100
AcDbEntity
  8
MST_1_1
 62
   137
  6
CONTINUOUS
100
AcDbCircle
 10
-89.12322918
 20
9.54692202
 30
0.0
 40
0.25538571
100
AcDbArc
 50
344.00041913
 51
135.99958502
  0
ARC
  5
238
100
AcDbEntity
  8
MST_1_1
 62
   137
  6
CONTINUOUS
100
AcDbCircle
 10
-89.70142916
 20
10.1052912
 30
0.0
 40
0.54841237
100
AcDbArc
 50
224.00041431
 51
315.99960573
  0
ARC
  5
239
100
AcDbEntity
  8
MST_1_1
 62
   137
  6
CONTINUOUS
100
AcDbCircle
 10
-90.27962916
 20
9.54692206
 30
0.0
 40
0.2553857
100
AcDbArc
 50
44.00040506
 51
195.99961082
  0
ARC
  5
23A
100
AcDbEntity
  8
MST_1_1
 62
   137
  6
CONTINUOUS
100
AcDbCircle
 10
-91.0522911
 20
9.32537078
 30
0.0
 40
0.54841244
100
AcDbArc
 50
284.00042461
 51
15.99958726
  0
LWPOLYLINE
  5
23B
100
AcDbEntity
  8
MST_1_1
 62
   137
  6
CONTINUOUS
100
AcDbPolyline
 90
        9
 70
     0
 43
0.0
 10
-90.78911093
 20
6.65318192
 10
-90.78146962
 20
6.66082323
 10
-90.77382291
 20
6.66847003
 10
-90.76617091
 20
6.67612194
 10
-90.75851351
 20
6.68377934
 10
-90.75085091
 20
6.69144204
 10
-90.74318291
 20
6.69911003
 10
-90.73550971
 20
6.70678313
 10
-90.72783131
 20
6.71446153
  0
ARC
  5
23C
100
AcDbEntity
  8
MST_1_1
 62
   137
  6
CONTINUOUS
100
AcDbCircle
 10
-90.5995861
 20
6.82125111
 30
0.0
 40
0.16688573
100
AcDbArc
 50
50.21591721
 51
219.78410477
  0
LWPOLYLINE
  5
23D
100
AcDbEntity
  8
MST_1_1
 62
   137
  6
CONTINUOUS
100
AcDbPolyline
 90
        9
 70
     0
 43
0.0
 10
-90.49279655
 20
6.94949634
 10
-90.48515078
 20
6.95714216
 10
-90.47750093
 20
6.96479201
 10
-90.46984701
 20
6.97244588
 10
-90.46218898
 20
6.98010387
 10
-90.45452696
 20
6.98776598
 10
-90.44686093
 20
6.99543201
 10
-90.43919087
 20
7.00310197
 10
-90.43151689
 20
7.01077596
  0
LWPOLYLINE
  5
23E
100
AcDbEntity
  8
MST_1_1
 62
   137
  6
CONTINUOUS
100
AcDbPolyline
 90
        9
 70
     0
 43
0.0
 10
-90.43151689
 20
7.01077596
 10
-90.47732574
 20
7.05658486
 10
-90.52317854
 20
7.10243761
 10
-90.56906977
 20
7.14832884
 10
-90.61499356
 20
7.19425264
 10
-90.66094445
 20
7.24020352
 10
-90.70691662
 20
7.28617569
 10
-90.75290449
 20
7.33216356
 10
-90.79890227
 20
7.37816134
  0
LWPOLYLINE
  5
23F
100
AcDbEntity
  8
MST_1_1
 62
   137
  6
CONTINUOUS
100
AcDbPolyline
 90
        9
 70
     0
 43
0.0
 10
-90.79890227
 20
7.37816134
 10
-90.80161798
 20
7.37544573
 10
-90.8043331
 20
7.37273052
 10
-90.80704783
 20
7.37001589
 10
-90.80976206
 20
7.36730165
 10
-90.81247571
 20
7.3645879
 10
-90.81518897
 20
7.36187475
 10
-90.81790163
 20
7.35916198
 10
-90.82061391
 20
7.35644981
  0
LWPOLYLINE
  5
240
100
AcDbEntity
  8
MST_1_1
 62
   137
  6
CONTINUOUS
100
AcDbPolyline
 90
       25
 70
     0
 43
0.0
 10
-90.82061391
 20
7.35644977
 10
-90.82288315
 20
7.3599451
 10
-90.82521263
 20
7.36339405
 10
-90.82760171
 20
7.36679601
 10
-90.83004977
 20
7.37015034
 10
-90.83255617
 20
7.37345641
 10
-90.8351203
 20
7.37671359
 10
-90.83774152
 20
7.37992126
 10
-90.84041921
 20
7.38307878
 10
-90.84315274
 20
7.38618552
 10
-90.84594148
 20
7.38924086
 10
-90.8487848
 20
7.39224416
 10
-90.85168208
 20
7.3951948
 10
-90.85463269
 20
7.39809214
 10
-90.857636
 20
7.40093556
 10
-90.86069139
 20
7.40372443
 10
-90.86379822
 20
7.40645812
 10
-90.86695587
 20
7.40913599
 10
-90.87016371
 20
7.41175742
 10
-90.87342112
 20
7.41432179
 10
-90.87672746
 20
7.41682845
 10
-90.88008211
 20
7.41927678
 10
-90.88348444
 20
7.42166615
 10
-90.88693383
 20
7.42399593
 10
-90.89042964
 20
7.4262655
  0
LWPOLYLINE
  5
241
100
AcDbEntity
  8
MST_1_1
 62
   137
  6
CONTINUOUS
100
AcDbPolyline
 90
        9
 70
     0
 43
0.0
 10
-90.8904296
 20
7.4262655
 10
-90.88771743
 20
7.42897777
 10
-90.88500466
 20
7.43169044
 10
-90.8822915
 20
7.4344037
 10
-90.87957776
 20
7.43711734
 10
-90.87686352
 20
7.43983158
 10
-90.87414889
 20
7.44254631
 10
-90.87143367
 20
7.44526143
 10
-90.86871806
 20
7.44797714
  0
LWPOLYLINE
  5
242
100
AcDbEntity
  8
MST_1_1
 62
   137
  6
CONTINUOUS
100
AcDbPolyline
 90
        9
 70
     0
 43
0.0
 10
-90.86871806
 20
7.44797714
 10
-90.91471585
 20
7.49397492
 10
-90.96070372
 20
7.53996279
 10
-91.00667589
 20
7.58593496
 10
-91.05262677
 20
7.63188584
 10
-91.09855057
 20
7.67780964
 10
-91.14444179
 20
7.72370087
 10
-91.19029455
 20
7.76955367
 10
-91.23610345
 20
7.81536252
  0
LWPOLYLINE
  5
243
100
AcDbEntity
  8
MST_1_1
 62
   137
  6
CONTINUOUS
100
AcDbPolyline
 90
        9
 70
     0
 43
0.0
 10
-91.23610345
 20
7.81536252
 10
-91.24377743
 20
7.80768854
 10
-91.2514474
 20
7.80001848
 10
-91.25911343
 20
7.79235245
 10
-91.26677554
 20
7.78469043
 10
-91.27443353
 20
7.77703239
 10
-91.2820874
 20
7.76937848
 10
-91.28973724
 20
7.76172863
 10
-91.29738307
 20
7.75408286
  0
ARC
  5
244
100
AcDbEntity
  8
MST_1_1
 62
   137
  6
CONTINUOUS
100
AcDbCircle
 10
-91.42562831
 20
7.64729331
 30
0.0
 40
0.16688573
100
AcDbArc
 50
230.21591956
 51
39.7840785
  0
LWPOLYLINE
  5
245
100
AcDbEntity
  8
MST_1_1
 62
   137
  6
CONTINUOUS
100
AcDbPolyline
 90
        9
 70
     0
 43
0.0
 10
-91.53241788
 20
7.5190481
 10
-91.54009628
 20
7.5113697
 10
-91.54776938
 20
7.5036965
 10
-91.55543737
 20
7.4960285
 10
-91.56310007
 20
7.4883659
 10
-91.57075747
 20
7.4807085
 10
-91.57840938
 20
7.4730565
 10
-91.58605618
 20
7.46540979
 10
-91.59369749
 20
7.45776848
  0
LWPOLYLINE
  5
246
100
AcDbEntity
  8
MST_1_1
 62
   137
  6
CONTINUOUS
100
AcDbPolyline
 90
        9
 70
     0
 43
0.0
 10
-91.59369749
 20
7.45776848
 10
-91.54789517
 20
7.41196635
 10
-91.50204653
 20
7.36611762
 10
-91.45615727
 20
7.32022826
 10
-91.41023327
 20
7.27430436
 10
-91.36428082
 20
7.22835191
 10
-91.31830581
 20
7.18237689
 10
-91.2723142
 20
7.13638529
 10
-91.22631201
 20
7.0903831
  0
LWPOLYLINE
  5
247
100
AcDbEntity
  8
MST_1_1
 62
   137
  6
CONTINUOUS
100
AcDbPolyline
 90
        9
 70
     0
 43
0.0
 10
-91.22631201
 20
7.0903831
 10
-91.22360042
 20
7.09309468
 10
-91.22088815
 20
7.09580696
 10
-91.21817518
 20
7.09851992
 10
-91.21546154
 20
7.10123357
 10
-91.2127473
 20
7.1039478
 10
-91.21003238
 20
7.10666282
 10
-91.20731667
 20
7.10937843
 10
-91.20460037
 20
7.11209473
  0
LWPOLYLINE
  5
248
100
AcDbEntity
  8
MST_1_1
 62
   137
  6
CONTINUOUS
100
AcDbPolyline
 90
       25
 70
     0
 43
0.0
 10
-91.20460041
 20
7.11209473
 10
-91.20233134
 20
7.10859968
 10
-91.20000198
 20
7.10515094
 10
-91.19761297
 20
7.10174915
 10
-91.19516494
 20
7.09839493
 10
-91.19265852
 20
7.09508892
 10
-91.19009435
 20
7.09183175
 10
-91.18747306
 20
7.08862407
 10
-91.18479528
 20
7.0854665
 10
-91.18206164
 20
7.08235968
 10
-91.17927278
 20
7.07930424
 10
-91.17642933
 20
7.07630083
 10
-91.17353193
 20
7.07335006
 10
-91.17058119
 20
7.07045259
 10
-91.16757777
 20
7.06760904
 10
-91.16452229
 20
7.06482005
 10
-91.16141538
 20
7.06208625
 10
-91.15825767
 20
7.05940828
 10
-91.15504981
 20
7.05678678
 10
-91.15179242
 20
7.05422237
 10
-91.14848613
 20
7.05171569
 10
-91.14513158
 20
7.04926738
 10
-91.1417294
 20
7.04687807
 10
-91.13828022
 20
7.0445484
 10
-91.13478468
 20
7.042279
  0
LWPOLYLINE
  5
249
100
AcDbEntity
  8
MST_1_1
 62
   137
  6
CONTINUOUS
100
AcDbPolyline
 90
        9
 70
     0
 43
0.0
 10
-91.13478468
 20
7.04227904
 10
-91.13750097
 20
7.03956274
 10
-91.14021658
 20
7.03684703
 10
-91.14293161
 20
7.03413211
 10
-91.14564584
 20
7.03141787
 10
-91.14835949
 20
7.02870422
 10
-91.15107245
 20
7.02599126
 10
-91.15378473
 20
7.02327899
 10
-91.15649631
 20
7.0205674
  0
LWPOLYLINE
  5
24A
100
AcDbEntity
  8
MST_1_1
 62
   137
  6
CONTINUOUS
100
AcDbPolyline
 90
        9
 70
     0
 43
0.0
 10
-91.15649631
 20
7.0205674
 10
-91.11049411
 20
6.9745652
 10
-91.06450251
 20
6.9285736
 10
-91.0185275
 20
6.88259859
 10
-90.97257505
 20
6.83664613
 10
-90.92665115
 20
6.79072214
 10
-90.88076179
 20
6.74483288
 10
-90.83491305
 20
6.69898424
 10
-90.78911093
 20
6.65318192
  0
CIRCLE
  5
24B
100
AcDbEntity
  8
MST_1_1
 62
   137
  6
CONTINUOUS
100
AcDbCircle
 10
-89.70142916
 20
8.54545025
 30
0.0
 40
2.76727078
  0
ARC
  5
24C
100
AcDbEntity
  8
MST_1_1
 62
   137
  6
CONTINUOUS
100
AcDbCircle
 10
-88.35056722
 20
7.76552973
 30
0.0
 40
0.54841244
100
AcDbArc
 50
104.00041459
 51
195.99959727
  0
LWPOLYLINE
  5
24D
100
AcDbEntity
  8
MST_1_1
 62
   137
  6
CONTINUOUS
100
AcDbPolyline
 90
        9
 70
     0
 43
0.0
 10
-90.96291567
 20
7.4563522
 10
-90.99302768
 20
7.48646421
 10
-91.02313342
 20
7.51656994
 10
-91.0532314
 20
7.54666792
 10
-91.08331996
 20
7.57675648
 10
-91.11339753
 20
7.60683405
 10
-91.14346244
 20
7.63689907
 10
-91.17351323
 20
7.66694985
 10
-91.20354821
 20
7.69698484
  0
ARC
  5
24E
100
AcDbEntity
  8
MST_1_1
 62
   137
  6
CONTINUOUS
100
AcDbCircle
 10
-91.01260726
 20
7.2342728
 30
0.0
 40
0.22757089
100
AcDbArc
 50
77.38747914
 51
127.33780242
  0
LINE
  5
24F
100
AcDbEntity
  8
MST_1_1
 62
   137
  6
CONTINUOUS
100
AcDbLine
 10
-90.83167102
 20
7.09624742
 30
0.0
 11
-91.15063198
 21
7.41520839
 31
0.0
  0
ARC
  5
250
100
AcDbEntity
  8
MST_1_1
 62
   137
  6
CONTINUOUS
100
AcDbCircle
 10
-91.01260671
 20
7.23427218
 30
0.0
 40
0.22757099
100
AcDbArc
 50
322.66221884
 51
12.61250962
  0
LWPOLYLINE
  5
251
100
AcDbEntity
  8
MST_1_1
 62
   137
  6
CONTINUOUS
100
AcDbPolyline
 90
        9
 70
     0
 43
0.0
 10
-90.54989457
 20
7.04333119
 10
-90.57992956
 20
7.07336618
 10
-90.60998034
 20
7.10341697
 10
-90.64004535
 20
7.13348188
 10
-90.67012293
 20
7.16355945
 10
-90.70021149
 20
7.19364801
 10
-90.73030947
 20
7.22374599
 10
-90.7604152
 20
7.25385172
 10
-90.79052721
 20
7.28396374
  0
ARC
  5
252
100
AcDbEntity
  8
MST_1_1
 62
   137
  6
CONTINUOUS
100
AcDbCircle
 10
-90.59958601
 20
6.82125116
 30
0.0
 40
0.22757149
100
AcDbArc
 50
77.38755048
 51
192.61243885
  0
LWPOLYLINE
  5
253
100
AcDbEntity
  8
MST_1_1
 62
   137
  6
CONTINUOUS
100
AcDbPolyline
 90
        9
 70
     0
 43
0.0
 10
-91.06229861
 20
7.01219224
 10
-91.03218522
 20
6.98207886
 10
-91.00207831
 20
6.95197195
 10
-90.97197955
 20
6.92187318
 10
-90.94189049
 20
6.89178413
 10
-90.91181302
 20
6.86170675
 10
-90.8817487
 20
6.83164233
 10
-90.85169909
 20
6.80159282
 10
-90.82166606
 20
6.7715598
  0
ARC
  5
254
100
AcDbEntity
  8
MST_1_1
 62
   137
  6
CONTINUOUS
100
AcDbCircle
 10
-91.01260731
 20
7.23427296
 30
0.0
 40
0.22757212
100
AcDbArc
 50
257.38763285
 51
307.33766874
  0
LWPOLYLINE
  5
255
100
AcDbEntity
  8
MST_1_1
 62
   137
  6
CONTINUOUS
100
AcDbPolyline
 90
        9
 70
     0
 43
0.0
 10
-91.19354336
 20
7.37229711
 10
-91.15368651
 20
7.33244036
 10
-91.11381827
 20
7.29257213
 10
-91.07394249
 20
7.25269625
 10
-91.03406278
 20
7.21281663
 10
-90.99418316
 20
7.17293692
 10
-90.95430728
 20
7.13306113
 10
-90.91443905
 20
7.0931929
 10
-90.8745823
 20
7.05333605
  0
ARC
  5
256
100
AcDbEntity
  8
MST_1_1
 62
   137
  6
CONTINUOUS
100
AcDbCircle
 10
-91.01260708
 20
7.23427223
 30
0.0
 40
0.22757154
100
AcDbArc
 50
142.662273
 51
192.61245546
  0
LWPOLYLINE
  5
257
100
AcDbEntity
  8
MST_1_1
 62
   137
  6
CONTINUOUS
100
AcDbPolyline
 90
        9
 70
     0
 43
0.0
 10
-91.47531961
 20
7.42521334
 10
-91.44528659
 20
7.39518032
 10
-91.41523708
 20
7.36513071
 10
-91.38517265
 20
7.33506639
 10
-91.35509528
 20
7.30498891
 10
-91.32500623
 20
7.27489986
 10
-91.29490746
 20
7.2448011
 10
-91.26480055
 20
7.21469419
 10
-91.23468717
 20
7.1845808
  0
ARC
  5
258
100
AcDbEntity
  8
MST_1_1
 62
   137
  6
CONTINUOUS
100
AcDbCircle
 10
-91.42562804
 20
7.64729318
 30
0.0
 40
0.22757133
100
AcDbArc
 50
257.38751638
 51
12.61251432
  0
LWPOLYLINE
  5
259
100
AcDbEntity
  8
MST_1_1
 62
   137
  6
CONTINUOUS
100
AcDbPolyline
 90
        9
 70
     0
 43
0.0
 10
-91.07962333
 20
7.387111
 10
-91.05214578
 20
7.35963346
 10
-91.0246645
 20
7.33215218
 10
-90.99718087
 20
7.30466845
 10
-90.96969587
 20
7.27718354
 10
-90.94221096
 20
7.24969854
 10
-90.91472723
 20
7.2222149
 10
-90.88724595
 20
7.19473363
 10
-90.8597684
 20
7.16725608
  0
ARC
  5
25A
100
AcDbEntity
  8
MST_1_1
 62
   137
  6
CONTINUOUS
100
AcDbCircle
 10
-91.01260721
 20
7.2342722
 30
0.0
 40
0.16688577
100
AcDbArc
 50
336.32372311
 51
113.6762869
  0
LWPOLYLINE
  5
25B
100
AcDbEntity
  8
MST_1_1
 62
   137
  6
CONTINUOUS
100
AcDbPolyline
 90
        9
 70
     0
 43
0.0
 10
-90.94559095
 20
7.08143353
 10
-90.9730685
 20
7.10891098
 10
-91.00054968
 20
7.13639226
 10
-91.02803341
 20
7.16387599
 10
-91.05551841
 20
7.191361
 10
-91.08300342
 20
7.218846
 10
-91.11048715
 20
7.24632973
 10
-91.13796843
 20
7.27381091
 10
-91.16544588
 20
7.30128846
  0
ARC
  5
25C
100
AcDbEntity
  8
MST_1_1
 62
   137
  6
CONTINUOUS
100
AcDbCircle
 10
-91.01260711
 20
7.2342723
 30
0.0
 40
0.16688575
100
AcDbArc
 50
156.32369345
 51
293.67631657
  0
CIRCLE
  5
25D
100
AcDbEntity
  8
MST_1_1
 62
   137
  6
CONTINUOUS
100
AcDbCircle
 10
-89.70142916
 20
-21.45454975
 30
0.0
 40
1.59661192
  0
CIRCLE
  5
25E
100
AcDbEntity
  8
MST_1_1
 62
   137
  6
CONTINUOUS
100
AcDbCircle
 10
-89.70142916
 20
-21.45454975
 30
0.0
 40
0.89384526
  0
CIRCLE
  5
25F
100
AcDbEntity
  8
MST_1_1
 62
   137
  6
CONTINUOUS
100
AcDbCircle
 10
-89.70142916
 20
-21.45454975
 30
0.0
 40
1.59661192
  0
CIRCLE
  5
260
100
AcDbEntity
  8
MST_1_1
 62
   137
  6
CONTINUOUS
100
AcDbCircle
 10
-89.70142916
 20
-21.45454975
 30
0.0
 40
0.89384526
  0
CIRCLE
  5
261
100
AcDbEntity
  8
MST_1_1
 62
   137
  6
CONTINUOUS
100
AcDbCircle
 10
-89.70142916
 20
-21.45454975
 30
0.0
 40
1.59661192
  0
CIRCLE
  5
262
100
AcDbEntity
  8
MST_1_1
 62
   137
  6
CONTINUOUS
100
AcDbCircle
 10
-89.70142916
 20
-21.45454975
 30
0.0
 40
0.89384526
  0
CIRCLE
  5
263
100
AcDbEntity
  8
MST_1_1
 62
   137
  6
CONTINUOUS
100
AcDbCircle
 10
-89.70142916
 20
-21.45454975
 30
0.0
 40
1.34375478
  0
CIRCLE
  5
264
100
AcDbEntity
  8
MST_1_1
 62
   137
  6
CONTINUOUS
100
AcDbCircle
 10
-89.70142916
 20
-21.45454975
 30
0.0
 40
1.68089764
  0
CIRCLE
  5
265
100
AcDbEntity
  8
MST_1_1
 62
   137
  6
CONTINUOUS
100
AcDbCircle
 10
-89.70142916
 20
-21.45454975
 30
0.0
 40
0.94821429
  0
CIRCLE
  5
266
100
AcDbEntity
  8
MST_1_1
 62
   137
  6
CONTINUOUS
100
AcDbCircle
 10
-89.70142916
 20
-21.45454975
 30
0.0
 40
2.95
  0
ARC
  5
267
100
AcDbEntity
  8
MST_1_1
 62
   137
  6
CONTINUOUS
100
AcDbCircle
 10
-90.85782914
 20
-21.45454975
 30
0.0
 40
0.25538572
100
AcDbArc
 50
104.00039951
 51
255.99961051
  0
ARC
  5
268
100
AcDbEntity
  8
MST_1_1
 62
   137
  6
CONTINUOUS
100
AcDbCircle
 10
-91.0522911
 20
-22.23447027
 30
0.0
 40
0.54841244
100
AcDbArc
 50
344.00042282
 51
75.99958535
  0
ARC
  5
269
100
AcDbEntity
  8
MST_1_1
 62
   137
  6
CONTINUOUS
100
AcDbCircle
 10
-90.27962913
 20
-22.45602152
 30
0.0
 40
0.25538571
100
AcDbArc
 50
164.00040911
 51
315.99959504
  0
ARC
  5
26A
100
AcDbEntity
  8
MST_1_1
 62
   137
  6
CONTINUOUS
100
AcDbCircle
 10
-89.70142916
 20
-23.0143907
 30
0.0
 40
0.54841237
100
AcDbArc
 50
44.00040429
 51
135.99959571
  0
ARC
  5
26B
100
AcDbEntity
  8
MST_1_1
 62
   137
  6
CONTINUOUS
100
AcDbCircle
 10
-89.12322916
 20
-22.45602156
 30
0.0
 40
0.2553857
100
AcDbArc
 50
224.00041508
 51
15.9996008
  0
ARC
  5
26C
100
AcDbEntity
  8
MST_1_1
 62
   137
  6
CONTINUOUS
100
AcDbCircle
 10
-88.54502917
 20
-21.45454975
 30
0.0
 40
0.25538572
100
AcDbArc
 50
284.00040953
 51
75.99960049
  0
ARC
  5
26D
100
AcDbEntity
  8
MST_1_1
 62
   137
  6
CONTINUOUS
100
AcDbCircle
 10
-88.35056722
 20
-20.67462922
 30
0.0
 40
0.54841244
100
AcDbArc
 50
164.00041281
 51
255.99959537
  0
ARC
  5
26E
100
AcDbEntity
  8
MST_1_1
 62
   137
  6
CONTINUOUS
100
AcDbCircle
 10
-89.12322918
 20
-20.45307798
 30
0.0
 40
0.25538571
100
AcDbArc
 50
344.00041913
 51
135.99958502
  0
ARC
  5
26F
100
AcDbEntity
  8
MST_1_1
 62
   137
  6
CONTINUOUS
100
AcDbCircle
 10
-89.70142916
 20
-19.8947088
 30
0.0
 40
0.54841237
100
AcDbArc
 50
224.00041431
 51
315.99960573
  0
ARC
  5
270
100
AcDbEntity
  8
MST_1_1
 62
   137
  6
CONTINUOUS
100
AcDbCircle
 10
-90.27962916
 20
-20.45307794
 30
0.0
 40
0.2553857
100
AcDbArc
 50
44.00040506
 51
195.99961082
  0
ARC
  5
271
100
AcDbEntity
  8
MST_1_1
 62
   137
  6
CONTINUOUS
100
AcDbCircle
 10
-91.0522911
 20
-20.67462922
 30
0.0
 40
0.54841244
100
AcDbArc
 50
284.00042461
 51
15.99958726
  0
LWPOLYLINE
  5
272
100
AcDbEntity
  8
MST_1_1
 62
   137
  6
CONTINUOUS
100
AcDbPolyline
 90
        9
 70
     0
 43
0.0
 10
-90.78911093
 20
-23.34681808
 10
-90.78146962
 20
-23.33917677
 10
-90.77382291
 20
-23.33152997
 10
-90.76617091
 20
-23.32387806
 10
-90.75851351
 20
-23.31622066
 10
-90.75085091
 20
-23.30855796
 10
-90.74318291
 20
-23.30088997
 10
-90.73550971
 20
-23.29321687
 10
-90.72783131
 20
-23.28553847
  0
ARC
  5
273
100
AcDbEntity
  8
MST_1_1
 62
   137
  6
CONTINUOUS
100
AcDbCircle
 10
-90.5995861
 20
-23.17874889
 30
0.0
 40
0.16688573
100
AcDbArc
 50
50.21591721
 51
219.78410477
  0
LWPOLYLINE
  5
274
100
AcDbEntity
  8
MST_1_1
 62
   137
  6
CONTINUOUS
100
AcDbPolyline
 90
        9
 70
     0
 43
0.0
 10
-90.49279655
 20
-23.05050366
 10
-90.48515078
 20
-23.04285784
 10
-90.47750093
 20
-23.03520799
 10
-90.46984701
 20
-23.02755412
 10
-90.46218898
 20
-23.01989613
 10
-90.45452696
 20
-23.01223402
 10
-90.44686093
 20
-23.00456799
 10
-90.43919087
 20
-22.99689803
 10
-90.43151689
 20
-22.98922404
  0
LWPOLYLINE
  5
275
100
AcDbEntity
  8
MST_1_1
 62
   137
  6
CONTINUOUS
100
AcDbPolyline
 90
        9
 70
     0
 43
0.0
 10
-90.43151689
 20
-22.98922404
 10
-90.47732574
 20
-22.94341514
 10
-90.52317854
 20
-22.89756239
 10
-90.56906977
 20
-22.85167116
 10
-90.61499356
 20
-22.80574736
 10
-90.66094445
 20
-22.75979648
 10
-90.70691662
 20
-22.71382431
 10
-90.75290449
 20
-22.66783644
 10
-90.79890227
 20
-22.62183866
  0
LWPOLYLINE
  5
276
100
AcDbEntity
  8
MST_1_1
 62
   137
  6
CONTINUOUS
100
AcDbPolyline
 90
        9
 70
     0
 43
0.0
 10
-90.79890227
 20
-22.62183866
 10
-90.80161798
 20
-22.62455427
 10
-90.8043331
 20
-22.62726948
 10
-90.80704783
 20
-22.62998411
 10
-90.80976206
 20
-22.63269835
 10
-90.81247571
 20
-22.6354121
 10
-90.81518897
 20
-22.63812525
 10
-90.81790163
 20
-22.64083802
 10
-90.82061391
 20
-22.64355019
  0
LWPOLYLINE
  5
277
100
AcDbEntity
  8
MST_1_1
 62
   137
  6
CONTINUOUS
100
AcDbPolyline
 90
       25
 70
     0
 43
0.0
 10
-90.82061391
 20
-22.64355023
 10
-90.82288315
 20
-22.6400549
 10
-90.82521263
 20
-22.63660595
 10
-90.82760171
 20
-22.63320399
 10
-90.83004977
 20
-22.62984966
 10
-90.83255617
 20
-22.62654359
 10
-90.8351203
 20
-22.62328641
 10
-90.83774152
 20
-22.62007874
 10
-90.84041921
 20
-22.61692122
 10
-90.84315274
 20
-22.61381448
 10
-90.84594148
 20
-22.61075914
 10
-90.8487848
 20
-22.60775584
 10
-90.85168208
 20
-22.6048052
 10
-90.85463269
 20
-22.60190786
 10
-90.857636
 20
-22.59906444
 10
-90.86069139
 20
-22.59627557
 10
-90.86379822
 20
-22.59354188
 10
-90.86695587
 20
-22.59086401
 10
-90.87016371
 20
-22.58824258
 10
-90.87342112
 20
-22.58567821
 10
-90.87672746
 20
-22.58317155
 10
-90.88008211
 20
-22.58072322
 10
-90.88348444
 20
-22.57833385
 10
-90.88693383
 20
-22.57600407
 10
-90.89042964
 20
-22.5737345
  0
LWPOLYLINE
  5
278
100
AcDbEntity
  8
MST_1_1
 62
   137
  6
CONTINUOUS
100
AcDbPolyline
 90
        9
 70
     0
 43
0.0
 10
-90.8904296
 20
-22.5737345
 10
-90.88771743
 20
-22.57102223
 10
-90.88500466
 20
-22.56830956
 10
-90.8822915
 20
-22.5655963
 10
-90.87957776
 20
-22.56288266
 10
-90.87686352
 20
-22.56016842
 10
-90.87414889
 20
-22.55745369
 10
-90.87143367
 20
-22.55473857
 10
-90.86871806
 20
-22.55202286
  0
LWPOLYLINE
  5
279
100
AcDbEntity
  8
MST_1_1
 62
   137
  6
CONTINUOUS
100
AcDbPolyline
 90
        9
 70
     0
 43
0.0
 10
-90.86871806
 20
-22.55202286
 10
-90.91471585
 20
-22.50602508
 10
-90.96070372
 20
-22.46003721
 10
-91.00667589
 20
-22.41406504
 10
-91.05262677
 20
-22.36811416
 10
-91.09855057
 20
-22.32219036
 10
-91.14444179
 20
-22.27629913
 10
-91.19029455
 20
-22.23044633
 10
-91.23610345
 20
-22.18463748
  0
LWPOLYLINE
  5
27A
100
AcDbEntity
  8
MST_1_1
 62
   137
  6
CONTINUOUS
100
AcDbPolyline
 90
        9
 70
     0
 43
0.0
 10
-91.23610345
 20
-22.18463748
 10
-91.24377743
 20
-22.19231146
 10
-91.2514474
 20
-22.19998152
 10
-91.25911343
 20
-22.20764755
 10
-91.26677554
 20
-22.21530957
 10
-91.27443353
 20
-22.22296761
 10
-91.2820874
 20
-22.23062152
 10
-91.28973724
 20
-22.23827137
 10
-91.29738307
 20
-22.24591714
  0
ARC
  5
27B
100
AcDbEntity
  8
MST_1_1
 62
   137
  6
CONTINUOUS
100
AcDbCircle
 10
-91.42562831
 20
-22.35270669
 30
0.0
 40
0.16688573
100
AcDbArc
 50
230.21591956
 51
39.7840785
  0
LWPOLYLINE
  5
27C
100
AcDbEntity
  8
MST_1_1
 62
   137
  6
CONTINUOUS
100
AcDbPolyline
 90
        9
 70
     0
 43
0.0
 10
-91.53241788
 20
-22.4809519
 10
-91.54009628
 20
-22.4886303
 10
-91.54776938
 20
-22.4963035
 10
-91.55543737
 20
-22.5039715
 10
-91.56310007
 20
-22.5116341
 10
-91.57075747
 20
-22.5192915
 10
-91.57840938
 20
-22.5269435
 10
-91.58605618
 20
-22.53459021
 10
-91.59369749
 20
-22.54223152
  0
LWPOLYLINE
  5
27D
100
AcDbEntity
  8
MST_1_1
 62
   137
  6
CONTINUOUS
100
AcDbPolyline
 90
        9
 70
     0
 43
0.0
 10
-91.59369749
 20
-22.54223152
 10
-91.54789517
 20
-22.58803365
 10
-91.50204653
 20
-22.63388238
 10
-91.45615727
 20
-22.67977174
 10
-91.41023327
 20
-22.72569564
 10
-91.36428082
 20
-22.77164809
 10
-91.31830581
 20
-22.81762311
 10
-91.2723142
 20
-22.86361471
 10
-91.22631201
 20
-22.9096169
  0
LWPOLYLINE
  5
27E
100
AcDbEntity
  8
MST_1_1
 62
   137
  6
CONTINUOUS
100
AcDbPolyline
 90
        9
 70
     0
 43
0.0
 10
-91.22631201
 20
-22.9096169
 10
-91.22360042
 20
-22.90690532
 10
-91.22088815
 20
-22.90419304
 10
-91.21817518
 20
-22.90148008
 10
-91.21546154
 20
-22.89876643
 10
-91.2127473
 20
-22.8960522
 10
-91.21003238
 20
-22.89333718
 10
-91.20731667
 20
-22.89062157
 10
-91.20460037
 20
-22.88790527
  0
LWPOLYLINE
  5
27F
100
AcDbEntity
  8
MST_1_1
 62
   137
  6
CONTINUOUS
100
AcDbPolyline
 90
       25
 70
     0
 43
0.0
 10
-91.20460041
 20
-22.88790527
 10
-91.20233134
 20
-22.89140032
 10
-91.20000198
 20
-22.89484906
 10
-91.19761297
 20
-22.89825085
 10
-91.19516494
 20
-22.90160507
 10
-91.19265852
 20
-22.90491108
 10
-91.19009435
 20
-22.90816825
 10
-91.18747306
 20
-22.91137593
 10
-91.18479528
 20
-22.9145335
 10
-91.18206164
 20
-22.91764032
 10
-91.17927278
 20
-22.92069576
 10
-91.17642933
 20
-22.92369917
 10
-91.17353193
 20
-22.92664994
 10
-91.17058119
 20
-22.92954741
 10
-91.16757777
 20
-22.93239096
 10
-91.16452229
 20
-22.93517995
 10
-91.16141538
 20
-22.93791375
 10
-91.15825767
 20
-22.94059172
 10
-91.15504981
 20
-22.94321322
 10
-91.15179242
 20
-22.94577763
 10
-91.14848613
 20
-22.94828431
 10
-91.14513158
 20
-22.95073262
 10
-91.1417294
 20
-22.95312193
 10
-91.13828022
 20
-22.9554516
 10
-91.13478468
 20
-22.957721
  0
LWPOLYLINE
  5
280
100
AcDbEntity
  8
MST_1_1
 62
   137
  6
CONTINUOUS
100
AcDbPolyline
 90
        9
 70
     0
 43
0.0
 10
-91.13478468
 20
-22.95772096
 10
-91.13750097
 20
-22.96043726
 10
-91.14021658
 20
-22.96315297
 10
-91.14293161
 20
-22.96586789
 10
-91.14564584
 20
-22.96858213
 10
-91.14835949
 20
-22.97129578
 10
-91.15107245
 20
-22.97400874
 10
-91.15378473
 20
-22.97672101
 10
-91.15649631
 20
-22.9794326
  0
LWPOLYLINE
  5
281
100
AcDbEntity
  8
MST_1_1
 62
   137
  6
CONTINUOUS
100
AcDbPolyline
 90
        9
 70
     0
 43
0.0
 10
-91.15649631
 20
-22.9794326
 10
-91.11049411
 20
-23.0254348
 10
-91.06450251
 20
-23.0714264
 10
-91.0185275
 20
-23.11740141
 10
-90.97257505
 20
-23.16335387
 10
-90.92665115
 20
-23.20927786
 10
-90.88076179
 20
-23.25516712
 10
-90.83491305
 20
-23.30101576
 10
-90.78911093
 20
-23.34681808
  0
CIRCLE
  5
282
100
AcDbEntity
  8
MST_1_1
 62
   137
  6
CONTINUOUS
100
AcDbCircle
 10
-89.70142916
 20
-21.45454975
 30
0.0
 40
2.76727078
  0
ARC
  5
283
100
AcDbEntity
  8
MST_1_1
 62
   137
  6
CONTINUOUS
100
AcDbCircle
 10
-88.35056722
 20
-22.23447027
 30
0.0
 40
0.54841244
100
AcDbArc
 50
104.00041459
 51
195.99959727
  0
LWPOLYLINE
  5
284
100
AcDbEntity
  8
MST_1_1
 62
   137
  6
CONTINUOUS
100
AcDbPolyline
 90
        9
 70
     0
 43
0.0
 10
-90.96291567
 20
-22.5436478
 10
-90.99302768
 20
-22.51353579
 10
-91.02313342
 20
-22.48343006
 10
-91.0532314
 20
-22.45333208
 10
-91.08331996
 20
-22.42324352
 10
-91.11339753
 20
-22.39316595
 10
-91.14346244
 20
-22.36310093
 10
-91.17351323
 20
-22.33305015
 10
-91.20354821
 20
-22.30301516
  0
ARC
  5
285
100
AcDbEntity
  8
MST_1_1
 62
   137
  6
CONTINUOUS
100
AcDbCircle
 10
-91.01260726
 20
-22.7657272
 30
0.0
 40
0.22757089
100
AcDbArc
 50
77.38747914
 51
127.33780242
  0
LINE
  5
286
100
AcDbEntity
  8
MST_1_1
 62
   137
  6
CONTINUOUS
100
AcDbLine
 10
-90.83167102
 20
-22.90375258
 30
0.0
 11
-91.15063198
 21
-22.58479161
 31
0.0
  0
ARC
  5
287
100
AcDbEntity
  8
MST_1_1
 62
   137
  6
CONTINUOUS
100
AcDbCircle
 10
-91.01260671
 20
-22.76572782
 30
0.0
 40
0.22757099
100
AcDbArc
 50
322.66221884
 51
12.61250962
  0
LWPOLYLINE
  5
288
100
AcDbEntity
  8
MST_1_1
 62
   137
  6
CONTINUOUS
100
AcDbPolyline
 90
        9
 70
     0
 43
0.0
 10
-90.54989457
 20
-22.95666881
 10
-90.57992956
 20
-22.92663382
 10
-90.60998034
 20
-22.89658303
 10
-90.64004535
 20
-22.86651812
 10
-90.67012293
 20
-22.83644055
 10
-90.70021149
 20
-22.80635199
 10
-90.73030947
 20
-22.77625401
 10
-90.7604152
 20
-22.74614828
 10
-90.79052721
 20
-22.71603626
  0
ARC
  5
289
100
AcDbEntity
  8
MST_1_1
 62
   137
  6
CONTINUOUS
100
AcDbCircle
 10
-90.59958601
 20
-23.17874884
 30
0.0
 40
0.22757149
100
AcDbArc
 50
77.38755048
 51
192.61243885
  0
LWPOLYLINE
  5
28A
100
AcDbEntity
  8
MST_1_1
 62
   137
  6
CONTINUOUS
100
AcDbPolyline
 90
        9
 70
     0
 43
0.0
 10
-91.06229861
 20
-22.98780776
 10
-91.03218522
 20
-23.01792114
 10
-91.00207831
 20
-23.04802805
 10
-90.97197955
 20
-23.07812682
 10
-90.94189049
 20
-23.10821587
 10
-90.91181302
 20
-23.13829325
 10
-90.8817487
 20
-23.16835767
 10
-90.85169909
 20
-23.19840718
 10
-90.82166606
 20
-23.2284402
  0
ARC
  5
28B
100
AcDbEntity
  8
MST_1_1
 62
   137
  6
CONTINUOUS
100
AcDbCircle
 10
-91.01260731
 20
-22.76572704
 30
0.0
 40
0.22757212
100
AcDbArc
 50
257.38763285
 51
307.33766874
  0
LWPOLYLINE
  5
28C
100
AcDbEntity
  8
MST_1_1
 62
   137
  6
CONTINUOUS
100
AcDbPolyline
 90
        9
 70
     0
 43
0.0
 10
-91.19354336
 20
-22.62770289
 10
-91.15368651
 20
-22.66755964
 10
-91.11381827
 20
-22.70742787
 10
-91.07394249
 20
-22.74730375
 10
-91.03406278
 20
-22.78718337
 10
-90.99418316
 20
-22.82706308
 10
-90.95430728
 20
-22.86693887
 10
-90.91443905
 20
-22.9068071
 10
-90.8745823
 20
-22.94666395
  0
ARC
  5
28D
100
AcDbEntity
  8
MST_1_1
 62
   137
  6
CONTINUOUS
100
AcDbCircle
 10
-91.01260708
 20
-22.76572777
 30
0.0
 40
0.22757154
100
AcDbArc
 50
142.662273
 51
192.61245546
  0
LWPOLYLINE
  5
28E
100
AcDbEntity
  8
MST_1_1
 62
   137
  6
CONTINUOUS
100
AcDbPolyline
 90
        9
 70
     0
 43
0.0
 10
-91.47531961
 20
-22.57478666
 10
-91.44528659
 20
-22.60481968
 10
-91.41523708
 20
-22.63486929
 10
-91.38517265
 20
-22.66493361
 10
-91.35509528
 20
-22.69501109
 10
-91.32500623
 20
-22.72510014
 10
-91.29490746
 20
-22.7551989
 10
-91.26480055
 20
-22.78530581
 10
-91.23468717
 20
-22.8154192
  0
ARC
  5
28F
100
AcDbEntity
  8
MST_1_1
 62
   137
  6
CONTINUOUS
100
AcDbCircle
 10
-91.42562804
 20
-22.35270682
 30
0.0
 40
0.22757133
100
AcDbArc
 50
257.38751638
 51
12.61251432
  0
LWPOLYLINE
  5
290
100
AcDbEntity
  8
MST_1_1
 62
   137
  6
CONTINUOUS
100
AcDbPolyline
 90
        9
 70
     0
 43
0.0
 10
-91.07962333
 20
-22.612889
 10
-91.05214578
 20
-22.64036654
 10
-91.0246645
 20
-22.66784782
 10
-90.99718087
 20
-22.69533155
 10
-90.96969587
 20
-22.72281646
 10
-90.94221096
 20
-22.75030146
 10
-90.91472723
 20
-22.7777851
 10
-90.88724595
 20
-22.80526637
 10
-90.8597684
 20
-22.83274392
  0
ARC
  5
291
100
AcDbEntity
  8
MST_1_1
 62
   137
  6
CONTINUOUS
100
AcDbCircle
 10
-91.01260721
 20
-22.7657278
 30
0.0
 40
0.16688577
100
AcDbArc
 50
336.32372311
 51
113.6762869
  0
LWPOLYLINE
  5
292
100
AcDbEntity
  8
MST_1_1
 62
   137
  6
CONTINUOUS
100
AcDbPolyline
 90
        9
 70
     0
 43
0.0
 10
-90.94559095
 20
-22.91856647
 10
-90.9730685
 20
-22.89108902
 10
-91.00054968
 20
-22.86360774
 10
-91.02803341
 20
-22.83612401
 10
-91.05551841
 20
-22.808639
 10
-91.08300342
 20
-22.781154
 10
-91.11048715
 20
-22.75367027
 10
-91.13796843
 20
-22.72618909
 10
-91.16544588
 20
-22.69871154
  0
ARC
  5
293
100
AcDbEntity
  8
MST_1_1
 62
   137
  6
CONTINUOUS
100
AcDbCircle
 10
-91.01260711
 20
-22.7657277
 30
0.0
 40
0.16688575
100
AcDbArc
 50
156.32369345
 51
293.67631657
  0
CIRCLE
  5
294
100
AcDbEntity
  8
MST_1_1
 62
   137
  6
CONTINUOUS
100
AcDbCircle
 10
-89.70142916
 20
-51.45454975
 30
0.0
 40
1.59661192
  0
CIRCLE
  5
295
100
AcDbEntity
  8
MST_1_1
 62
   137
  6
CONTINUOUS
100
AcDbCircle
 10
-89.70142916
 20
-51.45454975
 30
0.0
 40
0.89384526
  0
CIRCLE
  5
296
100
AcDbEntity
  8
MST_1_1
 62
   137
  6
CONTINUOUS
100
AcDbCircle
 10
-89.70142916
 20
-51.45454975
 30
0.0
 40
1.59661192
  0
CIRCLE
  5
297
100
AcDbEntity
  8
MST_1_1
 62
   137
  6
CONTINUOUS
100
AcDbCircle
 10
-89.70142916
 20
-51.45454975
 30
0.0
 40
0.89384526
  0
CIRCLE
  5
298
100
AcDbEntity
  8
MST_1_1
 62
   137
  6
CONTINUOUS
100
AcDbCircle
 10
-89.70142916
 20
-51.45454975
 30
0.0
 40
1.59661192
  0
CIRCLE
  5
299
100
AcDbEntity
  8
MST_1_1
 62
   137
  6
CONTINUOUS
100
AcDbCircle
 10
-89.70142916
 20
-51.45454975
 30
0.0
 40
0.89384526
  0
CIRCLE
  5
29A
100
AcDbEntity
  8
MST_1_1
 62
   137
  6
CONTINUOUS
100
AcDbCircle
 10
-89.70142916
 20
-51.45454975
 30
0.0
 40
1.34375478
  0
CIRCLE
  5
29B
100
AcDbEntity
  8
MST_1_1
 62
   137
  6
CONTINUOUS
100
AcDbCircle
 10
-89.70142916
 20
-51.45454975
 30
0.0
 40
1.68089764
  0
CIRCLE
  5
29C
100
AcDbEntity
  8
MST_1_1
 62
   137
  6
CONTINUOUS
100
AcDbCircle
 10
-89.70142916
 20
-51.45454975
 30
0.0
 40
0.94821429
  0
CIRCLE
  5
29D
100
AcDbEntity
  8
MST_1_1
 62
   137
  6
CONTINUOUS
100
AcDbCircle
 10
-89.70142916
 20
-51.45454975
 30
0.0
 40
2.95
  0
ARC
  5
29E
100
AcDbEntity
  8
MST_1_1
 62
   137
  6
CONTINUOUS
100
AcDbCircle
 10
-90.85782914
 20
-51.45454975
 30
0.0
 40
0.25538572
100
AcDbArc
 50
104.00039951
 51
255.99961051
  0
ARC
  5
29F
100
AcDbEntity
  8
MST_1_1
 62
   137
  6
CONTINUOUS
100
AcDbCircle
 10
-91.0522911
 20
-52.23447027
 30
0.0
 40
0.54841244
100
AcDbArc
 50
344.00042282
 51
75.99958535
  0
ARC
  5
2A0
100
AcDbEntity
  8
MST_1_1
 62
   137
  6
CONTINUOUS
100
AcDbCircle
 10
-90.27962913
 20
-52.45602152
 30
0.0
 40
0.25538571
100
AcDbArc
 50
164.00040911
 51
315.99959504
  0
ARC
  5
2A1
100
AcDbEntity
  8
MST_1_1
 62
   137
  6
CONTINUOUS
100
AcDbCircle
 10
-89.70142916
 20
-53.0143907
 30
0.0
 40
0.54841237
100
AcDbArc
 50
44.00040429
 51
135.99959571
  0
ARC
  5
2A2
100
AcDbEntity
  8
MST_1_1
 62
   137
  6
CONTINUOUS
100
AcDbCircle
 10
-89.12322916
 20
-52.45602156
 30
0.0
 40
0.2553857
100
AcDbArc
 50
224.00041508
 51
15.9996008
  0
ARC
  5
2A3
100
AcDbEntity
  8
MST_1_1
 62
   137
  6
CONTINUOUS
100
AcDbCircle
 10
-88.54502917
 20
-51.45454975
 30
0.0
 40
0.25538572
100
AcDbArc
 50
284.00040953
 51
75.99960049
  0
ARC
  5
2A4
100
AcDbEntity
  8
MST_1_1
 62
   137
  6
CONTINUOUS
100
AcDbCircle
 10
-88.35056722
 20
-50.67462922
 30
0.0
 40
0.54841244
100
AcDbArc
 50
164.00041281
 51
255.99959537
  0
ARC
  5
2A5
100
AcDbEntity
  8
MST_1_1
 62
   137
  6
CONTINUOUS
100
AcDbCircle
 10
-89.12322918
 20
-50.45307798
 30
0.0
 40
0.25538571
100
AcDbArc
 50
344.00041913
 51
135.99958502
  0
ARC
  5
2A6
100
AcDbEntity
  8
MST_1_1
 62
   137
  6
CONTINUOUS
100
AcDbCircle
 10
-89.70142916
 20
-49.8947088
 30
0.0
 40
0.54841237
100
AcDbArc
 50
224.00041431
 51
315.99960573
  0
ARC
  5
2A7
100
AcDbEntity
  8
MST_1_1
 62
   137
  6
CONTINUOUS
100
AcDbCircle
 10
-90.27962916
 20
-50.45307794
 30
0.0
 40
0.2553857
100
AcDbArc
 50
44.00040506
 51
195.99961082
  0
ARC
  5
2A8
100
AcDbEntity
  8
MST_1_1
 62
   137
  6
CONTINUOUS
100
AcDbCircle
 10
-91.0522911
 20
-50.67462922
 30
0.0
 40
0.54841244
100
AcDbArc
 50
284.00042461
 51
15.99958726
  0
LWPOLYLINE
  5
2A9
100
AcDbEntity
  8
MST_1_1
 62
   137
  6
CONTINUOUS
100
AcDbPolyline
 90
        9
 70
     0
 43
0.0
 10
-90.78911093
 20
-53.34681808
 10
-90.78146962
 20
-53.33917677
 10
-90.77382291
 20
-53.33152997
 10
-90.76617091
 20
-53.32387806
 10
-90.75851351
 20
-53.31622066
 10
-90.75085091
 20
-53.30855796
 10
-90.74318291
 20
-53.30088997
 10
-90.73550971
 20
-53.29321687
 10
-90.72783131
 20
-53.28553847
  0
ARC
  5
2AA
100
AcDbEntity
  8
MST_1_1
 62
   137
  6
CONTINUOUS
100
AcDbCircle
 10
-90.5995861
 20
-53.17874889
 30
0.0
 40
0.16688573
100
AcDbArc
 50
50.21591721
 51
219.78410477
  0
LWPOLYLINE
  5
2AB
100
AcDbEntity
  8
MST_1_1
 62
   137
  6
CONTINUOUS
100
AcDbPolyline
 90
        9
 70
     0
 43
0.0
 10
-90.49279655
 20
-53.05050366
 10
-90.48515078
 20
-53.04285784
 10
-90.47750093
 20
-53.03520799
 10
-90.46984701
 20
-53.02755412
 10
-90.46218898
 20
-53.01989613
 10
-90.45452696
 20
-53.01223402
 10
-90.44686093
 20
-53.00456799
 10
-90.43919087
 20
-52.99689803
 10
-90.43151689
 20
-52.98922404
  0
LWPOLYLINE
  5
2AC
100
AcDbEntity
  8
MST_1_1
 62
   137
  6
CONTINUOUS
100
AcDbPolyline
 90
        9
 70
     0
 43
0.0
 10
-90.43151689
 20
-52.98922404
 10
-90.47732574
 20
-52.94341514
 10
-90.52317854
 20
-52.89756239
 10
-90.56906977
 20
-52.85167116
 10
-90.61499356
 20
-52.80574736
 10
-90.66094445
 20
-52.75979648
 10
-90.70691662
 20
-52.71382431
 10
-90.75290449
 20
-52.66783644
 10
-90.79890227
 20
-52.62183866
  0
LWPOLYLINE
  5
2AD
100
AcDbEntity
  8
MST_1_1
 62
   137
  6
CONTINUOUS
100
AcDbPolyline
 90
        9
 70
     0
 43
0.0
 10
-90.79890227
 20
-52.62183866
 10
-90.80161798
 20
-52.62455427
 10
-90.8043331
 20
-52.62726948
 10
-90.80704783
 20
-52.62998411
 10
-90.80976206
 20
-52.63269835
 10
-90.81247571
 20
-52.6354121
 10
-90.81518897
 20
-52.63812525
 10
-90.81790163
 20
-52.64083802
 10
-90.82061391
 20
-52.64355019
  0
LWPOLYLINE
  5
2AE
100
AcDbEntity
  8
MST_1_1
 62
   137
  6
CONTINUOUS
100
AcDbPolyline
 90
       25
 70
     0
 43
0.0
 10
-90.82061391
 20
-52.64355023
 10
-90.82288315
 20
-52.6400549
 10
-90.82521263
 20
-52.63660595
 10
-90.82760171
 20
-52.63320399
 10
-90.83004977
 20
-52.62984966
 10
-90.83255617
 20
-52.62654359
 10
-90.8351203
 20
-52.62328641
 10
-90.83774152
 20
-52.62007874
 10
-90.84041921
 20
-52.61692122
 10
-90.84315274
 20
-52.61381448
 10
-90.84594148
 20
-52.61075914
 10
-90.8487848
 20
-52.60775584
 10
-90.85168208
 20
-52.6048052
 10
-90.85463269
 20
-52.60190786
 10
-90.857636
 20
-52.59906444
 10
-90.86069139
 20
-52.59627557
 10
-90.86379822
 20
-52.59354188
 10
-90.86695587
 20
-52.59086401
 10
-90.87016371
 20
-52.58824258
 10
-90.87342112
 20
-52.58567821
 10
-90.87672746
 20
-52.58317155
 10
-90.88008211
 20
-52.58072322
 10
-90.88348444
 20
-52.57833385
 10
-90.88693383
 20
-52.57600407
 10
-90.89042964
 20
-52.5737345
  0
LWPOLYLINE
  5
2AF
100
AcDbEntity
  8
MST_1_1
 62
   137
  6
CONTINUOUS
100
AcDbPolyline
 90
        9
 70
     0
 43
0.0
 10
-90.8904296
 20
-52.5737345
 10
-90.88771743
 20
-52.57102223
 10
-90.88500466
 20
-52.56830956
 10
-90.8822915
 20
-52.5655963
 10
-90.87957776
 20
-52.56288266
 10
-90.87686352
 20
-52.56016842
 10
-90.87414889
 20
-52.55745369
 10
-90.87143367
 20
-52.55473857
 10
-90.86871806
 20
-52.55202286
  0
LWPOLYLINE
  5
2B0
100
AcDbEntity
  8
MST_1_1
 62
   137
  6
CONTINUOUS
100
AcDbPolyline
 90
        9
 70
     0
 43
0.0
 10
-90.86871806
 20
-52.55202286
 10
-90.91471585
 20
-52.50602508
 10
-90.96070372
 20
-52.46003721
 10
-91.00667589
 20
-52.41406504
 10
-91.05262677
 20
-52.36811416
 10
-91.09855057
 20
-52.32219036
 10
-91.14444179
 20
-52.27629913
 10
-91.19029455
 20
-52.23044633
 10
-91.23610345
 20
-52.18463748
  0
LWPOLYLINE
  5
2B1
100
AcDbEntity
  8
MST_1_1
 62
   137
  6
CONTINUOUS
100
AcDbPolyline
 90
        9
 70
     0
 43
0.0
 10
-91.23610345
 20
-52.18463748
 10
-91.24377743
 20
-52.19231146
 10
-91.2514474
 20
-52.19998152
 10
-91.25911343
 20
-52.20764755
 10
-91.26677554
 20
-52.21530957
 10
-91.27443353
 20
-52.22296761
 10
-91.2820874
 20
-52.23062152
 10
-91.28973724
 20
-52.23827137
 10
-91.29738307
 20
-52.24591714
  0
ARC
  5
2B2
100
AcDbEntity
  8
MST_1_1
 62
   137
  6
CONTINUOUS
100
AcDbCircle
 10
-91.42562831
 20
-52.35270669
 30
0.0
 40
0.16688573
100
AcDbArc
 50
230.21591956
 51
39.7840785
  0
LWPOLYLINE
  5
2B3
100
AcDbEntity
  8
MST_1_1
 62
   137
  6
CONTINUOUS
100
AcDbPolyline
 90
        9
 70
     0
 43
0.0
 10
-91.53241788
 20
-52.4809519
 10
-91.54009628
 20
-52.4886303
 10
-91.54776938
 20
-52.4963035
 10
-91.55543737
 20
-52.5039715
 10
-91.56310007
 20
-52.5116341
 10
-91.57075747
 20
-52.5192915
 10
-91.57840938
 20
-52.5269435
 10
-91.58605618
 20
-52.53459021
 10
-91.59369749
 20
-52.54223152
  0
LWPOLYLINE
  5
2B4
100
AcDbEntity
  8
MST_1_1
 62
   137
  6
CONTINUOUS
100
AcDbPolyline
 90
        9
 70
     0
 43
0.0
 10
-91.59369749
 20
-52.54223152
 10
-91.54789517
 20
-52.58803365
 10
-91.50204653
 20
-52.63388238
 10
-91.45615727
 20
-52.67977174
 10
-91.41023327
 20
-52.72569564
 10
-91.36428082
 20
-52.77164809
 10
-91.31830581
 20
-52.81762311
 10
-91.2723142
 20
-52.86361471
 10
-91.22631201
 20
-52.9096169
  0
LWPOLYLINE
  5
2B5
100
AcDbEntity
  8
MST_1_1
 62
   137
  6
CONTINUOUS
100
AcDbPolyline
 90
        9
 70
     0
 43
0.0
 10
-91.22631201
 20
-52.9096169
 10
-91.22360042
 20
-52.90690532
 10
-91.22088815
 20
-52.90419304
 10
-91.21817518
 20
-52.90148008
 10
-91.21546154
 20
-52.89876643
 10
-91.2127473
 20
-52.8960522
 10
-91.21003238
 20
-52.89333718
 10
-91.20731667
 20
-52.89062157
 10
-91.20460037
 20
-52.88790527
  0
LWPOLYLINE
  5
2B6
100
AcDbEntity
  8
MST_1_1
 62
   137
  6
CONTINUOUS
100
AcDbPolyline
 90
       25
 70
     0
 43
0.0
 10
-91.20460041
 20
-52.88790527
 10
-91.20233134
 20
-52.89140032
 10
-91.20000198
 20
-52.89484906
 10
-91.19761297
 20
-52.89825085
 10
-91.19516494
 20
-52.90160507
 10
-91.19265852
 20
-52.90491108
 10
-91.19009435
 20
-52.90816825
 10
-91.18747306
 20
-52.91137593
 10
-91.18479528
 20
-52.9145335
 10
-91.18206164
 20
-52.91764032
 10
-91.17927278
 20
-52.92069576
 10
-91.17642933
 20
-52.92369917
 10
-91.17353193
 20
-52.92664994
 10
-91.17058119
 20
-52.92954741
 10
-91.16757777
 20
-52.93239096
 10
-91.16452229
 20
-52.93517995
 10
-91.16141538
 20
-52.93791375
 10
-91.15825767
 20
-52.94059172
 10
-91.15504981
 20
-52.94321322
 10
-91.15179242
 20
-52.94577763
 10
-91.14848613
 20
-52.94828431
 10
-91.14513158
 20
-52.95073262
 10
-91.1417294
 20
-52.95312193
 10
-91.13828022
 20
-52.9554516
 10
-91.13478468
 20
-52.957721
  0
LWPOLYLINE
  5
2B7
100
AcDbEntity
  8
MST_1_1
 62
   137
  6
CONTINUOUS
100
AcDbPolyline
 90
        9
 70
     0
 43
0.0
 10
-91.13478468
 20
-52.95772096
 10
-91.13750097
 20
-52.96043726
 10
-91.14021658
 20
-52.96315297
 10
-91.14293161
 20
-52.96586789
 10
-91.14564584
 20
-52.96858213
 10
-91.14835949
 20
-52.97129578
 10
-91.15107245
 20
-52.97400874
 10
-91.15378473
 20
-52.97672101
 10
-91.15649631
 20
-52.9794326
  0
LWPOLYLINE
  5
2B8
100
AcDbEntity
  8
MST_1_1
 62
   137
  6
CONTINUOUS
100
AcDbPolyline
 90
        9
 70
     0
 43
0.0
 10
-91.15649631
 20
-52.9794326
 10
-91.11049411
 20
-53.0254348
 10
-91.06450251
 20
-53.0714264
 10
-91.0185275
 20
-53.11740141
 10
-90.97257505
 20
-53.16335387
 10
-90.92665115
 20
-53.20927786
 10
-90.88076179
 20
-53.25516712
 10
-90.83491305
 20
-53.30101576
 10
-90.78911093
 20
-53.34681808
  0
CIRCLE
  5
2B9
100
AcDbEntity
  8
MST_1_1
 62
   137
  6
CONTINUOUS
100
AcDbCircle
 10
-89.70142916
 20
-51.45454975
 30
0.0
 40
2.76727078
  0
ARC
  5
2BA
100
AcDbEntity
  8
MST_1_1
 62
   137
  6
CONTINUOUS
100
AcDbCircle
 10
-88.35056722
 20
-52.23447027
 30
0.0
 40
0.54841244
100
AcDbArc
 50
104.00041459
 51
195.99959727
  0
LWPOLYLINE
  5
2BB
100
AcDbEntity
  8
MST_1_1
 62
   137
  6
CONTINUOUS
100
AcDbPolyline
 90
        9
 70
     0
 43
0.0
 10
-90.96291567
 20
-52.5436478
 10
-90.99302768
 20
-52.51353579
 10
-91.02313342
 20
-52.48343006
 10
-91.0532314
 20
-52.45333208
 10
-91.08331996
 20
-52.42324352
 10
-91.11339753
 20
-52.39316595
 10
-91.14346244
 20
-52.36310093
 10
-91.17351323
 20
-52.33305015
 10
-91.20354821
 20
-52.30301516
  0
ARC
  5
2BC
100
AcDbEntity
  8
MST_1_1
 62
   137
  6
CONTINUOUS
100
AcDbCircle
 10
-91.01260726
 20
-52.7657272
 30
0.0
 40
0.22757089
100
AcDbArc
 50
77.38747914
 51
127.33780242
  0
LINE
  5
2BD
100
AcDbEntity
  8
MST_1_1
 62
   137
  6
CONTINUOUS
100
AcDbLine
 10
-90.83167102
 20
-52.90375258
 30
0.0
 11
-91.15063198
 21
-52.58479161
 31
0.0
  0
ARC
  5
2BE
100
AcDbEntity
  8
MST_1_1
 62
   137
  6
CONTINUOUS
100
AcDbCircle
 10
-91.01260671
 20
-52.76572782
 30
0.0
 40
0.22757099
100
AcDbArc
 50
322.66221884
 51
12.61250962
  0
LWPOLYLINE
  5
2BF
100
AcDbEntity
  8
MST_1_1
 62
   137
  6
CONTINUOUS
100
AcDbPolyline
 90
        9
 70
     0
 43
0.0
 10
-90.54989457
 20
-52.95666881
 10
-90.57992956
 20
-52.92663382
 10
-90.60998034
 20
-52.89658303
 10
-90.64004535
 20
-52.86651812
 10
-90.67012293
 20
-52.83644055
 10
-90.70021149
 20
-52.80635199
 10
-90.73030947
 20
-52.77625401
 10
-90.7604152
 20
-52.74614828
 10
-90.79052721
 20
-52.71603626
  0
ARC
  5
2C0
100
AcDbEntity
  8
MST_1_1
 62
   137
  6
CONTINUOUS
100
AcDbCircle
 10
-90.59958601
 20
-53.17874884
 30
0.0
 40
0.22757149
100
AcDbArc
 50
77.38755048
 51
192.61243885
  0
LWPOLYLINE
  5
2C1
100
AcDbEntity
  8
MST_1_1
 62
   137
  6
CONTINUOUS
100
AcDbPolyline
 90
        9
 70
     0
 43
0.0
 10
-91.06229861
 20
-52.98780776
 10
-91.03218522
 20
-53.01792114
 10
-91.00207831
 20
-53.04802805
 10
-90.97197955
 20
-53.07812682
 10
-90.94189049
 20
-53.10821587
 10
-90.91181302
 20
-53.13829325
 10
-90.8817487
 20
-53.16835767
 10
-90.85169909
 20
-53.19840718
 10
-90.82166606
 20
-53.2284402
  0
ARC
  5
2C2
100
AcDbEntity
  8
MST_1_1
 62
   137
  6
CONTINUOUS
100
AcDbCircle
 10
-91.01260731
 20
-52.76572704
 30
0.0
 40
0.22757212
100
AcDbArc
 50
257.38763285
 51
307.33766874
  0
LWPOLYLINE
  5
2C3
100
AcDbEntity
  8
MST_1_1
 62
   137
  6
CONTINUOUS
100
AcDbPolyline
 90
        9
 70
     0
 43
0.0
 10
-91.19354336
 20
-52.62770289
 10
-91.15368651
 20
-52.66755964
 10
-91.11381827
 20
-52.70742787
 10
-91.07394249
 20
-52.74730375
 10
-91.03406278
 20
-52.78718337
 10
-90.99418316
 20
-52.82706308
 10
-90.95430728
 20
-52.86693887
 10
-90.91443905
 20
-52.9068071
 10
-90.8745823
 20
-52.94666395
  0
ARC
  5
2C4
100
AcDbEntity
  8
MST_1_1
 62
   137
  6
CONTINUOUS
100
AcDbCircle
 10
-91.01260708
 20
-52.76572777
 30
0.0
 40
0.22757154
100
AcDbArc
 50
142.662273
 51
192.61245546
  0
LWPOLYLINE
  5
2C5
100
AcDbEntity
  8
MST_1_1
 62
   137
  6
CONTINUOUS
100
AcDbPolyline
 90
        9
 70
     0
 43
0.0
 10
-91.47531961
 20
-52.57478666
 10
-91.44528659
 20
-52.60481968
 10
-91.41523708
 20
-52.63486929
 10
-91.38517265
 20
-52.66493361
 10
-91.35509528
 20
-52.69501109
 10
-91.32500623
 20
-52.72510014
 10
-91.29490746
 20
-52.7551989
 10
-91.26480055
 20
-52.78530581
 10
-91.23468717
 20
-52.8154192
  0
ARC
  5
2C6
100
AcDbEntity
  8
MST_1_1
 62
   137
  6
CONTINUOUS
100
AcDbCircle
 10
-91.42562804
 20
-52.35270682
 30
0.0
 40
0.22757133
100
AcDbArc
 50
257.38751638
 51
12.61251432
  0
LWPOLYLINE
  5
2C7
100
AcDbEntity
  8
MST_1_1
 62
   137
  6
CONTINUOUS
100
AcDbPolyline
 90
        9
 70
     0
 43
0.0
 10
-91.07962333
 20
-52.612889
 10
-91.05214578
 20
-52.64036654
 10
-91.0246645
 20
-52.66784782
 10
-90.99718087
 20
-52.69533155
 10
-90.96969587
 20
-52.72281646
 10
-90.94221096
 20
-52.75030146
 10
-90.91472723
 20
-52.7777851
 10
-90.88724595
 20
-52.80526637
 10
-90.8597684
 20
-52.83274392
  0
ARC
  5
2C8
100
AcDbEntity
  8
MST_1_1
 62
   137
  6
CONTINUOUS
100
AcDbCircle
 10
-91.01260721
 20
-52.7657278
 30
0.0
 40
0.16688577
100
AcDbArc
 50
336.32372311
 51
113.6762869
  0
LWPOLYLINE
  5
2C9
100
AcDbEntity
  8
MST_1_1
 62
   137
  6
CONTINUOUS
100
AcDbPolyline
 90
        9
 70
     0
 43
0.0
 10
-90.94559095
 20
-52.91856647
 10
-90.9730685
 20
-52.89108902
 10
-91.00054968
 20
-52.86360774
 10
-91.02803341
 20
-52.83612401
 10
-91.05551841
 20
-52.808639
 10
-91.08300342
 20
-52.781154
 10
-91.11048715
 20
-52.75367027
 10
-91.13796843
 20
-52.72618909
 10
-91.16544588
 20
-52.69871154
  0
ARC
  5
2CA
100
AcDbEntity
  8
MST_1_1
 62
   137
  6
CONTINUOUS
100
AcDbCircle
 10
-91.01260711
 20
-52.7657277
 30
0.0
 40
0.16688575
100
AcDbArc
 50
156.32369345
 51
293.67631657
  0
CIRCLE
  5
2CB
100
AcDbEntity
  8
MST_1_1
 62
   137
  6
CONTINUOUS
100
AcDbCircle
 10
-89.70142916
 20
-81.45454975
 30
0.0
 40
1.59661192
  0
CIRCLE
  5
2CC
100
AcDbEntity
  8
MST_1_1
 62
   137
  6
CONTINUOUS
100
AcDbCircle
 10
-89.70142916
 20
-81.45454975
 30
0.0
 40
0.89384526
  0
CIRCLE
  5
2CD
100
AcDbEntity
  8
MST_1_1
 62
   137
  6
CONTINUOUS
100
AcDbCircle
 10
-89.70142916
 20
-81.45454975
 30
0.0
 40
1.59661192
  0
CIRCLE
  5
2CE
100
AcDbEntity
  8
MST_1_1
 62
   137
  6
CONTINUOUS
100
AcDbCircle
 10
-89.70142916
 20
-81.45454975
 30
0.0
 40
0.89384526
  0
CIRCLE
  5
2CF
100
AcDbEntity
  8
MST_1_1
 62
   137
  6
CONTINUOUS
100
AcDbCircle
 10
-89.70142916
 20
-81.45454975
 30
0.0
 40
1.59661192
  0
CIRCLE
  5
2D0
100
AcDbEntity
  8
MST_1_1
 62
   137
  6
CONTINUOUS
100
AcDbCircle
 10
-89.70142916
 20
-81.45454975
 30
0.0
 40
0.89384526
  0
CIRCLE
  5
2D1
100
AcDbEntity
  8
MST_1_1
 62
   137
  6
CONTINUOUS
100
AcDbCircle
 10
-89.70142916
 20
-81.45454975
 30
0.0
 40
1.34375478
  0
CIRCLE
  5
2D2
100
AcDbEntity
  8
MST_1_1
 62
   137
  6
CONTINUOUS
100
AcDbCircle
 10
-89.70142916
 20
-81.45454975
 30
0.0
 40
1.68089764
  0
CIRCLE
  5
2D3
100
AcDbEntity
  8
MST_1_1
 62
   137
  6
CONTINUOUS
100
AcDbCircle
 10
-89.70142916
 20
-81.45454975
 30
0.0
 40
0.94821429
  0
CIRCLE
  5
2D4
100
AcDbEntity
  8
MST_1_1
 62
   137
  6
CONTINUOUS
100
AcDbCircle
 10
-89.70142916
 20
-81.45454975
 30
0.0
 40
2.95
  0
ARC
  5
2D5
100
AcDbEntity
  8
MST_1_1
 62
   137
  6
CONTINUOUS
100
AcDbCircle
 10
-90.85782914
 20
-81.45454975
 30
0.0
 40
0.25538572
100
AcDbArc
 50
104.00039951
 51
255.99961051
  0
ARC
  5
2D6
100
AcDbEntity
  8
MST_1_1
 62
   137
  6
CONTINUOUS
100
AcDbCircle
 10
-91.0522911
 20
-82.23447027
 30
0.0
 40
0.54841244
100
AcDbArc
 50
344.00042282
 51
75.99958535
  0
ARC
  5
2D7
100
AcDbEntity
  8
MST_1_1
 62
   137
  6
CONTINUOUS
100
AcDbCircle
 10
-90.27962913
 20
-82.45602152
 30
0.0
 40
0.25538571
100
AcDbArc
 50
164.00040911
 51
315.99959504
  0
ARC
  5
2D8
100
AcDbEntity
  8
MST_1_1
 62
   137
  6
CONTINUOUS
100
AcDbCircle
 10
-89.70142916
 20
-83.0143907
 30
0.0
 40
0.54841237
100
AcDbArc
 50
44.00040429
 51
135.99959571
  0
ARC
  5
2D9
100
AcDbEntity
  8
MST_1_1
 62
   137
  6
CONTINUOUS
100
AcDbCircle
 10
-89.12322916
 20
-82.45602156
 30
0.0
 40
0.2553857
100
AcDbArc
 50
224.00041508
 51
15.9996008
  0
ARC
  5
2DA
100
AcDbEntity
  8
MST_1_1
 62
   137
  6
CONTINUOUS
100
AcDbCircle
 10
-88.54502917
 20
-81.45454975
 30
0.0
 40
0.25538572
100
AcDbArc
 50
284.00040953
 51
75.99960049
  0
ARC
  5
2DB
100
AcDbEntity
  8
MST_1_1
 62
   137
  6
CONTINUOUS
100
AcDbCircle
 10
-88.35056722
 20
-80.67462922
 30
0.0
 40
0.54841244
100
AcDbArc
 50
164.00041281
 51
255.99959537
  0
ARC
  5
2DC
100
AcDbEntity
  8
MST_1_1
 62
   137
  6
CONTINUOUS
100
AcDbCircle
 10
-89.12322918
 20
-80.45307798
 30
0.0
 40
0.25538571
100
AcDbArc
 50
344.00041913
 51
135.99958502
  0
ARC
  5
2DD
100
AcDbEntity
  8
MST_1_1
 62
   137
  6
CONTINUOUS
100
AcDbCircle
 10
-89.70142916
 20
-79.8947088
 30
0.0
 40
0.54841237
100
AcDbArc
 50
224.00041431
 51
315.99960573
  0
ARC
  5
2DE
100
AcDbEntity
  8
MST_1_1
 62
   137
  6
CONTINUOUS
100
AcDbCircle
 10
-90.27962916
 20
-80.45307794
 30
0.0
 40
0.2553857
100
AcDbArc
 50
44.00040506
 51
195.99961082
  0
ARC
  5
2DF
100
AcDbEntity
  8
MST_1_1
 62
   137
  6
CONTINUOUS
100
AcDbCircle
 10
-91.0522911
 20
-80.67462922
 30
0.0
 40
0.54841244
100
AcDbArc
 50
284.00042461
 51
15.99958726
  0
LWPOLYLINE
  5
2E0
100
AcDbEntity
  8
MST_1_1
 62
   137
  6
CONTINUOUS
100
AcDbPolyline
 90
        9
 70
     0
 43
0.0
 10
-90.78911093
 20
-83.34681808
 10
-90.78146962
 20
-83.33917677
 10
-90.77382291
 20
-83.33152997
 10
-90.76617091
 20
-83.32387806
 10
-90.75851351
 20
-83.31622066
 10
-90.75085091
 20
-83.30855796
 10
-90.74318291
 20
-83.30088997
 10
-90.73550971
 20
-83.29321687
 10
-90.72783131
 20
-83.28553847
  0
ARC
  5
2E1
100
AcDbEntity
  8
MST_1_1
 62
   137
  6
CONTINUOUS
100
AcDbCircle
 10
-90.5995861
 20
-83.17874889
 30
0.0
 40
0.16688573
100
AcDbArc
 50
50.21591721
 51
219.78410477
  0
LWPOLYLINE
  5
2E2
100
AcDbEntity
  8
MST_1_1
 62
   137
  6
CONTINUOUS
100
AcDbPolyline
 90
        9
 70
     0
 43
0.0
 10
-90.49279655
 20
-83.05050366
 10
-90.48515078
 20
-83.04285784
 10
-90.47750093
 20
-83.03520799
 10
-90.46984701
 20
-83.02755412
 10
-90.46218898
 20
-83.01989613
 10
-90.45452696
 20
-83.01223402
 10
-90.44686093
 20
-83.00456799
 10
-90.43919087
 20
-82.99689803
 10
-90.43151689
 20
-82.98922404
  0
LWPOLYLINE
  5
2E3
100
AcDbEntity
  8
MST_1_1
 62
   137
  6
CONTINUOUS
100
AcDbPolyline
 90
        9
 70
     0
 43
0.0
 10
-90.43151689
 20
-82.98922404
 10
-90.47732574
 20
-82.94341514
 10
-90.52317854
 20
-82.89756239
 10
-90.56906977
 20
-82.85167116
 10
-90.61499356
 20
-82.80574736
 10
-90.66094445
 20
-82.75979648
 10
-90.70691662
 20
-82.71382431
 10
-90.75290449
 20
-82.66783644
 10
-90.79890227
 20
-82.62183866
  0
LWPOLYLINE
  5
2E4
100
AcDbEntity
  8
MST_1_1
 62
   137
  6
CONTINUOUS
100
AcDbPolyline
 90
        9
 70
     0
 43
0.0
 10
-90.79890227
 20
-82.62183866
 10
-90.80161798
 20
-82.62455427
 10
-90.8043331
 20
-82.62726948
 10
-90.80704783
 20
-82.62998411
 10
-90.80976206
 20
-82.63269835
 10
-90.81247571
 20
-82.6354121
 10
-90.81518897
 20
-82.63812525
 10
-90.81790163
 20
-82.64083802
 10
-90.82061391
 20
-82.64355019
  0
LWPOLYLINE
  5
2E5
100
AcDbEntity
  8
MST_1_1
 62
   137
  6
CONTINUOUS
100
AcDbPolyline
 90
       25
 70
     0
 43
0.0
 10
-90.82061391
 20
-82.64355023
 10
-90.82288315
 20
-82.6400549
 10
-90.82521263
 20
-82.63660595
 10
-90.82760171
 20
-82.63320399
 10
-90.83004977
 20
-82.62984966
 10
-90.83255617
 20
-82.62654359
 10
-90.8351203
 20
-82.62328641
 10
-90.83774152
 20
-82.62007874
 10
-90.84041921
 20
-82.61692122
 10
-90.84315274
 20
-82.61381448
 10
-90.84594148
 20
-82.61075914
 10
-90.8487848
 20
-82.60775584
 10
-90.85168208
 20
-82.6048052
 10
-90.85463269
 20
-82.60190786
 10
-90.857636
 20
-82.59906444
 10
-90.86069139
 20
-82.59627557
 10
-90.86379822
 20
-82.59354188
 10
-90.86695587
 20
-82.59086401
 10
-90.87016371
 20
-82.58824258
 10
-90.87342112
 20
-82.58567821
 10
-90.87672746
 20
-82.58317155
 10
-90.88008211
 20
-82.58072322
 10
-90.88348444
 20
-82.57833385
 10
-90.88693383
 20
-82.57600407
 10
-90.89042964
 20
-82.5737345
  0
LWPOLYLINE
  5
2E6
100
AcDbEntity
  8
MST_1_1
 62
   137
  6
CONTINUOUS
100
AcDbPolyline
 90
        9
 70
     0
 43
0.0
 10
-90.8904296
 20
-82.5737345
 10
-90.88771743
 20
-82.57102223
 10
-90.88500466
 20
-82.56830956
 10
-90.8822915
 20
-82.5655963
 10
-90.87957776
 20
-82.56288266
 10
-90.87686352
 20
-82.56016842
 10
-90.87414889
 20
-82.55745369
 10
-90.87143367
 20
-82.55473857
 10
-90.86871806
 20
-82.55202286
  0
LWPOLYLINE
  5
2E7
100
AcDbEntity
  8
MST_1_1
 62
   137
  6
CONTINUOUS
100
AcDbPolyline
 90
        9
 70
     0
 43
0.0
 10
-90.86871806
 20
-82.55202286
 10
-90.91471585
 20
-82.50602508
 10
-90.96070372
 20
-82.46003721
 10
-91.00667589
 20
-82.41406504
 10
-91.05262677
 20
-82.36811416
 10
-91.09855057
 20
-82.32219036
 10
-91.14444179
 20
-82.27629913
 10
-91.19029455
 20
-82.23044633
 10
-91.23610345
 20
-82.18463748
  0
LWPOLYLINE
  5
2E8
100
AcDbEntity
  8
MST_1_1
 62
   137
  6
CONTINUOUS
100
AcDbPolyline
 90
        9
 70
     0
 43
0.0
 10
-91.23610345
 20
-82.18463748
 10
-91.24377743
 20
-82.19231146
 10
-91.2514474
 20
-82.19998152
 10
-91.25911343
 20
-82.20764755
 10
-91.26677554
 20
-82.21530957
 10
-91.27443353
 20
-82.22296761
 10
-91.2820874
 20
-82.23062152
 10
-91.28973724
 20
-82.23827137
 10
-91.29738307
 20
-82.24591714
  0
ARC
  5
2E9
100
AcDbEntity
  8
MST_1_1
 62
   137
  6
CONTINUOUS
100
AcDbCircle
 10
-91.42562831
 20
-82.35270669
 30
0.0
 40
0.16688573
100
AcDbArc
 50
230.21591956
 51
39.7840785
  0
LWPOLYLINE
  5
2EA
100
AcDbEntity
  8
MST_1_1
 62
   137
  6
CONTINUOUS
100
AcDbPolyline
 90
        9
 70
     0
 43
0.0
 10
-91.53241788
 20
-82.4809519
 10
-91.54009628
 20
-82.4886303
 10
-91.54776938
 20
-82.4963035
 10
-91.55543737
 20
-82.5039715
 10
-91.56310007
 20
-82.5116341
 10
-91.57075747
 20
-82.5192915
 10
-91.57840938
 20
-82.5269435
 10
-91.58605618
 20
-82.53459021
 10
-91.59369749
 20
-82.54223152
  0
LWPOLYLINE
  5
2EB
100
AcDbEntity
  8
MST_1_1
 62
   137
  6
CONTINUOUS
100
AcDbPolyline
 90
        9
 70
     0
 43
0.0
 10
-91.59369749
 20
-82.54223152
 10
-91.54789517
 20
-82.58803365
 10
-91.50204653
 20
-82.63388238
 10
-91.45615727
 20
-82.67977174
 10
-91.41023327
 20
-82.72569564
 10
-91.36428082
 20
-82.77164809
 10
-91.31830581
 20
-82.81762311
 10
-91.2723142
 20
-82.86361471
 10
-91.22631201
 20
-82.9096169
  0
LWPOLYLINE
  5
2EC
100
AcDbEntity
  8
MST_1_1
 62
   137
  6
CONTINUOUS
100
AcDbPolyline
 90
        9
 70
     0
 43
0.0
 10
-91.22631201
 20
-82.9096169
 10
-91.22360042
 20
-82.90690532
 10
-91.22088815
 20
-82.90419304
 10
-91.21817518
 20
-82.90148008
 10
-91.21546154
 20
-82.89876643
 10
-91.2127473
 20
-82.8960522
 10
-91.21003238
 20
-82.89333718
 10
-91.20731667
 20
-82.89062157
 10
-91.20460037
 20
-82.88790527
  0
LWPOLYLINE
  5
2ED
100
AcDbEntity
  8
MST_1_1
 62
   137
  6
CONTINUOUS
100
AcDbPolyline
 90
       25
 70
     0
 43
0.0
 10
-91.20460041
 20
-82.88790527
 10
-91.20233134
 20
-82.89140032
 10
-91.20000198
 20
-82.89484906
 10
-91.19761297
 20
-82.89825085
 10
-91.19516494
 20
-82.90160507
 10
-91.19265852
 20
-82.90491108
 10
-91.19009435
 20
-82.90816825
 10
-91.18747306
 20
-82.91137593
 10
-91.18479528
 20
-82.9145335
 10
-91.18206164
 20
-82.91764032
 10
-91.17927278
 20
-82.92069576
 10
-91.17642933
 20
-82.92369917
 10
-91.17353193
 20
-82.92664994
 10
-91.17058119
 20
-82.92954741
 10
-91.16757777
 20
-82.93239096
 10
-91.16452229
 20
-82.93517995
 10
-91.16141538
 20
-82.93791375
 10
-91.15825767
 20
-82.94059172
 10
-91.15504981
 20
-82.94321322
 10
-91.15179242
 20
-82.94577763
 10
-91.14848613
 20
-82.94828431
 10
-91.14513158
 20
-82.95073262
 10
-91.1417294
 20
-82.95312193
 10
-91.13828022
 20
-82.9554516
 10
-91.13478468
 20
-82.957721
  0
LWPOLYLINE
  5
2EE
100
AcDbEntity
  8
MST_1_1
 62
   137
  6
CONTINUOUS
100
AcDbPolyline
 90
        9
 70
     0
 43
0.0
 10
-91.13478468
 20
-82.95772096
 10
-91.13750097
 20
-82.96043726
 10
-91.14021658
 20
-82.96315297
 10
-91.14293161
 20
-82.96586789
 10
-91.14564584
 20
-82.96858213
 10
-91.14835949
 20
-82.97129578
 10
-91.15107245
 20
-82.97400874
 10
-91.15378473
 20
-82.97672101
 10
-91.15649631
 20
-82.9794326
  0
LWPOLYLINE
  5
2EF
100
AcDbEntity
  8
MST_1_1
 62
   137
  6
CONTINUOUS
100
AcDbPolyline
 90
        9
 70
     0
 43
0.0
 10
-91.15649631
 20
-82.9794326
 10
-91.11049411
 20
-83.0254348
 10
-91.06450251
 20
-83.0714264
 10
-91.0185275
 20
-83.11740141
 10
-90.97257505
 20
-83.16335387
 10
-90.92665115
 20
-83.20927786
 10
-90.88076179
 20
-83.25516712
 10
-90.83491305
 20
-83.30101576
 10
-90.78911093
 20
-83.34681808
  0
CIRCLE
  5
2F0
100
AcDbEntity
  8
MST_1_1
 62
   137
  6
CONTINUOUS
100
AcDbCircle
 10
-89.70142916
 20
-81.45454975
 30
0.0
 40
2.76727078
  0
ARC
  5
2F1
100
AcDbEntity
  8
MST_1_1
 62
   137
  6
CONTINUOUS
100
AcDbCircle
 10
-88.35056722
 20
-82.23447027
 30
0.0
 40
0.54841244
100
AcDbArc
 50
104.00041459
 51
195.99959727
  0
LWPOLYLINE
  5
2F2
100
AcDbEntity
  8
MST_1_1
 62
   137
  6
CONTINUOUS
100
AcDbPolyline
 90
        9
 70
     0
 43
0.0
 10
-90.96291567
 20
-82.5436478
 10
-90.99302768
 20
-82.51353579
 10
-91.02313342
 20
-82.48343006
 10
-91.0532314
 20
-82.45333208
 10
-91.08331996
 20
-82.42324352
 10
-91.11339753
 20
-82.39316595
 10
-91.14346244
 20
-82.36310093
 10
-91.17351323
 20
-82.33305015
 10
-91.20354821
 20
-82.30301516
  0
ARC
  5
2F3
100
AcDbEntity
  8
MST_1_1
 62
   137
  6
CONTINUOUS
100
AcDbCircle
 10
-91.01260726
 20
-82.7657272
 30
0.0
 40
0.22757089
100
AcDbArc
 50
77.38747914
 51
127.33780242
  0
LINE
  5
2F4
100
AcDbEntity
  8
MST_1_1
 62
   137
  6
CONTINUOUS
100
AcDbLine
 10
-90.83167102
 20
-82.90375258
 30
0.0
 11
-91.15063198
 21
-82.58479161
 31
0.0
  0
ARC
  5
2F5
100
AcDbEntity
  8
MST_1_1
 62
   137
  6
CONTINUOUS
100
AcDbCircle
 10
-91.01260671
 20
-82.76572782
 30
0.0
 40
0.22757099
100
AcDbArc
 50
322.66221884
 51
12.61250962
  0
LWPOLYLINE
  5
2F6
100
AcDbEntity
  8
MST_1_1
 62
   137
  6
CONTINUOUS
100
AcDbPolyline
 90
        9
 70
     0
 43
0.0
 10
-90.54989457
 20
-82.95666881
 10
-90.57992956
 20
-82.92663382
 10
-90.60998034
 20
-82.89658303
 10
-90.64004535
 20
-82.86651812
 10
-90.67012293
 20
-82.83644055
 10
-90.70021149
 20
-82.80635199
 10
-90.73030947
 20
-82.77625401
 10
-90.7604152
 20
-82.74614828
 10
-90.79052721
 20
-82.71603626
  0
ARC
  5
2F7
100
AcDbEntity
  8
MST_1_1
 62
   137
  6
CONTINUOUS
100
AcDbCircle
 10
-90.59958601
 20
-83.17874884
 30
0.0
 40
0.22757149
100
AcDbArc
 50
77.38755048
 51
192.61243885
  0
LWPOLYLINE
  5
2F8
100
AcDbEntity
  8
MST_1_1
 62
   137
  6
CONTINUOUS
100
AcDbPolyline
 90
        9
 70
     0
 43
0.0
 10
-91.06229861
 20
-82.98780776
 10
-91.03218522
 20
-83.01792114
 10
-91.00207831
 20
-83.04802805
 10
-90.97197955
 20
-83.07812682
 10
-90.94189049
 20
-83.10821587
 10
-90.91181302
 20
-83.13829325
 10
-90.8817487
 20
-83.16835767
 10
-90.85169909
 20
-83.19840718
 10
-90.82166606
 20
-83.2284402
  0
ARC
  5
2F9
100
AcDbEntity
  8
MST_1_1
 62
   137
  6
CONTINUOUS
100
AcDbCircle
 10
-91.01260731
 20
-82.76572704
 30
0.0
 40
0.22757212
100
AcDbArc
 50
257.38763285
 51
307.33766874
  0
LWPOLYLINE
  5
2FA
100
AcDbEntity
  8
MST_1_1
 62
   137
  6
CONTINUOUS
100
AcDbPolyline
 90
        9
 70
     0
 43
0.0
 10
-91.19354336
 20
-82.62770289
 10
-91.15368651
 20
-82.66755964
 10
-91.11381827
 20
-82.70742787
 10
-91.07394249
 20
-82.74730375
 10
-91.03406278
 20
-82.78718337
 10
-90.99418316
 20
-82.82706308
 10
-90.95430728
 20
-82.86693887
 10
-90.91443905
 20
-82.9068071
 10
-90.8745823
 20
-82.94666395
  0
ARC
  5
2FB
100
AcDbEntity
  8
MST_1_1
 62
   137
  6
CONTINUOUS
100
AcDbCircle
 10
-91.01260708
 20
-82.76572777
 30
0.0
 40
0.22757154
100
AcDbArc
 50
142.662273
 51
192.61245546
  0
LWPOLYLINE
  5
2FC
100
AcDbEntity
  8
MST_1_1
 62
   137
  6
CONTINUOUS
100
AcDbPolyline
 90
        9
 70
     0
 43
0.0
 10
-91.47531961
 20
-82.57478666
 10
-91.44528659
 20
-82.60481968
 10
-91.41523708
 20
-82.63486929
 10
-91.38517265
 20
-82.66493361
 10
-91.35509528
 20
-82.69501109
 10
-91.32500623
 20
-82.72510014
 10
-91.29490746
 20
-82.7551989
 10
-91.26480055
 20
-82.78530581
 10
-91.23468717
 20
-82.8154192
  0
ARC
  5
2FD
100
AcDbEntity
  8
MST_1_1
 62
   137
  6
CONTINUOUS
100
AcDbCircle
 10
-91.42562804
 20
-82.35270682
 30
0.0
 40
0.22757133
100
AcDbArc
 50
257.38751638
 51
12.61251432
  0
LWPOLYLINE
  5
2FE
100
AcDbEntity
  8
MST_1_1
 62
   137
  6
CONTINUOUS
100
AcDbPolyline
 90
        9
 70
     0
 43
0.0
 10
-91.07962333
 20
-82.612889
 10
-91.05214578
 20
-82.64036654
 10
-91.0246645
 20
-82.66784782
 10
-90.99718087
 20
-82.69533155
 10
-90.96969587
 20
-82.72281646
 10
-90.94221096
 20
-82.75030146
 10
-90.91472723
 20
-82.7777851
 10
-90.88724595
 20
-82.80526637
 10
-90.8597684
 20
-82.83274392
  0
ARC
  5
2FF
100
AcDbEntity
  8
MST_1_1
 62
   137
  6
CONTINUOUS
100
AcDbCircle
 10
-91.01260721
 20
-82.7657278
 30
0.0
 40
0.16688577
100
AcDbArc
 50
336.32372311
 51
113.6762869
  0
LWPOLYLINE
  5
300
100
AcDbEntity
  8
MST_1_1
 62
   137
  6
CONTINUOUS
100
AcDbPolyline
 90
        9
 70
     0
 43
0.0
 10
-90.94559095
 20
-82.91856647
 10
-90.9730685
 20
-82.89108902
 10
-91.00054968
 20
-82.86360774
 10
-91.02803341
 20
-82.83612401
 10
-91.05551841
 20
-82.808639
 10
-91.08300342
 20
-82.781154
 10
-91.11048715
 20
-82.75367027
 10
-91.13796843
 20
-82.72618909
 10
-91.16544588
 20
-82.69871154
  0
ARC
  5
301
100
AcDbEntity
  8
MST_1_1
 62
   137
  6
CONTINUOUS
100
AcDbCircle
 10
-91.01260711
 20
-82.7657277
 30
0.0
 40
0.16688575
100
AcDbArc
 50
156.32369345
 51
293.67631657
  0
CIRCLE
  5
302
100
AcDbEntity
  8
MST_1_1
 62
   137
  6
CONTINUOUS
100
AcDbCircle
 10
-89.70142916
 20
-111.45454975
 30
0.0
 40
1.59661192
  0
CIRCLE
  5
303
100
AcDbEntity
  8
MST_1_1
 62
   137
  6
CONTINUOUS
100
AcDbCircle
 10
-89.70142916
 20
-111.45454975
 30
0.0
 40
0.89384526
  0
CIRCLE
  5
304
100
AcDbEntity
  8
MST_1_1
 62
   137
  6
CONTINUOUS
100
AcDbCircle
 10
-89.70142916
 20
-111.45454975
 30
0.0
 40
1.59661192
  0
CIRCLE
  5
305
100
AcDbEntity
  8
MST_1_1
 62
   137
  6
CONTINUOUS
100
AcDbCircle
 10
-89.70142916
 20
-111.45454975
 30
0.0
 40
0.89384526
  0
CIRCLE
  5
306
100
AcDbEntity
  8
MST_1_1
 62
   137
  6
CONTINUOUS
100
AcDbCircle
 10
-89.70142916
 20
-111.45454975
 30
0.0
 40
1.59661192
  0
CIRCLE
  5
307
100
AcDbEntity
  8
MST_1_1
 62
   137
  6
CONTINUOUS
100
AcDbCircle
 10
-89.70142916
 20
-111.45454975
 30
0.0
 40
0.89384526
  0
CIRCLE
  5
308
100
AcDbEntity
  8
MST_1_1
 62
   137
  6
CONTINUOUS
100
AcDbCircle
 10
-89.70142916
 20
-111.45454975
 30
0.0
 40
1.34375478
  0
CIRCLE
  5
309
100
AcDbEntity
  8
MST_1_1
 62
   137
  6
CONTINUOUS
100
AcDbCircle
 10
-89.70142916
 20
-111.45454975
 30
0.0
 40
1.68089764
  0
CIRCLE
  5
30A
100
AcDbEntity
  8
MST_1_1
 62
   137
  6
CONTINUOUS
100
AcDbCircle
 10
-89.70142916
 20
-111.45454975
 30
0.0
 40
0.94821429
  0
CIRCLE
  5
30B
100
AcDbEntity
  8
MST_1_1
 62
   137
  6
CONTINUOUS
100
AcDbCircle
 10
-89.70142916
 20
-111.45454975
 30
0.0
 40
2.95
  0
ARC
  5
30C
100
AcDbEntity
  8
MST_1_1
 62
   137
  6
CONTINUOUS
100
AcDbCircle
 10
-90.85782914
 20
-111.45454975
 30
0.0
 40
0.25538572
100
AcDbArc
 50
104.00039951
 51
255.99961051
  0
ARC
  5
30D
100
AcDbEntity
  8
MST_1_1
 62
   137
  6
CONTINUOUS
100
AcDbCircle
 10
-91.0522911
 20
-112.23447027
 30
0.0
 40
0.54841244
100
AcDbArc
 50
344.00042282
 51
75.99958535
  0
ARC
  5
30E
100
AcDbEntity
  8
MST_1_1
 62
   137
  6
CONTINUOUS
100
AcDbCircle
 10
-90.27962913
 20
-112.45602152
 30
0.0
 40
0.25538571
100
AcDbArc
 50
164.00040911
 51
315.99959504
  0
ARC
  5
30F
100
AcDbEntity
  8
MST_1_1
 62
   137
  6
CONTINUOUS
100
AcDbCircle
 10
-89.70142916
 20
-113.0143907
 30
0.0
 40
0.54841237
100
AcDbArc
 50
44.00040429
 51
135.99959571
  0
ARC
  5
310
100
AcDbEntity
  8
MST_1_1
 62
   137
  6
CONTINUOUS
100
AcDbCircle
 10
-89.12322916
 20
-112.45602156
 30
0.0
 40
0.2553857
100
AcDbArc
 50
224.00041508
 51
15.9996008
  0
ARC
  5
311
100
AcDbEntity
  8
MST_1_1
 62
   137
  6
CONTINUOUS
100
AcDbCircle
 10
-88.54502917
 20
-111.45454975
 30
0.0
 40
0.25538572
100
AcDbArc
 50
284.00040953
 51
75.99960049
  0
ARC
  5
312
100
AcDbEntity
  8
MST_1_1
 62
   137
  6
CONTINUOUS
100
AcDbCircle
 10
-88.35056722
 20
-110.67462922
 30
0.0
 40
0.54841244
100
AcDbArc
 50
164.00041281
 51
255.99959537
  0
ARC
  5
313
100
AcDbEntity
  8
MST_1_1
 62
   137
  6
CONTINUOUS
100
AcDbCircle
 10
-89.12322918
 20
-110.45307798
 30
0.0
 40
0.25538571
100
AcDbArc
 50
344.00041913
 51
135.99958502
  0
ARC
  5
314
100
AcDbEntity
  8
MST_1_1
 62
   137
  6
CONTINUOUS
100
AcDbCircle
 10
-89.70142916
 20
-109.8947088
 30
0.0
 40
0.54841237
100
AcDbArc
 50
224.00041431
 51
315.99960573
  0
ARC
  5
315
100
AcDbEntity
  8
MST_1_1
 62
   137
  6
CONTINUOUS
100
AcDbCircle
 10
-90.27962916
 20
-110.45307794
 30
0.0
 40
0.2553857
100
AcDbArc
 50
44.00040506
 51
195.99961082
  0
ARC
  5
316
100
AcDbEntity
  8
MST_1_1
 62
   137
  6
CONTINUOUS
100
AcDbCircle
 10
-91.0522911
 20
-110.67462922
 30
0.0
 40
0.54841244
100
AcDbArc
 50
284.00042461
 51
15.99958726
  0
LWPOLYLINE
  5
317
100
AcDbEntity
  8
MST_1_1
 62
   137
  6
CONTINUOUS
100
AcDbPolyline
 90
        9
 70
     0
 43
0.0
 10
-90.78911093
 20
-113.34681808
 10
-90.78146962
 20
-113.33917677
 10
-90.77382291
 20
-113.33152997
 10
-90.76617091
 20
-113.32387806
 10
-90.75851351
 20
-113.31622066
 10
-90.75085091
 20
-113.30855796
 10
-90.74318291
 20
-113.30088997
 10
-90.73550971
 20
-113.29321687
 10
-90.72783131
 20
-113.28553847
  0
ARC
  5
318
100
AcDbEntity
  8
MST_1_1
 62
   137
  6
CONTINUOUS
100
AcDbCircle
 10
-90.5995861
 20
-113.17874889
 30
0.0
 40
0.16688573
100
AcDbArc
 50
50.21591721
 51
219.78410477
  0
LWPOLYLINE
  5
319
100
AcDbEntity
  8
MST_1_1
 62
   137
  6
CONTINUOUS
100
AcDbPolyline
 90
        9
 70
     0
 43
0.0
 10
-90.49279655
 20
-113.05050366
 10
-90.48515078
 20
-113.04285784
 10
-90.47750093
 20
-113.03520799
 10
-90.46984701
 20
-113.02755412
 10
-90.46218898
 20
-113.01989613
 10
-90.45452696
 20
-113.01223402
 10
-90.44686093
 20
-113.00456799
 10
-90.43919087
 20
-112.99689803
 10
-90.43151689
 20
-112.98922404
  0
LWPOLYLINE
  5
31A
100
AcDbEntity
  8
MST_1_1
 62
   137
  6
CONTINUOUS
100
AcDbPolyline
 90
        9
 70
     0
 43
0.0
 10
-90.43151689
 20
-112.98922404
 10
-90.47732574
 20
-112.94341514
 10
-90.52317854
 20
-112.89756239
 10
-90.56906977
 20
-112.85167116
 10
-90.61499356
 20
-112.80574736
 10
-90.66094445
 20
-112.75979648
 10
-90.70691662
 20
-112.71382431
 10
-90.75290449
 20
-112.66783644
 10
-90.79890227
 20
-112.62183866
  0
LWPOLYLINE
  5
31B
100
AcDbEntity
  8
MST_1_1
 62
   137
  6
CONTINUOUS
100
AcDbPolyline
 90
        9
 70
     0
 43
0.0
 10
-90.79890227
 20
-112.62183866
 10
-90.80161798
 20
-112.62455427
 10
-90.8043331
 20
-112.62726948
 10
-90.80704783
 20
-112.62998411
 10
-90.80976206
 20
-112.63269835
 10
-90.81247571
 20
-112.6354121
 10
-90.81518897
 20
-112.63812525
 10
-90.81790163
 20
-112.64083802
 10
-90.82061391
 20
-112.64355019
  0
LWPOLYLINE
  5
31C
100
AcDbEntity
  8
MST_1_1
 62
   137
  6
CONTINUOUS
100
AcDbPolyline
 90
       25
 70
     0
 43
0.0
 10
-90.82061391
 20
-112.64355023
 10
-90.82288315
 20
-112.6400549
 10
-90.82521263
 20
-112.63660595
 10
-90.82760171
 20
-112.63320399
 10
-90.83004977
 20
-112.62984966
 10
-90.83255617
 20
-112.62654359
 10
-90.8351203
 20
-112.62328641
 10
-90.83774152
 20
-112.62007874
 10
-90.84041921
 20
-112.61692122
 10
-90.84315274
 20
-112.61381448
 10
-90.84594148
 20
-112.61075914
 10
-90.8487848
 20
-112.60775584
 10
-90.85168208
 20
-112.6048052
 10
-90.85463269
 20
-112.60190786
 10
-90.857636
 20
-112.59906444
 10
-90.86069139
 20
-112.59627557
 10
-90.86379822
 20
-112.59354188
 10
-90.86695587
 20
-112.59086401
 10
-90.87016371
 20
-112.58824258
 10
-90.87342112
 20
-112.58567821
 10
-90.87672746
 20
-112.58317155
 10
-90.88008211
 20
-112.58072322
 10
-90.88348444
 20
-112.57833385
 10
-90.88693383
 20
-112.57600407
 10
-90.89042964
 20
-112.5737345
  0
LWPOLYLINE
  5
31D
100
AcDbEntity
  8
MST_1_1
 62
   137
  6
CONTINUOUS
100
AcDbPolyline
 90
        9
 70
     0
 43
0.0
 10
-90.8904296
 20
-112.5737345
 10
-90.88771743
 20
-112.57102223
 10
-90.88500466
 20
-112.56830956
 10
-90.8822915
 20
-112.5655963
 10
-90.87957776
 20
-112.56288266
 10
-90.87686352
 20
-112.56016842
 10
-90.87414889
 20
-112.55745369
 10
-90.87143367
 20
-112.55473857
 10
-90.86871806
 20
-112.55202286
  0
LWPOLYLINE
  5
31E
100
AcDbEntity
  8
MST_1_1
 62
   137
  6
CONTINUOUS
100
AcDbPolyline
 90
        9
 70
     0
 43
0.0
 10
-90.86871806
 20
-112.55202286
 10
-90.91471585
 20
-112.50602508
 10
-90.96070372
 20
-112.46003721
 10
-91.00667589
 20
-112.41406504
 10
-91.05262677
 20
-112.36811416
 10
-91.09855057
 20
-112.32219036
 10
-91.14444179
 20
-112.27629913
 10
-91.19029455
 20
-112.23044633
 10
-91.23610345
 20
-112.18463748
  0
LWPOLYLINE
  5
31F
100
AcDbEntity
  8
MST_1_1
 62
   137
  6
CONTINUOUS
100
AcDbPolyline
 90
        9
 70
     0
 43
0.0
 10
-91.23610345
 20
-112.18463748
 10
-91.24377743
 20
-112.19231146
 10
-91.2514474
 20
-112.19998152
 10
-91.25911343
 20
-112.20764755
 10
-91.26677554
 20
-112.21530957
 10
-91.27443353
 20
-112.22296761
 10
-91.2820874
 20
-112.23062152
 10
-91.28973724
 20
-112.23827137
 10
-91.29738307
 20
-112.24591714
  0
ARC
  5
320
100
AcDbEntity
  8
MST_1_1
 62
   137
  6
CONTINUOUS
100
AcDbCircle
 10
-91.42562831
 20
-112.35270669
 30
0.0
 40
0.16688573
100
AcDbArc
 50
230.21591956
 51
39.7840785
  0
LWPOLYLINE
  5
321
100
AcDbEntity
  8
MST_1_1
 62
   137
  6
CONTINUOUS
100
AcDbPolyline
 90
        9
 70
     0
 43
0.0
 10
-91.53241788
 20
-112.4809519
 10
-91.54009628
 20
-112.4886303
 10
-91.54776938
 20
-112.4963035
 10
-91.55543737
 20
-112.5039715
 10
-91.56310007
 20
-112.5116341
 10
-91.57075747
 20
-112.5192915
 10
-91.57840938
 20
-112.5269435
 10
-91.58605618
 20
-112.53459021
 10
-91.59369749
 20
-112.54223152
  0
LWPOLYLINE
  5
322
100
AcDbEntity
  8
MST_1_1
 62
   137
  6
CONTINUOUS
100
AcDbPolyline
 90
        9
 70
     0
 43
0.0
 10
-91.59369749
 20
-112.54223152
 10
-91.54789517
 20
-112.58803365
 10
-91.50204653
 20
-112.63388238
 10
-91.45615727
 20
-112.67977174
 10
-91.41023327
 20
-112.72569564
 10
-91.36428082
 20
-112.77164809
 10
-91.31830581
 20
-112.81762311
 10
-91.2723142
 20
-112.86361471
 10
-91.22631201
 20
-112.9096169
  0
LWPOLYLINE
  5
323
100
AcDbEntity
  8
MST_1_1
 62
   137
  6
CONTINUOUS
100
AcDbPolyline
 90
        9
 70
     0
 43
0.0
 10
-91.22631201
 20
-112.9096169
 10
-91.22360042
 20
-112.90690532
 10
-91.22088815
 20
-112.90419304
 10
-91.21817518
 20
-112.90148008
 10
-91.21546154
 20
-112.89876643
 10
-91.2127473
 20
-112.8960522
 10
-91.21003238
 20
-112.89333718
 10
-91.20731667
 20
-112.89062157
 10
-91.20460037
 20
-112.88790527
  0
LWPOLYLINE
  5
324
100
AcDbEntity
  8
MST_1_1
 62
   137
  6
CONTINUOUS
100
AcDbPolyline
 90
       25
 70
     0
 43
0.0
 10
-91.20460041
 20
-112.88790527
 10
-91.20233134
 20
-112.89140032
 10
-91.20000198
 20
-112.89484906
 10
-91.19761297
 20
-112.89825085
 10
-91.19516494
 20
-112.90160507
 10
-91.19265852
 20
-112.90491108
 10
-91.19009435
 20
-112.90816825
 10
-91.18747306
 20
-112.91137593
 10
-91.18479528
 20
-112.9145335
 10
-91.18206164
 20
-112.91764032
 10
-91.17927278
 20
-112.92069576
 10
-91.17642933
 20
-112.92369917
 10
-91.17353193
 20
-112.92664994
 10
-91.17058119
 20
-112.92954741
 10
-91.16757777
 20
-112.93239096
 10
-91.16452229
 20
-112.93517995
 10
-91.16141538
 20
-112.93791375
 10
-91.15825767
 20
-112.94059172
 10
-91.15504981
 20
-112.94321322
 10
-91.15179242
 20
-112.94577763
 10
-91.14848613
 20
-112.94828431
 10
-91.14513158
 20
-112.95073262
 10
-91.1417294
 20
-112.95312193
 10
-91.13828022
 20
-112.9554516
 10
-91.13478468
 20
-112.957721
  0
LWPOLYLINE
  5
325
100
AcDbEntity
  8
MST_1_1
 62
   137
  6
CONTINUOUS
100
AcDbPolyline
 90
        9
 70
     0
 43
0.0
 10
-91.13478468
 20
-112.95772096
 10
-91.13750097
 20
-112.96043726
 10
-91.14021658
 20
-112.96315297
 10
-91.14293161
 20
-112.96586789
 10
-91.14564584
 20
-112.96858213
 10
-91.14835949
 20
-112.97129578
 10
-91.15107245
 20
-112.97400874
 10
-91.15378473
 20
-112.97672101
 10
-91.15649631
 20
-112.9794326
  0
LWPOLYLINE
  5
326
100
AcDbEntity
  8
MST_1_1
 62
   137
  6
CONTINUOUS
100
AcDbPolyline
 90
        9
 70
     0
 43
0.0
 10
-91.15649631
 20
-112.9794326
 10
-91.11049411
 20
-113.0254348
 10
-91.06450251
 20
-113.0714264
 10
-91.0185275
 20
-113.11740141
 10
-90.97257505
 20
-113.16335387
 10
-90.92665115
 20
-113.20927786
 10
-90.88076179
 20
-113.25516712
 10
-90.83491305
 20
-113.30101576
 10
-90.78911093
 20
-113.34681808
  0
CIRCLE
  5
327
100
AcDbEntity
  8
MST_1_1
 62
   137
  6
CONTINUOUS
100
AcDbCircle
 10
-89.70142916
 20
-111.45454975
 30
0.0
 40
2.76727078
  0
ARC
  5
328
100
AcDbEntity
  8
MST_1_1
 62
   137
  6
CONTINUOUS
100
AcDbCircle
 10
-88.35056722
 20
-112.23447027
 30
0.0
 40
0.54841244
100
AcDbArc
 50
104.00041459
 51
195.99959727
  0
LWPOLYLINE
  5
329
100
AcDbEntity
  8
MST_1_1
 62
   137
  6
CONTINUOUS
100
AcDbPolyline
 90
        9
 70
     0
 43
0.0
 10
-90.96291567
 20
-112.5436478
 10
-90.99302768
 20
-112.51353579
 10
-91.02313342
 20
-112.48343006
 10
-91.0532314
 20
-112.45333208
 10
-91.08331996
 20
-112.42324352
 10
-91.11339753
 20
-112.39316595
 10
-91.14346244
 20
-112.36310093
 10
-91.17351323
 20
-112.33305015
 10
-91.20354821
 20
-112.30301516
  0
ARC
  5
32A
100
AcDbEntity
  8
MST_1_1
 62
   137
  6
CONTINUOUS
100
AcDbCircle
 10
-91.01260726
 20
-112.7657272
 30
0.0
 40
0.22757089
100
AcDbArc
 50
77.38747914
 51
127.33780242
  0
LINE
  5
32B
100
AcDbEntity
  8
MST_1_1
 62
   137
  6
CONTINUOUS
100
AcDbLine
 10
-90.83167102
 20
-112.90375258
 30
0.0
 11
-91.15063198
 21
-112.58479161
 31
0.0
  0
ARC
  5
32C
100
AcDbEntity
  8
MST_1_1
 62
   137
  6
CONTINUOUS
100
AcDbCircle
 10
-91.01260671
 20
-112.76572782
 30
0.0
 40
0.22757099
100
AcDbArc
 50
322.66221884
 51
12.61250962
  0
LWPOLYLINE
  5
32D
100
AcDbEntity
  8
MST_1_1
 62
   137
  6
CONTINUOUS
100
AcDbPolyline
 90
        9
 70
     0
 43
0.0
 10
-90.54989457
 20
-112.95666881
 10
-90.57992956
 20
-112.92663382
 10
-90.60998034
 20
-112.89658303
 10
-90.64004535
 20
-112.86651812
 10
-90.67012293
 20
-112.83644055
 10
-90.70021149
 20
-112.80635199
 10
-90.73030947
 20
-112.77625401
 10
-90.7604152
 20
-112.74614828
 10
-90.79052721
 20
-112.71603626
  0
ARC
  5
32E
100
AcDbEntity
  8
MST_1_1
 62
   137
  6
CONTINUOUS
100
AcDbCircle
 10
-90.59958601
 20
-113.17874884
 30
0.0
 40
0.22757149
100
AcDbArc
 50
77.38755048
 51
192.61243885
  0
LWPOLYLINE
  5
32F
100
AcDbEntity
  8
MST_1_1
 62
   137
  6
CONTINUOUS
100
AcDbPolyline
 90
        9
 70
     0
 43
0.0
 10
-91.06229861
 20
-112.98780776
 10
-91.03218522
 20
-113.01792114
 10
-91.00207831
 20
-113.04802805
 10
-90.97197955
 20
-113.07812682
 10
-90.94189049
 20
-113.10821587
 10
-90.91181302
 20
-113.13829325
 10
-90.8817487
 20
-113.16835767
 10
-90.85169909
 20
-113.19840718
 10
-90.82166606
 20
-113.2284402
  0
ARC
  5
330
100
AcDbEntity
  8
MST_1_1
 62
   137
  6
CONTINUOUS
100
AcDbCircle
 10
-91.01260731
 20
-112.76572704
 30
0.0
 40
0.22757212
100
AcDbArc
 50
257.38763285
 51
307.33766874
  0
LWPOLYLINE
  5
331
100
AcDbEntity
  8
MST_1_1
 62
   137
  6
CONTINUOUS
100
AcDbPolyline
 90
        9
 70
     0
 43
0.0
 10
-91.19354336
 20
-112.62770289
 10
-91.15368651
 20
-112.66755964
 10
-91.11381827
 20
-112.70742787
 10
-91.07394249
 20
-112.74730375
 10
-91.03406278
 20
-112.78718337
 10
-90.99418316
 20
-112.82706308
 10
-90.95430728
 20
-112.86693887
 10
-90.91443905
 20
-112.9068071
 10
-90.8745823
 20
-112.94666395
  0
ARC
  5
332
100
AcDbEntity
  8
MST_1_1
 62
   137
  6
CONTINUOUS
100
AcDbCircle
 10
-91.01260708
 20
-112.76572777
 30
0.0
 40
0.22757154
100
AcDbArc
 50
142.662273
 51
192.61245546
  0
LWPOLYLINE
  5
333
100
AcDbEntity
  8
MST_1_1
 62
   137
  6
CONTINUOUS
100
AcDbPolyline
 90
        9
 70
     0
 43
0.0
 10
-91.47531961
 20
-112.57478666
 10
-91.44528659
 20
-112.60481968
 10
-91.41523708
 20
-112.63486929
 10
-91.38517265
 20
-112.66493361
 10
-91.35509528
 20
-112.69501109
 10
-91.32500623
 20
-112.72510014
 10
-91.29490746
 20
-112.7551989
 10
-91.26480055
 20
-112.78530581
 10
-91.23468717
 20
-112.8154192
  0
ARC
  5
334
100
AcDbEntity
  8
MST_1_1
 62
   137
  6
CONTINUOUS
100
AcDbCircle
 10
-91.42562804
 20
-112.35270682
 30
0.0
 40
0.22757133
100
AcDbArc
 50
257.38751638
 51
12.61251432
  0
LWPOLYLINE
  5
335
100
AcDbEntity
  8
MST_1_1
 62
   137
  6
CONTINUOUS
100
AcDbPolyline
 90
        9
 70
     0
 43
0.0
 10
-91.07962333
 20
-112.612889
 10
-91.05214578
 20
-112.64036654
 10
-91.0246645
 20
-112.66784782
 10
-90.99718087
 20
-112.69533155
 10
-90.96969587
 20
-112.72281646
 10
-90.94221096
 20
-112.75030146
 10
-90.91472723
 20
-112.7777851
 10
-90.88724595
 20
-112.80526637
 10
-90.8597684
 20
-112.83274392
  0
ARC
  5
336
100
AcDbEntity
  8
MST_1_1
 62
   137
  6
CONTINUOUS
100
AcDbCircle
 10
-91.01260721
 20
-112.7657278
 30
0.0
 40
0.16688577
100
AcDbArc
 50
336.32372311
 51
113.6762869
  0
LWPOLYLINE
  5
337
100
AcDbEntity
  8
MST_1_1
 62
   137
  6
CONTINUOUS
100
AcDbPolyline
 90
        9
 70
     0
 43
0.0
 10
-90.94559095
 20
-112.91856647
 10
-90.9730685
 20
-112.89108902
 10
-91.00054968
 20
-112.86360774
 10
-91.02803341
 20
-112.83612401
 10
-91.05551841
 20
-112.808639
 10
-91.08300342
 20
-112.781154
 10
-91.11048715
 20
-112.75367027
 10
-91.13796843
 20
-112.72618909
 10
-91.16544588
 20
-112.69871154
  0
ARC
  5
338
100
AcDbEntity
  8
MST_1_1
 62
   137
  6
CONTINUOUS
100
AcDbCircle
 10
-91.01260711
 20
-112.7657277
 30
0.0
 40
0.16688575
100
AcDbArc
 50
156.32369345
 51
293.67631657
  0
CIRCLE
  5
339
100
AcDbEntity
  8
MST_1_1
 62
   137
  6
CONTINUOUS
100
AcDbCircle
 10
-89.70142916
 20
-141.45454975
 30
0.0
 40
1.59661192
  0
CIRCLE
  5
33A
100
AcDbEntity
  8
MST_1_1
 62
   137
  6
CONTINUOUS
100
AcDbCircle
 10
-89.70142916
 20
-141.45454975
 30
0.0
 40
0.89384526
  0
CIRCLE
  5
33B
100
AcDbEntity
  8
MST_1_1
 62
   137
  6
CONTINUOUS
100
AcDbCircle
 10
-89.70142916
 20
-141.45454975
 30
0.0
 40
1.59661192
  0
CIRCLE
  5
33C
100
AcDbEntity
  8
MST_1_1
 62
   137
  6
CONTINUOUS
100
AcDbCircle
 10
-89.70142916
 20
-141.45454975
 30
0.0
 40
0.89384526
  0
CIRCLE
  5
33D
100
AcDbEntity
  8
MST_1_1
 62
   137
  6
CONTINUOUS
100
AcDbCircle
 10
-89.70142916
 20
-141.45454975
 30
0.0
 40
1.59661192
  0
CIRCLE
  5
33E
100
AcDbEntity
  8
MST_1_1
 62
   137
  6
CONTINUOUS
100
AcDbCircle
 10
-89.70142916
 20
-141.45454975
 30
0.0
 40
0.89384526
  0
CIRCLE
  5
33F
100
AcDbEntity
  8
MST_1_1
 62
   137
  6
CONTINUOUS
100
AcDbCircle
 10
-89.70142916
 20
-141.45454975
 30
0.0
 40
1.34375478
  0
CIRCLE
  5
340
100
AcDbEntity
  8
MST_1_1
 62
   137
  6
CONTINUOUS
100
AcDbCircle
 10
-89.70142916
 20
-141.45454975
 30
0.0
 40
1.68089764
  0
CIRCLE
  5
341
100
AcDbEntity
  8
MST_1_1
 62
   137
  6
CONTINUOUS
100
AcDbCircle
 10
-89.70142916
 20
-141.45454975
 30
0.0
 40
0.94821429
  0
CIRCLE
  5
342
100
AcDbEntity
  8
MST_1_1
 62
   137
  6
CONTINUOUS
100
AcDbCircle
 10
-89.70142916
 20
-141.45454975
 30
0.0
 40
2.95
  0
ARC
  5
343
100
AcDbEntity
  8
MST_1_1
 62
   137
  6
CONTINUOUS
100
AcDbCircle
 10
-90.85782914
 20
-141.45454975
 30
0.0
 40
0.25538572
100
AcDbArc
 50
104.00039951
 51
255.99961051
  0
ARC
  5
344
100
AcDbEntity
  8
MST_1_1
 62
   137
  6
CONTINUOUS
100
AcDbCircle
 10
-91.0522911
 20
-142.23447027
 30
0.0
 40
0.54841244
100
AcDbArc
 50
344.00042282
 51
75.99958535
  0
ARC
  5
345
100
AcDbEntity
  8
MST_1_1
 62
   137
  6
CONTINUOUS
100
AcDbCircle
 10
-90.27962913
 20
-142.45602152
 30
0.0
 40
0.25538571
100
AcDbArc
 50
164.00040911
 51
315.99959504
  0
ARC
  5
346
100
AcDbEntity
  8
MST_1_1
 62
   137
  6
CONTINUOUS
100
AcDbCircle
 10
-89.70142916
 20
-143.0143907
 30
0.0
 40
0.54841237
100
AcDbArc
 50
44.00040429
 51
135.99959571
  0
ARC
  5
347
100
AcDbEntity
  8
MST_1_1
 62
   137
  6
CONTINUOUS
100
AcDbCircle
 10
-89.12322916
 20
-142.45602156
 30
0.0
 40
0.2553857
100
AcDbArc
 50
224.00041508
 51
15.9996008
  0
ARC
  5
348
100
AcDbEntity
  8
MST_1_1
 62
   137
  6
CONTINUOUS
100
AcDbCircle
 10
-88.54502917
 20
-141.45454975
 30
0.0
 40
0.25538572
100
AcDbArc
 50
284.00040953
 51
75.99960049
  0
ARC
  5
349
100
AcDbEntity
  8
MST_1_1
 62
   137
  6
CONTINUOUS
100
AcDbCircle
 10
-88.35056722
 20
-140.67462922
 30
0.0
 40
0.54841244
100
AcDbArc
 50
164.00041281
 51
255.99959537
  0
ARC
  5
34A
100
AcDbEntity
  8
MST_1_1
 62
   137
  6
CONTINUOUS
100
AcDbCircle
 10
-89.12322918
 20
-140.45307798
 30
0.0
 40
0.25538571
100
AcDbArc
 50
344.00041913
 51
135.99958502
  0
ARC
  5
34B
100
AcDbEntity
  8
MST_1_1
 62
   137
  6
CONTINUOUS
100
AcDbCircle
 10
-89.70142916
 20
-139.8947088
 30
0.0
 40
0.54841237
100
AcDbArc
 50
224.00041431
 51
315.99960573
  0
ARC
  5
34C
100
AcDbEntity
  8
MST_1_1
 62
   137
  6
CONTINUOUS
100
AcDbCircle
 10
-90.27962916
 20
-140.45307794
 30
0.0
 40
0.2553857
100
AcDbArc
 50
44.00040506
 51
195.99961082
  0
ARC
  5
34D
100
AcDbEntity
  8
MST_1_1
 62
   137
  6
CONTINUOUS
100
AcDbCircle
 10
-91.0522911
 20
-140.67462922
 30
0.0
 40
0.54841244
100
AcDbArc
 50
284.00042461
 51
15.99958726
  0
LWPOLYLINE
  5
34E
100
AcDbEntity
  8
MST_1_1
 62
   137
  6
CONTINUOUS
100
AcDbPolyline
 90
        9
 70
     0
 43
0.0
 10
-90.78911093
 20
-143.34681808
 10
-90.78146962
 20
-143.33917677
 10
-90.77382291
 20
-143.33152997
 10
-90.76617091
 20
-143.32387806
 10
-90.75851351
 20
-143.31622066
 10
-90.75085091
 20
-143.30855796
 10
-90.74318291
 20
-143.30088997
 10
-90.73550971
 20
-143.29321687
 10
-90.72783131
 20
-143.28553847
  0
ARC
  5
34F
100
AcDbEntity
  8
MST_1_1
 62
   137
  6
CONTINUOUS
100
AcDbCircle
 10
-90.5995861
 20
-143.17874889
 30
0.0
 40
0.16688573
100
AcDbArc
 50
50.21591721
 51
219.78410477
  0
LWPOLYLINE
  5
350
100
AcDbEntity
  8
MST_1_1
 62
   137
  6
CONTINUOUS
100
AcDbPolyline
 90
        9
 70
     0
 43
0.0
 10
-90.49279655
 20
-143.05050366
 10
-90.48515078
 20
-143.04285784
 10
-90.47750093
 20
-143.03520799
 10
-90.46984701
 20
-143.02755412
 10
-90.46218898
 20
-143.01989613
 10
-90.45452696
 20
-143.01223402
 10
-90.44686093
 20
-143.00456799
 10
-90.43919087
 20
-142.99689803
 10
-90.43151689
 20
-142.98922404
  0
LWPOLYLINE
  5
351
100
AcDbEntity
  8
MST_1_1
 62
   137
  6
CONTINUOUS
100
AcDbPolyline
 90
        9
 70
     0
 43
0.0
 10
-90.43151689
 20
-142.98922404
 10
-90.47732574
 20
-142.94341514
 10
-90.52317854
 20
-142.89756239
 10
-90.56906977
 20
-142.85167116
 10
-90.61499356
 20
-142.80574736
 10
-90.66094445
 20
-142.75979648
 10
-90.70691662
 20
-142.71382431
 10
-90.75290449
 20
-142.66783644
 10
-90.79890227
 20
-142.62183866
  0
LWPOLYLINE
  5
352
100
AcDbEntity
  8
MST_1_1
 62
   137
  6
CONTINUOUS
100
AcDbPolyline
 90
        9
 70
     0
 43
0.0
 10
-90.79890227
 20
-142.62183866
 10
-90.80161798
 20
-142.62455427
 10
-90.8043331
 20
-142.62726948
 10
-90.80704783
 20
-142.62998411
 10
-90.80976206
 20
-142.63269835
 10
-90.81247571
 20
-142.6354121
 10
-90.81518897
 20
-142.63812525
 10
-90.81790163
 20
-142.64083802
 10
-90.82061391
 20
-142.64355019
  0
LWPOLYLINE
  5
353
100
AcDbEntity
  8
MST_1_1
 62
   137
  6
CONTINUOUS
100
AcDbPolyline
 90
       25
 70
     0
 43
0.0
 10
-90.82061391
 20
-142.64355023
 10
-90.82288315
 20
-142.6400549
 10
-90.82521263
 20
-142.63660595
 10
-90.82760171
 20
-142.63320399
 10
-90.83004977
 20
-142.62984966
 10
-90.83255617
 20
-142.62654359
 10
-90.8351203
 20
-142.62328641
 10
-90.83774152
 20
-142.62007874
 10
-90.84041921
 20
-142.61692122
 10
-90.84315274
 20
-142.61381448
 10
-90.84594148
 20
-142.61075914
 10
-90.8487848
 20
-142.60775584
 10
-90.85168208
 20
-142.6048052
 10
-90.85463269
 20
-142.60190786
 10
-90.857636
 20
-142.59906444
 10
-90.86069139
 20
-142.59627557
 10
-90.86379822
 20
-142.59354188
 10
-90.86695587
 20
-142.59086401
 10
-90.87016371
 20
-142.58824258
 10
-90.87342112
 20
-142.58567821
 10
-90.87672746
 20
-142.58317155
 10
-90.88008211
 20
-142.58072322
 10
-90.88348444
 20
-142.57833385
 10
-90.88693383
 20
-142.57600407
 10
-90.89042964
 20
-142.5737345
  0
LWPOLYLINE
  5
354
100
AcDbEntity
  8
MST_1_1
 62
   137
  6
CONTINUOUS
100
AcDbPolyline
 90
        9
 70
     0
 43
0.0
 10
-90.8904296
 20
-142.5737345
 10
-90.88771743
 20
-142.57102223
 10
-90.88500466
 20
-142.56830956
 10
-90.8822915
 20
-142.5655963
 10
-90.87957776
 20
-142.56288266
 10
-90.87686352
 20
-142.56016842
 10
-90.87414889
 20
-142.55745369
 10
-90.87143367
 20
-142.55473857
 10
-90.86871806
 20
-142.55202286
  0
LWPOLYLINE
  5
355
100
AcDbEntity
  8
MST_1_1
 62
   137
  6
CONTINUOUS
100
AcDbPolyline
 90
        9
 70
     0
 43
0.0
 10
-90.86871806
 20
-142.55202286
 10
-90.91471585
 20
-142.50602508
 10
-90.96070372
 20
-142.46003721
 10
-91.00667589
 20
-142.41406504
 10
-91.05262677
 20
-142.36811416
 10
-91.09855057
 20
-142.32219036
 10
-91.14444179
 20
-142.27629913
 10
-91.19029455
 20
-142.23044633
 10
-91.23610345
 20
-142.18463748
  0
LWPOLYLINE
  5
356
100
AcDbEntity
  8
MST_1_1
 62
   137
  6
CONTINUOUS
100
AcDbPolyline
 90
        9
 70
     0
 43
0.0
 10
-91.23610345
 20
-142.18463748
 10
-91.24377743
 20
-142.19231146
 10
-91.2514474
 20
-142.19998152
 10
-91.25911343
 20
-142.20764755
 10
-91.26677554
 20
-142.21530957
 10
-91.27443353
 20
-142.22296761
 10
-91.2820874
 20
-142.23062152
 10
-91.28973724
 20
-142.23827137
 10
-91.29738307
 20
-142.24591714
  0
ARC
  5
357
100
AcDbEntity
  8
MST_1_1
 62
   137
  6
CONTINUOUS
100
AcDbCircle
 10
-91.42562831
 20
-142.35270669
 30
0.0
 40
0.16688573
100
AcDbArc
 50
230.21591956
 51
39.7840785
  0
LWPOLYLINE
  5
358
100
AcDbEntity
  8
MST_1_1
 62
   137
  6
CONTINUOUS
100
AcDbPolyline
 90
        9
 70
     0
 43
0.0
 10
-91.53241788
 20
-142.4809519
 10
-91.54009628
 20
-142.4886303
 10
-91.54776938
 20
-142.4963035
 10
-91.55543737
 20
-142.5039715
 10
-91.56310007
 20
-142.5116341
 10
-91.57075747
 20
-142.5192915
 10
-91.57840938
 20
-142.5269435
 10
-91.58605618
 20
-142.53459021
 10
-91.59369749
 20
-142.54223152
  0
LWPOLYLINE
  5
359
100
AcDbEntity
  8
MST_1_1
 62
   137
  6
CONTINUOUS
100
AcDbPolyline
 90
        9
 70
     0
 43
0.0
 10
-91.59369749
 20
-142.54223152
 10
-91.54789517
 20
-142.58803365
 10
-91.50204653
 20
-142.63388238
 10
-91.45615727
 20
-142.67977174
 10
-91.41023327
 20
-142.72569564
 10
-91.36428082
 20
-142.77164809
 10
-91.31830581
 20
-142.81762311
 10
-91.2723142
 20
-142.86361471
 10
-91.22631201
 20
-142.9096169
  0
LWPOLYLINE
  5
35A
100
AcDbEntity
  8
MST_1_1
 62
   137
  6
CONTINUOUS
100
AcDbPolyline
 90
        9
 70
     0
 43
0.0
 10
-91.22631201
 20
-142.9096169
 10
-91.22360042
 20
-142.90690532
 10
-91.22088815
 20
-142.90419304
 10
-91.21817518
 20
-142.90148008
 10
-91.21546154
 20
-142.89876643
 10
-91.2127473
 20
-142.8960522
 10
-91.21003238
 20
-142.89333718
 10
-91.20731667
 20
-142.89062157
 10
-91.20460037
 20
-142.88790527
  0
LWPOLYLINE
  5
35B
100
AcDbEntity
  8
MST_1_1
 62
   137
  6
CONTINUOUS
100
AcDbPolyline
 90
       25
 70
     0
 43
0.0
 10
-91.20460041
 20
-142.88790527
 10
-91.20233134
 20
-142.89140032
 10
-91.20000198
 20
-142.89484906
 10
-91.19761297
 20
-142.89825085
 10
-91.19516494
 20
-142.90160507
 10
-91.19265852
 20
-142.90491108
 10
-91.19009435
 20
-142.90816825
 10
-91.18747306
 20
-142.91137593
 10
-91.18479528
 20
-142.9145335
 10
-91.18206164
 20
-142.91764032
 10
-91.17927278
 20
-142.92069576
 10
-91.17642933
 20
-142.92369917
 10
-91.17353193
 20
-142.92664994
 10
-91.17058119
 20
-142.92954741
 10
-91.16757777
 20
-142.93239096
 10
-91.16452229
 20
-142.93517995
 10
-91.16141538
 20
-142.93791375
 10
-91.15825767
 20
-142.94059172
 10
-91.15504981
 20
-142.94321322
 10
-91.15179242
 20
-142.94577763
 10
-91.14848613
 20
-142.94828431
 10
-91.14513158
 20
-142.95073262
 10
-91.1417294
 20
-142.95312193
 10
-91.13828022
 20
-142.9554516
 10
-91.13478468
 20
-142.957721
  0
LWPOLYLINE
  5
35C
100
AcDbEntity
  8
MST_1_1
 62
   137
  6
CONTINUOUS
100
AcDbPolyline
 90
        9
 70
     0
 43
0.0
 10
-91.13478468
 20
-142.95772096
 10
-91.13750097
 20
-142.96043726
 10
-91.14021658
 20
-142.96315297
 10
-91.14293161
 20
-142.96586789
 10
-91.14564584
 20
-142.96858213
 10
-91.14835949
 20
-142.97129578
 10
-91.15107245
 20
-142.97400874
 10
-91.15378473
 20
-142.97672101
 10
-91.15649631
 20
-142.9794326
  0
LWPOLYLINE
  5
35D
100
AcDbEntity
  8
MST_1_1
 62
   137
  6
CONTINUOUS
100
AcDbPolyline
 90
        9
 70
     0
 43
0.0
 10
-91.15649631
 20
-142.9794326
 10
-91.11049411
 20
-143.0254348
 10
-91.06450251
 20
-143.0714264
 10
-91.0185275
 20
-143.11740141
 10
-90.97257505
 20
-143.16335387
 10
-90.92665115
 20
-143.20927786
 10
-90.88076179
 20
-143.25516712
 10
-90.83491305
 20
-143.30101576
 10
-90.78911093
 20
-143.34681808
  0
CIRCLE
  5
35E
100
AcDbEntity
  8
MST_1_1
 62
   137
  6
CONTINUOUS
100
AcDbCircle
 10
-89.70142916
 20
-141.45454975
 30
0.0
 40
2.76727078
  0
ARC
  5
35F
100
AcDbEntity
  8
MST_1_1
 62
   137
  6
CONTINUOUS
100
AcDbCircle
 10
-88.35056722
 20
-142.23447027
 30
0.0
 40
0.54841244
100
AcDbArc
 50
104.00041459
 51
195.99959727
  0
LWPOLYLINE
  5
360
100
AcDbEntity
  8
MST_1_1
 62
   137
  6
CONTINUOUS
100
AcDbPolyline
 90
        9
 70
     0
 43
0.0
 10
-90.96291567
 20
-142.5436478
 10
-90.99302768
 20
-142.51353579
 10
-91.02313342
 20
-142.48343006
 10
-91.0532314
 20
-142.45333208
 10
-91.08331996
 20
-142.42324352
 10
-91.11339753
 20
-142.39316595
 10
-91.14346244
 20
-142.36310093
 10
-91.17351323
 20
-142.33305015
 10
-91.20354821
 20
-142.30301516
  0
ARC
  5
361
100
AcDbEntity
  8
MST_1_1
 62
   137
  6
CONTINUOUS
100
AcDbCircle
 10
-91.01260726
 20
-142.7657272
 30
0.0
 40
0.22757089
100
AcDbArc
 50
77.38747914
 51
127.33780242
  0
LINE
  5
362
100
AcDbEntity
  8
MST_1_1
 62
   137
  6
CONTINUOUS
100
AcDbLine
 10
-90.83167102
 20
-142.90375258
 30
0.0
 11
-91.15063198
 21
-142.58479161
 31
0.0
  0
ARC
  5
363
100
AcDbEntity
  8
MST_1_1
 62
   137
  6
CONTINUOUS
100
AcDbCircle
 10
-91.01260671
 20
-142.76572782
 30
0.0
 40
0.22757099
100
AcDbArc
 50
322.66221884
 51
12.61250962
  0
LWPOLYLINE
  5
364
100
AcDbEntity
  8
MST_1_1
 62
   137
  6
CONTINUOUS
100
AcDbPolyline
 90
        9
 70
     0
 43
0.0
 10
-90.54989457
 20
-142.95666881
 10
-90.57992956
 20
-142.92663382
 10
-90.60998034
 20
-142.89658303
 10
-90.64004535
 20
-142.86651812
 10
-90.67012293
 20
-142.83644055
 10
-90.70021149
 20
-142.80635199
 10
-90.73030947
 20
-142.77625401
 10
-90.7604152
 20
-142.74614828
 10
-90.79052721
 20
-142.71603626
  0
ARC
  5
365
100
AcDbEntity
  8
MST_1_1
 62
   137
  6
CONTINUOUS
100
AcDbCircle
 10
-90.59958601
 20
-143.17874884
 30
0.0
 40
0.22757149
100
AcDbArc
 50
77.38755048
 51
192.61243885
  0
LWPOLYLINE
  5
366
100
AcDbEntity
  8
MST_1_1
 62
   137
  6
CONTINUOUS
100
AcDbPolyline
 90
        9
 70
     0
 43
0.0
 10
-91.06229861
 20
-142.98780776
 10
-91.03218522
 20
-143.01792114
 10
-91.00207831
 20
-143.04802805
 10
-90.97197955
 20
-143.07812682
 10
-90.94189049
 20
-143.10821587
 10
-90.91181302
 20
-143.13829325
 10
-90.8817487
 20
-143.16835767
 10
-90.85169909
 20
-143.19840718
 10
-90.82166606
 20
-143.2284402
  0
ARC
  5
367
100
AcDbEntity
  8
MST_1_1
 62
   137
  6
CONTINUOUS
100
AcDbCircle
 10
-91.01260731
 20
-142.76572704
 30
0.0
 40
0.22757212
100
AcDbArc
 50
257.38763285
 51
307.33766874
  0
LWPOLYLINE
  5
368
100
AcDbEntity
  8
MST_1_1
 62
   137
  6
CONTINUOUS
100
AcDbPolyline
 90
        9
 70
     0
 43
0.0
 10
-91.19354336
 20
-142.62770289
 10
-91.15368651
 20
-142.66755964
 10
-91.11381827
 20
-142.70742787
 10
-91.07394249
 20
-142.74730375
 10
-91.03406278
 20
-142.78718337
 10
-90.99418316
 20
-142.82706308
 10
-90.95430728
 20
-142.86693887
 10
-90.91443905
 20
-142.9068071
 10
-90.8745823
 20
-142.94666395
  0
ARC
  5
369
100
AcDbEntity
  8
MST_1_1
 62
   137
  6
CONTINUOUS
100
AcDbCircle
 10
-91.01260708
 20
-142.76572777
 30
0.0
 40
0.22757154
100
AcDbArc
 50
142.662273
 51
192.61245546
  0
LWPOLYLINE
  5
36A
100
AcDbEntity
  8
MST_1_1
 62
   137
  6
CONTINUOUS
100
AcDbPolyline
 90
        9
 70
     0
 43
0.0
 10
-91.47531961
 20
-142.57478666
 10
-91.44528659
 20
-142.60481968
 10
-91.41523708
 20
-142.63486929
 10
-91.38517265
 20
-142.66493361
 10
-91.35509528
 20
-142.69501109
 10
-91.32500623
 20
-142.72510014
 10
-91.29490746
 20
-142.7551989
 10
-91.26480055
 20
-142.78530581
 10
-91.23468717
 20
-142.8154192
  0
ARC
  5
36B
100
AcDbEntity
  8
MST_1_1
 62
   137
  6
CONTINUOUS
100
AcDbCircle
 10
-91.42562804
 20
-142.35270682
 30
0.0
 40
0.22757133
100
AcDbArc
 50
257.38751638
 51
12.61251432
  0
LWPOLYLINE
  5
36C
100
AcDbEntity
  8
MST_1_1
 62
   137
  6
CONTINUOUS
100
AcDbPolyline
 90
        9
 70
     0
 43
0.0
 10
-91.07962333
 20
-142.612889
 10
-91.05214578
 20
-142.64036654
 10
-91.0246645
 20
-142.66784782
 10
-90.99718087
 20
-142.69533155
 10
-90.96969587
 20
-142.72281646
 10
-90.94221096
 20
-142.75030146
 10
-90.91472723
 20
-142.7777851
 10
-90.88724595
 20
-142.80526637
 10
-90.8597684
 20
-142.83274392
  0
ARC
  5
36D
100
AcDbEntity
  8
MST_1_1
 62
   137
  6
CONTINUOUS
100
AcDbCircle
 10
-91.01260721
 20
-142.7657278
 30
0.0
 40
0.16688577
100
AcDbArc
 50
336.32372311
 51
113.6762869
  0
LWPOLYLINE
  5
36E
100
AcDbEntity
  8
MST_1_1
 62
   137
  6
CONTINUOUS
100
AcDbPolyline
 90
        9
 70
     0
 43
0.0
 10
-90.94559095
 20
-142.91856647
 10
-90.9730685
 20
-142.89108902
 10
-91.00054968
 20
-142.86360774
 10
-91.02803341
 20
-142.83612401
 10
-91.05551841
 20
-142.808639
 10
-91.08300342
 20
-142.781154
 10
-91.11048715
 20
-142.75367027
 10
-91.13796843
 20
-142.72618909
 10
-91.16544588
 20
-142.69871154
  0
ARC
  5
36F
100
AcDbEntity
  8
MST_1_1
 62
   137
  6
CONTINUOUS
100
AcDbCircle
 10
-91.01260711
 20
-142.7657277
 30
0.0
 40
0.16688575
100
AcDbArc
 50
156.32369345
 51
293.67631657
  0
CIRCLE
  5
370
100
AcDbEntity
  8
MST_1_1
 62
   137
  6
CONTINUOUS
100
AcDbCircle
 10
-89.70142916
 20
-171.45454975
 30
0.0
 40
1.59661192
  0
CIRCLE
  5
371
100
AcDbEntity
  8
MST_1_1
 62
   137
  6
CONTINUOUS
100
AcDbCircle
 10
-89.70142916
 20
-171.45454975
 30
0.0
 40
0.89384526
  0
CIRCLE
  5
372
100
AcDbEntity
  8
MST_1_1
 62
   137
  6
CONTINUOUS
100
AcDbCircle
 10
-89.70142916
 20
-171.45454975
 30
0.0
 40
1.59661192
  0
CIRCLE
  5
373
100
AcDbEntity
  8
MST_1_1
 62
   137
  6
CONTINUOUS
100
AcDbCircle
 10
-89.70142916
 20
-171.45454975
 30
0.0
 40
0.89384526
  0
CIRCLE
  5
374
100
AcDbEntity
  8
MST_1_1
 62
   137
  6
CONTINUOUS
100
AcDbCircle
 10
-89.70142916
 20
-171.45454975
 30
0.0
 40
1.59661192
  0
CIRCLE
  5
375
100
AcDbEntity
  8
MST_1_1
 62
   137
  6
CONTINUOUS
100
AcDbCircle
 10
-89.70142916
 20
-171.45454975
 30
0.0
 40
0.89384526
  0
CIRCLE
  5
376
100
AcDbEntity
  8
MST_1_1
 62
   137
  6
CONTINUOUS
100
AcDbCircle
 10
-89.70142916
 20
-171.45454975
 30
0.0
 40
1.34375478
  0
CIRCLE
  5
377
100
AcDbEntity
  8
MST_1_1
 62
   137
  6
CONTINUOUS
100
AcDbCircle
 10
-89.70142916
 20
-171.45454975
 30
0.0
 40
1.68089764
  0
CIRCLE
  5
378
100
AcDbEntity
  8
MST_1_1
 62
   137
  6
CONTINUOUS
100
AcDbCircle
 10
-89.70142916
 20
-171.45454975
 30
0.0
 40
0.94821429
  0
CIRCLE
  5
379
100
AcDbEntity
  8
MST_1_1
 62
   137
  6
CONTINUOUS
100
AcDbCircle
 10
-89.70142916
 20
-171.45454975
 30
0.0
 40
2.95
  0
ARC
  5
37A
100
AcDbEntity
  8
MST_1_1
 62
   137
  6
CONTINUOUS
100
AcDbCircle
 10
-90.85782914
 20
-171.45454975
 30
0.0
 40
0.25538572
100
AcDbArc
 50
104.00039951
 51
255.99961051
  0
ARC
  5
37B
100
AcDbEntity
  8
MST_1_1
 62
   137
  6
CONTINUOUS
100
AcDbCircle
 10
-91.0522911
 20
-172.23447027
 30
0.0
 40
0.54841244
100
AcDbArc
 50
344.00042282
 51
75.99958535
  0
ARC
  5
37C
100
AcDbEntity
  8
MST_1_1
 62
   137
  6
CONTINUOUS
100
AcDbCircle
 10
-90.27962913
 20
-172.45602152
 30
0.0
 40
0.25538571
100
AcDbArc
 50
164.00040911
 51
315.99959504
  0
ARC
  5
37D
100
AcDbEntity
  8
MST_1_1
 62
   137
  6
CONTINUOUS
100
AcDbCircle
 10
-89.70142916
 20
-173.0143907
 30
0.0
 40
0.54841237
100
AcDbArc
 50
44.00040429
 51
135.99959571
  0
ARC
  5
37E
100
AcDbEntity
  8
MST_1_1
 62
   137
  6
CONTINUOUS
100
AcDbCircle
 10
-89.12322916
 20
-172.45602156
 30
0.0
 40
0.2553857
100
AcDbArc
 50
224.00041508
 51
15.9996008
  0
ARC
  5
37F
100
AcDbEntity
  8
MST_1_1
 62
   137
  6
CONTINUOUS
100
AcDbCircle
 10
-88.54502917
 20
-171.45454975
 30
0.0
 40
0.25538572
100
AcDbArc
 50
284.00040953
 51
75.99960049
  0
ARC
  5
380
100
AcDbEntity
  8
MST_1_1
 62
   137
  6
CONTINUOUS
100
AcDbCircle
 10
-88.35056722
 20
-170.67462922
 30
0.0
 40
0.54841244
100
AcDbArc
 50
164.00041281
 51
255.99959537
  0
ARC
  5
381
100
AcDbEntity
  8
MST_1_1
 62
   137
  6
CONTINUOUS
100
AcDbCircle
 10
-89.12322918
 20
-170.45307798
 30
0.0
 40
0.25538571
100
AcDbArc
 50
344.00041913
 51
135.99958502
  0
ARC
  5
382
100
AcDbEntity
  8
MST_1_1
 62
   137
  6
CONTINUOUS
100
AcDbCircle
 10
-89.70142916
 20
-169.8947088
 30
0.0
 40
0.54841237
100
AcDbArc
 50
224.00041431
 51
315.99960573
  0
ARC
  5
383
100
AcDbEntity
  8
MST_1_1
 62
   137
  6
CONTINUOUS
100
AcDbCircle
 10
-90.27962916
 20
-170.45307794
 30
0.0
 40
0.2553857
100
AcDbArc
 50
44.00040506
 51
195.99961082
  0
ARC
  5
384
100
AcDbEntity
  8
MST_1_1
 62
   137
  6
CONTINUOUS
100
AcDbCircle
 10
-91.0522911
 20
-170.67462922
 30
0.0
 40
0.54841244
100
AcDbArc
 50
284.00042461
 51
15.99958726
  0
LWPOLYLINE
  5
385
100
AcDbEntity
  8
MST_1_1
 62
   137
  6
CONTINUOUS
100
AcDbPolyline
 90
        9
 70
     0
 43
0.0
 10
-90.78911093
 20
-173.34681808
 10
-90.78146962
 20
-173.33917677
 10
-90.77382291
 20
-173.33152997
 10
-90.76617091
 20
-173.32387806
 10
-90.75851351
 20
-173.31622066
 10
-90.75085091
 20
-173.30855796
 10
-90.74318291
 20
-173.30088997
 10
-90.73550971
 20
-173.29321687
 10
-90.72783131
 20
-173.28553847
  0
ARC
  5
386
100
AcDbEntity
  8
MST_1_1
 62
   137
  6
CONTINUOUS
100
AcDbCircle
 10
-90.5995861
 20
-173.17874889
 30
0.0
 40
0.16688573
100
AcDbArc
 50
50.21591721
 51
219.78410477
  0
LWPOLYLINE
  5
387
100
AcDbEntity
  8
MST_1_1
 62
   137
  6
CONTINUOUS
100
AcDbPolyline
 90
        9
 70
     0
 43
0.0
 10
-90.49279655
 20
-173.05050366
 10
-90.48515078
 20
-173.04285784
 10
-90.47750093
 20
-173.03520799
 10
-90.46984701
 20
-173.02755412
 10
-90.46218898
 20
-173.01989613
 10
-90.45452696
 20
-173.01223402
 10
-90.44686093
 20
-173.00456799
 10
-90.43919087
 20
-172.99689803
 10
-90.43151689
 20
-172.98922404
  0
LWPOLYLINE
  5
388
100
AcDbEntity
  8
MST_1_1
 62
   137
  6
CONTINUOUS
100
AcDbPolyline
 90
        9
 70
     0
 43
0.0
 10
-90.43151689
 20
-172.98922404
 10
-90.47732574
 20
-172.94341514
 10
-90.52317854
 20
-172.89756239
 10
-90.56906977
 20
-172.85167116
 10
-90.61499356
 20
-172.80574736
 10
-90.66094445
 20
-172.75979648
 10
-90.70691662
 20
-172.71382431
 10
-90.75290449
 20
-172.66783644
 10
-90.79890227
 20
-172.62183866
  0
LWPOLYLINE
  5
389
100
AcDbEntity
  8
MST_1_1
 62
   137
  6
CONTINUOUS
100
AcDbPolyline
 90
        9
 70
     0
 43
0.0
 10
-90.79890227
 20
-172.62183866
 10
-90.80161798
 20
-172.62455427
 10
-90.8043331
 20
-172.62726948
 10
-90.80704783
 20
-172.62998411
 10
-90.80976206
 20
-172.63269835
 10
-90.81247571
 20
-172.6354121
 10
-90.81518897
 20
-172.63812525
 10
-90.81790163
 20
-172.64083802
 10
-90.82061391
 20
-172.64355019
  0
LWPOLYLINE
  5
38A
100
AcDbEntity
  8
MST_1_1
 62
   137
  6
CONTINUOUS
100
AcDbPolyline
 90
       25
 70
     0
 43
0.0
 10
-90.82061391
 20
-172.64355023
 10
-90.82288315
 20
-172.6400549
 10
-90.82521263
 20
-172.63660595
 10
-90.82760171
 20
-172.63320399
 10
-90.83004977
 20
-172.62984966
 10
-90.83255617
 20
-172.62654359
 10
-90.8351203
 20
-172.62328641
 10
-90.83774152
 20
-172.62007874
 10
-90.84041921
 20
-172.61692122
 10
-90.84315274
 20
-172.61381448
 10
-90.84594148
 20
-172.61075914
 10
-90.8487848
 20
-172.60775584
 10
-90.85168208
 20
-172.6048052
 10
-90.85463269
 20
-172.60190786
 10
-90.857636
 20
-172.59906444
 10
-90.86069139
 20
-172.59627557
 10
-90.86379822
 20
-172.59354188
 10
-90.86695587
 20
-172.59086401
 10
-90.87016371
 20
-172.58824258
 10
-90.87342112
 20
-172.58567821
 10
-90.87672746
 20
-172.58317155
 10
-90.88008211
 20
-172.58072322
 10
-90.88348444
 20
-172.57833385
 10
-90.88693383
 20
-172.57600407
 10
-90.89042964
 20
-172.5737345
  0
LWPOLYLINE
  5
38B
100
AcDbEntity
  8
MST_1_1
 62
   137
  6
CONTINUOUS
100
AcDbPolyline
 90
        9
 70
     0
 43
0.0
 10
-90.8904296
 20
-172.5737345
 10
-90.88771743
 20
-172.57102223
 10
-90.88500466
 20
-172.56830956
 10
-90.8822915
 20
-172.5655963
 10
-90.87957776
 20
-172.56288266
 10
-90.87686352
 20
-172.56016842
 10
-90.87414889
 20
-172.55745369
 10
-90.87143367
 20
-172.55473857
 10
-90.86871806
 20
-172.55202286
  0
LWPOLYLINE
  5
38C
100
AcDbEntity
  8
MST_1_1
 62
   137
  6
CONTINUOUS
100
AcDbPolyline
 90
        9
 70
     0
 43
0.0
 10
-90.86871806
 20
-172.55202286
 10
-90.91471585
 20
-172.50602508
 10
-90.96070372
 20
-172.46003721
 10
-91.00667589
 20
-172.41406504
 10
-91.05262677
 20
-172.36811416
 10
-91.09855057
 20
-172.32219036
 10
-91.14444179
 20
-172.27629913
 10
-91.19029455
 20
-172.23044633
 10
-91.23610345
 20
-172.18463748
  0
LWPOLYLINE
  5
38D
100
AcDbEntity
  8
MST_1_1
 62
   137
  6
CONTINUOUS
100
AcDbPolyline
 90
        9
 70
     0
 43
0.0
 10
-91.23610345
 20
-172.18463748
 10
-91.24377743
 20
-172.19231146
 10
-91.2514474
 20
-172.19998152
 10
-91.25911343
 20
-172.20764755
 10
-91.26677554
 20
-172.21530957
 10
-91.27443353
 20
-172.22296761
 10
-91.2820874
 20
-172.23062152
 10
-91.28973724
 20
-172.23827137
 10
-91.29738307
 20
-172.24591714
  0
ARC
  5
38E
100
AcDbEntity
  8
MST_1_1
 62
   137
  6
CONTINUOUS
100
AcDbCircle
 10
-91.42562831
 20
-172.35270669
 30
0.0
 40
0.16688573
100
AcDbArc
 50
230.21591956
 51
39.7840785
  0
LWPOLYLINE
  5
38F
100
AcDbEntity
  8
MST_1_1
 62
   137
  6
CONTINUOUS
100
AcDbPolyline
 90
        9
 70
     0
 43
0.0
 10
-91.53241788
 20
-172.4809519
 10
-91.54009628
 20
-172.4886303
 10
-91.54776938
 20
-172.4963035
 10
-91.55543737
 20
-172.5039715
 10
-91.56310007
 20
-172.5116341
 10
-91.57075747
 20
-172.5192915
 10
-91.57840938
 20
-172.5269435
 10
-91.58605618
 20
-172.53459021
 10
-91.59369749
 20
-172.54223152
  0
LWPOLYLINE
  5
390
100
AcDbEntity
  8
MST_1_1
 62
   137
  6
CONTINUOUS
100
AcDbPolyline
 90
        9
 70
     0
 43
0.0
 10
-91.59369749
 20
-172.54223152
 10
-91.54789517
 20
-172.58803365
 10
-91.50204653
 20
-172.63388238
 10
-91.45615727
 20
-172.67977174
 10
-91.41023327
 20
-172.72569564
 10
-91.36428082
 20
-172.77164809
 10
-91.31830581
 20
-172.81762311
 10
-91.2723142
 20
-172.86361471
 10
-91.22631201
 20
-172.9096169
  0
LWPOLYLINE
  5
391
100
AcDbEntity
  8
MST_1_1
 62
   137
  6
CONTINUOUS
100
AcDbPolyline
 90
        9
 70
     0
 43
0.0
 10
-91.22631201
 20
-172.9096169
 10
-91.22360042
 20
-172.90690532
 10
-91.22088815
 20
-172.90419304
 10
-91.21817518
 20
-172.90148008
 10
-91.21546154
 20
-172.89876643
 10
-91.2127473
 20
-172.8960522
 10
-91.21003238
 20
-172.89333718
 10
-91.20731667
 20
-172.89062157
 10
-91.20460037
 20
-172.88790527
  0
LWPOLYLINE
  5
392
100
AcDbEntity
  8
MST_1_1
 62
   137
  6
CONTINUOUS
100
AcDbPolyline
 90
       25
 70
     0
 43
0.0
 10
-91.20460041
 20
-172.88790527
 10
-91.20233134
 20
-172.89140032
 10
-91.20000198
 20
-172.89484906
 10
-91.19761297
 20
-172.89825085
 10
-91.19516494
 20
-172.90160507
 10
-91.19265852
 20
-172.90491108
 10
-91.19009435
 20
-172.90816825
 10
-91.18747306
 20
-172.91137593
 10
-91.18479528
 20
-172.9145335
 10
-91.18206164
 20
-172.91764032
 10
-91.17927278
 20
-172.92069576
 10
-91.17642933
 20
-172.92369917
 10
-91.17353193
 20
-172.92664994
 10
-91.17058119
 20
-172.92954741
 10
-91.16757777
 20
-172.93239096
 10
-91.16452229
 20
-172.93517995
 10
-91.16141538
 20
-172.93791375
 10
-91.15825767
 20
-172.94059172
 10
-91.15504981
 20
-172.94321322
 10
-91.15179242
 20
-172.94577763
 10
-91.14848613
 20
-172.94828431
 10
-91.14513158
 20
-172.95073262
 10
-91.1417294
 20
-172.95312193
 10
-91.13828022
 20
-172.9554516
 10
-91.13478468
 20
-172.957721
  0
LWPOLYLINE
  5
393
100
AcDbEntity
  8
MST_1_1
 62
   137
  6
CONTINUOUS
100
AcDbPolyline
 90
        9
 70
     0
 43
0.0
 10
-91.13478468
 20
-172.95772096
 10
-91.13750097
 20
-172.96043726
 10
-91.14021658
 20
-172.96315297
 10
-91.14293161
 20
-172.96586789
 10
-91.14564584
 20
-172.96858213
 10
-91.14835949
 20
-172.97129578
 10
-91.15107245
 20
-172.97400874
 10
-91.15378473
 20
-172.97672101
 10
-91.15649631
 20
-172.9794326
  0
LWPOLYLINE
  5
394
100
AcDbEntity
  8
MST_1_1
 62
   137
  6
CONTINUOUS
100
AcDbPolyline
 90
        9
 70
     0
 43
0.0
 10
-91.15649631
 20
-172.9794326
 10
-91.11049411
 20
-173.0254348
 10
-91.06450251
 20
-173.0714264
 10
-91.0185275
 20
-173.11740141
 10
-90.97257505
 20
-173.16335387
 10
-90.92665115
 20
-173.20927786
 10
-90.88076179
 20
-173.25516712
 10
-90.83491305
 20
-173.30101576
 10
-90.78911093
 20
-173.34681808
  0
CIRCLE
  5
395
100
AcDbEntity
  8
MST_1_1
 62
   137
  6
CONTINUOUS
100
AcDbCircle
 10
-89.70142916
 20
-171.45454975
 30
0.0
 40
2.76727078
  0
ARC
  5
396
100
AcDbEntity
  8
MST_1_1
 62
   137
  6
CONTINUOUS
100
AcDbCircle
 10
-88.35056722
 20
-172.23447027
 30
0.0
 40
0.54841244
100
AcDbArc
 50
104.00041459
 51
195.99959727
  0
LWPOLYLINE
  5
397
100
AcDbEntity
  8
MST_1_1
 62
   137
  6
CONTINUOUS
100
AcDbPolyline
 90
        9
 70
     0
 43
0.0
 10
-90.96291567
 20
-172.5436478
 10
-90.99302768
 20
-172.51353579
 10
-91.02313342
 20
-172.48343006
 10
-91.0532314
 20
-172.45333208
 10
-91.08331996
 20
-172.42324352
 10
-91.11339753
 20
-172.39316595
 10
-91.14346244
 20
-172.36310093
 10
-91.17351323
 20
-172.33305015
 10
-91.20354821
 20
-172.30301516
  0
ARC
  5
398
100
AcDbEntity
  8
MST_1_1
 62
   137
  6
CONTINUOUS
100
AcDbCircle
 10
-91.01260726
 20
-172.7657272
 30
0.0
 40
0.22757089
100
AcDbArc
 50
77.38747914
 51
127.33780242
  0
LINE
  5
399
100
AcDbEntity
  8
MST_1_1
 62
   137
  6
CONTINUOUS
100
AcDbLine
 10
-90.83167102
 20
-172.90375258
 30
0.0
 11
-91.15063198
 21
-172.58479161
 31
0.0
  0
ARC
  5
39A
100
AcDbEntity
  8
MST_1_1
 62
   137
  6
CONTINUOUS
100
AcDbCircle
 10
-91.01260671
 20
-172.76572782
 30
0.0
 40
0.22757099
100
AcDbArc
 50
322.66221884
 51
12.61250962
  0
LWPOLYLINE
  5
39B
100
AcDbEntity
  8
MST_1_1
 62
   137
  6
CONTINUOUS
100
AcDbPolyline
 90
        9
 70
     0
 43
0.0
 10
-90.54989457
 20
-172.95666881
 10
-90.57992956
 20
-172.92663382
 10
-90.60998034
 20
-172.89658303
 10
-90.64004535
 20
-172.86651812
 10
-90.67012293
 20
-172.83644055
 10
-90.70021149
 20
-172.80635199
 10
-90.73030947
 20
-172.77625401
 10
-90.7604152
 20
-172.74614828
 10
-90.79052721
 20
-172.71603626
  0
ARC
  5
39C
100
AcDbEntity
  8
MST_1_1
 62
   137
  6
CONTINUOUS
100
AcDbCircle
 10
-90.59958601
 20
-173.17874884
 30
0.0
 40
0.22757149
100
AcDbArc
 50
77.38755048
 51
192.61243885
  0
LWPOLYLINE
  5
39D
100
AcDbEntity
  8
MST_1_1
 62
   137
  6
CONTINUOUS
100
AcDbPolyline
 90
        9
 70
     0
 43
0.0
 10
-91.06229861
 20
-172.98780776
 10
-91.03218522
 20
-173.01792114
 10
-91.00207831
 20
-173.04802805
 10
-90.97197955
 20
-173.07812682
 10
-90.94189049
 20
-173.10821587
 10
-90.91181302
 20
-173.13829325
 10
-90.8817487
 20
-173.16835767
 10
-90.85169909
 20
-173.19840718
 10
-90.82166606
 20
-173.2284402
  0
ARC
  5
39E
100
AcDbEntity
  8
MST_1_1
 62
   137
  6
CONTINUOUS
100
AcDbCircle
 10
-91.01260731
 20
-172.76572704
 30
0.0
 40
0.22757212
100
AcDbArc
 50
257.38763285
 51
307.33766874
  0
LWPOLYLINE
  5
39F
100
AcDbEntity
  8
MST_1_1
 62
   137
  6
CONTINUOUS
100
AcDbPolyline
 90
        9
 70
     0
 43
0.0
 10
-91.19354336
 20
-172.62770289
 10
-91.15368651
 20
-172.66755964
 10
-91.11381827
 20
-172.70742787
 10
-91.07394249
 20
-172.74730375
 10
-91.03406278
 20
-172.78718337
 10
-90.99418316
 20
-172.82706308
 10
-90.95430728
 20
-172.86693887
 10
-90.91443905
 20
-172.9068071
 10
-90.8745823
 20
-172.94666395
  0
ARC
  5
3A0
100
AcDbEntity
  8
MST_1_1
 62
   137
  6
CONTINUOUS
100
AcDbCircle
 10
-91.01260708
 20
-172.76572777
 30
0.0
 40
0.22757154
100
AcDbArc
 50
142.662273
 51
192.61245546
  0
LWPOLYLINE
  5
3A1
100
AcDbEntity
  8
MST_1_1
 62
   137
  6
CONTINUOUS
100
AcDbPolyline
 90
        9
 70
     0
 43
0.0
 10
-91.47531961
 20
-172.57478666
 10
-91.44528659
 20
-172.60481968
 10
-91.41523708
 20
-172.63486929
 10
-91.38517265
 20
-172.66493361
 10
-91.35509528
 20
-172.69501109
 10
-91.32500623
 20
-172.72510014
 10
-91.29490746
 20
-172.7551989
 10
-91.26480055
 20
-172.78530581
 10
-91.23468717
 20
-172.8154192
  0
ARC
  5
3A2
100
AcDbEntity
  8
MST_1_1
 62
   137
  6
CONTINUOUS
100
AcDbCircle
 10
-91.42562804
 20
-172.35270682
 30
0.0
 40
0.22757133
100
AcDbArc
 50
257.38751638
 51
12.61251432
  0
LWPOLYLINE
  5
3A3
100
AcDbEntity
  8
MST_1_1
 62
   137
  6
CONTINUOUS
100
AcDbPolyline
 90
        9
 70
     0
 43
0.0
 10
-91.07962333
 20
-172.612889
 10
-91.05214578
 20
-172.64036654
 10
-91.0246645
 20
-172.66784782
 10
-90.99718087
 20
-172.69533155
 10
-90.96969587
 20
-172.72281646
 10
-90.94221096
 20
-172.75030146
 10
-90.91472723
 20
-172.7777851
 10
-90.88724595
 20
-172.80526637
 10
-90.8597684
 20
-172.83274392
  0
ARC
  5
3A4
100
AcDbEntity
  8
MST_1_1
 62
   137
  6
CONTINUOUS
100
AcDbCircle
 10
-91.01260721
 20
-172.7657278
 30
0.0
 40
0.16688577
100
AcDbArc
 50
336.32372311
 51
113.6762869
  0
LWPOLYLINE
  5
3A5
100
AcDbEntity
  8
MST_1_1
 62
   137
  6
CONTINUOUS
100
AcDbPolyline
 90
        9
 70
     0
 43
0.0
 10
-90.94559095
 20
-172.91856647
 10
-90.9730685
 20
-172.89108902
 10
-91.00054968
 20
-172.86360774
 10
-91.02803341
 20
-172.83612401
 10
-91.05551841
 20
-172.808639
 10
-91.08300342
 20
-172.781154
 10
-91.11048715
 20
-172.75367027
 10
-91.13796843
 20
-172.72618909
 10
-91.16544588
 20
-172.69871154
  0
ARC
  5
3A6
100
AcDbEntity
  8
MST_1_1
 62
   137
  6
CONTINUOUS
100
AcDbCircle
 10
-91.01260711
 20
-172.7657277
 30
0.0
 40
0.16688575
100
AcDbArc
 50
156.32369345
 51
293.67631657
  0
CIRCLE
  5
3A7
100
AcDbEntity
  8
MST_1_1
 62
   137
  6
CONTINUOUS
100
AcDbCircle
 10
-89.70142916
 20
-201.45454975
 30
0.0
 40
1.59661192
  0
CIRCLE
  5
3A8
100
AcDbEntity
  8
MST_1_1
 62
   137
  6
CONTINUOUS
100
AcDbCircle
 10
-89.70142916
 20
-201.45454975
 30
0.0
 40
0.89384526
  0
CIRCLE
  5
3A9
100
AcDbEntity
  8
MST_1_1
 62
   137
  6
CONTINUOUS
100
AcDbCircle
 10
-89.70142916
 20
-201.45454975
 30
0.0
 40
1.59661192
  0
CIRCLE
  5
3AA
100
AcDbEntity
  8
MST_1_1
 62
   137
  6
CONTINUOUS
100
AcDbCircle
 10
-89.70142916
 20
-201.45454975
 30
0.0
 40
0.89384526
  0
CIRCLE
  5
3AB
100
AcDbEntity
  8
MST_1_1
 62
   137
  6
CONTINUOUS
100
AcDbCircle
 10
-89.70142916
 20
-201.45454975
 30
0.0
 40
1.59661192
  0
CIRCLE
  5
3AC
100
AcDbEntity
  8
MST_1_1
 62
   137
  6
CONTINUOUS
100
AcDbCircle
 10
-89.70142916
 20
-201.45454975
 30
0.0
 40
0.89384526
  0
CIRCLE
  5
3AD
100
AcDbEntity
  8
MST_1_1
 62
   137
  6
CONTINUOUS
100
AcDbCircle
 10
-89.70142916
 20
-201.45454975
 30
0.0
 40
1.34375478
  0
CIRCLE
  5
3AE
100
AcDbEntity
  8
MST_1_1
 62
   137
  6
CONTINUOUS
100
AcDbCircle
 10
-89.70142916
 20
-201.45454975
 30
0.0
 40
1.68089764
  0
CIRCLE
  5
3AF
100
AcDbEntity
  8
MST_1_1
 62
   137
  6
CONTINUOUS
100
AcDbCircle
 10
-89.70142916
 20
-201.45454975
 30
0.0
 40
0.94821429
  0
CIRCLE
  5
3B0
100
AcDbEntity
  8
MST_1_1
 62
   137
  6
CONTINUOUS
100
AcDbCircle
 10
-89.70142916
 20
-201.45454975
 30
0.0
 40
2.95
  0
ARC
  5
3B1
100
AcDbEntity
  8
MST_1_1
 62
   137
  6
CONTINUOUS
100
AcDbCircle
 10
-90.85782914
 20
-201.45454975
 30
0.0
 40
0.25538572
100
AcDbArc
 50
104.00039951
 51
255.99961051
  0
ARC
  5
3B2
100
AcDbEntity
  8
MST_1_1
 62
   137
  6
CONTINUOUS
100
AcDbCircle
 10
-91.0522911
 20
-202.23447027
 30
0.0
 40
0.54841244
100
AcDbArc
 50
344.00042282
 51
75.99958535
  0
ARC
  5
3B3
100
AcDbEntity
  8
MST_1_1
 62
   137
  6
CONTINUOUS
100
AcDbCircle
 10
-90.27962913
 20
-202.45602152
 30
0.0
 40
0.25538571
100
AcDbArc
 50
164.00040911
 51
315.99959504
  0
ARC
  5
3B4
100
AcDbEntity
  8
MST_1_1
 62
   137
  6
CONTINUOUS
100
AcDbCircle
 10
-89.70142916
 20
-203.0143907
 30
0.0
 40
0.54841237
100
AcDbArc
 50
44.00040429
 51
135.99959571
  0
ARC
  5
3B5
100
AcDbEntity
  8
MST_1_1
 62
   137
  6
CONTINUOUS
100
AcDbCircle
 10
-89.12322916
 20
-202.45602156
 30
0.0
 40
0.2553857
100
AcDbArc
 50
224.00041508
 51
15.9996008
  0
ARC
  5
3B6
100
AcDbEntity
  8
MST_1_1
 62
   137
  6
CONTINUOUS
100
AcDbCircle
 10
-88.54502917
 20
-201.45454975
 30
0.0
 40
0.25538572
100
AcDbArc
 50
284.00040953
 51
75.99960049
  0
ARC
  5
3B7
100
AcDbEntity
  8
MST_1_1
 62
   137
  6
CONTINUOUS
100
AcDbCircle
 10
-88.35056722
 20
-200.67462922
 30
0.0
 40
0.54841244
100
AcDbArc
 50
164.00041281
 51
255.99959537
  0
ARC
  5
3B8
100
AcDbEntity
  8
MST_1_1
 62
   137
  6
CONTINUOUS
100
AcDbCircle
 10
-89.12322918
 20
-200.45307798
 30
0.0
 40
0.25538571
100
AcDbArc
 50
344.00041913
 51
135.99958502
  0
ARC
  5
3B9
100
AcDbEntity
  8
MST_1_1
 62
   137
  6
CONTINUOUS
100
AcDbCircle
 10
-89.70142916
 20
-199.8947088
 30
0.0
 40
0.54841237
100
AcDbArc
 50
224.00041431
 51
315.99960573
  0
ARC
  5
3BA
100
AcDbEntity
  8
MST_1_1
 62
   137
  6
CONTINUOUS
100
AcDbCircle
 10
-90.27962916
 20
-200.45307794
 30
0.0
 40
0.2553857
100
AcDbArc
 50
44.00040506
 51
195.99961082
  0
ARC
  5
3BB
100
AcDbEntity
  8
MST_1_1
 62
   137
  6
CONTINUOUS
100
AcDbCircle
 10
-91.0522911
 20
-200.67462922
 30
0.0
 40
0.54841244
100
AcDbArc
 50
284.00042461
 51
15.99958726
  0
LWPOLYLINE
  5
3BC
100
AcDbEntity
  8
MST_1_1
 62
   137
  6
CONTINUOUS
100
AcDbPolyline
 90
        9
 70
     0
 43
0.0
 10
-90.78911093
 20
-203.34681808
 10
-90.78146962
 20
-203.33917677
 10
-90.77382291
 20
-203.33152997
 10
-90.76617091
 20
-203.32387806
 10
-90.75851351
 20
-203.31622066
 10
-90.75085091
 20
-203.30855796
 10
-90.74318291
 20
-203.30088997
 10
-90.73550971
 20
-203.29321687
 10
-90.72783131
 20
-203.28553847
  0
ARC
  5
3BD
100
AcDbEntity
  8
MST_1_1
 62
   137
  6
CONTINUOUS
100
AcDbCircle
 10
-90.5995861
 20
-203.17874889
 30
0.0
 40
0.16688573
100
AcDbArc
 50
50.21591721
 51
219.78410477
  0
LWPOLYLINE
  5
3BE
100
AcDbEntity
  8
MST_1_1
 62
   137
  6
CONTINUOUS
100
AcDbPolyline
 90
        9
 70
     0
 43
0.0
 10
-90.49279655
 20
-203.05050366
 10
-90.48515078
 20
-203.04285784
 10
-90.47750093
 20
-203.03520799
 10
-90.46984701
 20
-203.02755412
 10
-90.46218898
 20
-203.01989613
 10
-90.45452696
 20
-203.01223402
 10
-90.44686093
 20
-203.00456799
 10
-90.43919087
 20
-202.99689803
 10
-90.43151689
 20
-202.98922404
  0
LWPOLYLINE
  5
3BF
100
AcDbEntity
  8
MST_1_1
 62
   137
  6
CONTINUOUS
100
AcDbPolyline
 90
        9
 70
     0
 43
0.0
 10
-90.43151689
 20
-202.98922404
 10
-90.47732574
 20
-202.94341514
 10
-90.52317854
 20
-202.89756239
 10
-90.56906977
 20
-202.85167116
 10
-90.61499356
 20
-202.80574736
 10
-90.66094445
 20
-202.75979648
 10
-90.70691662
 20
-202.71382431
 10
-90.75290449
 20
-202.66783644
 10
-90.79890227
 20
-202.62183866
  0
LWPOLYLINE
  5
3C0
100
AcDbEntity
  8
MST_1_1
 62
   137
  6
CONTINUOUS
100
AcDbPolyline
 90
        9
 70
     0
 43
0.0
 10
-90.79890227
 20
-202.62183866
 10
-90.80161798
 20
-202.62455427
 10
-90.8043331
 20
-202.62726948
 10
-90.80704783
 20
-202.62998411
 10
-90.80976206
 20
-202.63269835
 10
-90.81247571
 20
-202.6354121
 10
-90.81518897
 20
-202.63812525
 10
-90.81790163
 20
-202.64083802
 10
-90.82061391
 20
-202.64355019
  0
LWPOLYLINE
  5
3C1
100
AcDbEntity
  8
MST_1_1
 62
   137
  6
CONTINUOUS
100
AcDbPolyline
 90
       25
 70
     0
 43
0.0
 10
-90.82061391
 20
-202.64355023
 10
-90.82288315
 20
-202.6400549
 10
-90.82521263
 20
-202.63660595
 10
-90.82760171
 20
-202.63320399
 10
-90.83004977
 20
-202.62984966
 10
-90.83255617
 20
-202.62654359
 10
-90.8351203
 20
-202.62328641
 10
-90.83774152
 20
-202.62007874
 10
-90.84041921
 20
-202.61692122
 10
-90.84315274
 20
-202.61381448
 10
-90.84594148
 20
-202.61075914
 10
-90.8487848
 20
-202.60775584
 10
-90.85168208
 20
-202.6048052
 10
-90.85463269
 20
-202.60190786
 10
-90.857636
 20
-202.59906444
 10
-90.86069139
 20
-202.59627557
 10
-90.86379822
 20
-202.59354188
 10
-90.86695587
 20
-202.59086401
 10
-90.87016371
 20
-202.58824258
 10
-90.87342112
 20
-202.58567821
 10
-90.87672746
 20
-202.58317155
 10
-90.88008211
 20
-202.58072322
 10
-90.88348444
 20
-202.57833385
 10
-90.88693383
 20
-202.57600407
 10
-90.89042964
 20
-202.5737345
  0
LWPOLYLINE
  5
3C2
100
AcDbEntity
  8
MST_1_1
 62
   137
  6
CONTINUOUS
100
AcDbPolyline
 90
        9
 70
     0
 43
0.0
 10
-90.8904296
 20
-202.5737345
 10
-90.88771743
 20
-202.57102223
 10
-90.88500466
 20
-202.56830956
 10
-90.8822915
 20
-202.5655963
 10
-90.87957776
 20
-202.56288266
 10
-90.87686352
 20
-202.56016842
 10
-90.87414889
 20
-202.55745369
 10
-90.87143367
 20
-202.55473857
 10
-90.86871806
 20
-202.55202286
  0
LWPOLYLINE
  5
3C3
100
AcDbEntity
  8
MST_1_1
 62
   137
  6
CONTINUOUS
100
AcDbPolyline
 90
        9
 70
     0
 43
0.0
 10
-90.86871806
 20
-202.55202286
 10
-90.91471585
 20
-202.50602508
 10
-90.96070372
 20
-202.46003721
 10
-91.00667589
 20
-202.41406504
 10
-91.05262677
 20
-202.36811416
 10
-91.09855057
 20
-202.32219036
 10
-91.14444179
 20
-202.27629913
 10
-91.19029455
 20
-202.23044633
 10
-91.23610345
 20
-202.18463748
  0
LWPOLYLINE
  5
3C4
100
AcDbEntity
  8
MST_1_1
 62
   137
  6
CONTINUOUS
100
AcDbPolyline
 90
        9
 70
     0
 43
0.0
 10
-91.23610345
 20
-202.18463748
 10
-91.24377743
 20
-202.19231146
 10
-91.2514474
 20
-202.19998152
 10
-91.25911343
 20
-202.20764755
 10
-91.26677554
 20
-202.21530957
 10
-91.27443353
 20
-202.22296761
 10
-91.2820874
 20
-202.23062152
 10
-91.28973724
 20
-202.23827137
 10
-91.29738307
 20
-202.24591714
  0
ARC
  5
3C5
100
AcDbEntity
  8
MST_1_1
 62
   137
  6
CONTINUOUS
100
AcDbCircle
 10
-91.42562831
 20
-202.35270669
 30
0.0
 40
0.16688573
100
AcDbArc
 50
230.21591956
 51
39.7840785
  0
LWPOLYLINE
  5
3C6
100
AcDbEntity
  8
MST_1_1
 62
   137
  6
CONTINUOUS
100
AcDbPolyline
 90
        9
 70
     0
 43
0.0
 10
-91.53241788
 20
-202.4809519
 10
-91.54009628
 20
-202.4886303
 10
-91.54776938
 20
-202.4963035
 10
-91.55543737
 20
-202.5039715
 10
-91.56310007
 20
-202.5116341
 10
-91.57075747
 20
-202.5192915
 10
-91.57840938
 20
-202.5269435
 10
-91.58605618
 20
-202.53459021
 10
-91.59369749
 20
-202.54223152
  0
LWPOLYLINE
  5
3C7
100
AcDbEntity
  8
MST_1_1
 62
   137
  6
CONTINUOUS
100
AcDbPolyline
 90
        9
 70
     0
 43
0.0
 10
-91.59369749
 20
-202.54223152
 10
-91.54789517
 20
-202.58803365
 10
-91.50204653
 20
-202.63388238
 10
-91.45615727
 20
-202.67977174
 10
-91.41023327
 20
-202.72569564
 10
-91.36428082
 20
-202.77164809
 10
-91.31830581
 20
-202.81762311
 10
-91.2723142
 20
-202.86361471
 10
-91.22631201
 20
-202.9096169
  0
LWPOLYLINE
  5
3C8
100
AcDbEntity
  8
MST_1_1
 62
   137
  6
CONTINUOUS
100
AcDbPolyline
 90
        9
 70
     0
 43
0.0
 10
-91.22631201
 20
-202.9096169
 10
-91.22360042
 20
-202.90690532
 10
-91.22088815
 20
-202.90419304
 10
-91.21817518
 20
-202.90148008
 10
-91.21546154
 20
-202.89876643
 10
-91.2127473
 20
-202.8960522
 10
-91.21003238
 20
-202.89333718
 10
-91.20731667
 20
-202.89062157
 10
-91.20460037
 20
-202.88790527
  0
LWPOLYLINE
  5
3C9
100
AcDbEntity
  8
MST_1_1
 62
   137
  6
CONTINUOUS
100
AcDbPolyline
 90
       25
 70
     0
 43
0.0
 10
-91.20460041
 20
-202.88790527
 10
-91.20233134
 20
-202.89140032
 10
-91.20000198
 20
-202.89484906
 10
-91.19761297
 20
-202.89825085
 10
-91.19516494
 20
-202.90160507
 10
-91.19265852
 20
-202.90491108
 10
-91.19009435
 20
-202.90816825
 10
-91.18747306
 20
-202.91137593
 10
-91.18479528
 20
-202.9145335
 10
-91.18206164
 20
-202.91764032
 10
-91.17927278
 20
-202.92069576
 10
-91.17642933
 20
-202.92369917
 10
-91.17353193
 20
-202.92664994
 10
-91.17058119
 20
-202.92954741
 10
-91.16757777
 20
-202.93239096
 10
-91.16452229
 20
-202.93517995
 10
-91.16141538
 20
-202.93791375
 10
-91.15825767
 20
-202.94059172
 10
-91.15504981
 20
-202.94321322
 10
-91.15179242
 20
-202.94577763
 10
-91.14848613
 20
-202.94828431
 10
-91.14513158
 20
-202.95073262
 10
-91.1417294
 20
-202.95312193
 10
-91.13828022
 20
-202.9554516
 10
-91.13478468
 20
-202.957721
  0
LWPOLYLINE
  5
3CA
100
AcDbEntity
  8
MST_1_1
 62
   137
  6
CONTINUOUS
100
AcDbPolyline
 90
        9
 70
     0
 43
0.0
 10
-91.13478468
 20
-202.95772096
 10
-91.13750097
 20
-202.96043726
 10
-91.14021658
 20
-202.96315297
 10
-91.14293161
 20
-202.96586789
 10
-91.14564584
 20
-202.96858213
 10
-91.14835949
 20
-202.97129578
 10
-91.15107245
 20
-202.97400874
 10
-91.15378473
 20
-202.97672101
 10
-91.15649631
 20
-202.9794326
  0
LWPOLYLINE
  5
3CB
100
AcDbEntity
  8
MST_1_1
 62
   137
  6
CONTINUOUS
100
AcDbPolyline
 90
        9
 70
     0
 43
0.0
 10
-91.15649631
 20
-202.9794326
 10
-91.11049411
 20
-203.0254348
 10
-91.06450251
 20
-203.0714264
 10
-91.0185275
 20
-203.11740141
 10
-90.97257505
 20
-203.16335387
 10
-90.92665115
 20
-203.20927786
 10
-90.88076179
 20
-203.25516712
 10
-90.83491305
 20
-203.30101576
 10
-90.78911093
 20
-203.34681808
  0
CIRCLE
  5
3CC
100
AcDbEntity
  8
MST_1_1
 62
   137
  6
CONTINUOUS
100
AcDbCircle
 10
-89.70142916
 20
-201.45454975
 30
0.0
 40
2.76727078
  0
ARC
  5
3CD
100
AcDbEntity
  8
MST_1_1
 62
   137
  6
CONTINUOUS
100
AcDbCircle
 10
-88.35056722
 20
-202.23447027
 30
0.0
 40
0.54841244
100
AcDbArc
 50
104.00041459
 51
195.99959727
  0
LWPOLYLINE
  5
3CE
100
AcDbEntity
  8
MST_1_1
 62
   137
  6
CONTINUOUS
100
AcDbPolyline
 90
        9
 70
     0
 43
0.0
 10
-90.96291567
 20
-202.5436478
 10
-90.99302768
 20
-202.51353579
 10
-91.02313342
 20
-202.48343006
 10
-91.0532314
 20
-202.45333208
 10
-91.08331996
 20
-202.42324352
 10
-91.11339753
 20
-202.39316595
 10
-91.14346244
 20
-202.36310093
 10
-91.17351323
 20
-202.33305015
 10
-91.20354821
 20
-202.30301516
  0
ARC
  5
3CF
100
AcDbEntity
  8
MST_1_1
 62
   137
  6
CONTINUOUS
100
AcDbCircle
 10
-91.01260726
 20
-202.7657272
 30
0.0
 40
0.22757089
100
AcDbArc
 50
77.38747914
 51
127.33780242
  0
LINE
  5
3D0
100
AcDbEntity
  8
MST_1_1
 62
   137
  6
CONTINUOUS
100
AcDbLine
 10
-90.83167102
 20
-202.90375258
 30
0.0
 11
-91.15063198
 21
-202.58479161
 31
0.0
  0
ARC
  5
3D1
100
AcDbEntity
  8
MST_1_1
 62
   137
  6
CONTINUOUS
100
AcDbCircle
 10
-91.01260671
 20
-202.76572782
 30
0.0
 40
0.22757099
100
AcDbArc
 50
322.66221884
 51
12.61250962
  0
LWPOLYLINE
  5
3D2
100
AcDbEntity
  8
MST_1_1
 62
   137
  6
CONTINUOUS
100
AcDbPolyline
 90
        9
 70
     0
 43
0.0
 10
-90.54989457
 20
-202.95666881
 10
-90.57992956
 20
-202.92663382
 10
-90.60998034
 20
-202.89658303
 10
-90.64004535
 20
-202.86651812
 10
-90.67012293
 20
-202.83644055
 10
-90.70021149
 20
-202.80635199
 10
-90.73030947
 20
-202.77625401
 10
-90.7604152
 20
-202.74614828
 10
-90.79052721
 20
-202.71603626
  0
ARC
  5
3D3
100
AcDbEntity
  8
MST_1_1
 62
   137
  6
CONTINUOUS
100
AcDbCircle
 10
-90.59958601
 20
-203.17874884
 30
0.0
 40
0.22757149
100
AcDbArc
 50
77.38755048
 51
192.61243885
  0
LWPOLYLINE
  5
3D4
100
AcDbEntity
  8
MST_1_1
 62
   137
  6
CONTINUOUS
100
AcDbPolyline
 90
        9
 70
     0
 43
0.0
 10
-91.06229861
 20
-202.98780776
 10
-91.03218522
 20
-203.01792114
 10
-91.00207831
 20
-203.04802805
 10
-90.97197955
 20
-203.07812682
 10
-90.94189049
 20
-203.10821587
 10
-90.91181302
 20
-203.13829325
 10
-90.8817487
 20
-203.16835767
 10
-90.85169909
 20
-203.19840718
 10
-90.82166606
 20
-203.2284402
  0
ARC
  5
3D5
100
AcDbEntity
  8
MST_1_1
 62
   137
  6
CONTINUOUS
100
AcDbCircle
 10
-91.01260731
 20
-202.76572704
 30
0.0
 40
0.22757212
100
AcDbArc
 50
257.38763285
 51
307.33766874
  0
LWPOLYLINE
  5
3D6
100
AcDbEntity
  8
MST_1_1
 62
   137
  6
CONTINUOUS
100
AcDbPolyline
 90
        9
 70
     0
 43
0.0
 10
-91.19354336
 20
-202.62770289
 10
-91.15368651
 20
-202.66755964
 10
-91.11381827
 20
-202.70742787
 10
-91.07394249
 20
-202.74730375
 10
-91.03406278
 20
-202.78718337
 10
-90.99418316
 20
-202.82706308
 10
-90.95430728
 20
-202.86693887
 10
-90.91443905
 20
-202.9068071
 10
-90.8745823
 20
-202.94666395
  0
ARC
  5
3D7
100
AcDbEntity
  8
MST_1_1
 62
   137
  6
CONTINUOUS
100
AcDbCircle
 10
-91.01260708
 20
-202.76572777
 30
0.0
 40
0.22757154
100
AcDbArc
 50
142.662273
 51
192.61245546
  0
LWPOLYLINE
  5
3D8
100
AcDbEntity
  8
MST_1_1
 62
   137
  6
CONTINUOUS
100
AcDbPolyline
 90
        9
 70
     0
 43
0.0
 10
-91.47531961
 20
-202.57478666
 10
-91.44528659
 20
-202.60481968
 10
-91.41523708
 20
-202.63486929
 10
-91.38517265
 20
-202.66493361
 10
-91.35509528
 20
-202.69501109
 10
-91.32500623
 20
-202.72510014
 10
-91.29490746
 20
-202.7551989
 10
-91.26480055
 20
-202.78530581
 10
-91.23468717
 20
-202.8154192
  0
ARC
  5
3D9
100
AcDbEntity
  8
MST_1_1
 62
   137
  6
CONTINUOUS
100
AcDbCircle
 10
-91.42562804
 20
-202.35270682
 30
0.0
 40
0.22757133
100
AcDbArc
 50
257.38751638
 51
12.61251432
  0
LWPOLYLINE
  5
3DA
100
AcDbEntity
  8
MST_1_1
 62
   137
  6
CONTINUOUS
100
AcDbPolyline
 90
        9
 70
     0
 43
0.0
 10
-91.07962333
 20
-202.612889
 10
-91.05214578
 20
-202.64036654
 10
-91.0246645
 20
-202.66784782
 10
-90.99718087
 20
-202.69533155
 10
-90.96969587
 20
-202.72281646
 10
-90.94221096
 20
-202.75030146
 10
-90.91472723
 20
-202.7777851
 10
-90.88724595
 20
-202.80526637
 10
-90.8597684
 20
-202.83274392
  0
ARC
  5
3DB
100
AcDbEntity
  8
MST_1_1
 62
   137
  6
CONTINUOUS
100
AcDbCircle
 10
-91.01260721
 20
-202.7657278
 30
0.0
 40
0.16688577
100
AcDbArc
 50
336.32372311
 51
113.6762869
  0
LWPOLYLINE
  5
3DC
100
AcDbEntity
  8
MST_1_1
 62
   137
  6
CONTINUOUS
100
AcDbPolyline
 90
        9
 70
     0
 43
0.0
 10
-90.94559095
 20
-202.91856647
 10
-90.9730685
 20
-202.89108902
 10
-91.00054968
 20
-202.86360774
 10
-91.02803341
 20
-202.83612401
 10
-91.05551841
 20
-202.808639
 10
-91.08300342
 20
-202.781154
 10
-91.11048715
 20
-202.75367027
 10
-91.13796843
 20
-202.72618909
 10
-91.16544588
 20
-202.69871154
  0
ARC
  5
3DD
100
AcDbEntity
  8
MST_1_1
 62
   137
  6
CONTINUOUS
100
AcDbCircle
 10
-91.01260711
 20
-202.7657277
 30
0.0
 40
0.16688575
100
AcDbArc
 50
156.32369345
 51
293.67631657
  0
MTEXT
  5
3DE
100
AcDbEntity
  8
MST_1_1
 62
     4
100
AcDbMText
 10
-136.55631577
 20
170.13795695
 30
2500.0
 11
1.0
 21
0.0
 31
0.0
 40
20.0
 41
316.1838307
 71
     1
 72
     1
  1
\fTahoma|b0|i0|c0|p18;\H20;\W0.80000001;\C7;Spanplattenschrauben Senkkopf\PHECO-FIX-plus 3.0mm\P35.301
  0
LWPOLYLINE
  5
3DF
102
{ACAD_REACTORS
330
3E0
102
}
100
AcDbEntity
  8
MST_1_1
 62
    12
100
AcDbPolyline
 90
       46
 70
     1
 43
0.0
 10
270.32627909
 20
180.70370695
 10
270.19545776
 20
180.71434528
 10
270.07130842
 20
180.74513361
 10
269.95550309
 20
180.79438195
 10
269.84971376
 20
180.86040028
 10
269.75561242
 20
180.94149861
 10
269.67487109
 20
181.03598695
 10
269.60916176
 20
181.14217528
 10
269.56015642
 20
181.25837361
 10
269.52952709
 20
181.38289195
 10
269.51894576
 20
181.51404028
 10
269.51894576
 20
181.51404028
 10
269.52952709
 20
181.64525245
 10
269.56015642
 20
181.76985761
 10
269.60916176
 20
181.88615878
 10
269.67487109
 20
181.99245895
 10
269.75561242
 20
182.08706111
 10
269.84971376
 20
182.16826828
 10
269.95550309
 20
182.23438345
 10
270.07130842
 20
182.28370961
 10
270.19545776
 20
182.31454978
 10
270.32627909
 20
182.32520695
 10
270.32627909
 20
182.32520695
 10
270.45693376
 20
182.31454978
 10
270.58097642
 20
182.28370961
 10
270.69672509
 20
182.23438345
 10
270.80249776
 20
182.16826828
 10
270.89661242
 20
182.08706111
 10
270.97738709
 20
181.99245895
 10
271.04313976
 20
181.88615878
 10
271.09218842
 20
181.76985761
 10
271.12285109
 20
181.64525245
 10
271.13344576
 20
181.51404028
 10
271.13344576
 20
181.51404028
 10
271.12285109
 20
181.38289195
 10
271.09218842
 20
181.25837361
 10
271.04313976
 20
181.14217528
 10
270.97738709
 20
181.03598695
 10
270.89661242
 20
180.94149861
 10
270.80249776
 20
180.86040028
 10
270.69672509
 20
180.79438195
 10
270.58097642
 20
180.74513361
 10
270.45693376
 20
180.71434528
 10
270.32627909
 20
180.70370695
 10
270.32627909
 20
180.70370695
 10
270.32627909
 20
180.70370695
  0
HATCH
  5
3E0
100
AcDbEntity
  8
MST_1_1
 62
    12
100
AcDbHatch
 10
0.0
 20
0.0
 30
0.0
210
0.0
220
0.0
230
1.0
  2
SOLID
 70
     1
 71
     1
 91
        1
 92
        7
 72
     0
 73
     1
 93
       40
 10
270.32627909
 20
180.70370695
 10
270.19545776
 20
180.71434528
 10
270.07130842
 20
180.74513361
 10
269.95550309
 20
180.79438195
 10
269.84971376
 20
180.86040028
 10
269.75561242
 20
180.94149861
 10
269.67487109
 20
181.03598695
 10
269.60916176
 20
181.14217528
 10
269.56015642
 20
181.25837361
 10
269.52952709
 20
181.38289195
 10
269.51894576
 20
181.51404028
 10
269.52952709
 20
181.64525245
 10
269.56015642
 20
181.76985761
 10
269.60916176
 20
181.88615878
 10
269.67487109
 20
181.99245895
 10
269.75561242
 20
182.08706111
 10
269.84971376
 20
182.16826828
 10
269.95550309
 20
182.23438345
 10
270.07130842
 20
182.28370961
 10
270.19545776
 20
182.31454978
 10
270.32627909
 20
182.32520695
 10
270.45693376
 20
182.31454978
 10
270.58097642
 20
182.28370961
 10
270.69672509
 20
182.23438345
 10
270.80249776
 20
182.16826828
 10
270.89661242
 20
182.08706111
 10
270.97738709
 20
181.99245895
 10
271.04313976
 20
181.88615878
 10
271.09218842
 20
181.76985761
 10
271.12285109
 20
181.64525245
 10
271.13344576
 20
181.51404028
 10
271.12285109
 20
181.38289195
 10
271.09218842
 20
181.25837361
 10
271.04313976
 20
181.14217528
 10
270.97738709
 20
181.03598695
 10
270.89661242
 20
180.94149861
 10
270.80249776
 20
180.86040028
 10
270.69672509
 20
180.79438195
 10
270.58097642
 20
180.74513361
 10
270.45693376
 20
180.71434528
 97
        1
330
3DF
 75
     0
 76
     2
 47
0.775229
 98
        1
 10
0.0
 20
0.0
  0
LWPOLYLINE
  5
3E1
102
{ACAD_REACTORS
330
3E2
102
}
100
AcDbEntity
  8
MST_1_1
 62
    12
100
AcDbPolyline
 90
        8
 70
     1
 43
0.0
 10
202.86127909
 20
180.13795695
 10
268.82911242
 20
180.13795695
 10
268.82911242
 20
180.13795695
 10
268.82911242
 20
163.55670695
 10
268.82911242
 20
163.55670695
 10
202.86127909
 20
163.55670695
 10
202.86127909
 20
163.55670695
 10
202.86127909
 20
180.13795695
  0
HATCH
  5
3E2
100
AcDbEntity
  8
MST_1_1
 62
    12
100
AcDbHatch
 10
0.0
 20
0.0
 30
0.0
210
0.0
220
0.0
230
1.0
  2
SOLID
 70
     1
 71
     1
 91
        1
 92
        7
 72
     0
 73
     1
 93
        4
 10
202.86127909
 20
180.13795695
 10
268.82911242
 20
180.13795695
 10
268.82911242
 20
163.55670695
 10
202.86127909
 20
163.55670695
 97
        1
330
3E1
 75
     0
 76
     2
 47
0.775229
 98
        1
 10
0.0
 20
0.0
  0
LINE
  5
3E3
100
AcDbEntity
  8
MST_1_1
100
AcDbLine
 10
202.86127909
 20
163.55670695
 30
0.0
 11
202.86127909
 21
163.55670695
 31
0.0
  0
LINE
  5
3E4
100
AcDbEntity
  8
MST_1_1
100
AcDbLine
 10
202.86127909
 20
163.55670695
 30
0.0
 11
202.86127909
 21
163.55670695
 31
0.0
  0
LINE
  5
3E5
100
AcDbEntity
  8
MST_1_1
100
AcDbLine
 10
202.86127909
 20
163.55670695
 30
0.0
 11
202.86127909
 21
163.55670695
 31
0.0
  0
LINE
  5
3E6
100
AcDbEntity
  8
MST_1_1
100
AcDbLine
 10
202.86127909
 20
163.55670695
 30
0.0
 11
202.86127909
 21
163.55670695
 31
0.0
  0
LINE
  5
3E7
100
AcDbEntity
  8
MST_1_1
100
AcDbLine
 10
202.86127909
 20
163.55670695
 30
0.0
 11
202.86127909
 21
163.55670695
 31
0.0
  0
LINE
  5
3E8
100
AcDbEntity
  8
MST_1_1
100
AcDbLine
 10
202.86127909
 20
163.55670695
 30
0.0
 11
202.86127909
 21
163.55670695
 31
0.0
  0
LINE
  5
3E9
100
AcDbEntity
  8
MST_1_1
100
AcDbLine
 10
202.86127909
 20
163.55670695
 30
0.0
 11
202.86127909
 21
163.55670695
 31
0.0
  0
LINE
  5
3EA
100
AcDbEntity
  8
MST_1_1
100
AcDbLine
 10
202.86127909
 20
163.55670695
 30
0.0
 11
202.86127909
 21
163.55670695
 31
0.0
  0
LINE
  5
3EB
100
AcDbEntity
  8
MST_1_1
100
AcDbLine
 10
202.86127909
 20
163.55670695
 30
0.0
 11
202.86127909
 21
163.55670695
 31
0.0
  0
LINE
  5
3EC
100
AcDbEntity
  8
MST_1_1
100
AcDbLine
 10
202.86127909
 20
163.55670695
 30
0.0
 11
202.86127909
 21
163.55670695
 31
0.0
  0
LINE
  5
3ED
100
AcDbEntity
  8
MST_1_1
100
AcDbLine
 10
202.86127909
 20
163.55670695
 30
0.0
 11
202.86127909
 21
163.55670695
 31
0.0
  0
LWPOLYLINE
  5
3EE
102
{ACAD_REACTORS
330
3EF
102
}
100
AcDbEntity
  8
MST_1_1
 62
   190
100
AcDbPolyline
 90
        8
 70
     1
 43
0.0
 10
235.66777909
 20
178.98829028
 10
267.68261242
 20
178.98829028
 10
267.68261242
 20
178.98829028
 10
267.68261242
 20
164.70453861
 10
267.68261242
 20
164.70453861
 10
235.66777909
 20
164.70453861
 10
235.66777909
 20
164.70453861
 10
235.66777909
 20
178.98829028
  0
HATCH
  5
3EF
100
AcDbEntity
  8
MST_1_1
 62
   190
100
AcDbHatch
 10
0.0
 20
0.0
 30
0.0
210
0.0
220
0.0
230
1.0
  2
SOLID
 70
     1
 71
     1
 91
        1
 92
        7
 72
     0
 73
     1
 93
        4
 10
235.66777909
 20
178.98829028
 10
267.68261242
 20
178.98829028
 10
267.68261242
 20
164.70453861
 10
235.66777909
 20
164.70453861
 97
        1
330
3EE
 75
     0
 76
     2
 47
0.775229
 98
        1
 10
0.0
 20
0.0
  0
LWPOLYLINE
  5
3F0
102
{ACAD_REACTORS
330
3F1
102
}
100
AcDbEntity
  8
MST_1_1
 62
    12
100
AcDbPolyline
 90
       22
 70
     1
 43
0.0
 10
237.58561242
 20
166.99780695
 10
237.58561242
 20
176.08432361
 10
237.58561242
 20
176.08432361
 10
245.76494576
 20
176.08432361
 10
245.76494576
 20
176.08432361
 10
245.76494576
 20
173.61997361
 10
245.76494576
 20
173.61997361
 10
241.98894576
 20
173.61997361
 10
241.98894576
 20
173.61997361
 10
241.98894576
 20
172.56535695
 10
241.98894576
 20
172.56535695
 10
245.40661242
 20
172.56535695
 10
245.40661242
 20
172.56535695
 10
245.40661242
 20
170.23755695
 10
245.40661242
 20
170.23755695
 10
241.98894576
 20
170.23755695
 10
241.98894576
 20
170.23755695
 10
241.98894576
 20
166.99780695
 10
241.98894576
 20
166.99780695
 10
237.58561242
 20
166.99780695
 10
237.58561242
 20
166.99780695
 10
237.58561242
 20
166.99780695
  0
HATCH
  5
3F1
100
AcDbEntity
  8
MST_1_1
 62
    12
100
AcDbHatch
 10
0.0
 20
0.0
 30
0.0
210
0.0
220
0.0
230
1.0
  2
SOLID
 70
     1
 71
     1
 91
        1
 92
        7
 72
     0
 73
     1
 93
       10
 10
237.58561242
 20
166.99780695
 10
237.58561242
 20
176.08432361
 10
245.76494576
 20
176.08432361
 10
245.76494576
 20
173.61997361
 10
241.98894576
 20
173.61997361
 10
241.98894576
 20
172.56535695
 10
245.40661242
 20
172.56535695
 10
245.40661242
 20
170.23755695
 10
241.98894576
 20
170.23755695
 10
241.98894576
 20
166.99780695
 97
        1
330
3F0
 75
     0
 76
     2
 47
0.775229
 98
        1
 10
0.0
 20
0.0
  0
LWPOLYLINE
  5
3F2
102
{ACAD_REACTORS
330
3F3
102
}
100
AcDbEntity
  8
MST_1_1
 62
   190
100
AcDbPolyline
 90
      178
 70
     1
 43
0.0
 10
233.81027909
 20
171.52295695
 10
233.80670709
 20
171.32479023
 10
233.79600309
 20
171.12932321
 10
233.77818509
 20
170.9365756
 10
233.75327109
 20
170.74656708
 10
233.72127909
 20
170.55931736
 10
233.68222709
 20
170.37484615
 10
233.63613309
 20
170.19317313
 10
233.58301509
 20
170.01431801
 10
233.52289109
 20
169.8383005
 10
233.45577909
 20
169.66514028
 10
233.45577909
 20
169.66514028
 10
233.38204609
 20
169.49466641
 10
233.30165509
 20
169.32791935
 10
233.21461809
 20
169.16489088
 10
233.12094709
 20
169.00557281
 10
233.02065409
 20
168.84995695
 10
232.91375109
 20
168.69803508
 10
232.80025009
 20
168.54979901
 10
232.68016309
 20
168.40524055
 10
232.55350209
 20
168.26435148
 10
232.42027909
 20
168.12712361
 10
232.42027909
 20
168.12712361
 10
232.28154042
 20
167.99734283
 10
232.13862976
 20
167.87377535
 10
231.99155509
 20
167.75642846
 10
231.84032442
 20
167.64530948
 10
231.68494576
 20
167.5404257
 10
231.52542709
 20
167.44178441
 10
231.36177642
 20
167.34939293
 10
231.19400176
 20
167.26325855
 10
231.02211109
 20
167.18338856
 10
230.84611242
 20
167.10979028
 10
230.84611242
 20
167.10979028
 10
230.66706442
 20
167.04279215
 10
230.48554842
 20
166.98273521
 10
230.30160642
 20
166.92964568
 10
230.11528042
 20
166.88354975
 10
229.92661242
 20
166.84447361
 10
229.73564442
 20
166.81244348
 10
229.54241842
 20
166.78748555
 10
229.34697642
 20
166.76962601
 10
229.14936042
 20
166.75889108
 10
228.94961242
 20
166.75530695
 10
228.94961242
 20
166.75530695
 10
228.74769209
 20
166.75889108
 10
228.54824976
 20
166.76962601
 10
228.35131342
 20
166.78748555
 10
228.15691109
 20
166.81244348
 10
227.96507076
 20
166.84447361
 10
227.77582042
 20
166.88354975
 10
227.58918809
 20
166.92964568
 10
227.40520176
 20
166.98273521
 10
227.22388942
 20
167.04279215
 10
227.04527909
 20
167.10979028
 10
227.04527909
 20
167.10979028
 10
226.86935259
 20
167.18350591
 10
226.69746709
 20
167.26372935
 10
226.52961359
 20
167.35045538
 10
226.36578309
 20
167.44367881
 10
226.20596659
 20
167.54339445
 10
226.05015509
 20
167.64959708
 10
225.89833959
 20
167.76228151
 10
225.75051109
 20
167.88144255
 10
225.60666059
 20
168.00707498
 10
225.46677909
 20
168.13917361
 10
225.46677909
 20
168.13917361
 10
225.33522026
 20
168.2729485
 10
225.21006842
 20
168.41069268
 10
225.09136059
 20
168.55239046
 10
224.97913376
 20
168.69802615
 10
224.87342492
 20
168.84758403
 10
224.77427109
 20
169.00104841
 10
224.68170926
 20
169.1584036
 10
224.59577642
 20
169.31963388
 10
224.51650959
 20
169.48472356
 10
224.44394576
 20
169.65365695
 10
224.44394576
 20
169.65365695
 10
224.37812792
 20
169.8267796
 10
224.31918309
 20
170.00298415
 10
224.26712426
 20
170.1822655
 10
224.22196442
 20
170.36461855
 10
224.18371659
 20
170.5500382
 10
224.15239376
 20
170.73851935
 10
224.12800892
 20
170.9300569
 10
224.11057509
 20
171.12464575
 10
224.10010526
 20
171.3222808
 10
224.09661242
 20
171.52295695
 10
224.09661242
 20
171.52295695
 10
224.10010526
 20
171.72362898
 10
224.11057509
 20
171.92135121
 10
224.12800892
 20
172.11613285
 10
224.15239376
 20
172.30798308
 10
224.18371659
 20
172.49691111
 10
224.22196442
 20
172.68292615
 10
224.26712426
 20
172.86603738
 10
224.31918309
 20
173.04625401
 10
224.37812792
 20
173.22358525
 10
224.44394576
 20
173.39804028
 10
224.44394576
 20
173.39804028
 10
224.51650959
 20
173.56810673
 10
224.59577642
 20
173.73427988
 10
224.68170926
 20
173.89652043
 10
224.77427109
 20
174.05478908
 10
224.87342492
 20
174.20904653
 10
224.97913376
 20
174.35925348
 10
225.09136059
 20
174.50537063
 10
225.21006842
 20
174.64735868
 10
225.33522026
 20
174.78517833
 10
225.46677909
 20
174.91879028
 10
225.46677909
 20
174.91879028
 10
225.60558292
 20
175.04918211
 10
225.74840976
 20
175.17330495
 10
225.89528259
 20
175.29113978
 10
226.04622442
 20
175.40266761
 10
226.20125826
 20
175.50786945
 10
226.36040709
 20
175.60672628
 10
226.52369392
 20
175.69921911
 10
226.69114176
 20
175.78532895
 10
226.86277359
 20
175.86503678
 10
227.03861242
 20
175.93832361
 10
227.03861242
 20
175.93832361
 10
227.21752642
 20
176.0053552
 10
227.39916442
 20
176.06525228
 10
227.58352042
 20
176.11803336
 10
227.77058842
 20
176.16371695
 10
227.96036242
 20
176.20232153
 10
228.15283642
 20
176.23386561
 10
228.34800442
 20
176.2583677
 10
228.54586042
 20
176.27584628
 10
228.74639842
 20
176.28631986
 10
228.94961242
 20
176.28980695
 10
228.94961242
 20
176.28980695
 10
229.15298409
 20
176.28631986
 10
229.35368576
 20
176.27584628
 10
229.55169742
 20
176.2583677
 10
229.74699909
 20
176.23386561
 10
229.93957076
 20
176.20232153
 10
230.12939242
 20
176.16371695
 10
230.31644409
 20
176.11803336
 10
230.50070576
 20
176.06525228
 10
230.68215742
 20
176.0053552
 10
230.86077909
 20
175.93832361
 10
230.86077909
 20
175.93832361
 10
231.03678176
 20
175.86503678
 10
231.20870042
 20
175.78532895
 10
231.37655109
 20
175.69921911
 10
231.54034976
 20
175.60672628
 10
231.70011242
 20
175.50786945
 10
231.85585509
 20
175.40266761
 10
232.00759376
 20
175.29113978
 10
232.15534442
 20
175.17330495
 10
232.29912309
 20
175.04918211
 10
232.43894576
 20
174.91879028
 10
232.43894576
 20
174.91879028
 10
232.56929059
 20
174.78401576
 10
232.69340442
 20
174.64518815
 10
232.81125626
 20
174.50233133
 10
232.92281509
 20
174.35546921
 10
233.02804992
 20
174.2046257
 10
233.12692976
 20
174.04982468
 10
233.21942359
 20
173.89109006
 10
233.30550042
 20
173.72844575
 10
233.38512926
 20
173.56191563
 10
233.45827909
 20
173.39152361
 10
233.45827909
 20
173.39152361
 10
233.52532109
 20
173.2172317
 10
233.58525509
 20
173.04015428
 10
233.63809309
 20
172.86028886
 10
233.68384709
 20
172.67763295
 10
233.72252909
 20
172.49218403
 10
233.75415109
 20
172.30393961
 10
233.77872509
 20
172.1128972
 10
233.79626309
 20
171.91905428
 10
233.80677709
 20
171.72240836
 10
233.81027909
 20
171.52295695
 10
233.81027909
 20
171.52295695
 10
233.81027909
 20
171.52295695
  0
HATCH
  5
3F3
100
AcDbEntity
  8
MST_1_1
 62
   190
100
AcDbHatch
 10
0.0
 20
0.0
 30
0.0
210
0.0
220
0.0
230
1.0
  2
SOLID
 70
     1
 71
     1
 91
        1
 92
        7
 72
     0
 73
     1
 93
      160
 10
233.81027909
 20
171.52295695
 10
233.80670709
 20
171.32479023
 10
233.79600309
 20
171.12932321
 10
233.77818509
 20
170.9365756
 10
233.75327109
 20
170.74656708
 10
233.72127909
 20
170.55931736
 10
233.68222709
 20
170.37484615
 10
233.63613309
 20
170.19317313
 10
233.58301509
 20
170.01431801
 10
233.52289109
 20
169.8383005
 10
233.45577909
 20
169.66514028
 10
233.38204609
 20
169.49466641
 10
233.30165509
 20
169.32791935
 10
233.21461809
 20
169.16489088
 10
233.12094709
 20
169.00557281
 10
233.02065409
 20
168.84995695
 10
232.91375109
 20
168.69803508
 10
232.80025009
 20
168.54979901
 10
232.68016309
 20
168.40524055
 10
232.55350209
 20
168.26435148
 10
232.42027909
 20
168.12712361
 10
232.28154042
 20
167.99734283
 10
232.13862976
 20
167.87377535
 10
231.99155509
 20
167.75642846
 10
231.84032442
 20
167.64530948
 10
231.68494576
 20
167.5404257
 10
231.52542709
 20
167.44178441
 10
231.36177642
 20
167.34939293
 10
231.19400176
 20
167.26325855
 10
231.02211109
 20
167.18338856
 10
230.84611242
 20
167.10979028
 10
230.66706442
 20
167.04279215
 10
230.48554842
 20
166.98273521
 10
230.30160642
 20
166.92964568
 10
230.11528042
 20
166.88354975
 10
229.92661242
 20
166.84447361
 10
229.73564442
 20
166.81244348
 10
229.54241842
 20
166.78748555
 10
229.34697642
 20
166.76962601
 10
229.14936042
 20
166.75889108
 10
228.94961242
 20
166.75530695
 10
228.74769209
 20
166.75889108
 10
228.54824976
 20
166.76962601
 10
228.35131342
 20
166.78748555
 10
228.15691109
 20
166.81244348
 10
227.96507076
 20
166.84447361
 10
227.77582042
 20
166.88354975
 10
227.58918809
 20
166.92964568
 10
227.40520176
 20
166.98273521
 10
227.22388942
 20
167.04279215
 10
227.04527909
 20
167.10979028
 10
226.86935259
 20
167.18350591
 10
226.69746709
 20
167.26372935
 10
226.52961359
 20
167.35045538
 10
226.36578309
 20
167.44367881
 10
226.20596659
 20
167.54339445
 10
226.05015509
 20
167.64959708
 10
225.89833959
 20
167.76228151
 10
225.75051109
 20
167.88144255
 10
225.60666059
 20
168.00707498
 10
225.46677909
 20
168.13917361
 10
225.33522026
 20
168.2729485
 10
225.21006842
 20
168.41069268
 10
225.09136059
 20
168.55239046
 10
224.97913376
 20
168.69802615
 10
224.87342492
 20
168.84758403
 10
224.77427109
 20
169.00104841
 10
224.68170926
 20
169.1584036
 10
224.59577642
 20
169.31963388
 10
224.51650959
 20
169.48472356
 10
224.44394576
 20
169.65365695
 10
224.37812792
 20
169.8267796
 10
224.31918309
 20
170.00298415
 10
224.26712426
 20
170.1822655
 10
224.22196442
 20
170.36461855
 10
224.18371659
 20
170.5500382
 10
224.15239376
 20
170.73851935
 10
224.12800892
 20
170.9300569
 10
224.11057509
 20
171.12464575
 10
224.10010526
 20
171.3222808
 10
224.09661242
 20
171.52295695
 10
224.10010526
 20
171.72362898
 10
224.11057509
 20
171.92135121
 10
224.12800892
 20
172.11613285
 10
224.15239376
 20
172.30798308
 10
224.18371659
 20
172.49691111
 10
224.22196442
 20
172.68292615
 10
224.26712426
 20
172.86603738
 10
224.31918309
 20
173.04625401
 10
224.37812792
 20
173.22358525
 10
224.44394576
 20
173.39804028
 10
224.51650959
 20
173.56810673
 10
224.59577642
 20
173.73427988
 10
224.68170926
 20
173.89652043
 10
224.77427109
 20
174.05478908
 10
224.87342492
 20
174.20904653
 10
224.97913376
 20
174.35925348
 10
225.09136059
 20
174.50537063
 10
225.21006842
 20
174.64735868
 10
225.33522026
 20
174.78517833
 10
225.46677909
 20
174.91879028
 10
225.60558292
 20
175.04918211
 10
225.74840976
 20
175.17330495
 10
225.89528259
 20
175.29113978
 10
226.04622442
 20
175.40266761
 10
226.20125826
 20
175.50786945
 10
226.36040709
 20
175.60672628
 10
226.52369392
 20
175.69921911
 10
226.69114176
 20
175.78532895
 10
226.86277359
 20
175.86503678
 10
227.03861242
 20
175.93832361
 10
227.21752642
 20
176.0053552
 10
227.39916442
 20
176.06525228
 10
227.58352042
 20
176.11803336
 10
227.77058842
 20
176.16371695
 10
227.96036242
 20
176.20232153
 10
228.15283642
 20
176.23386561
 10
228.34800442
 20
176.2583677
 10
228.54586042
 20
176.27584628
 10
228.74639842
 20
176.28631986
 10
228.94961242
 20
176.28980695
 10
229.15298409
 20
176.28631986
 10
229.35368576
 20
176.27584628
 10
229.55169742
 20
176.2583677
 10
229.74699909
 20
176.23386561
 10
229.93957076
 20
176.20232153
 10
230.12939242
 20
176.16371695
 10
230.31644409
 20
176.11803336
 10
230.50070576
 20
176.06525228
 10
230.68215742
 20
176.0053552
 10
230.86077909
 20
175.93832361
 10
231.03678176
 20
175.86503678
 10
231.20870042
 20
175.78532895
 10
231.37655109
 20
175.69921911
 10
231.54034976
 20
175.60672628
 10
231.70011242
 20
175.50786945
 10
231.85585509
 20
175.40266761
 10
232.00759376
 20
175.29113978
 10
232.15534442
 20
175.17330495
 10
232.29912309
 20
175.04918211
 10
232.43894576
 20
174.91879028
 10
232.56929059
 20
174.78401576
 10
232.69340442
 20
174.64518815
 10
232.81125626
 20
174.50233133
 10
232.92281509
 20
174.35546921
 10
233.02804992
 20
174.2046257
 10
233.12692976
 20
174.04982468
 10
233.21942359
 20
173.89109006
 10
233.30550042
 20
173.72844575
 10
233.38512926
 20
173.56191563
 10
233.45827909
 20
173.39152361
 10
233.52532109
 20
173.2172317
 10
233.58525509
 20
173.04015428
 10
233.63809309
 20
172.86028886
 10
233.68384709
 20
172.67763295
 10
233.72252909
 20
172.49218403
 10
233.75415109
 20
172.30393961
 10
233.77872509
 20
172.1128972
 10
233.79626309
 20
171.91905428
 10
233.80677709
 20
171.72240836
 97
        1
330
3F2
 75
     0
 76
     2
 47
0.775229
 98
        1
 10
0.0
 20
0.0
  0
LWPOLYLINE
  5
3F4
102
{ACAD_REACTORS
330
3F5
102
}
100
AcDbEntity
  8
MST_1_1
 62
    12
100
AcDbPolyline
 90
       90
 70
     1
 43
0.0
 10
228.94961242
 20
169.80877361
 10
229.08482959
 20
169.81350893
 10
229.21458976
 20
169.82769215
 10
229.33890592
 20
169.85128916
 10
229.45779109
 20
169.88426588
 10
229.57125826
 20
169.9265882
 10
229.67932042
 20
169.97822201
 10
229.78199059
 20
170.03913323
 10
229.87928176
 20
170.10928775
 10
229.97120692
 20
170.18865146
 10
230.05777909
 20
170.27719028
 10
230.05777909
 20
170.27719028
 10
230.13747159
 20
170.3743153
 10
230.20883909
 20
170.47743641
 10
230.27186659
 20
170.58659273
 10
230.32653909
 20
170.70182335
 10
230.37284159
 20
170.82316736
 10
230.41075909
 20
170.95066388
 10
230.44027659
 20
171.084352
 10
230.46137909
 20
171.22427081
 10
230.47405159
 20
171.37045943
 10
230.47827909
 20
171.52295695
 10
230.47827909
 20
171.52295695
 10
230.47405159
 20
171.67620248
 10
230.46137909
 20
171.82321121
 10
230.44027659
 20
171.96401635
 10
230.41075909
 20
172.09865108
 10
230.37284159
 20
172.22714861
 10
230.32653909
 20
172.34954215
 10
230.27186659
 20
172.46586488
 10
230.20883909
 20
172.57615001
 10
230.13747159
 20
172.68043075
 10
230.05777909
 20
172.77874028
 10
230.05777909
 20
172.77874028
 10
229.97120692
 20
172.86876566
 10
229.87928176
 20
172.94938135
 10
229.78199059
 20
173.02057163
 10
229.67932042
 20
173.08232081
 10
229.57125826
 20
173.1346132
 10
229.45779109
 20
173.17743308
 10
229.33890592
 20
173.21076476
 10
229.21458976
 20
173.23459255
 10
229.08482959
 20
173.24890073
 10
228.94961242
 20
173.25367361
 10
228.94961242
 20
173.25367361
 10
228.81445942
 20
173.24889666
 10
228.68460842
 20
173.23456001
 10
228.56007142
 20
173.21065496
 10
228.44086042
 20
173.17717281
 10
228.32698742
 20
173.13410486
 10
228.21846442
 20
173.08144241
 10
228.11530342
 20
173.01917676
 10
228.01751642
 20
172.94729921
 10
227.92511542
 20
172.86580106
 10
227.83811242
 20
172.77467361
 10
227.83811242
 20
172.77467361
 10
227.75776576
 20
172.67630965
 10
227.68591909
 20
172.57198788
 10
227.62256242
 20
172.46170851
 10
227.56768576
 20
172.34547175
 10
227.52127909
 20
172.22327778
 10
227.48333242
 20
172.09512681
 10
227.45383576
 20
171.96101905
 10
227.43277909
 20
171.82095468
 10
227.42015242
 20
171.67493391
 10
227.41594576
 20
171.52295695
 10
227.41594576
 20
171.52295695
 10
227.42015242
 20
171.37045943
 10
227.43277909
 20
171.22427081
 10
227.45383576
 20
171.084352
 10
227.48333242
 20
170.95066388
 10
227.52127909
 20
170.82316736
 10
227.56768576
 20
170.70182335
 10
227.62256242
 20
170.58659273
 10
227.68591909
 20
170.47743641
 10
227.75776576
 20
170.3743153
 10
227.83811242
 20
170.27719028
 10
227.83811242
 20
170.27719028
 10
227.92511542
 20
170.18865146
 10
228.01751642
 20
170.10928775
 10
228.11530342
 20
170.03913323
 10
228.21846442
 20
169.97822201
 10
228.32698742
 20
169.9265882
 10
228.44086042
 20
169.88426588
 10
228.56007142
 20
169.85128916
 10
228.68460842
 20
169.82769215
 10
228.81445942
 20
169.81350893
 10
228.94961242
 20
169.80877361
 10
228.94961242
 20
169.80877361
 10
228.94961242
 20
169.80877361
  0
HATCH
  5
3F5
100
AcDbEntity
  8
MST_1_1
 62
    12
100
AcDbHatch
 10
0.0
 20
0.0
 30
0.0
210
0.0
220
0.0
230
1.0
  2
SOLID
 70
     1
 71
     1
 91
        1
 92
        7
 72
     0
 73
     1
 93
       80
 10
228.94961242
 20
169.80877361
 10
229.08482959
 20
169.81350893
 10
229.21458976
 20
169.82769215
 10
229.33890592
 20
169.85128916
 10
229.45779109
 20
169.88426588
 10
229.57125826
 20
169.9265882
 10
229.67932042
 20
169.97822201
 10
229.78199059
 20
170.03913323
 10
229.87928176
 20
170.10928775
 10
229.97120692
 20
170.18865146
 10
230.05777909
 20
170.27719028
 10
230.13747159
 20
170.3743153
 10
230.20883909
 20
170.47743641
 10
230.27186659
 20
170.58659273
 10
230.32653909
 20
170.70182335
 10
230.37284159
 20
170.82316736
 10
230.41075909
 20
170.95066388
 10
230.44027659
 20
171.084352
 10
230.46137909
 20
171.22427081
 10
230.47405159
 20
171.37045943
 10
230.47827909
 20
171.52295695
 10
230.47405159
 20
171.67620248
 10
230.46137909
 20
171.82321121
 10
230.44027659
 20
171.96401635
 10
230.41075909
 20
172.09865108
 10
230.37284159
 20
172.22714861
 10
230.32653909
 20
172.34954215
 10
230.27186659
 20
172.46586488
 10
230.20883909
 20
172.57615001
 10
230.13747159
 20
172.68043075
 10
230.05777909
 20
172.77874028
 10
229.97120692
 20
172.86876566
 10
229.87928176
 20
172.94938135
 10
229.78199059
 20
173.02057163
 10
229.67932042
 20
173.08232081
 10
229.57125826
 20
173.1346132
 10
229.45779109
 20
173.17743308
 10
229.33890592
 20
173.21076476
 10
229.21458976
 20
173.23459255
 10
229.08482959
 20
173.24890073
 10
228.94961242
 20
173.25367361
 10
228.81445942
 20
173.24889666
 10
228.68460842
 20
173.23456001
 10
228.56007142
 20
173.21065496
 10
228.44086042
 20
173.17717281
 10
228.32698742
 20
173.13410486
 10
228.21846442
 20
173.08144241
 10
228.11530342
 20
173.01917676
 10
228.01751642
 20
172.94729921
 10
227.92511542
 20
172.86580106
 10
227.83811242
 20
172.77467361
 10
227.75776576
 20
172.67630965
 10
227.68591909
 20
172.57198788
 10
227.62256242
 20
172.46170851
 10
227.56768576
 20
172.34547175
 10
227.52127909
 20
172.22327778
 10
227.48333242
 20
172.09512681
 10
227.45383576
 20
171.96101905
 10
227.43277909
 20
171.82095468
 10
227.42015242
 20
171.67493391
 10
227.41594576
 20
171.52295695
 10
227.42015242
 20
171.37045943
 10
227.43277909
 20
171.22427081
 10
227.45383576
 20
171.084352
 10
227.48333242
 20
170.95066388
 10
227.52127909
 20
170.82316736
 10
227.56768576
 20
170.70182335
 10
227.62256242
 20
170.58659273
 10
227.68591909
 20
170.47743641
 10
227.75776576
 20
170.3743153
 10
227.83811242
 20
170.27719028
 10
227.92511542
 20
170.18865146
 10
228.01751642
 20
170.10928775
 10
228.11530342
 20
170.03913323
 10
228.21846442
 20
169.97822201
 10
228.32698742
 20
169.9265882
 10
228.44086042
 20
169.88426588
 10
228.56007142
 20
169.85128916
 10
228.68460842
 20
169.82769215
 10
228.81445942
 20
169.81350893
 97
        1
330
3F4
 75
     0
 76
     2
 47
0.775229
 98
        1
 10
0.0
 20
0.0
  0
LWPOLYLINE
  5
3F6
102
{ACAD_REACTORS
330
3F7
102
}
100
AcDbEntity
  8
MST_1_1
 62
   190
100
AcDbPolyline
 90
       60
 70
     1
 43
0.0
 10
215.31057909
 20
166.99780695
 10
215.31057909
 20
176.08432361
 10
215.31057909
 20
176.08432361
 10
219.42084576
 20
176.08432361
 10
219.42084576
 20
176.08432361
 10
219.76958152
 20
176.07642298
 10
220.10152389
 20
176.05273055
 10
220.41666546
 20
176.01326051
 10
220.71499882
 20
175.95802708
 10
220.99651659
 20
175.88704445
 10
221.26121136
 20
175.80032681
 10
221.50907572
 20
175.69788838
 10
221.74010229
 20
175.57974335
 10
221.95428366
 20
175.44590591
 10
222.15161242
 20
175.29639028
 10
222.15161242
 20
175.29639028
 10
222.33081826
 20
175.13180123
 10
222.49113909
 20
174.95323588
 10
222.63257992
 20
174.76072693
 10
222.75514576
 20
174.55430708
 10
222.85884159
 20
174.33400903
 10
222.94367242
 20
174.09986548
 10
223.00964326
 20
173.85190913
 10
223.05675909
 20
173.59017268
 10
223.08502492
 20
173.31468883
 10
223.09444576
 20
173.02549028
 10
223.09444576
 20
173.02549028
 10
223.08966409
 20
172.83500571
 10
223.07533242
 20
172.65135975
 10
223.05147076
 20
172.47456398
 10
223.01809909
 20
172.30463001
 10
222.97523742
 20
172.14156945
 10
222.92290576
 20
171.98539388
 10
222.86112409
 20
171.83611491
 10
222.78991242
 20
171.69374415
 10
222.70929076
 20
171.55829318
 10
222.61927909
 20
171.42977361
 10
222.61927909
 20
171.42977361
 10
222.52083809
 20
171.30918136
 10
222.41589109
 20
171.19914561
 10
222.30440209
 20
171.09965286
 10
222.18633509
 20
171.01068961
 10
222.06165409
 20
170.93224236
 10
221.93032309
 20
170.86429761
 10
221.79230609
 20
170.80684186
 10
221.64756709
 20
170.75986161
 10
221.49607009
 20
170.72334336
 10
221.33777909
 20
170.69727361
 10
221.33777909
 20
170.69727361
 10
223.76411242
 20
166.99780695
 10
223.76411242
 20
166.99780695
 10
220.10361242
 20
166.99780695
 10
220.10361242
 20
166.99780695
 10
218.51362909
 20
169.99512361
 10
218.51362909
 20
169.99512361
 10
218.51362909
 20
166.99780695
 10
218.51362909
 20
166.99780695
 10
215.31057909
 20
166.99780695
 10
215.31057909
 20
166.99780695
 10
215.31057909
 20
166.99780695
  0
HATCH
  5
3F7
100
AcDbEntity
  8
MST_1_1
 62
   190
100
AcDbHatch
 10
0.0
 20
0.0
 30
0.0
210
0.0
220
0.0
230
1.0
  2
SOLID
 70
     1
 71
     1
 91
        1
 92
        7
 72
     0
 73
     1
 93
       47
 10
215.31057909
 20
166.99780695
 10
215.31057909
 20
176.08432361
 10
219.42084576
 20
176.08432361
 10
219.76958152
 20
176.07642298
 10
220.10152389
 20
176.05273055
 10
220.41666546
 20
176.01326051
 10
220.71499882
 20
175.95802708
 10
220.99651659
 20
175.88704445
 10
221.26121136
 20
175.80032681
 10
221.50907572
 20
175.69788838
 10
221.74010229
 20
175.57974335
 10
221.95428366
 20
175.44590591
 10
222.15161242
 20
175.29639028
 10
222.33081826
 20
175.13180123
 10
222.49113909
 20
174.95323588
 10
222.63257992
 20
174.76072693
 10
222.75514576
 20
174.55430708
 10
222.85884159
 20
174.33400903
 10
222.94367242
 20
174.09986548
 10
223.00964326
 20
173.85190913
 10
223.05675909
 20
173.59017268
 10
223.08502492
 20
173.31468883
 10
223.09444576
 20
173.02549028
 10
223.08966409
 20
172.83500571
 10
223.07533242
 20
172.65135975
 10
223.05147076
 20
172.47456398
 10
223.01809909
 20
172.30463001
 10
222.97523742
 20
172.14156945
 10
222.92290576
 20
171.98539388
 10
222.86112409
 20
171.83611491
 10
222.78991242
 20
171.69374415
 10
222.70929076
 20
171.55829318
 10
222.61927909
 20
171.42977361
 10
222.52083809
 20
171.30918136
 10
222.41589109
 20
171.19914561
 10
222.30440209
 20
171.09965286
 10
222.18633509
 20
171.01068961
 10
222.06165409
 20
170.93224236
 10
221.93032309
 20
170.86429761
 10
221.79230609
 20
170.80684186
 10
221.64756709
 20
170.75986161
 10
221.49607009
 20
170.72334336
 10
221.33777909
 20
170.69727361
 10
223.76411242
 20
166.99780695
 10
220.10361242
 20
166.99780695
 10
218.51362909
 20
169.99512361
 10
218.51362909
 20
166.99780695
 97
        1
330
3F6
 75
     0
 76
     2
 47
0.775229
 98
        1
 10
0.0
 20
0.0
  0
LWPOLYLINE
  5
3F8
102
{ACAD_REACTORS
330
3F9
102
}
100
AcDbEntity
  8
MST_1_1
 62
    12
100
AcDbPolyline
 90
       52
 70
     1
 43
0.0
 10
218.51362909
 20
173.74569028
 10
218.51362909
 20
171.97064028
 10
218.51362909
 20
171.97064028
 10
219.02274576
 20
171.97064028
 10
219.02274576
 20
171.97064028
 10
219.11379221
 20
171.97291168
 10
219.20047136
 20
171.97972148
 10
219.28279791
 20
171.99106308
 10
219.36078656
 20
172.00692988
 10
219.43445201
 20
172.02731528
 10
219.50380896
 20
172.05221268
 10
219.56887211
 20
172.08161548
 10
219.62965616
 20
172.11551708
 10
219.68617581
 20
172.15391088
 10
219.73844576
 20
172.19679028
 10
219.73844576
 20
172.19679028
 10
219.78628992
 20
172.24387376
 10
219.82911909
 20
172.29489615
 10
219.86692826
 20
172.34986033
 10
219.89971242
 20
172.40876921
 10
219.92746659
 20
172.4716257
 10
219.95018576
 20
172.53843268
 10
219.96786492
 20
172.60919306
 10
219.98049909
 20
172.68390975
 10
219.98808326
 20
172.76258563
 10
219.99061242
 20
172.84522361
 10
219.99061242
 20
172.84522361
 10
219.98808326
 20
172.93006241
 10
219.98049909
 20
173.01089201
 10
219.96786492
 20
173.08770221
 10
219.95018576
 20
173.16048281
 10
219.92746659
 20
173.22922361
 10
219.89971242
 20
173.29391441
 10
219.86692826
 20
173.35454501
 10
219.82911909
 20
173.41110521
 10
219.78628992
 20
173.46358481
 10
219.73844576
 20
173.51197361
 10
219.73844576
 20
173.51197361
 10
219.68617581
 20
173.55610978
 10
219.62965616
 20
173.59568495
 10
219.56887211
 20
173.63067911
 10
219.50380896
 20
173.66107228
 10
219.43445201
 20
173.68684445
 10
219.36078656
 20
173.70797561
 10
219.28279791
 20
173.72444578
 10
219.20047136
 20
173.73623495
 10
219.11379221
 20
173.74332311
 10
219.02274576
 20
173.74569028
 10
219.02274576
 20
173.74569028
 10
218.51362909
 20
173.74569028
 10
218.51362909
 20
173.74569028
 10
218.51362909
 20
173.74569028
  0
HATCH
  5
3F9
100
AcDbEntity
  8
MST_1_1
 62
    12
100
AcDbHatch
 10
0.0
 20
0.0
 30
0.0
210
0.0
220
0.0
230
1.0
  2
SOLID
 70
     1
 71
     1
 91
        1
 92
        7
 72
     0
 73
     1
 93
       43
 10
218.51362909
 20
173.74569028
 10
218.51362909
 20
171.97064028
 10
219.02274576
 20
171.97064028
 10
219.11379221
 20
171.97291168
 10
219.20047136
 20
171.97972148
 10
219.28279791
 20
171.99106308
 10
219.36078656
 20
172.00692988
 10
219.43445201
 20
172.02731528
 10
219.50380896
 20
172.05221268
 10
219.56887211
 20
172.08161548
 10
219.62965616
 20
172.11551708
 10
219.68617581
 20
172.15391088
 10
219.73844576
 20
172.19679028
 10
219.78628992
 20
172.24387376
 10
219.82911909
 20
172.29489615
 10
219.86692826
 20
172.34986033
 10
219.89971242
 20
172.40876921
 10
219.92746659
 20
172.4716257
 10
219.95018576
 20
172.53843268
 10
219.96786492
 20
172.60919306
 10
219.98049909
 20
172.68390975
 10
219.98808326
 20
172.76258563
 10
219.99061242
 20
172.84522361
 10
219.98808326
 20
172.93006241
 10
219.98049909
 20
173.01089201
 10
219.96786492
 20
173.08770221
 10
219.95018576
 20
173.16048281
 10
219.92746659
 20
173.22922361
 10
219.89971242
 20
173.29391441
 10
219.86692826
 20
173.35454501
 10
219.82911909
 20
173.41110521
 10
219.78628992
 20
173.46358481
 10
219.73844576
 20
173.51197361
 10
219.68617581
 20
173.55610978
 10
219.62965616
 20
173.59568495
 10
219.56887211
 20
173.63067911
 10
219.50380896
 20
173.66107228
 10
219.43445201
 20
173.68684445
 10
219.36078656
 20
173.70797561
 10
219.28279791
 20
173.72444578
 10
219.20047136
 20
173.73623495
 10
219.11379221
 20
173.74332311
 10
219.02274576
 20
173.74569028
 97
        1
330
3F8
 75
     0
 76
     2
 47
0.775229
 98
        1
 10
0.0
 20
0.0
  0
LWPOLYLINE
  5
3FA
102
{ACAD_REACTORS
330
3FB
102
}
100
AcDbEntity
  8
MST_1_1
 62
   190
100
AcDbPolyline
 90
       56
 70
     1
 43
0.0
 10
206.31097909
 20
166.99780695
 10
206.31097909
 20
176.08432361
 10
206.31097909
 20
176.08432361
 10
210.21569576
 20
176.08432361
 10
210.21569576
 20
176.08432361
 10
210.61647191
 20
176.07637495
 10
210.99512296
 20
176.05253228
 10
211.35165281
 20
176.01280061
 10
211.68606536
 20
175.95718495
 10
211.99836451
 20
175.88569028
 10
212.28855416
 20
175.79832161
 10
212.55663821
 20
175.69508395
 10
212.80262056
 20
175.57598228
 10
213.02650511
 20
175.44102161
 10
213.22829576
 20
175.29020695
 10
213.22829576
 20
175.29020695
 10
213.40935096
 20
175.12184561
 10
213.57135536
 20
174.93495828
 10
213.71430716
 20
174.72952495
 10
213.83820456
 20
174.50552561
 10
213.94304576
 20
174.26294028
 10
214.02882896
 20
174.00174895
 10
214.09555236
 20
173.72193161
 10
214.14321416
 20
173.42346828
 10
214.17181256
 20
173.10633895
 10
214.18134576
 20
172.77052361
 10
214.18134576
 20
172.77052361
 10
214.17277586
 20
172.4575316
 10
214.14707256
 20
172.16186948
 10
214.10424546
 20
171.88354316
 10
214.04430416
 20
171.62255855
 10
213.96725826
 20
171.37892153
 10
213.87311736
 20
171.15263801
 10
213.76189106
 20
170.9437139
 10
213.63358896
 20
170.75215508
 10
213.48822066
 20
170.57796746
 10
213.32579576
 20
170.42115695
 10
213.32579576
 20
170.42115695
 10
213.14404309
 20
170.2805995
 10
212.94224042
 20
170.15478535
 10
212.72038076
 20
170.0437268
 10
212.47845709
 20
169.94743615
 10
212.21646242
 20
169.8659257
 10
211.93438976
 20
169.79920775
 10
211.63223209
 20
169.7472946
 10
211.30998242
 20
169.71019855
 10
210.96763376
 20
169.6879319
 10
210.60517909
 20
169.68050695
 10
210.60517909
 20
169.68050695
 10
209.58222909
 20
169.68050695
 10
209.58222909
 20
169.68050695
 10
209.58222909
 20
166.99780695
 10
209.58222909
 20
166.99780695
 10
206.31097909
 20
166.99780695
 10
206.31097909
 20
166.99780695
 10
206.31097909
 20
166.99780695
  0
HATCH
  5
3FB
100
AcDbEntity
  8
MST_1_1
 62
   190
100
AcDbHatch
 10
0.0
 20
0.0
 30
0.0
210
0.0
220
0.0
230
1.0
  2
SOLID
 70
     1
 71
     1
 91
        1
 92
        7
 72
     0
 73
     1
 93
       45
 10
206.31097909
 20
166.99780695
 10
206.31097909
 20
176.08432361
 10
210.21569576
 20
176.08432361
 10
210.61647191
 20
176.07637495
 10
210.99512296
 20
176.05253228
 10
211.35165281
 20
176.01280061
 10
211.68606536
 20
175.95718495
 10
211.99836451
 20
175.88569028
 10
212.28855416
 20
175.79832161
 10
212.55663821
 20
175.69508395
 10
212.80262056
 20
175.57598228
 10
213.02650511
 20
175.44102161
 10
213.22829576
 20
175.29020695
 10
213.40935096
 20
175.12184561
 10
213.57135536
 20
174.93495828
 10
213.71430716
 20
174.72952495
 10
213.83820456
 20
174.50552561
 10
213.94304576
 20
174.26294028
 10
214.02882896
 20
174.00174895
 10
214.09555236
 20
173.72193161
 10
214.14321416
 20
173.42346828
 10
214.17181256
 20
173.10633895
 10
214.18134576
 20
172.77052361
 10
214.17277586
 20
172.4575316
 10
214.14707256
 20
172.16186948
 10
214.10424546
 20
171.88354316
 10
214.04430416
 20
171.62255855
 10
213.96725826
 20
171.37892153
 10
213.87311736
 20
171.15263801
 10
213.76189106
 20
170.9437139
 10
213.63358896
 20
170.75215508
 10
213.48822066
 20
170.57796746
 10
213.32579576
 20
170.42115695
 10
213.14404309
 20
170.2805995
 10
212.94224042
 20
170.15478535
 10
212.72038076
 20
170.0437268
 10
212.47845709
 20
169.94743615
 10
212.21646242
 20
169.8659257
 10
211.93438976
 20
169.79920775
 10
211.63223209
 20
169.7472946
 10
211.30998242
 20
169.71019855
 10
210.96763376
 20
169.6879319
 10
210.60517909
 20
169.68050695
 10
209.58222909
 20
169.68050695
 10
209.58222909
 20
166.99780695
 97
        1
330
3FA
 75
     0
 76
     2
 47
0.775229
 98
        1
 10
0.0
 20
0.0
  0
LWPOLYLINE
  5
3FC
102
{ACAD_REACTORS
330
3FD
102
}
100
AcDbEntity
  8
MST_1_1
 62
    12
100
AcDbPolyline
 90
       52
 70
     1
 43
0.0
 10
209.59499576
 20
173.55877361
 10
209.59499576
 20
172.04420695
 10
209.59499576
 20
172.04420695
 10
210.10264576
 20
172.04420695
 10
210.10264576
 20
172.04420695
 10
210.19348387
 20
172.04617525
 10
210.28008869
 20
172.05207335
 10
210.36243091
 20
172.06189105
 10
210.44048122
 20
172.07561815
 10
210.51421034
 20
172.09324445
 10
210.58358896
 20
172.11475975
 10
210.64858777
 20
172.14015385
 10
210.70917749
 20
172.16941655
 10
210.76532881
 20
172.20253765
 10
210.81701242
 20
172.23950695
 10
210.81701242
 20
172.23950695
 10
210.86408117
 20
172.28032431
 10
210.90621442
 20
172.32441188
 10
210.94340767
 20
172.37177785
 10
210.97565642
 20
172.42243041
 10
211.00295617
 20
172.47637778
 10
211.02530242
 20
172.53362815
 10
211.04269067
 20
172.59418971
 10
211.05511642
 20
172.65807068
 10
211.06257517
 20
172.72527925
 10
211.06506242
 20
172.79582361
 10
211.06506242
 20
172.79582361
 10
211.06252866
 20
172.8660813
 10
211.05492029
 20
172.93319708
 10
211.04222672
 20
172.99717506
 10
211.02443736
 20
173.05801935
 10
211.00154159
 20
173.11573403
 10
210.97352882
 20
173.17032321
 10
210.94038846
 20
173.221791
 10
210.90210989
 20
173.27014148
 10
210.85868252
 20
173.31537876
 10
210.81009576
 20
173.35750695
 10
210.81009576
 20
173.35750695
 10
210.75734986
 20
173.39553836
 10
210.70062656
 20
173.42963228
 10
210.63991746
 20
173.4597732
 10
210.57521416
 20
173.48594561
 10
210.50650826
 20
173.50813403
 10
210.43379136
 20
173.52632295
 10
210.35705506
 20
173.54049686
 10
210.27629096
 20
173.55064028
 10
210.19149066
 20
173.5567377
 10
210.10264576
 20
173.55877361
 10
210.10264576
 20
173.55877361
 10
209.59499576
 20
173.55877361
 10
209.59499576
 20
173.55877361
 10
209.59499576
 20
173.55877361
  0
HATCH
  5
3FD
100
AcDbEntity
  8
MST_1_1
 62
    12
100
AcDbHatch
 10
0.0
 20
0.0
 30
0.0
210
0.0
220
0.0
230
1.0
  2
SOLID
 70
     1
 71
     1
 91
        1
 92
        7
 72
     0
 73
     1
 93
       43
 10
209.59499576
 20
173.55877361
 10
209.59499576
 20
172.04420695
 10
210.10264576
 20
172.04420695
 10
210.19348387
 20
172.04617525
 10
210.28008869
 20
172.05207335
 10
210.36243091
 20
172.06189105
 10
210.44048122
 20
172.07561815
 10
210.51421034
 20
172.09324445
 10
210.58358896
 20
172.11475975
 10
210.64858777
 20
172.14015385
 10
210.70917749
 20
172.16941655
 10
210.76532881
 20
172.20253765
 10
210.81701242
 20
172.23950695
 10
210.86408117
 20
172.28032431
 10
210.90621442
 20
172.32441188
 10
210.94340767
 20
172.37177785
 10
210.97565642
 20
172.42243041
 10
211.00295617
 20
172.47637778
 10
211.02530242
 20
172.53362815
 10
211.04269067
 20
172.59418971
 10
211.05511642
 20
172.65807068
 10
211.06257517
 20
172.72527925
 10
211.06506242
 20
172.79582361
 10
211.06252866
 20
172.8660813
 10
211.05492029
 20
172.93319708
 10
211.04222672
 20
172.99717506
 10
211.02443736
 20
173.05801935
 10
211.00154159
 20
173.11573403
 10
210.97352882
 20
173.17032321
 10
210.94038846
 20
173.221791
 10
210.90210989
 20
173.27014148
 10
210.85868252
 20
173.31537876
 10
210.81009576
 20
173.35750695
 10
210.75734986
 20
173.39553836
 10
210.70062656
 20
173.42963228
 10
210.63991746
 20
173.4597732
 10
210.57521416
 20
173.48594561
 10
210.50650826
 20
173.50813403
 10
210.43379136
 20
173.52632295
 10
210.35705506
 20
173.54049686
 10
210.27629096
 20
173.55064028
 10
210.19149066
 20
173.5567377
 10
210.10264576
 20
173.55877361
 97
        1
330
3FC
 75
     0
 76
     2
 47
0.775229
 98
        1
 10
0.0
 20
0.0
  0
LWPOLYLINE
  5
3FE
102
{ACAD_REACTORS
330
3FF
102
}
100
AcDbEntity
  8
MST_1_1
 62
    12
100
AcDbPolyline
 90
       10
 70
     1
 43
0.0
 10
247.35744576
 20
166.99780695
 10
247.35744576
 20
176.08432361
 10
247.35744576
 20
176.08432361
 10
251.82527909
 20
176.08432361
 10
251.82527909
 20
176.08432361
 10
251.82527909
 20
166.99780695
 10
251.82527909
 20
166.99780695
 10
247.35744576
 20
166.99780695
 10
247.35744576
 20
166.99780695
 10
247.35744576
 20
166.99780695
  0
HATCH
  5
3FF
100
AcDbEntity
  8
MST_1_1
 62
    12
100
AcDbHatch
 10
0.0
 20
0.0
 30
0.0
210
0.0
220
0.0
230
1.0
  2
SOLID
 70
     1
 71
     1
 91
        1
 92
        7
 72
     0
 73
     1
 93
        4
 10
247.35744576
 20
166.99780695
 10
247.35744576
 20
176.08432361
 10
251.82527909
 20
176.08432361
 10
251.82527909
 20
166.99780695
 97
        1
330
3FE
 75
     0
 76
     2
 47
0.775229
 98
        1
 10
0.0
 20
0.0
  0
LWPOLYLINE
  5
400
102
{ACAD_REACTORS
330
401
102
}
100
AcDbEntity
  8
MST_1_1
 62
    12
100
AcDbPolyline
 90
      114
 70
     1
 43
0.0
 10
259.57461242
 20
169.05892361
 10
259.54025842
 20
169.11374196
 10
259.50770042
 20
169.16629241
 10
259.47694442
 20
169.21659806
 10
259.44799642
 20
169.26468201
 10
259.42086242
 20
169.31056736
 10
259.39554842
 20
169.35427721
 10
259.37206042
 20
169.39583466
 10
259.35040442
 20
169.43526281
 10
259.33058642
 20
169.47258476
 10
259.31261242
 20
169.50782361
 10
259.31261242
 20
169.50782361
 10
259.29530976
 20
169.54177478
 10
259.27899109
 20
169.57498495
 10
259.26364042
 20
169.60746411
 10
259.24924176
 20
169.63922228
 10
259.23577909
 20
169.67026945
 10
259.22323642
 20
169.70061561
 10
259.21159776
 20
169.73027078
 10
259.20084709
 20
169.75924495
 10
259.19096842
 20
169.78754811
 10
259.18194576
 20
169.81519028
 10
259.18194576
 20
169.81519028
 10
259.17428142
 20
169.7889863
 10
259.16585109
 20
169.76222241
 10
259.15659876
 20
169.73489573
 10
259.14646842
 20
169.70700335
 10
259.13540409
 20
169.67854236
 10
259.12334976
 20
169.64950988
 10
259.11024942
 20
169.619903
 10
259.09604709
 20
169.58971881
 10
259.08068676
 20
169.55895443
 10
259.06411242
 20
169.52760695
 10
259.06411242
 20
169.52760695
 10
259.04677609
 20
169.49420096
 10
259.02678176
 20
169.45776308
 10
259.00415142
 20
169.4183084
 10
258.97890709
 20
169.37585201
 10
258.95107076
 20
169.33040903
 10
258.92066442
 20
169.28199455
 10
258.88771009
 20
169.23062366
 10
258.85222976
 20
169.17631148
 10
258.81424542
 20
169.1190731
 10
258.77377909
 20
169.05892361
 10
258.77377909
 20
169.05892361
 10
257.38411242
 20
166.99780695
 10
257.38411242
 20
166.99780695
 10
252.35644576
 20
166.99780695
 10
252.35644576
 20
166.99780695
 10
256.69927909
 20
171.83782361
 10
256.69927909
 20
171.83782361
 10
252.86727909
 20
176.08432361
 10
252.86727909
 20
176.08432361
 10
257.88677909
 20
176.08432361
 10
257.88677909
 20
176.08432361
 10
258.79011242
 20
174.60124028
 10
258.79011242
 20
174.60124028
 10
258.79293842
 20
174.5957272
 10
258.79630042
 20
174.58962961
 10
258.80017442
 20
174.58295003
 10
258.80453642
 20
174.57569095
 10
258.80936242
 20
174.56785486
 10
258.81462842
 20
174.55944428
 10
258.82031042
 20
174.5504617
 10
258.82638442
 20
174.54090961
 10
258.83282642
 20
174.53079053
 10
258.83961242
 20
174.52010695
 10
258.83961242
 20
174.52010695
 10
258.88834776
 20
174.43745403
 10
258.93385509
 20
174.35820561
 10
258.97613642
 20
174.2823772
 10
259.01519376
 20
174.20998428
 10
259.05102909
 20
174.14104236
 10
259.08364442
 20
174.07556695
 10
259.11304176
 20
174.01357353
 10
259.13922309
 20
173.95507761
 10
259.16219042
 20
173.9000947
 10
259.18194576
 20
173.84864028
 10
259.18194576
 20
173.84864028
 10
259.19405942
 20
173.88128358
 10
259.20671509
 20
173.91403268
 10
259.21993476
 20
173.94690138
 10
259.23374042
 20
173.97990348
 10
259.24815409
 20
174.01305278
 10
259.26319776
 20
174.04636308
 10
259.27889342
 20
174.07984818
 10
259.29526309
 20
174.11352188
 10
259.31232876
 20
174.14739798
 10
259.33011242
 20
174.18149028
 10
259.33011242
 20
174.18149028
 10
259.34739876
 20
174.21657263
 10
259.36602309
 20
174.25321308
 10
259.38593342
 20
174.29140173
 10
259.40707776
 20
174.33112868
 10
259.42940409
 20
174.37238403
 10
259.45286042
 20
174.41515788
 10
259.47739476
 20
174.45944033
 10
259.50295509
 20
174.50522148
 10
259.52948942
 20
174.55249143
 10
259.55694576
 20
174.60124028
 10
259.55694576
 20
174.60124028
 10
260.48444576
 20
176.08432361
 10
260.48444576
 20
176.08432361
 10
265.48111242
 20
176.08432361
 10
265.48111242
 20
176.08432361
 10
261.66177909
 20
171.83782361
 10
261.66177909
 20
171.83782361
 10
266.00944576
 20
166.99780695
 10
266.00944576
 20
166.99780695
 10
260.97727909
 20
166.99780695
 10
260.97727909
 20
166.99780695
 10
259.57461242
 20
169.05892361
 10
259.57461242
 20
169.05892361
 10
259.57461242
 20
169.05892361
  0
HATCH
  5
401
100
AcDbEntity
  8
MST_1_1
 62
    12
100
AcDbHatch
 10
0.0
 20
0.0
 30
0.0
210
0.0
220
0.0
230
1.0
  2
SOLID
 70
     1
 71
     1
 91
        1
 92
        7
 72
     0
 73
     1
 93
       92
 10
259.57461242
 20
169.05892361
 10
259.54025842
 20
169.11374196
 10
259.50770042
 20
169.16629241
 10
259.47694442
 20
169.21659806
 10
259.44799642
 20
169.26468201
 10
259.42086242
 20
169.31056736
 10
259.39554842
 20
169.35427721
 10
259.37206042
 20
169.39583466
 10
259.35040442
 20
169.43526281
 10
259.33058642
 20
169.47258476
 10
259.31261242
 20
169.50782361
 10
259.29530976
 20
169.54177478
 10
259.27899109
 20
169.57498495
 10
259.26364042
 20
169.60746411
 10
259.24924176
 20
169.63922228
 10
259.23577909
 20
169.67026945
 10
259.22323642
 20
169.70061561
 10
259.21159776
 20
169.73027078
 10
259.20084709
 20
169.75924495
 10
259.19096842
 20
169.78754811
 10
259.18194576
 20
169.81519028
 10
259.17428142
 20
169.7889863
 10
259.16585109
 20
169.76222241
 10
259.15659876
 20
169.73489573
 10
259.14646842
 20
169.70700335
 10
259.13540409
 20
169.67854236
 10
259.12334976
 20
169.64950988
 10
259.11024942
 20
169.619903
 10
259.09604709
 20
169.58971881
 10
259.08068676
 20
169.55895443
 10
259.06411242
 20
169.52760695
 10
259.04677609
 20
169.49420096
 10
259.02678176
 20
169.45776308
 10
259.00415142
 20
169.4183084
 10
258.97890709
 20
169.37585201
 10
258.95107076
 20
169.33040903
 10
258.92066442
 20
169.28199455
 10
258.88771009
 20
169.23062366
 10
258.85222976
 20
169.17631148
 10
258.81424542
 20
169.1190731
 10
258.77377909
 20
169.05892361
 10
257.38411242
 20
166.99780695
 10
252.35644576
 20
166.99780695
 10
256.69927909
 20
171.83782361
 10
252.86727909
 20
176.08432361
 10
257.88677909
 20
176.08432361
 10
258.79011242
 20
174.60124028
 10
258.79293842
 20
174.5957272
 10
258.79630042
 20
174.58962961
 10
258.80017442
 20
174.58295003
 10
258.80453642
 20
174.57569095
 10
258.80936242
 20
174.56785486
 10
258.81462842
 20
174.55944428
 10
258.82031042
 20
174.5504617
 10
258.82638442
 20
174.54090961
 10
258.83282642
 20
174.53079053
 10
258.83961242
 20
174.52010695
 10
258.88834776
 20
174.43745403
 10
258.93385509
 20
174.35820561
 10
258.97613642
 20
174.2823772
 10
259.01519376
 20
174.20998428
 10
259.05102909
 20
174.14104236
 10
259.08364442
 20
174.07556695
 10
259.11304176
 20
174.01357353
 10
259.13922309
 20
173.95507761
 10
259.16219042
 20
173.9000947
 10
259.18194576
 20
173.84864028
 10
259.19405942
 20
173.88128358
 10
259.20671509
 20
173.91403268
 10
259.21993476
 20
173.94690138
 10
259.23374042
 20
173.97990348
 10
259.24815409
 20
174.01305278
 10
259.26319776
 20
174.04636308
 10
259.27889342
 20
174.07984818
 10
259.29526309
 20
174.11352188
 10
259.31232876
 20
174.14739798
 10
259.33011242
 20
174.18149028
 10
259.34739876
 20
174.21657263
 10
259.36602309
 20
174.25321308
 10
259.38593342
 20
174.29140173
 10
259.40707776
 20
174.33112868
 10
259.42940409
 20
174.37238403
 10
259.45286042
 20
174.41515788
 10
259.47739476
 20
174.45944033
 10
259.50295509
 20
174.50522148
 10
259.52948942
 20
174.55249143
 10
259.55694576
 20
174.60124028
 10
260.48444576
 20
176.08432361
 10
265.48111242
 20
176.08432361
 10
261.66177909
 20
171.83782361
 10
266.00944576
 20
166.99780695
 10
260.97727909
 20
166.99780695
 97
        1
330
400
 75
     0
 76
     2
 47
0.775229
 98
        1
 10
0.0
 20
0.0
  0
LWPOLYLINE
  5
402
102
{ACAD_REACTORS
330
403
102
}
100
AcDbEntity
  8
MST_1_1
 62
     7
100
AcDbPolyline
 90
       46
 70
     1
 43
0.0
 10
270.32461242
 20
182.21037361
 10
270.43714292
 20
182.20126011
 10
270.54405642
 20
182.17488561
 10
270.64388592
 20
182.13269911
 10
270.73516442
 20
182.07614961
 10
270.81642492
 20
182.00668611
 10
270.88620042
 20
181.92575761
 10
270.94302392
 20
181.83481311
 10
270.98542842
 20
181.73530161
 10
271.01194692
 20
181.62867211
 10
271.02111242
 20
181.51637361
 10
271.02111242
 20
181.51637361
 10
271.01194692
 20
181.40421995
 10
270.98542842
 20
181.29772428
 10
270.94302392
 20
181.19833461
 10
270.88620042
 20
181.10749895
 10
270.81642492
 20
181.02666528
 10
270.73516442
 20
180.95728161
 10
270.64388592
 20
180.90079595
 10
270.54405642
 20
180.85865628
 10
270.43714292
 20
180.83231061
 10
270.32461242
 20
180.82320695
 10
270.32461242
 20
180.82320695
 10
270.21149159
 20
180.83231061
 10
270.10418576
 20
180.85865628
 10
270.00412992
 20
180.90079595
 10
269.91275909
 20
180.95728161
 10
269.83150826
 20
181.02666528
 10
269.76181242
 20
181.10749895
 10
269.70510659
 20
181.19833461
 10
269.66282576
 20
181.29772428
 10
269.63640492
 20
181.40421995
 10
269.62727909
 20
181.51637361
 10
269.62727909
 20
181.51637361
 10
269.63640492
 20
181.62867211
 10
269.66282576
 20
181.73530161
 10
269.70510659
 20
181.83481311
 10
269.76181242
 20
181.92575761
 10
269.83150826
 20
182.00668611
 10
269.91275909
 20
182.07614961
 10
270.00412992
 20
182.13269911
 10
270.10418576
 20
182.17488561
 10
270.21149159
 20
182.20126011
 10
270.32461242
 20
182.21037361
 10
270.32461242
 20
182.21037361
 10
270.32461242
 20
182.21037361
  0
HATCH
  5
403
100
AcDbEntity
  8
MST_1_1
 62
     7
100
AcDbHatch
 10
0.0
 20
0.0
 30
0.0
210
0.0
220
0.0
230
1.0
  2
SOLID
 70
     1
 71
     1
 91
        1
 92
        7
 72
     0
 73
     1
 93
       40
 10
270.32461242
 20
182.21037361
 10
270.43714292
 20
182.20126011
 10
270.54405642
 20
182.17488561
 10
270.64388592
 20
182.13269911
 10
270.73516442
 20
182.07614961
 10
270.81642492
 20
182.00668611
 10
270.88620042
 20
181.92575761
 10
270.94302392
 20
181.83481311
 10
270.98542842
 20
181.73530161
 10
271.01194692
 20
181.62867211
 10
271.02111242
 20
181.51637361
 10
271.01194692
 20
181.40421995
 10
270.98542842
 20
181.29772428
 10
270.94302392
 20
181.19833461
 10
270.88620042
 20
181.10749895
 10
270.81642492
 20
181.02666528
 10
270.73516442
 20
180.95728161
 10
270.64388592
 20
180.90079595
 10
270.54405642
 20
180.85865628
 10
270.43714292
 20
180.83231061
 10
270.32461242
 20
180.82320695
 10
270.21149159
 20
180.83231061
 10
270.10418576
 20
180.85865628
 10
270.00412992
 20
180.90079595
 10
269.91275909
 20
180.95728161
 10
269.83150826
 20
181.02666528
 10
269.76181242
 20
181.10749895
 10
269.70510659
 20
181.19833461
 10
269.66282576
 20
181.29772428
 10
269.63640492
 20
181.40421995
 10
269.62727909
 20
181.51637361
 10
269.63640492
 20
181.62867211
 10
269.66282576
 20
181.73530161
 10
269.70510659
 20
181.83481311
 10
269.76181242
 20
181.92575761
 10
269.83150826
 20
182.00668611
 10
269.91275909
 20
182.07614961
 10
270.00412992
 20
182.13269911
 10
270.10418576
 20
182.17488561
 10
270.21149159
 20
182.20126011
 97
        1
330
402
 75
     0
 76
     2
 47
0.775229
 98
        1
 10
0.0
 20
0.0
  0
LWPOLYLINE
  5
404
102
{ACAD_REACTORS
330
405
102
}
100
AcDbEntity
  8
MST_1_1
 62
    12
100
AcDbPolyline
 90
       29
 70
     1
 43
0.0
 10
270.00494576
 20
181.99837361
 10
270.00494576
 20
181.09170695
 10
270.00494576
 20
181.09170695
 10
270.13911242
 20
181.09170695
 10
270.13911242
 20
181.09170695
 10
270.13911242
 20
181.49870695
 10
270.13911242
 20
181.49870695
 10
270.31744576
 20
181.49870695
 10
270.31744576
 20
181.49870695
 10
270.57677909
 20
181.09770695
 10
270.57677909
 20
181.09770695
 10
270.71294576
 20
181.09770695
 10
270.71294576
 20
181.09770695
 10
270.45411242
 20
181.50604028
 10
270.45411242
 20
181.50604028
 10
270.54269942
 20
181.52446195
 10
270.61236842
 20
181.56461361
 10
270.66283142
 20
181.62092528
 10
270.69380042
 20
181.68782695
 10
270.70498742
 20
181.75974861
 10
270.69610442
 20
181.83112028
 10
270.66686342
 20
181.89637195
 10
270.61697642
 20
181.94993361
 10
270.54615542
 20
181.98623528
 10
270.45411242
 20
181.99970695
 10
270.45411242
 20
181.99970695
 10
270.00494576
 20
181.99837361
 10
270.00494576
 20
181.99837361
 10
270.00494576
 20
181.99837361
  0
HATCH
  5
405
100
AcDbEntity
  8
MST_1_1
 62
    12
100
AcDbHatch
 10
0.0
 20
0.0
 30
0.0
210
0.0
220
0.0
230
1.0
  2
SOLID
 70
     1
 71
     1
 91
        1
 92
        7
 72
     0
 73
     1
 93
       18
 10
270.00494576
 20
181.99837361
 10
270.00494576
 20
181.09170695
 10
270.13911242
 20
181.09170695
 10
270.13911242
 20
181.49870695
 10
270.31744576
 20
181.49870695
 10
270.57677909
 20
181.09770695
 10
270.71294576
 20
181.09770695
 10
270.45411242
 20
181.50604028
 10
270.54269942
 20
181.52446195
 10
270.61236842
 20
181.56461361
 10
270.66283142
 20
181.62092528
 10
270.69380042
 20
181.68782695
 10
270.70498742
 20
181.75974861
 10
270.69610442
 20
181.83112028
 10
270.66686342
 20
181.89637195
 10
270.61697642
 20
181.94993361
 10
270.54615542
 20
181.98623528
 10
270.45411242
 20
181.99970695
 97
        1
330
404
 75
     0
 76
     2
 47
0.775229
 98
        1
 10
0.0
 20
0.0
  0
LWPOLYLINE
  5
406
102
{ACAD_REACTORS
330
407
102
}
100
AcDbEntity
  8
MST_1_1
 62
     7
100
AcDbPolyline
 90
       19
 70
     1
 43
0.0
 10
270.13911242
 20
181.89520695
 10
270.13911242
 20
181.60454028
 10
270.13911242
 20
181.60454028
 10
270.44044576
 20
181.60537361
 10
270.44044576
 20
181.60537361
 10
270.49342426
 20
181.61722395
 10
270.53489376
 20
181.64159628
 10
270.56475526
 20
181.67522261
 10
270.58290976
 20
181.71483495
 10
270.58925826
 20
181.75716528
 10
270.58370176
 20
181.79894561
 10
270.56614126
 20
181.83690795
 10
270.53647776
 20
181.86778428
 10
270.49461226
 20
181.88830661
 10
270.44044576
 20
181.89520695
 10
270.44044576
 20
181.89520695
 10
270.13911242
 20
181.89520695
 10
270.13911242
 20
181.89520695
 10
270.13911242
 20
181.89520695
  0
HATCH
  5
407
100
AcDbEntity
  8
MST_1_1
 62
     7
100
AcDbHatch
 10
0.0
 20
0.0
 30
0.0
210
0.0
220
0.0
230
1.0
  2
SOLID
 70
     1
 71
     1
 91
        1
 92
        7
 72
     0
 73
     1
 93
       13
 10
270.13911242
 20
181.89520695
 10
270.13911242
 20
181.60454028
 10
270.44044576
 20
181.60537361
 10
270.49342426
 20
181.61722395
 10
270.53489376
 20
181.64159628
 10
270.56475526
 20
181.67522261
 10
270.58290976
 20
181.71483495
 10
270.58925826
 20
181.75716528
 10
270.58370176
 20
181.79894561
 10
270.56614126
 20
181.83690795
 10
270.53647776
 20
181.86778428
 10
270.49461226
 20
181.88830661
 10
270.44044576
 20
181.89520695
 97
        1
330
406
 75
     0
 76
     2
 47
0.775229
 98
        1
 10
0.0
 20
0.0
  0
TEXT
  5
408
100
AcDbEntity
  8
MST_1_1
 62
     7
100
AcDbText
 10
42.93749597
 20
28.54545025
 30
0.0
 40
5.0
  1
40
  7
ARIAL
 50
89.9999975
 41
0.8
 51
0.0
100
AcDbText
  0
TEXT
  5
409
100
AcDbEntity
  8
MST_1_1
 62
     7
100
AcDbText
 10
37.93749597
 20
18.54545025
 30
0.0
 40
5.0
  1
35
  7
ARIAL
 50
89.9999975
 41
0.8
 51
0.0
100
AcDbText
  0
TEXT
  5
40A
100
AcDbEntity
  8
MST_1_1
 62
     7
100
AcDbText
 10
32.93749597
 20
28.54545025
 30
0.0
 40
5.0
  1
30
  7
ARIAL
 50
89.9999975
 41
0.8
 51
0.0
100
AcDbText
  0
TEXT
  5
40B
100
AcDbEntity
  8
MST_1_1
 62
     7
100
AcDbText
 10
22.93749597
 20
28.54545025
 30
0.0
 40
5.0
  1
20
  7
ARIAL
 50
89.9999975
 41
0.8
 51
0.0
100
AcDbText
  0
TEXT
  5
40C
100
AcDbEntity
  8
MST_1_1
 62
     7
100
AcDbText
 10
27.93749597
 20
18.54545025
 30
0.0
 40
5.0
  1
25
  7
ARIAL
 50
89.9999975
 41
0.8
 51
0.0
100
AcDbText
  0
TEXT
  5
40D
100
AcDbEntity
  8
MST_1_1
 62
     7
100
AcDbText
 10
18.93749597
 20
18.54545025
 30
0.0
 40
5.0
  1
16
  7
ARIAL
 50
89.9999975
 41
0.8
 51
0.0
100
AcDbText
  0
TEXT
  5
40E
100
AcDbEntity
  8
MST_1_1
 62
     7
100
AcDbText
 10
14.93749597
 20
28.54545025
 30
0.0
 40
5.0
  1
12
  7
ARIAL
 50
89.9999975
 41
0.8
 51
0.0
100
AcDbText
  0
TEXT
  5
40F
100
AcDbEntity
  8
MST_1_1
 62
     7
100
AcDbText
 10
-74.34408066
 20
-83.95454975
 30
0.0
 40
5.0
  1
HECO-FIX-plus SK 3.0x25
  7
ARIAL
 50
0.0
 41
0.8
 51
0.0
100
AcDbText
  0
TEXT
  5
410
100
AcDbEntity
  8
MST_1_1
 62
     7
100
AcDbText
 10
47.93749597
 20
18.54545025
 30
0.0
 40
5.0
  1
45
  7
ARIAL
 50
89.9999975
 41
0.8
 51
0.0
100
AcDbText
  0
TEXT
  5
411
100
AcDbEntity
  8
MST_1_1
 62
     7
100
AcDbText
 10
-74.34408066
 20
-113.95454975
 30
0.0
 40
5.0
  1
HECO-FIX-plus SK 3.0x30
  7
ARIAL
 50
0.0
 41
0.8
 51
0.0
100
AcDbText
  0
TEXT
  5
412
100
AcDbEntity
  8
MST_1_1
 62
     7
100
AcDbText
 10
-74.34408066
 20
-143.95454975
 30
0.0
 40
5.0
  1
HECO-FIX-plus SK 3.0x35
  7
ARIAL
 50
0.0
 41
0.8
 51
0.0
100
AcDbText
  0
TEXT
  5
413
100
AcDbEntity
  8
MST_1_1
 62
     7
100
AcDbText
 10
-74.34408066
 20
-173.95454975
 30
0.0
 40
5.0
  1
HECO-FIX-plus SK 3.0x40
  7
ARIAL
 50
0.0
 41
0.8
 51
0.0
100
AcDbText
  0
TEXT
  5
414
100
AcDbEntity
  8
MST_1_1
 62
     7
100
AcDbText
 10
-74.34408066
 20
-203.95454975
 30
0.0
 40
5.0
  1
HECO-FIX-plus SK 3.0x45
  7
ARIAL
 50
0.0
 41
0.8
 51
0.0
100
AcDbText
  0
TEXT
  5
415
100
AcDbEntity
  8
MST_1_1
 62
     7
100
AcDbText
 10
-74.34408066
 20
-53.95454975
 30
0.0
 40
5.0
  1
HECO-FIX-plus SK 3.0x20
  7
ARIAL
 50
0.0
 41
0.8
 51
0.0
100
AcDbText
  0
TEXT
  5
416
100
AcDbEntity
  8
MST_1_1
 62
     7
100
AcDbText
 10
-74.34408066
 20
-23.95454975
 30
0.0
 40
5.0
  1
HECO-FIX-plus SK 3.0x16
  7
ARIAL
 50
0.0
 41
0.8
 51
0.0
100
AcDbText
  0
TEXT
  5
417
100
AcDbEntity
  8
MST_1_1
 62
     7
100
AcDbText
 10
-74.34408066
 20
6.04545025
 30
0.0
 40
5.0
  1
HECO-FIX-plus SK 3.0x12
  7
ARIAL
 50
0.0
 41
0.8
 51
0.0
100
AcDbText
  0
TEXT
  5
418
100
AcDbEntity
  8
MST_1_1
 62
     7
100
AcDbText
 10
-129.53414795
 20
6.04545025
 30
0.0
 40
5.0
  1
T-Drive T10
  7
ARIAL
 50
0.0
 41
0.8
 51
0.0
100
AcDbText
  0
TEXT
  5
419
100
AcDbEntity
  8
MST_1_1
 62
     7
100
AcDbText
 10
-129.53414795
 20
-23.95454975
 30
0.0
 40
5.0
  1
T-Drive T10
  7
ARIAL
 50
0.0
 41
0.8
 51
0.0
100
AcDbText
  0
TEXT
  5
41A
100
AcDbEntity
  8
MST_1_1
 62
     7
100
AcDbText
 10
-129.53414795
 20
-53.95454975
 30
0.0
 40
5.0
  1
T-Drive T10
  7
ARIAL
 50
0.0
 41
0.8
 51
0.0
100
AcDbText
  0
TEXT
  5
41B
100
AcDbEntity
  8
MST_1_1
 62
     7
100
AcDbText
 10
-129.53414795
 20
-83.95454975
 30
0.0
 40
5.0
  1
T-Drive T10
  7
ARIAL
 50
0.0
 41
0.8
 51
0.0
100
AcDbText
  0
TEXT
  5
41C
100
AcDbEntity
  8
MST_1_1
 62
     7
100
AcDbText
 10
-129.53414795
 20
-113.95454975
 30
0.0
 40
5.0
  1
T-Drive T10
  7
ARIAL
 50
0.0
 41
0.8
 51
0.0
100
AcDbText
  0
TEXT
  5
41D
100
AcDbEntity
  8
MST_1_1
 62
     7
100
AcDbText
 10
-129.53414795
 20
-143.95454975
 30
0.0
 40
5.0
  1
T-Drive T10
  7
ARIAL
 50
0.0
 41
0.8
 51
0.0
100
AcDbText
  0
TEXT
  5
41E
100
AcDbEntity
  8
MST_1_1
 62
     7
100
AcDbText
 10
-129.53414795
 20
-173.95454975
 30
0.0
 40
5.0
  1
T-Drive T10
  7
ARIAL
 50
0.0
 41
0.8
 51
0.0
100
AcDbText
  0
TEXT
  5
41F
100
AcDbEntity
  8
MST_1_1
 62
     7
100
AcDbText
 10
-129.53414795
 20
-203.95454975
 30
0.0
 40
5.0
  1
T-Drive T10
  7
ARIAL
 50
0.0
 41
0.8
 51
0.0
100
AcDbText
  0
ENDSEC
  0
SECTION
  2
OBJECTS
  0
DICTIONARY
  5
1
100
AcDbDictionary
  3
ACAD_GROUP
350
2
  3
ACAD_MLINESTYLE
350
3
  0
DICTIONARY
  5
2
102
{CDWK_REACTORS
330
1
102
}
100
AcDbDictionary
  0
DICTIONARY
  5
3
102
{CDWK_REACTORS
330
1
102
}
100
AcDbDictionary
  3
STANDARD
350
4
  0
MLINESTYLE
  5
4
102
{CDWK_REACTORS
330
3
102
}
100
AcDbMlineStyle
  2
STANDARD
 70
     0
  3

 62
     0
 51
90.0
 52
90.0
 71
     2
 49
0.5
 62
   256
  6
BYLAYER
 49
-0.5
 62
   256
  6
BYLAYER
  0
ENDSEC
  0
EOF
