  0
SECTION
  2
HEADER
  9
$ACADVER
  1
AC1012
  9
$DWGCODEPAGE
  3
ANSI_1252
  9
$INSBASE
 10
0.0
 20
0.0
 30
0.0
  9
$EXTMIN
 10
-139.00628524
 20
-160.17668001
  9
$EXTMAX
 10
369.56297781
 20
209.52127136
  9
$LIMMIN
 10
-139.00628524
 20
-160.17668001
  9
$LIMMAX
 10
369.56297781
 20
209.52127136
  9
$ORTHOMODE
 70
     0
  9
$REGENMODE
 70
     1
  9
$FILLMODE
 70
     1
  9
$QTEXTMODE
 70
     0
  9
$MIRRTEXT
 70
     1
  9
$DRAGMODE
 70
     2
  9
$LTSCALE
 40
1.0
  9
$OSMODE
 70
     0
  9
$ATTMODE
 70
     1
  9
$TEXTSIZE
 40
3.5
  9
$TRACEWID
 40
1.0
  9
$TEXTSTYLE
  7
STANDARD
  9
$CLAYER
  8
0
  9
$CELTYPE
  6
BYLAYER
  9
$CECOLOR
 62
   256
  9
$DIMSCALE
 40
1.0
  9
$DIMASZ
 40
2.0
  9
$DIMEXO
 40
5.0
  9
$DIMDLI
 40
10.0
  9
$DIMRND
 40
0.0
  9
$DIMDLE
 40
2.0
  9
$DIMEXE
 40
2.0
  9
$DIMTP
 40
0.0
  9
$DIMTM
 40
0.0
  9
$DIMTXT
 40
2.5
  9
$DIMCEN
 40
1.5
  9
$DIMTSZ
 40
0.0
  9
$DIMTOL
 70
     0
  9
$DIMLIM
 70
     0
  9
$DIMTIH
 70
     1
  9
$DIMTOH
 70
     0
  9
$DIMSE1
 70
     0
  9
$DIMSE2
 70
     0
  9
$DIMTAD
 70
     1
  9
$DIMZIN
 70
     8
  9
$DIMBLK
  1

  9
$DIMASO
 70
     1
  9
$DIMSHO
 70
     1
  9
$DIMPOST
  1

  9
$DIMAPOST
  1

  9
$DIMALT
 70
     0
  9
$DIMALTD
 70
     2
  9
$DIMALTF
 40
25.4
  9
$DIMLFAC
 40
1.0
  9
$DIMTOFL
 70
     0
  9
$DIMTVP
 40
0.0
  9
$DIMTIX
 70
     0
  9
$DIMSOXD
 70
     0
  9
$DIMSAH
 70
     0
  9
$DIMBLK1
  1

  9
$DIMBLK2
  1

  9
$DIMSTYLE
  2
*UNNAMED
  9
$DIMCLRD
 70
     9
  9
$DIMCLRE
 70
     9
  9
$DIMCLRT
 70
     7
  9
$DIMTFAC
 40
1.0
  9
$DIMGAP
 40
0.09
  9
$DIMUNIT
 70
     2
  9
$LUNITS
 70
     2
  9
$LUPREC
 70
     6
  9
$AXISMODE
 70
     0
  9
$AXISUNIT
 10
0.0
 20
0.0
  9
$SKETCHINC
 40
0.1
  9
$FILLETRAD
 40
0.0
  9
$AUNITS
 70
     0
  9
$AUPREC
 70
     0
  9
$MENU
  1
ACAD
  9
$ELEVATION
 40
0.0
  9
$PELEVATION
 40
0.0
  9
$THICKNESS
 40
0.0
  9
$LIMCHECK
 70
     0
  9
$BLIPMODE
 70
     1
  9
$CHAMFERA
 40
0.0
  9
$CHAMFERB
 40
0.0
  9
$SKPOLY
 70
     1
  9
$TDCREATE
 40
2456119.0000000000
  9
$TDUPDATE
 40
2456119.0000000000
  9
$TDINDWG
 40
0.0
  9
$TDUSRTIMER
 40
0.0
  9
$USRTIMER
 70
     1
  9
$ANGBASE
 50
0.0
  9
$ANGDIR
 70
     0
  9
$PDMODE
 70
     0
  9
$PDSIZE
 40
0.0
  9
$PLINEWID
 40
0.0
  9
$COORDS
 70
     2
  9
$SPLFRAME
 70
     0
  9
$SPLINETYPE
 70
     6
  9
$SPLINESEGS
 70
     8
  9
$ATTDIA
 70
     1
  9
$ATTREQ
 70
     1
  9
$HANDLING
 70
     1
  9
$HANDSEED
  5
     289
  9
$SURFTAB1
 70
     6
  9
$SURFTAB2
 70
     6
  9
$SURFTYPE
 70
     6
  9
$SURFU
 70
     6
  9
$SURFV
 70
     6
  9
$UCSNAME
  2

  9
$UCSORG
 10
0.0
 20
0.0
 30
0.0
  9
$UCSXDIR
 10
1.0
 20
0.0
 30
0.0
  9
$UCSYDIR
 10
0.0
 20
1.0
 30
0.0
  9
$PUCSNAME
  2

  9
$PUCSORG
 10
0.0
 20
0.0
 30
0.0
  9
$PUCSXDIR
 10
1.0
 20
0.0
 30
0.0
  9
$PUCSYDIR
 10
0.0
 20
1.0
 30
0.0
  9
$USERI1
 70
     0
  9
$USERI2
 70
     0
  9
$USERI3
 70
     0
  9
$USERI4
 70
     0
  9
$USERI5
 70
     0
  9
$USERR1
 40
0.0
  9
$USERR2
 40
0.0
  9
$USERR3
 40
0.0
  9
$USERR4
 40
0.0
  9
$USERR5
 40
0.0
  9
$WORLDVIEW
 70
     1
  9
$SHADEDGE
 70
     3
  9
$SHADEDIF
 70
    70
  9
$TILEMODE
 70
     1
  9
$MAXACTVP
 70
    16
  9
$PINSBASE
 10
0.0
 20
0.0
 30
0.0
  9
$PLIMCHECK
 70
     0
  9
$PEXTMIN
 10
1.0000000000000E+20
 20
1.0000000000000E+20
 30
1.0000000000000E+20
  9
$PEXTMAX
 10
-1.0000000000000E+20
 20
-1.0000000000000E+20
 30
-1.0000000000000E+20
  9
$PLIMMIN
 10
0.0
 20
0.0
  9
$UNITMODE
 70
     0
  9
$VISRETAIN
 70
     0
  9
$MEASUREMENT
 70
     1
  0
ENDSEC
  0
SECTION
  2
TABLES
  0
TABLE
  2
VPORT
  5
28
100
AcDbSymbolTable
 70
     1
  0
ENDTAB
  0
TABLE
  2
STYLE
  5
29
100
AcDbSymbolTable
 70
     4
  0
STYLE
  5
2A
100
AcDbSymbolTableRecord
100
AcDbTextStyleTableRecord
  2
STANDARD
 70
     0
 40
0.0
 41
1.0
 50
0.0
 71
     0
 42
3.5
  3
MONOTXT
  4

  0
STYLE
  5
2B
100
AcDbSymbolTableRecord
100
AcDbTextStyleTableRecord
  2
CADWORK1
 70
     0
 40
0.0
 41
1.0
 50
0.0
 71
     0
 42
3.5
  3
MONOTXT
  4

  0
STYLE
  5
2C
100
AcDbSymbolTableRecord
100
AcDbTextStyleTableRecord
  2
MONOTXT
 70
     0
 40
0.0
 41
1.0
 50
0.0
 71
     0
 42
3.5
  3
MONOTXT
  4

  0
STYLE
  5
2D
100
AcDbSymbolTableRecord
100
AcDbTextStyleTableRecord
  2
TAHOMA
 70
     0
 40
0.0
 41
1.0
 50
0.0
 71
     0
 42
3.5
  3

  4

1001
ACAD
1000
Tahoma
1071
        0
  0
STYLE
  5
2E
100
AcDbSymbolTableRecord
100
AcDbTextStyleTableRecord
  2
ARIAL
 70
     0
 40
0.0
 41
1.0
 50
0.0
 71
     0
 42
3.5
  3

  4

1001
ACAD
1000
Arial
1071
        0
  0
ENDTAB
  0
TABLE
  2
LTYPE
  5
2F
100
AcDbSymbolTable
 70
    12
  0
LTYPE
  5
30
100
AcDbSymbolTableRecord
100
AcDbLinetypeTableRecord
  2
BYBLOCK
 70
    64
  3

 72
    65
 73
     0
 40
0.0
  0
LTYPE
  5
31
100
AcDbSymbolTableRecord
100
AcDbLinetypeTableRecord
  2
BYLAYER
 70
    64
  3

 72
    65
 73
     0
 40
0.0
  0
LTYPE
  5
32
100
AcDbSymbolTableRecord
100
AcDbLinetypeTableRecord
  2
CONTINUOUS
 70
    64
  3
Solid line
 72
    65
 73
     0
 40
0.0
  0
LTYPE
  5
33
100
AcDbSymbolTableRecord
100
AcDbLinetypeTableRecord
  2
DOT
 70
    64
  3
. . . . . . . . . . . . . . . . . . . . . . . .
 72
    65
 73
     2
 40
2.5
 49
0.0
 74
     0
 49
-2.5
 74
     0
  0
LTYPE
  5
34
100
AcDbSymbolTableRecord
100
AcDbLinetypeTableRecord
  2
DASHED
 70
    64
  3
__ __ __ __ __ __ __ __ __ __ __ __ __ __ __ __
 72
    65
 73
     2
 40
7.5
 49
5.0
 74
     0
 49
-2.5
 74
     0
  0
LTYPE
  5
35
100
AcDbSymbolTableRecord
100
AcDbLinetypeTableRecord
  2
BORDER
 70
    64
  3
 __ __ . __ __ . __ __ . __ __ . __ __ . __ __ .
 72
    65
 73
     6
 40
17.0
 49
5.0
 74
     0
 49
-2.0
 74
     0
 49
5.0
 74
     0
 49
-2.0
 74
     0
 49
1.0
 74
     0
 49
-2.0
 74
     0
  0
LTYPE
  5
36
100
AcDbSymbolTableRecord
100
AcDbLinetypeTableRecord
  2
DAL
 70
    64
  3
Solid line (for MAPS)
 72
    65
 73
     0
 40
0.0
  0
LTYPE
  5
37
100
AcDbSymbolTableRecord
100
AcDbLinetypeTableRecord
  2
MUR
 70
    64
  3
Solid line (for MAPS)
 72
    65
 73
     0
 40
0.0
  0
LTYPE
  5
38
100
AcDbSymbolTableRecord
100
AcDbLinetypeTableRecord
  2
SOM
 70
    64
  3
Solid line (for MAPS)
 72
    65
 73
     0
 40
0.0
  0
LTYPE
  5
39
100
AcDbSymbolTableRecord
100
AcDbLinetypeTableRecord
  2
COL
 70
    64
  3
Solid line (for MAPS)
 72
    65
 73
     0
 40
0.0
  0
LTYPE
  5
3A
100
AcDbSymbolTableRecord
100
AcDbLinetypeTableRecord
  2
LGN
 70
    64
  3
Solid line (for MAPS)
 72
    65
 73
     0
 40
0.0
  0
LTYPE
  5
3B
100
AcDbSymbolTableRecord
100
AcDbLinetypeTableRecord
  2
PNT
 70
    64
  3
Solid line (for MAPS)
 72
    65
 73
     0
 40
0.0
  0
ENDTAB
  0
TABLE
  2
LAYER
  5
3C
100
AcDbSymbolTable
 70
     1
  0
LAYER
  5
3D
100
AcDbSymbolTableRecord
100
AcDbLayerTableRecord
  2
0
 70
     0
 62
     1
  6
CONTINUOUS
  0
LAYER
  5
3E
100
AcDbSymbolTableRecord
100
AcDbLayerTableRecord
  2
MST_1_1
 70
     0
 62
     7
  6
CONTINUOUS
  0
ENDTAB
  0
TABLE
  2
VIEW
  5
3F
100
AcDbSymbolTable
 70
     0
  0
ENDTAB
  0
TABLE
  2
UCS
  5
40
100
AcDbSymbolTable
 70
     0
  0
ENDTAB
  0
TABLE
  2
APPID
  5
41
100
AcDbSymbolTable
 70
     1
  0
APPID
  5
42
100
AcDbSymbolTableRecord
100
AcDbRegAppTableRecord
  2
ACAD
 70
     0
  0
ENDTAB
  0
TABLE
  2
DIMSTYLE
  5
43
100
AcDbSymbolTable
 70
     0
  0
ENDTAB
  0
TABLE
  2
BLOCK_RECORD
  5
44
100
AcDbSymbolTable
 70
     0
  0
BLOCK_RECORD
  5
45
100
AcDbSymbolTableRecord
100
AcDbBlockTableRecord
  2
*MODEL_SPACE
  0
BLOCK_RECORD
  5
46
100
AcDbSymbolTableRecord
100
AcDbBlockTableRecord
  2
*PAPER_SPACE
  0
BLOCK_RECORD
  5
47
100
AcDbSymbolTableRecord
100
AcDbBlockTableRecord
  2
CDWK_EXTR_0
  0
BLOCK_RECORD
  5
48
100
AcDbSymbolTableRecord
100
AcDbBlockTableRecord
  2
CDWK_EXTR_1D
  0
BLOCK_RECORD
  5
49
100
AcDbSymbolTableRecord
100
AcDbBlockTableRecord
  2
CDWK_EXTR_1G
  0
BLOCK_RECORD
  5
4A
100
AcDbSymbolTableRecord
100
AcDbBlockTableRecord
  2
CDWK_EXTR_2
  0
BLOCK_RECORD
  5
4B
100
AcDbSymbolTableRecord
100
AcDbBlockTableRecord
  2
CDWK_EXTR_3
  0
BLOCK_RECORD
  5
4C
100
AcDbSymbolTableRecord
100
AcDbBlockTableRecord
  2
CDWK_EXTR_4
  0
BLOCK_RECORD
  5
4D
100
AcDbSymbolTableRecord
100
AcDbBlockTableRecord
  2
CDWK_PTTYP0
  0
ENDTAB
  0
ENDSEC
  0
SECTION
  2
BLOCKS
  0
BLOCK
  5
4E
100
AcDbEntity
  8
0
100
AcDbBlockBegin
  2
*MODEL_SPACE
 70
     0
 10
0.0
 20
0.0
 30
0.0
  3
*MODEL_SPACE
  1

  0
ENDBLK
  5
4F
100
AcDbEntity
100
AcDbBlockEnd
  0
BLOCK
  5
50
100
AcDbEntity
  8
0
100
AcDbBlockBegin
  2
*PAPER_SPACE
 70
     0
 10
0.0
 20
0.0
 30
0.0
  3
*PAPER_SPACE
  1

  0
ENDBLK
  5
51
100
AcDbEntity
100
AcDbBlockEnd
  0
BLOCK
  5
52
100
AcDbEntity
  8
0
100
AcDbBlockBegin
  2
CDWK_EXTR_0
 70
     0
 10
0.0
 20
0.0
 30
0.0
  3
CDWK_EXTR_0
  1

  4
Cadwork line-extremity
  0
LINE
  5
53
100
AcDbEntity
  8
0
 62
     0
100
AcDbLine
 10
0.0
 20
0.0
 30
0.0
 11
2.0
 21
0.5
 31
0.0
  0
LINE
  5
54
100
AcDbEntity
  8
0
 62
     0
100
AcDbLine
 10
0.0
 20
0.0
 30
0.0
 11
2.0
 21
-0.5
 31
0.0
  0
LINE
  5
55
100
AcDbEntity
  8
0
 62
     0
100
AcDbLine
 10
2.0
 20
0.5
 30
0.0
 11
2.0
 21
-0.5
 31
0.0
  0
ENDBLK
  5
56
100
AcDbEntity
100
AcDbBlockEnd
  0
BLOCK
  5
57
100
AcDbEntity
  8
0
100
AcDbBlockBegin
  2
CDWK_EXTR_1D
 70
     0
 10
0.0
 20
0.0
 30
0.0
  3
CDWK_EXTR_1D
  1

  4
Cadwork line-extremity
  0
LINE
  5
58
100
AcDbEntity
  8
0
 62
     0
100
AcDbLine
 10
0.0
 20
0.0
 30
0.0
 11
0.0
 21
1.0
 31
0.0
  0
LINE
  5
59
100
AcDbEntity
  8
0
 62
     0
100
AcDbLine
 10
0.0
 20
1.0
 30
0.0
 11
0.5
 21
1.5
 31
0.0
  0
LINE
  5
5A
100
AcDbEntity
  8
0
 62
     0
100
AcDbLine
 10
0.5
 20
1.5
 30
0.0
 11
1.5
 21
1.5
 31
0.0
  0
ENDBLK
  5
5B
100
AcDbEntity
100
AcDbBlockEnd
  0
BLOCK
  5
5C
100
AcDbEntity
  8
0
100
AcDbBlockBegin
  2
CDWK_EXTR_1G
 70
     0
 10
0.0
 20
0.0
 30
0.0
  3
CDWK_EXTR_1G
  1

  4
Cadwork line-extremity
  0
LINE
  5
5D
100
AcDbEntity
  8
0
 62
     0
100
AcDbLine
 10
0.0
 20
0.0
 30
0.0
 11
0.0
 21
-1.0
 31
0.0
  0
LINE
  5
5E
100
AcDbEntity
  8
0
 62
     0
100
AcDbLine
 10
0.0
 20
-1.0
 30
0.0
 11
0.5
 21
-1.5
 31
0.0
  0
LINE
  5
5F
100
AcDbEntity
  8
0
 62
     0
100
AcDbLine
 10
0.5
 20
-1.5
 30
0.0
 11
1.5
 21
-1.5
 31
0.0
  0
ENDBLK
  5
60
100
AcDbEntity
100
AcDbBlockEnd
  0
BLOCK
  5
61
100
AcDbEntity
  8
0
100
AcDbBlockBegin
  2
CDWK_EXTR_2
 70
     0
 10
0.0
 20
0.0
 30
0.0
  3
CDWK_EXTR_2
  1

  4
Cadwork line-extremity
  0
SOLID
  5
62
100
AcDbEntity
  8
0
 62
     0
100
AcDbTrace
 10
0.0
 20
0.0
 11
2.0
 21
0.5
 12
2.0
 22
-0.5
 13
2.0
 23
-0.5
  0
ENDBLK
  5
63
100
AcDbEntity
100
AcDbBlockEnd
  0
BLOCK
  5
64
100
AcDbEntity
  8
0
100
AcDbBlockBegin
  2
CDWK_EXTR_3
 70
     0
 10
0.0
 20
0.0
 30
0.0
  3
CDWK_EXTR_3
  1

  4
Cadwork line-extremity
  0
SOLID
  5
65
100
AcDbEntity
  8
0
 62
     0
100
AcDbTrace
 10
0.0
 20
0.0
 11
2.0
 21
0.5
 12
2.0
 22
-0.5
 13
2.0
 23
-0.5
  0
LINE
  5
66
100
AcDbEntity
  8
0
 62
     0
100
AcDbLine
 10
0.0
 20
1.0
 30
0.0
 11
0.0
 21
-1.0
 31
0.0
  0
ENDBLK
  5
67
100
AcDbEntity
100
AcDbBlockEnd
  0
BLOCK
  5
68
100
AcDbEntity
  8
0
100
AcDbBlockBegin
  2
CDWK_EXTR_4
 70
     0
 10
0.0
 20
0.0
 30
0.0
  3
CDWK_EXTR_4
  1

  4
Cadwork line-extremity
  0
POLYLINE
  5
69
100
AcDbEntity
  8
0
 62
     0
100
AcDb2dPolyline
 70
     1
 66
     1
 10
0.0
 20
0.0
 30
0.0
 40
0.5
 41
0.5
  0
VERTEX
  5
6A
100
AcDbEntity
  8
0
100
AcDbVertex
100
AcDb2dVertex
 10
-0.25
 20
0.0
 30
0.0
 42
1.0
  0
VERTEX
  5
6B
100
AcDbEntity
  8
0
100
AcDbVertex
100
AcDb2dVertex
 10
0.25
 20
0.0
 30
0.0
 42
1.0
  0
SEQEND
  5
6C
100
AcDbEntity
  0
ENDBLK
  5
6D
100
AcDbEntity
100
AcDbBlockEnd
  0
BLOCK
  5
6E
100
AcDbEntity
  8
0
100
AcDbBlockBegin
  2
CDWK_PTTYP0
 70
     0
 10
0.0
 20
0.0
 30
0.0
  3
CDWK_PTTYP0
  1

  4
Cadwork point
  0
POINT
  5
6F
100
AcDbEntity
  8
0
 62
     0
100
AcDbPoint
 10
0.0
 20
0.0
 30
0.0
  0
ENDBLK
  5
70
100
AcDbEntity
100
AcDbBlockEnd
  0
ENDSEC
  0
SECTION
  2
ENTITIES
  0
LINE
  5
71
100
AcDbEntity
  8
MST_1_1
 62
     7
  6
DASHED
100
AcDbLine
 10
-2.06250403
 20
28.54545025
 30
0.0
 11
-2.06250403
 21
-126.45454975
 31
0.0
  0
LINE
  5
72
100
AcDbEntity
  8
MST_1_1
 62
     7
  6
DASHED
100
AcDbLine
 10
27.93749597
 20
28.54545025
 30
0.0
 11
27.93749597
 21
-126.45454975
 31
0.0
  0
LWPOLYLINE
  5
73
100
AcDbEntity
  8
MST_1_1
 62
     1
  6
BORDER
100
AcDbPolyline
 90
        3
 70
     0
 43
0.0
 10
22.93749597
 20
-81.45454975
 10
-2.06250403
 20
-81.45454975
 10
-7.06250403
 20
-81.45454975
  0
LINE
  5
74
100
AcDbEntity
  8
MST_1_1
 62
   137
  6
CONTINUOUS
100
AcDbLine
 10
-2.06250403
 20
-81.45454975
 30
0.0
 11
-2.06250403
 21
-78.50454975
 31
0.0
  0
LINE
  5
75
100
AcDbEntity
  8
MST_1_1
 62
   137
  6
CONTINUOUS
100
AcDbLine
 10
-2.06250403
 20
-78.50454975
 30
0.0
 11
-1.98750405
 21
-78.50454975
 31
0.0
  0
LWPOLYLINE
  5
76
100
AcDbEntity
  8
MST_1_1
 62
   137
  6
CONTINUOUS
100
AcDbPolyline
 90
        6
 70
     0
 43
0.0
 38
2500.0
 10
1.29901688
 20
-79.95454964
 10
1.1660674
 20
-80.52883546
 10
2.29011439
 20
-82.95454975
 10
2.42306393
 20
-82.38026403
 10
1.29901688
 20
-79.95454964
 10
2.29011439
 20
-82.95454975
  0
LINE
  5
77
100
AcDbEntity
  8
MST_1_1
 62
   137
  6
CONTINUOUS
100
AcDbLine
 10
-0.16250403
 20
-80.52883546
 30
2500.0
 11
1.1660674
 21
-80.52883546
 31
2500.0
  0
LWPOLYLINE
  5
78
100
AcDbEntity
  8
MST_1_1
 62
   137
  6
CONTINUOUS
100
AcDbPolyline
 90
        4
 70
     0
 43
0.0
 38
2500.0
 10
0.30971155
 20
-82.38026403
 10
0.57582868
 20
-82.95454975
 10
0.70877821
 20
-82.38026403
 10
0.50936348
 20
-81.94992335
  0
LINE
  5
79
100
AcDbEntity
  8
MST_1_1
 62
   137
  6
CONTINUOUS
100
AcDbLine
 10
0.35433118
 20
-82.28408844
 30
2500.0
 11
0.57582868
 21
-82.95454975
 31
2500.0
  0
LINE
  5
7A
100
AcDbEntity
  8
MST_1_1
 62
   137
  6
CONTINUOUS
100
AcDbLine
 10
0.30971155
 20
-82.38026403
 30
2500.0
 11
0.50936348
 21
-81.94992335
 31
2500.0
  0
LINE
  5
7B
100
AcDbEntity
  8
MST_1_1
 62
   137
  6
CONTINUOUS
100
AcDbLine
 10
2.02399726
 20
-82.38026403
 30
2500.0
 11
0.70877821
 21
-82.38026403
 31
2500.0
  0
LINE
  5
7C
100
AcDbEntity
  8
MST_1_1
 62
   137
  6
CONTINUOUS
100
AcDbLine
 10
0.30971155
 20
-82.38026403
 30
2500.0
 11
-0.16250403
 21
-82.38026403
 31
2500.0
  0
LINE
  5
7D
100
AcDbEntity
  8
MST_1_1
 62
     7
  6
DASHED
100
AcDbLine
 10
22.93749597
 20
18.54545025
 30
0.0
 11
22.93749597
 21
-96.45454975
 31
0.0
  0
LINE
  5
7E
100
AcDbEntity
  8
MST_1_1
 62
     7
  6
DASHED
100
AcDbLine
 10
17.93749597
 20
28.54545025
 30
0.0
 11
17.93749597
 21
-66.45454975
 31
0.0
  0
LINE
  5
7F
100
AcDbEntity
  8
MST_1_1
 62
     7
  6
DASHED
100
AcDbLine
 10
13.93749597
 20
18.54545025
 30
0.0
 11
13.93749597
 21
-36.45454975
 31
0.0
  0
LINE
  5
80
100
AcDbEntity
  8
MST_1_1
 62
     7
  6
DASHED
100
AcDbLine
 10
9.93749597
 20
28.54545025
 30
0.0
 11
9.93749597
 21
-6.45454975
 31
0.0
  0
LINE
  5
81
100
AcDbEntity
  8
MST_1_1
 62
   137
  6
CONTINUOUS
100
AcDbLine
 10
-1.98750405
 20
-78.50454975
 30
0.0
 11
-0.16250403
 21
-80.52883546
 31
0.0
  0
LINE
  5
82
100
AcDbEntity
  8
MST_1_1
 62
   137
  6
CONTINUOUS
100
AcDbLine
 10
-0.16250403
 20
-82.38026403
 30
0.0
 11
-1.98750405
 21
-84.40454975
 31
0.0
  0
LINE
  5
83
100
AcDbEntity
  8
MST_1_1
 62
   137
  6
CONTINUOUS
100
AcDbLine
 10
-1.98750405
 20
-84.40454975
 30
0.0
 11
-2.06250403
 21
-84.40454975
 31
0.0
  0
LINE
  5
84
100
AcDbEntity
  8
MST_1_1
 62
   137
  6
CONTINUOUS
100
AcDbLine
 10
-2.06250403
 20
-84.40454975
 30
0.0
 11
-2.06250403
 21
-81.45454975
 31
0.0
  0
LWPOLYLINE
  5
85
100
AcDbEntity
  8
MST_1_1
 62
   137
  6
CONTINUOUS
100
AcDbPolyline
 90
        6
 70
     0
 43
0.0
 38
2500.0
 10
3.0133026
 20
-79.95454964
 10
2.88035311
 20
-80.52883546
 10
4.00440011
 20
-82.95454975
 10
4.13734964
 20
-82.38026403
 10
3.0133026
 20
-79.95454964
 10
4.00440011
 20
-82.95454975
  0
LWPOLYLINE
  5
86
100
AcDbEntity
  8
MST_1_1
 62
   137
  6
CONTINUOUS
100
AcDbPolyline
 90
        6
 70
     0
 43
0.0
 38
2500.0
 10
4.72758831
 20
-79.95454964
 10
4.59463883
 20
-80.52883546
 10
5.71868582
 20
-82.95454975
 10
5.85163535
 20
-82.38026403
 10
4.72758831
 20
-79.95454964
 10
5.71868582
 20
-82.95454975
  0
LWPOLYLINE
  5
87
100
AcDbEntity
  8
MST_1_1
 62
   137
  6
CONTINUOUS
100
AcDbPolyline
 90
        6
 70
     0
 43
0.0
 38
2500.0
 10
6.44187402
 20
-79.95454964
 10
6.30892454
 20
-80.52883546
 10
7.43297154
 20
-82.95454975
 10
7.56592107
 20
-82.38026403
 10
6.44187402
 20
-79.95454964
 10
7.43297154
 20
-82.95454975
  0
LWPOLYLINE
  5
88
100
AcDbEntity
  8
MST_1_1
 62
   137
  6
CONTINUOUS
100
AcDbPolyline
 90
        6
 70
     0
 43
0.0
 38
2500.0
 10
8.15615974
 20
-79.95454964
 10
8.02321025
 20
-80.52883546
 10
9.14725725
 20
-82.95454975
 10
9.28020678
 20
-82.38026403
 10
8.15615974
 20
-79.95454964
 10
9.14725725
 20
-82.95454975
  0
LWPOLYLINE
  5
89
100
AcDbEntity
  8
MST_1_1
 62
   137
  6
CONTINUOUS
100
AcDbPolyline
 90
        6
 70
     0
 43
0.0
 38
2500.0
 10
13.29901688
 20
-79.95454964
 10
13.1660674
 20
-80.52883546
 10
14.29011439
 20
-82.95454975
 10
14.42306393
 20
-82.38026403
 10
13.29901688
 20
-79.95454964
 10
14.29011439
 20
-82.95454975
  0
LWPOLYLINE
  5
8A
100
AcDbEntity
  8
MST_1_1
 62
   137
  6
CONTINUOUS
100
AcDbPolyline
 90
        6
 70
     0
 43
0.0
 38
2500.0
 10
15.0133026
 20
-79.95454964
 10
14.88035311
 20
-80.52883546
 10
16.00440011
 20
-82.95454975
 10
16.13734964
 20
-82.38026403
 10
15.0133026
 20
-79.95454964
 10
16.00440011
 20
-82.95454975
  0
LWPOLYLINE
  5
8B
100
AcDbEntity
  8
MST_1_1
 62
   137
  6
CONTINUOUS
100
AcDbPolyline
 90
        6
 70
     0
 43
0.0
 38
2500.0
 10
16.72758831
 20
-79.95454964
 10
16.59463883
 20
-80.52883546
 10
17.71868582
 20
-82.95454975
 10
17.83137886
 20
-82.33655014
 10
16.72758831
 20
-79.95454964
 10
17.71868582
 20
-82.95454975
  0
LWPOLYLINE
  5
8C
100
AcDbEntity
  8
MST_1_1
 62
   137
  6
CONTINUOUS
100
AcDbPolyline
 90
        6
 70
     0
 43
0.0
 38
2500.0
 10
18.41661362
 20
-80.14971192
 10
18.30892454
 20
-80.61488344
 10
19.23718234
 20
-82.61808101
 10
19.34487143
 20
-82.1529095
 10
18.41661362
 20
-80.14971192
 10
19.21940261
 20
-82.57971201
  0
LINE
  5
8D
100
AcDbEntity
  8
MST_1_1
 62
   137
  6
CONTINUOUS
100
AcDbLine
 10
2.42306393
 20
-82.38026403
 30
2500.0
 11
3.73828297
 21
-82.38026403
 31
2500.0
  0
LINE
  5
8E
100
AcDbEntity
  8
MST_1_1
 62
   137
  6
CONTINUOUS
100
AcDbLine
 10
4.13734964
 20
-82.38026403
 30
2500.0
 11
5.45256869
 21
-82.38026403
 31
2500.0
  0
LINE
  5
8F
100
AcDbEntity
  8
MST_1_1
 62
   137
  6
CONTINUOUS
100
AcDbLine
 10
5.85163535
 20
-82.38026403
 30
2500.0
 11
7.1668544
 21
-82.38026403
 31
2500.0
  0
LINE
  5
90
100
AcDbEntity
  8
MST_1_1
 62
   137
  6
CONTINUOUS
100
AcDbLine
 10
7.56592107
 20
-82.38026403
 30
2500.0
 11
8.88114012
 21
-82.38026403
 31
2500.0
  0
LINE
  5
91
100
AcDbEntity
  8
MST_1_1
 62
   137
  6
CONTINUOUS
100
AcDbLine
 10
12.70877821
 20
-82.38026403
 30
2500.0
 11
14.02399726
 21
-82.38026403
 31
2500.0
  0
LINE
  5
92
100
AcDbEntity
  8
MST_1_1
 62
   137
  6
CONTINUOUS
100
AcDbLine
 10
14.42306393
 20
-82.38026403
 30
2500.0
 11
15.73828297
 21
-82.38026403
 31
2500.0
  0
LINE
  5
93
100
AcDbEntity
  8
MST_1_1
 62
   137
  6
CONTINUOUS
100
AcDbLine
 10
16.13734964
 20
-82.38026403
 30
2500.0
 11
16.99546217
 21
-82.37647309
 31
2500.0
  0
LINE
  5
94
100
AcDbEntity
  8
MST_1_1
 62
   137
  6
CONTINUOUS
100
AcDbLine
 10
2.88035311
 20
-80.52883546
 30
2500.0
 11
1.56513406
 21
-80.52883546
 31
2500.0
  0
LINE
  5
95
100
AcDbEntity
  8
MST_1_1
 62
   137
  6
CONTINUOUS
100
AcDbLine
 10
4.59463883
 20
-80.52883546
 30
2500.0
 11
3.27941978
 21
-80.52883546
 31
2500.0
  0
LINE
  5
96
100
AcDbEntity
  8
MST_1_1
 62
   137
  6
CONTINUOUS
100
AcDbLine
 10
6.30892454
 20
-80.52883546
 30
2500.0
 11
4.99370549
 21
-80.52883546
 31
2500.0
  0
LINE
  5
97
100
AcDbEntity
  8
MST_1_1
 62
   137
  6
CONTINUOUS
100
AcDbLine
 10
8.02321025
 20
-80.52883546
 30
2500.0
 11
6.70799121
 21
-80.52883546
 31
2500.0
  0
LINE
  5
98
100
AcDbEntity
  8
MST_1_1
 62
   137
  6
CONTINUOUS
100
AcDbLine
 10
13.1660674
 20
-80.52883546
 30
2500.0
 11
11.85084835
 21
-80.52883546
 31
2500.0
  0
LINE
  5
99
100
AcDbEntity
  8
MST_1_1
 62
   137
  6
CONTINUOUS
100
AcDbLine
 10
14.88035311
 20
-80.52883546
 30
2500.0
 11
13.56513406
 21
-80.52883546
 31
2500.0
  0
LINE
  5
9A
100
AcDbEntity
  8
MST_1_1
 62
   137
  6
CONTINUOUS
100
AcDbLine
 10
16.59463883
 20
-80.52883546
 30
2500.0
 11
15.27941978
 21
-80.52883546
 31
2500.0
  0
ARC
  5
9B
100
AcDbEntity
  8
MST_1_1
 62
   137
  6
CONTINUOUS
100
AcDbCircle
 10
16.64209713
 20
-96.70275235
 30
2500.0
 40
16.17398651
100
AcDbArc
 50
84.08482032
 51
88.74811714
  0
LWPOLYLINE
  5
9C
100
AcDbEntity
  8
MST_1_1
 62
   137
  6
CONTINUOUS
100
AcDbPolyline
 90
        3
 70
     0
 43
0.0
 38
2500.0
 10
22.93749597
 20
-81.45454975
 10
19.75122202
 20
-80.83041219
 42
0.01723995
 10
18.65025591
 20
-80.65391631
  0
ARC
  5
9D
100
AcDbEntity
  8
MST_1_1
 62
   137
  6
CONTINUOUS
100
AcDbCircle
 10
16.64209713
 20
-66.20634715
 30
2500.0
 40
16.17398651
100
AcDbArc
 50
271.25189287
 51
272.83975061
  0
LWPOLYLINE
  5
9E
100
AcDbEntity
  8
MST_1_1
 62
   137
  6
CONTINUOUS
100
AcDbPolyline
 90
        3
 70
     0
 43
0.0
 38
2500.0
 10
22.93749597
 20
-81.45454975
 10
19.75122202
 20
-82.07868731
 42
-0.0063851
 10
19.34487143
 20
-82.1529095
  0
ARC
  5
9F
100
AcDbEntity
  8
MST_1_1
 62
   137
  6
CONTINUOUS
100
AcDbCircle
 10
16.64209713
 20
-66.20634715
 30
2500.0
 40
16.17398651
100
AcDbArc
 50
274.21680449
 51
278.53995004
  0
LWPOLYLINE
  5
A0
100
AcDbEntity
  8
MST_1_1
 62
   137
  6
CONTINUOUS
100
AcDbPolyline
 90
        6
 70
     0
 43
0.0
 38
2500.0
 10
20.09428505
 20
-80.57667692
 10
20.02321025
 20
-80.88369012
 10
20.6358604
 20
-82.20580051
 10
20.70383049
 20
-81.8920873
 10
20.09428505
 20
-80.57667692
 10
20.62412578
 20
-82.18047697
  0
LWPOLYLINE
  5
A1
100
AcDbEntity
  8
MST_1_1
 62
   137
  6
CONTINUOUS
100
AcDbPolyline
 90
        6
 70
     0
 43
0.0
 38
2500.0
 10
9.87044545
 20
-79.95454964
 10
9.73749597
 20
-80.52883546
 10
10.86154296
 20
-82.95454975
 10
10.9944925
 20
-82.38026403
 10
9.87044545
 20
-79.95454964
 10
10.86154296
 20
-82.95454975
  0
LWPOLYLINE
  5
A2
100
AcDbEntity
  8
MST_1_1
 62
   137
  6
CONTINUOUS
100
AcDbPolyline
 90
        6
 70
     0
 43
0.0
 38
2500.0
 10
11.58473117
 20
-79.95454964
 10
11.45178168
 20
-80.52883546
 10
12.57582868
 20
-82.95454975
 10
12.70877821
 20
-82.38026403
 10
11.58473117
 20
-79.95454964
 10
12.57582868
 20
-82.95454975
  0
LINE
  5
A3
100
AcDbEntity
  8
MST_1_1
 62
   137
  6
CONTINUOUS
100
AcDbLine
 10
9.28020678
 20
-82.38026403
 30
2500.0
 11
10.59542583
 21
-82.38026403
 31
2500.0
  0
LINE
  5
A4
100
AcDbEntity
  8
MST_1_1
 62
   137
  6
CONTINUOUS
100
AcDbLine
 10
10.9944925
 20
-82.38026403
 30
2500.0
 11
12.30971155
 21
-82.38026403
 31
2500.0
  0
LINE
  5
A5
100
AcDbEntity
  8
MST_1_1
 62
   137
  6
CONTINUOUS
100
AcDbLine
 10
9.73749597
 20
-80.52883546
 30
2500.0
 11
8.42227692
 21
-80.52883546
 31
2500.0
  0
LINE
  5
A6
100
AcDbEntity
  8
MST_1_1
 62
   137
  6
CONTINUOUS
100
AcDbLine
 10
11.45178168
 20
-80.52883546
 30
2500.0
 11
10.13656263
 21
-80.52883546
 31
2500.0
  0
LWPOLYLINE
  5
A7
100
AcDbEntity
  8
MST_1_1
 62
     1
  6
BORDER
100
AcDbPolyline
 90
        3
 70
     0
 43
0.0
 10
27.93749597
 20
-111.45454975
 10
-2.06250403
 20
-111.45454975
 10
-7.06250403
 20
-111.45454975
  0
LINE
  5
A8
100
AcDbEntity
  8
MST_1_1
 62
   137
  6
CONTINUOUS
100
AcDbLine
 10
-2.06250403
 20
-111.45454975
 30
0.0
 11
-2.06250403
 21
-108.50454975
 31
0.0
  0
LINE
  5
A9
100
AcDbEntity
  8
MST_1_1
 62
   137
  6
CONTINUOUS
100
AcDbLine
 10
-2.06250403
 20
-108.50454975
 30
0.0
 11
-1.98750405
 21
-108.50454975
 31
0.0
  0
LWPOLYLINE
  5
AA
100
AcDbEntity
  8
MST_1_1
 62
   137
  6
CONTINUOUS
100
AcDbPolyline
 90
        6
 70
     0
 43
0.0
 38
2500.0
 10
1.15615974
 20
-109.95454964
 10
1.02321025
 20
-110.52883546
 10
2.14725725
 20
-112.95454975
 10
2.28020678
 20
-112.38026403
 10
1.15615974
 20
-109.95454964
 10
2.14725725
 20
-112.95454975
  0
LINE
  5
AB
100
AcDbEntity
  8
MST_1_1
 62
   137
  6
CONTINUOUS
100
AcDbLine
 10
-0.16250403
 20
-110.52883546
 30
2500.0
 11
1.02321025
 21
-110.52883546
 31
2500.0
  0
LWPOLYLINE
  5
AC
100
AcDbEntity
  8
MST_1_1
 62
   137
  6
CONTINUOUS
100
AcDbPolyline
 90
        4
 70
     0
 43
0.0
 38
2500.0
 10
0.1668544
 20
-112.38026403
 10
0.43297154
 20
-112.95454975
 10
0.56592107
 20
-112.38026403
 10
0.36650634
 20
-111.94992335
  0
LINE
  5
AD
100
AcDbEntity
  8
MST_1_1
 62
   137
  6
CONTINUOUS
100
AcDbLine
 10
0.21147403
 20
-112.28408844
 30
2500.0
 11
0.43297154
 21
-112.95454975
 31
2500.0
  0
LINE
  5
AE
100
AcDbEntity
  8
MST_1_1
 62
   137
  6
CONTINUOUS
100
AcDbLine
 10
0.1668544
 20
-112.38026403
 30
2500.0
 11
0.36650634
 21
-111.94992335
 31
2500.0
  0
LINE
  5
AF
100
AcDbEntity
  8
MST_1_1
 62
   137
  6
CONTINUOUS
100
AcDbLine
 10
1.88114012
 20
-112.38026403
 30
2500.0
 11
0.56592107
 21
-112.38026403
 31
2500.0
  0
LINE
  5
B0
100
AcDbEntity
  8
MST_1_1
 62
   137
  6
CONTINUOUS
100
AcDbLine
 10
0.1668544
 20
-112.38026403
 30
2500.0
 11
-0.16250403
 21
-112.38026403
 31
2500.0
  0
LINE
  5
B1
100
AcDbEntity
  8
MST_1_1
 62
   137
  6
CONTINUOUS
100
AcDbLine
 10
-1.98750405
 20
-108.50454975
 30
0.0
 11
-0.16250403
 21
-110.52883546
 31
0.0
  0
LINE
  5
B2
100
AcDbEntity
  8
MST_1_1
 62
   137
  6
CONTINUOUS
100
AcDbLine
 10
-0.16250403
 20
-112.38026403
 30
0.0
 11
-1.98750405
 21
-114.40454975
 31
0.0
  0
LINE
  5
B3
100
AcDbEntity
  8
MST_1_1
 62
   137
  6
CONTINUOUS
100
AcDbLine
 10
-1.98750405
 20
-114.40454975
 30
0.0
 11
-2.06250403
 21
-114.40454975
 31
0.0
  0
LINE
  5
B4
100
AcDbEntity
  8
MST_1_1
 62
   137
  6
CONTINUOUS
100
AcDbLine
 10
-2.06250403
 20
-114.40454975
 30
0.0
 11
-2.06250403
 21
-111.45454975
 31
0.0
  0
LWPOLYLINE
  5
B5
100
AcDbEntity
  8
MST_1_1
 62
   137
  6
CONTINUOUS
100
AcDbPolyline
 90
        6
 70
     0
 43
0.0
 38
2500.0
 10
2.87044545
 20
-109.95454964
 10
2.73749597
 20
-110.52883546
 10
3.86154296
 20
-112.95454975
 10
3.9944925
 20
-112.38026403
 10
2.87044545
 20
-109.95454964
 10
3.86154296
 20
-112.95454975
  0
LWPOLYLINE
  5
B6
100
AcDbEntity
  8
MST_1_1
 62
   137
  6
CONTINUOUS
100
AcDbPolyline
 90
        6
 70
     0
 43
0.0
 38
2500.0
 10
4.58473117
 20
-109.95454964
 10
4.45178168
 20
-110.52883546
 10
5.57582868
 20
-112.95454975
 10
5.70877821
 20
-112.38026403
 10
4.58473117
 20
-109.95454964
 10
5.57582868
 20
-112.95454975
  0
LWPOLYLINE
  5
B7
100
AcDbEntity
  8
MST_1_1
 62
   137
  6
CONTINUOUS
100
AcDbPolyline
 90
        6
 70
     0
 43
0.0
 38
2500.0
 10
6.29901688
 20
-109.95454964
 10
6.1660674
 20
-110.52883546
 10
7.29011439
 20
-112.95454975
 10
7.42306393
 20
-112.38026403
 10
6.29901688
 20
-109.95454964
 10
7.29011439
 20
-112.95454975
  0
LWPOLYLINE
  5
B8
100
AcDbEntity
  8
MST_1_1
 62
   137
  6
CONTINUOUS
100
AcDbPolyline
 90
        6
 70
     0
 43
0.0
 38
2500.0
 10
8.0133026
 20
-109.95454964
 10
7.88035311
 20
-110.52883546
 10
9.00440011
 20
-112.95454975
 10
9.13734964
 20
-112.38026403
 10
8.0133026
 20
-109.95454964
 10
9.00440011
 20
-112.95454975
  0
LWPOLYLINE
  5
B9
100
AcDbEntity
  8
MST_1_1
 62
   137
  6
CONTINUOUS
100
AcDbPolyline
 90
        6
 70
     0
 43
0.0
 38
2500.0
 10
18.29901688
 20
-109.95454964
 10
18.1660674
 20
-110.52883546
 10
19.29011439
 20
-112.95454975
 10
19.42306393
 20
-112.38026403
 10
18.29901688
 20
-109.95454964
 10
19.29011439
 20
-112.95454975
  0
LWPOLYLINE
  5
BA
100
AcDbEntity
  8
MST_1_1
 62
   137
  6
CONTINUOUS
100
AcDbPolyline
 90
        6
 70
     0
 43
0.0
 38
2500.0
 10
20.0133026
 20
-109.95454964
 10
19.88035311
 20
-110.52883546
 10
21.00440011
 20
-112.95454975
 10
21.13734964
 20
-112.38026403
 10
20.0133026
 20
-109.95454964
 10
21.00440011
 20
-112.95454975
  0
LWPOLYLINE
  5
BB
100
AcDbEntity
  8
MST_1_1
 62
   137
  6
CONTINUOUS
100
AcDbPolyline
 90
        6
 70
     0
 43
0.0
 38
2500.0
 10
21.72758831
 20
-109.95454964
 10
21.59463883
 20
-110.52883546
 10
22.71868582
 20
-112.95454975
 10
22.83137886
 20
-112.33655014
 10
21.72758831
 20
-109.95454964
 10
22.71868582
 20
-112.95454975
  0
LWPOLYLINE
  5
BC
100
AcDbEntity
  8
MST_1_1
 62
   137
  6
CONTINUOUS
100
AcDbPolyline
 90
        6
 70
     0
 43
0.0
 38
2500.0
 10
23.41661362
 20
-110.14971192
 10
23.30892454
 20
-110.61488344
 10
24.23718234
 20
-112.61808101
 10
24.34487143
 20
-112.1529095
 10
23.41661362
 20
-110.14971192
 10
24.21940261
 20
-112.57971201
  0
LINE
  5
BD
100
AcDbEntity
  8
MST_1_1
 62
   137
  6
CONTINUOUS
100
AcDbLine
 10
2.28020678
 20
-112.38026403
 30
2500.0
 11
3.59542583
 21
-112.38026403
 31
2500.0
  0
LINE
  5
BE
100
AcDbEntity
  8
MST_1_1
 62
   137
  6
CONTINUOUS
100
AcDbLine
 10
3.9944925
 20
-112.38026403
 30
2500.0
 11
5.30971155
 21
-112.38026403
 31
2500.0
  0
LINE
  5
BF
100
AcDbEntity
  8
MST_1_1
 62
   137
  6
CONTINUOUS
100
AcDbLine
 10
5.70877821
 20
-112.38026403
 30
2500.0
 11
7.02399726
 21
-112.38026403
 31
2500.0
  0
LINE
  5
C0
100
AcDbEntity
  8
MST_1_1
 62
   137
  6
CONTINUOUS
100
AcDbLine
 10
7.42306393
 20
-112.38026403
 30
2500.0
 11
8.73828297
 21
-112.38026403
 31
2500.0
  0
LINE
  5
C1
100
AcDbEntity
  8
MST_1_1
 62
   137
  6
CONTINUOUS
100
AcDbLine
 10
17.70877821
 20
-112.38026403
 30
2500.0
 11
19.02399726
 21
-112.38026403
 31
2500.0
  0
LINE
  5
C2
100
AcDbEntity
  8
MST_1_1
 62
   137
  6
CONTINUOUS
100
AcDbLine
 10
19.42306393
 20
-112.38026403
 30
2500.0
 11
20.73828297
 21
-112.38026403
 31
2500.0
  0
LINE
  5
C3
100
AcDbEntity
  8
MST_1_1
 62
   137
  6
CONTINUOUS
100
AcDbLine
 10
21.13734964
 20
-112.38026403
 30
2500.0
 11
21.99546217
 21
-112.37647309
 31
2500.0
  0
LINE
  5
C4
100
AcDbEntity
  8
MST_1_1
 62
   137
  6
CONTINUOUS
100
AcDbLine
 10
2.73749597
 20
-110.52883546
 30
2500.0
 11
1.42227692
 21
-110.52883546
 31
2500.0
  0
LINE
  5
C5
100
AcDbEntity
  8
MST_1_1
 62
   137
  6
CONTINUOUS
100
AcDbLine
 10
4.45178168
 20
-110.52883546
 30
2500.0
 11
3.13656263
 21
-110.52883546
 31
2500.0
  0
LINE
  5
C6
100
AcDbEntity
  8
MST_1_1
 62
   137
  6
CONTINUOUS
100
AcDbLine
 10
6.1660674
 20
-110.52883546
 30
2500.0
 11
4.85084835
 21
-110.52883546
 31
2500.0
  0
LINE
  5
C7
100
AcDbEntity
  8
MST_1_1
 62
   137
  6
CONTINUOUS
100
AcDbLine
 10
7.88035311
 20
-110.52883546
 30
2500.0
 11
6.56513406
 21
-110.52883546
 31
2500.0
  0
LINE
  5
C8
100
AcDbEntity
  8
MST_1_1
 62
   137
  6
CONTINUOUS
100
AcDbLine
 10
18.1660674
 20
-110.52883546
 30
2500.0
 11
16.85084835
 21
-110.52883546
 31
2500.0
  0
LINE
  5
C9
100
AcDbEntity
  8
MST_1_1
 62
   137
  6
CONTINUOUS
100
AcDbLine
 10
19.88035311
 20
-110.52883546
 30
2500.0
 11
18.56513406
 21
-110.52883546
 31
2500.0
  0
LINE
  5
CA
100
AcDbEntity
  8
MST_1_1
 62
   137
  6
CONTINUOUS
100
AcDbLine
 10
21.59463883
 20
-110.52883546
 30
2500.0
 11
20.27941978
 21
-110.52883546
 31
2500.0
  0
ARC
  5
CB
100
AcDbEntity
  8
MST_1_1
 62
   137
  6
CONTINUOUS
100
AcDbCircle
 10
21.64209713
 20
-126.70275235
 30
2500.0
 40
16.17398651
100
AcDbArc
 50
84.08482032
 51
88.74811714
  0
LWPOLYLINE
  5
CC
100
AcDbEntity
  8
MST_1_1
 62
   137
  6
CONTINUOUS
100
AcDbPolyline
 90
        3
 70
     0
 43
0.0
 38
2500.0
 10
27.93749597
 20
-111.45454975
 10
24.75122202
 20
-110.83041219
 42
0.01723995
 10
23.65025591
 20
-110.65391631
  0
ARC
  5
CD
100
AcDbEntity
  8
MST_1_1
 62
   137
  6
CONTINUOUS
100
AcDbCircle
 10
21.64209713
 20
-96.20634715
 30
2500.0
 40
16.17398651
100
AcDbArc
 50
271.25189287
 51
272.83975061
  0
LWPOLYLINE
  5
CE
100
AcDbEntity
  8
MST_1_1
 62
   137
  6
CONTINUOUS
100
AcDbPolyline
 90
        3
 70
     0
 43
0.0
 38
2500.0
 10
27.93749597
 20
-111.45454975
 10
24.75122202
 20
-112.07868731
 42
-0.0063851
 10
24.34487143
 20
-112.1529095
  0
ARC
  5
CF
100
AcDbEntity
  8
MST_1_1
 62
   137
  6
CONTINUOUS
100
AcDbCircle
 10
21.64209713
 20
-96.20634715
 30
2500.0
 40
16.17398651
100
AcDbArc
 50
274.21680449
 51
278.53995004
  0
LWPOLYLINE
  5
D0
100
AcDbEntity
  8
MST_1_1
 62
   137
  6
CONTINUOUS
100
AcDbPolyline
 90
        6
 70
     0
 43
0.0
 38
2500.0
 10
25.09428505
 20
-110.57667692
 10
25.02321025
 20
-110.88369012
 10
25.6358604
 20
-112.20580051
 10
25.70383049
 20
-111.8920873
 10
25.09428505
 20
-110.57667692
 10
25.62412578
 20
-112.18047697
  0
LWPOLYLINE
  5
D1
100
AcDbEntity
  8
MST_1_1
 62
   137
  6
CONTINUOUS
100
AcDbPolyline
 90
        6
 70
     0
 43
0.0
 38
2500.0
 10
9.72758831
 20
-109.95454964
 10
9.59463883
 20
-110.52883546
 10
10.71868582
 20
-112.95454975
 10
10.85163535
 20
-112.38026403
 10
9.72758831
 20
-109.95454964
 10
10.71868582
 20
-112.95454975
  0
LWPOLYLINE
  5
D2
100
AcDbEntity
  8
MST_1_1
 62
   137
  6
CONTINUOUS
100
AcDbPolyline
 90
        6
 70
     0
 43
0.0
 38
2500.0
 10
11.44187402
 20
-109.95454964
 10
11.30892454
 20
-110.52883546
 10
12.43297154
 20
-112.95454975
 10
12.56592107
 20
-112.38026403
 10
11.44187402
 20
-109.95454964
 10
12.43297154
 20
-112.95454975
  0
LINE
  5
D3
100
AcDbEntity
  8
MST_1_1
 62
   137
  6
CONTINUOUS
100
AcDbLine
 10
9.13734964
 20
-112.38026403
 30
2500.0
 11
10.45256869
 21
-112.38026403
 31
2500.0
  0
LINE
  5
D4
100
AcDbEntity
  8
MST_1_1
 62
   137
  6
CONTINUOUS
100
AcDbLine
 10
10.85163535
 20
-112.38026403
 30
2500.0
 11
12.1668544
 21
-112.38026403
 31
2500.0
  0
LINE
  5
D5
100
AcDbEntity
  8
MST_1_1
 62
   137
  6
CONTINUOUS
100
AcDbLine
 10
9.59463883
 20
-110.52883546
 30
2500.0
 11
8.27941978
 21
-110.52883546
 31
2500.0
  0
LINE
  5
D6
100
AcDbEntity
  8
MST_1_1
 62
   137
  6
CONTINUOUS
100
AcDbLine
 10
11.30892454
 20
-110.52883546
 30
2500.0
 11
9.99370549
 21
-110.52883546
 31
2500.0
  0
LWPOLYLINE
  5
D7
100
AcDbEntity
  8
MST_1_1
 62
     1
  6
BORDER
100
AcDbPolyline
 90
        3
 70
     0
 43
0.0
 10
17.93749597
 20
-51.45454975
 10
-2.06250403
 20
-51.45454975
 10
-7.06250403
 20
-51.45454975
  0
LINE
  5
D8
100
AcDbEntity
  8
MST_1_1
 62
   137
  6
CONTINUOUS
100
AcDbLine
 10
-2.06250403
 20
-51.45454975
 30
0.0
 11
-2.06250403
 21
-48.50454975
 31
0.0
  0
LINE
  5
D9
100
AcDbEntity
  8
MST_1_1
 62
   137
  6
CONTINUOUS
100
AcDbLine
 10
-2.06250403
 20
-48.50454975
 30
0.0
 11
-1.98750405
 21
-48.50454975
 31
0.0
  0
LWPOLYLINE
  5
DA
100
AcDbEntity
  8
MST_1_1
 62
   137
  6
CONTINUOUS
100
AcDbPolyline
 90
        6
 70
     0
 43
0.0
 38
2500.0
 10
1.44187402
 20
-49.95454964
 10
1.30892454
 20
-50.52883546
 10
2.43297154
 20
-52.95454975
 10
2.56592107
 20
-52.38026403
 10
1.44187402
 20
-49.95454964
 10
2.43297154
 20
-52.95454975
  0
LINE
  5
DB
100
AcDbEntity
  8
MST_1_1
 62
   137
  6
CONTINUOUS
100
AcDbLine
 10
-0.16250403
 20
-50.52883546
 30
2500.0
 11
1.30892454
 21
-50.52883546
 31
2500.0
  0
LWPOLYLINE
  5
DC
100
AcDbEntity
  8
MST_1_1
 62
   137
  6
CONTINUOUS
100
AcDbPolyline
 90
        4
 70
     0
 43
0.0
 38
2500.0
 10
0.45256869
 20
-52.38026403
 10
0.71868582
 20
-52.95454975
 10
0.85163535
 20
-52.38026403
 10
0.65222063
 20
-51.94992335
  0
LINE
  5
DD
100
AcDbEntity
  8
MST_1_1
 62
   137
  6
CONTINUOUS
100
AcDbLine
 10
0.49718832
 20
-52.28408844
 30
2500.0
 11
0.71868582
 21
-52.95454975
 31
2500.0
  0
LINE
  5
DE
100
AcDbEntity
  8
MST_1_1
 62
   137
  6
CONTINUOUS
100
AcDbLine
 10
0.45256869
 20
-52.38026403
 30
2500.0
 11
0.65222063
 21
-51.94992335
 31
2500.0
  0
LINE
  5
DF
100
AcDbEntity
  8
MST_1_1
 62
   137
  6
CONTINUOUS
100
AcDbLine
 10
2.1668544
 20
-52.38026403
 30
2500.0
 11
0.85163535
 21
-52.38026403
 31
2500.0
  0
LINE
  5
E0
100
AcDbEntity
  8
MST_1_1
 62
   137
  6
CONTINUOUS
100
AcDbLine
 10
0.45256869
 20
-52.38026403
 30
2500.0
 11
-0.16250403
 21
-52.38026403
 31
2500.0
  0
LINE
  5
E1
100
AcDbEntity
  8
MST_1_1
 62
   137
  6
CONTINUOUS
100
AcDbLine
 10
-1.98750405
 20
-48.50454975
 30
0.0
 11
-0.16250403
 21
-50.52883546
 31
0.0
  0
LINE
  5
E2
100
AcDbEntity
  8
MST_1_1
 62
   137
  6
CONTINUOUS
100
AcDbLine
 10
-0.16250403
 20
-52.38026403
 30
0.0
 11
-1.98750405
 21
-54.40454975
 31
0.0
  0
LINE
  5
E3
100
AcDbEntity
  8
MST_1_1
 62
   137
  6
CONTINUOUS
100
AcDbLine
 10
-1.98750405
 20
-54.40454975
 30
0.0
 11
-2.06250403
 21
-54.40454975
 31
0.0
  0
LINE
  5
E4
100
AcDbEntity
  8
MST_1_1
 62
   137
  6
CONTINUOUS
100
AcDbLine
 10
-2.06250403
 20
-54.40454975
 30
0.0
 11
-2.06250403
 21
-51.45454975
 31
0.0
  0
LWPOLYLINE
  5
E5
100
AcDbEntity
  8
MST_1_1
 62
   137
  6
CONTINUOUS
100
AcDbPolyline
 90
        6
 70
     0
 43
0.0
 38
2500.0
 10
3.15615974
 20
-49.95454964
 10
3.02321025
 20
-50.52883546
 10
4.14725725
 20
-52.95454975
 10
4.28020678
 20
-52.38026403
 10
3.15615974
 20
-49.95454964
 10
4.14725725
 20
-52.95454975
  0
LWPOLYLINE
  5
E6
100
AcDbEntity
  8
MST_1_1
 62
   137
  6
CONTINUOUS
100
AcDbPolyline
 90
        6
 70
     0
 43
0.0
 38
2500.0
 10
8.29901688
 20
-49.95454964
 10
8.1660674
 20
-50.52883546
 10
9.29011439
 20
-52.95454975
 10
9.42306393
 20
-52.38026403
 10
8.29901688
 20
-49.95454964
 10
9.29011439
 20
-52.95454975
  0
LWPOLYLINE
  5
E7
100
AcDbEntity
  8
MST_1_1
 62
   137
  6
CONTINUOUS
100
AcDbPolyline
 90
        6
 70
     0
 43
0.0
 38
2500.0
 10
10.0133026
 20
-49.95454964
 10
9.88035311
 20
-50.52883546
 10
11.00440011
 20
-52.95454975
 10
11.13734964
 20
-52.38026403
 10
10.0133026
 20
-49.95454964
 10
11.00440011
 20
-52.95454975
  0
LWPOLYLINE
  5
E8
100
AcDbEntity
  8
MST_1_1
 62
   137
  6
CONTINUOUS
100
AcDbPolyline
 90
        6
 70
     0
 43
0.0
 38
2500.0
 10
11.72758831
 20
-49.95454964
 10
11.59463883
 20
-50.52883546
 10
12.71868582
 20
-52.95454975
 10
12.83137886
 20
-52.33655014
 10
11.72758831
 20
-49.95454964
 10
12.71868582
 20
-52.95454975
  0
LWPOLYLINE
  5
E9
100
AcDbEntity
  8
MST_1_1
 62
   137
  6
CONTINUOUS
100
AcDbPolyline
 90
        6
 70
     0
 43
0.0
 38
2500.0
 10
13.41661362
 20
-50.14971192
 10
13.30892454
 20
-50.61488344
 10
14.23718234
 20
-52.61808101
 10
14.34487143
 20
-52.1529095
 10
13.41661362
 20
-50.14971192
 10
14.21940261
 20
-52.57971201
  0
LINE
  5
EA
100
AcDbEntity
  8
MST_1_1
 62
   137
  6
CONTINUOUS
100
AcDbLine
 10
2.56592107
 20
-52.38026403
 30
2500.0
 11
3.88114012
 21
-52.38026403
 31
2500.0
  0
LINE
  5
EB
100
AcDbEntity
  8
MST_1_1
 62
   137
  6
CONTINUOUS
100
AcDbLine
 10
7.70877821
 20
-52.38026403
 30
2500.0
 11
9.02399726
 21
-52.38026403
 31
2500.0
  0
LINE
  5
EC
100
AcDbEntity
  8
MST_1_1
 62
   137
  6
CONTINUOUS
100
AcDbLine
 10
9.42306393
 20
-52.38026403
 30
2500.0
 11
10.73828297
 21
-52.38026403
 31
2500.0
  0
LINE
  5
ED
100
AcDbEntity
  8
MST_1_1
 62
   137
  6
CONTINUOUS
100
AcDbLine
 10
11.13734964
 20
-52.38026403
 30
2500.0
 11
11.99546217
 21
-52.37647309
 31
2500.0
  0
LINE
  5
EE
100
AcDbEntity
  8
MST_1_1
 62
   137
  6
CONTINUOUS
100
AcDbLine
 10
3.02321025
 20
-50.52883546
 30
2500.0
 11
1.70799121
 21
-50.52883546
 31
2500.0
  0
LINE
  5
EF
100
AcDbEntity
  8
MST_1_1
 62
   137
  6
CONTINUOUS
100
AcDbLine
 10
8.1660674
 20
-50.52883546
 30
2500.0
 11
6.85084835
 21
-50.52883546
 31
2500.0
  0
LINE
  5
F0
100
AcDbEntity
  8
MST_1_1
 62
   137
  6
CONTINUOUS
100
AcDbLine
 10
9.88035311
 20
-50.52883546
 30
2500.0
 11
8.56513406
 21
-50.52883546
 31
2500.0
  0
LINE
  5
F1
100
AcDbEntity
  8
MST_1_1
 62
   137
  6
CONTINUOUS
100
AcDbLine
 10
11.59463883
 20
-50.52883546
 30
2500.0
 11
10.27941978
 21
-50.52883546
 31
2500.0
  0
ARC
  5
F2
100
AcDbEntity
  8
MST_1_1
 62
   137
  6
CONTINUOUS
100
AcDbCircle
 10
11.64209713
 20
-66.70275235
 30
2500.0
 40
16.17398651
100
AcDbArc
 50
84.08482032
 51
88.74811714
  0
LWPOLYLINE
  5
F3
100
AcDbEntity
  8
MST_1_1
 62
   137
  6
CONTINUOUS
100
AcDbPolyline
 90
        3
 70
     0
 43
0.0
 38
2500.0
 10
17.93749597
 20
-51.45454975
 10
14.75122202
 20
-50.83041219
 42
0.01723995
 10
13.65025591
 20
-50.65391631
  0
ARC
  5
F4
100
AcDbEntity
  8
MST_1_1
 62
   137
  6
CONTINUOUS
100
AcDbCircle
 10
11.64209713
 20
-36.20634715
 30
2500.0
 40
16.17398651
100
AcDbArc
 50
271.25189287
 51
272.83975061
  0
LWPOLYLINE
  5
F5
100
AcDbEntity
  8
MST_1_1
 62
   137
  6
CONTINUOUS
100
AcDbPolyline
 90
        3
 70
     0
 43
0.0
 38
2500.0
 10
17.93749597
 20
-51.45454975
 10
14.75122202
 20
-52.07868731
 42
-0.0063851
 10
14.34487143
 20
-52.1529095
  0
ARC
  5
F6
100
AcDbEntity
  8
MST_1_1
 62
   137
  6
CONTINUOUS
100
AcDbCircle
 10
11.64209713
 20
-36.20634715
 30
2500.0
 40
16.17398651
100
AcDbArc
 50
274.21680449
 51
278.53995004
  0
LWPOLYLINE
  5
F7
100
AcDbEntity
  8
MST_1_1
 62
   137
  6
CONTINUOUS
100
AcDbPolyline
 90
        6
 70
     0
 43
0.0
 38
2500.0
 10
15.09428505
 20
-50.57667692
 10
15.02321025
 20
-50.88369012
 10
15.6358604
 20
-52.20580051
 10
15.70383049
 20
-51.8920873
 10
15.09428505
 20
-50.57667692
 10
15.62412578
 20
-52.18047697
  0
LWPOLYLINE
  5
F8
100
AcDbEntity
  8
MST_1_1
 62
   137
  6
CONTINUOUS
100
AcDbPolyline
 90
        6
 70
     0
 43
0.0
 38
2500.0
 10
6.58473117
 20
-49.95454964
 10
6.45178168
 20
-50.52883546
 10
7.57582868
 20
-52.95454975
 10
7.70877821
 20
-52.38026403
 10
6.58473117
 20
-49.95454964
 10
7.57582868
 20
-52.95454975
  0
LINE
  5
F9
100
AcDbEntity
  8
MST_1_1
 62
   137
  6
CONTINUOUS
100
AcDbLine
 10
5.9944925
 20
-52.38026403
 30
2500.0
 11
7.30971155
 21
-52.38026403
 31
2500.0
  0
LINE
  5
FA
100
AcDbEntity
  8
MST_1_1
 62
   137
  6
CONTINUOUS
100
AcDbLine
 10
6.45178168
 20
-50.52883546
 30
2500.0
 11
5.13656263
 21
-50.52883546
 31
2500.0
  0
LWPOLYLINE
  5
FB
100
AcDbEntity
  8
MST_1_1
 62
     1
  6
BORDER
100
AcDbPolyline
 90
        3
 70
     0
 43
0.0
 10
13.93749597
 20
-21.45454975
 10
-2.06250403
 20
-21.45454975
 10
-7.06250403
 20
-21.45454975
  0
LINE
  5
FC
100
AcDbEntity
  8
MST_1_1
 62
   137
  6
CONTINUOUS
100
AcDbLine
 10
-2.06250403
 20
-21.45454975
 30
0.0
 11
-2.06250403
 21
-18.50454975
 31
0.0
  0
LINE
  5
FD
100
AcDbEntity
  8
MST_1_1
 62
   137
  6
CONTINUOUS
100
AcDbLine
 10
-2.06250403
 20
-18.50454975
 30
0.0
 11
-1.98750405
 21
-18.50454975
 31
0.0
  0
LWPOLYLINE
  5
FE
100
AcDbEntity
  8
MST_1_1
 62
   137
  6
CONTINUOUS
100
AcDbPolyline
 90
        6
 70
     0
 43
0.0
 38
2500.0
 10
2.58473117
 20
-19.95454964
 10
2.45178168
 20
-20.52883546
 10
3.57582868
 20
-22.95454975
 10
3.70877821
 20
-22.38026403
 10
2.58473117
 20
-19.95454964
 10
3.57582868
 20
-22.95454975
  0
LINE
  5
FF
100
AcDbEntity
  8
MST_1_1
 62
   137
  6
CONTINUOUS
100
AcDbLine
 10
-0.16250403
 20
-20.52883546
 30
2500.0
 11
2.45178168
 21
-20.52883546
 31
2500.0
  0
LWPOLYLINE
  5
100
100
AcDbEntity
  8
MST_1_1
 62
   137
  6
CONTINUOUS
100
AcDbPolyline
 90
        4
 70
     0
 43
0.0
 38
2500.0
 10
1.59542583
 20
-22.38026403
 10
1.86154296
 20
-22.95454975
 10
1.9944925
 20
-22.38026403
 10
1.79507777
 20
-21.94992335
  0
LINE
  5
101
100
AcDbEntity
  8
MST_1_1
 62
   137
  6
CONTINUOUS
100
AcDbLine
 10
1.64004546
 20
-22.28408844
 30
2500.0
 11
1.86154296
 21
-22.95454975
 31
2500.0
  0
LINE
  5
102
100
AcDbEntity
  8
MST_1_1
 62
   137
  6
CONTINUOUS
100
AcDbLine
 10
1.59542583
 20
-22.38026403
 30
2500.0
 11
1.79507777
 21
-21.94992335
 31
2500.0
  0
LINE
  5
103
100
AcDbEntity
  8
MST_1_1
 62
   137
  6
CONTINUOUS
100
AcDbLine
 10
3.30971155
 20
-22.38026403
 30
2500.0
 11
1.9944925
 21
-22.38026403
 31
2500.0
  0
LINE
  5
104
100
AcDbEntity
  8
MST_1_1
 62
   137
  6
CONTINUOUS
100
AcDbLine
 10
1.59542583
 20
-22.38026403
 30
2500.0
 11
-0.16250403
 21
-22.38026403
 31
2500.0
  0
LINE
  5
105
100
AcDbEntity
  8
MST_1_1
 62
   137
  6
CONTINUOUS
100
AcDbLine
 10
-1.98750405
 20
-18.50454975
 30
0.0
 11
-0.16250403
 21
-20.52883546
 31
0.0
  0
LINE
  5
106
100
AcDbEntity
  8
MST_1_1
 62
   137
  6
CONTINUOUS
100
AcDbLine
 10
-0.16250403
 20
-22.38026403
 30
0.0
 11
-1.98750405
 21
-24.40454975
 31
0.0
  0
LINE
  5
107
100
AcDbEntity
  8
MST_1_1
 62
   137
  6
CONTINUOUS
100
AcDbLine
 10
-1.98750405
 20
-24.40454975
 30
0.0
 11
-2.06250403
 21
-24.40454975
 31
0.0
  0
LINE
  5
108
100
AcDbEntity
  8
MST_1_1
 62
   137
  6
CONTINUOUS
100
AcDbLine
 10
-2.06250403
 20
-24.40454975
 30
0.0
 11
-2.06250403
 21
-21.45454975
 31
0.0
  0
LWPOLYLINE
  5
109
100
AcDbEntity
  8
MST_1_1
 62
   137
  6
CONTINUOUS
100
AcDbPolyline
 90
        6
 70
     0
 43
0.0
 38
2500.0
 10
4.29901688
 20
-19.95454964
 10
4.1660674
 20
-20.52883546
 10
5.29011439
 20
-22.95454975
 10
5.42306393
 20
-22.38026403
 10
4.29901688
 20
-19.95454964
 10
5.29011439
 20
-22.95454975
  0
LWPOLYLINE
  5
10A
100
AcDbEntity
  8
MST_1_1
 62
   137
  6
CONTINUOUS
100
AcDbPolyline
 90
        6
 70
     0
 43
0.0
 38
2500.0
 10
6.0133026
 20
-19.95454964
 10
5.88035311
 20
-20.52883546
 10
7.00440011
 20
-22.95454975
 10
7.13734964
 20
-22.38026403
 10
6.0133026
 20
-19.95454964
 10
7.00440011
 20
-22.95454975
  0
LWPOLYLINE
  5
10B
100
AcDbEntity
  8
MST_1_1
 62
   137
  6
CONTINUOUS
100
AcDbPolyline
 90
        6
 70
     0
 43
0.0
 38
2500.0
 10
7.72758831
 20
-19.95454964
 10
7.59463883
 20
-20.52883546
 10
8.71868582
 20
-22.95454975
 10
8.83137886
 20
-22.33655014
 10
7.72758831
 20
-19.95454964
 10
8.71868582
 20
-22.95454975
  0
LWPOLYLINE
  5
10C
100
AcDbEntity
  8
MST_1_1
 62
   137
  6
CONTINUOUS
100
AcDbPolyline
 90
        6
 70
     0
 43
0.0
 38
2500.0
 10
9.41661362
 20
-20.14971192
 10
9.30892454
 20
-20.61488344
 10
10.23718234
 20
-22.61808101
 10
10.34487143
 20
-22.1529095
 10
9.41661362
 20
-20.14971192
 10
10.21940261
 20
-22.57971201
  0
LINE
  5
10D
100
AcDbEntity
  8
MST_1_1
 62
   137
  6
CONTINUOUS
100
AcDbLine
 10
3.70877821
 20
-22.38026403
 30
2500.0
 11
5.02399726
 21
-22.38026403
 31
2500.0
  0
LINE
  5
10E
100
AcDbEntity
  8
MST_1_1
 62
   137
  6
CONTINUOUS
100
AcDbLine
 10
5.42306393
 20
-22.38026403
 30
2500.0
 11
6.73828297
 21
-22.38026403
 31
2500.0
  0
LINE
  5
10F
100
AcDbEntity
  8
MST_1_1
 62
   137
  6
CONTINUOUS
100
AcDbLine
 10
7.13734964
 20
-22.38026403
 30
2500.0
 11
7.99546217
 21
-22.37647309
 31
2500.0
  0
LINE
  5
110
100
AcDbEntity
  8
MST_1_1
 62
   137
  6
CONTINUOUS
100
AcDbLine
 10
4.1660674
 20
-20.52883546
 30
2500.0
 11
2.85084835
 21
-20.52883546
 31
2500.0
  0
LINE
  5
111
100
AcDbEntity
  8
MST_1_1
 62
   137
  6
CONTINUOUS
100
AcDbLine
 10
5.88035311
 20
-20.52883546
 30
2500.0
 11
4.56513406
 21
-20.52883546
 31
2500.0
  0
LINE
  5
112
100
AcDbEntity
  8
MST_1_1
 62
   137
  6
CONTINUOUS
100
AcDbLine
 10
7.59463883
 20
-20.52883546
 30
2500.0
 11
6.27941978
 21
-20.52883546
 31
2500.0
  0
ARC
  5
113
100
AcDbEntity
  8
MST_1_1
 62
   137
  6
CONTINUOUS
100
AcDbCircle
 10
7.64209713
 20
-36.70275235
 30
2500.0
 40
16.17398651
100
AcDbArc
 50
84.08482032
 51
88.74811714
  0
LWPOLYLINE
  5
114
100
AcDbEntity
  8
MST_1_1
 62
   137
  6
CONTINUOUS
100
AcDbPolyline
 90
        3
 70
     0
 43
0.0
 38
2500.0
 10
13.93749597
 20
-21.45454975
 10
10.75122202
 20
-20.83041219
 42
0.01723995
 10
9.65025591
 20
-20.65391631
  0
ARC
  5
115
100
AcDbEntity
  8
MST_1_1
 62
   137
  6
CONTINUOUS
100
AcDbCircle
 10
7.64209713
 20
-6.20634715
 30
2500.0
 40
16.17398651
100
AcDbArc
 50
271.25189287
 51
272.83975061
  0
LWPOLYLINE
  5
116
100
AcDbEntity
  8
MST_1_1
 62
   137
  6
CONTINUOUS
100
AcDbPolyline
 90
        3
 70
     0
 43
0.0
 38
2500.0
 10
13.93749597
 20
-21.45454975
 10
10.75122202
 20
-22.07868731
 42
-0.0063851
 10
10.34487143
 20
-22.1529095
  0
ARC
  5
117
100
AcDbEntity
  8
MST_1_1
 62
   137
  6
CONTINUOUS
100
AcDbCircle
 10
7.64209713
 20
-6.20634715
 30
2500.0
 40
16.17398651
100
AcDbArc
 50
274.21680449
 51
278.53995004
  0
LWPOLYLINE
  5
118
100
AcDbEntity
  8
MST_1_1
 62
   137
  6
CONTINUOUS
100
AcDbPolyline
 90
        6
 70
     0
 43
0.0
 38
2500.0
 10
11.09428505
 20
-20.57667692
 10
11.02321025
 20
-20.88369012
 10
11.6358604
 20
-22.20580051
 10
11.70383049
 20
-21.8920873
 10
11.09428505
 20
-20.57667692
 10
11.62412578
 20
-22.18047697
  0
LWPOLYLINE
  5
119
100
AcDbEntity
  8
MST_1_1
 62
     1
  6
BORDER
100
AcDbPolyline
 90
        3
 70
     0
 43
0.0
 10
9.93749597
 20
8.54545025
 10
-2.06250403
 20
8.54545025
 10
-7.06250403
 20
8.54545025
  0
LWPOLYLINE
  5
11A
100
AcDbEntity
  8
MST_1_1
 62
   137
  6
CONTINUOUS
100
AcDbPolyline
 90
        6
 70
     0
 43
0.0
 38
2500.0
 10
4.87044545
 20
-49.95454964
 10
4.73749597
 20
-50.52883546
 10
5.86154296
 20
-52.95454975
 10
5.9944925
 20
-52.38026403
 10
4.87044545
 20
-49.95454964
 10
5.86154296
 20
-52.95454975
  0
LINE
  5
11B
100
AcDbEntity
  8
MST_1_1
 62
   137
  6
CONTINUOUS
100
AcDbLine
 10
4.28020678
 20
-52.38026403
 30
2500.0
 11
5.59542583
 21
-52.38026403
 31
2500.0
  0
LINE
  5
11C
100
AcDbEntity
  8
MST_1_1
 62
   137
  6
CONTINUOUS
100
AcDbLine
 10
4.73749597
 20
-50.52883546
 30
2500.0
 11
3.42227692
 21
-50.52883546
 31
2500.0
  0
LWPOLYLINE
  5
11D
100
AcDbEntity
  8
MST_1_1
 62
   137
  6
CONTINUOUS
100
AcDbPolyline
 90
        6
 70
     0
 43
0.0
 38
2500.0
 10
14.87044545
 20
-109.95454964
 10
14.73749597
 20
-110.52883546
 10
15.86154296
 20
-112.95454975
 10
15.9944925
 20
-112.38026403
 10
14.87044545
 20
-109.95454964
 10
15.86154296
 20
-112.95454975
  0
LWPOLYLINE
  5
11E
100
AcDbEntity
  8
MST_1_1
 62
   137
  6
CONTINUOUS
100
AcDbPolyline
 90
        6
 70
     0
 43
0.0
 38
2500.0
 10
16.58473117
 20
-109.95454964
 10
16.45178168
 20
-110.52883546
 10
17.57582868
 20
-112.95454975
 10
17.70877821
 20
-112.38026403
 10
16.58473117
 20
-109.95454964
 10
17.57582868
 20
-112.95454975
  0
LINE
  5
11F
100
AcDbEntity
  8
MST_1_1
 62
   137
  6
CONTINUOUS
100
AcDbLine
 10
14.28020678
 20
-112.38026403
 30
2500.0
 11
15.59542583
 21
-112.38026403
 31
2500.0
  0
LINE
  5
120
100
AcDbEntity
  8
MST_1_1
 62
   137
  6
CONTINUOUS
100
AcDbLine
 10
15.9944925
 20
-112.38026403
 30
2500.0
 11
17.30971155
 21
-112.38026403
 31
2500.0
  0
LINE
  5
121
100
AcDbEntity
  8
MST_1_1
 62
   137
  6
CONTINUOUS
100
AcDbLine
 10
14.73749597
 20
-110.52883546
 30
2500.0
 11
13.42227692
 21
-110.52883546
 31
2500.0
  0
LINE
  5
122
100
AcDbEntity
  8
MST_1_1
 62
   137
  6
CONTINUOUS
100
AcDbLine
 10
16.45178168
 20
-110.52883546
 30
2500.0
 11
15.13656263
 21
-110.52883546
 31
2500.0
  0
LWPOLYLINE
  5
123
100
AcDbEntity
  8
MST_1_1
 62
   137
  6
CONTINUOUS
100
AcDbPolyline
 90
        6
 70
     0
 43
0.0
 38
2500.0
 10
13.15615974
 20
-109.95454964
 10
13.02321025
 20
-110.52883546
 10
14.14725725
 20
-112.95454975
 10
14.28020678
 20
-112.38026403
 10
13.15615974
 20
-109.95454964
 10
14.14725725
 20
-112.95454975
  0
LINE
  5
124
100
AcDbEntity
  8
MST_1_1
 62
   137
  6
CONTINUOUS
100
AcDbLine
 10
12.56592107
 20
-112.38026403
 30
2500.0
 11
13.88114012
 21
-112.38026403
 31
2500.0
  0
LINE
  5
125
100
AcDbEntity
  8
MST_1_1
 62
   137
  6
CONTINUOUS
100
AcDbLine
 10
13.02321025
 20
-110.52883546
 30
2500.0
 11
11.70799121
 21
-110.52883546
 31
2500.0
  0
CIRCLE
  5
126
100
AcDbEntity
  8
MST_1_1
 62
   137
  6
CONTINUOUS
100
AcDbCircle
 10
-83.95380946
 20
8.54545025
 30
0.0
 40
1.57981333
  0
CIRCLE
  5
127
100
AcDbEntity
  8
MST_1_1
 62
   137
  6
CONTINUOUS
100
AcDbCircle
 10
-83.95380946
 20
8.54545025
 30
0.0
 40
0.92740167
  0
CIRCLE
  5
128
100
AcDbEntity
  8
MST_1_1
 62
   137
  6
CONTINUOUS
100
AcDbCircle
 10
-83.95380946
 20
8.54545025
 30
0.0
 40
1.57981333
  0
CIRCLE
  5
129
100
AcDbEntity
  8
MST_1_1
 62
   137
  6
CONTINUOUS
100
AcDbCircle
 10
-83.95380946
 20
8.54545025
 30
0.0
 40
0.92740167
  0
CIRCLE
  5
12A
100
AcDbEntity
  8
MST_1_1
 62
   137
  6
CONTINUOUS
100
AcDbCircle
 10
-83.95380946
 20
8.54545025
 30
0.0
 40
1.57981333
  0
CIRCLE
  5
12B
100
AcDbEntity
  8
MST_1_1
 62
   137
  6
CONTINUOUS
100
AcDbCircle
 10
-83.95380946
 20
8.54545025
 30
0.0
 40
0.92740167
  0
CIRCLE
  5
12C
100
AcDbEntity
  8
MST_1_1
 62
   137
  6
CONTINUOUS
100
AcDbCircle
 10
-83.95380946
 20
8.54545025
 30
0.0
 40
2.94765956
  0
ARC
  5
12D
100
AcDbEntity
  8
MST_1_1
 62
   137
  6
CONTINUOUS
100
AcDbCircle
 10
-85.09980944
 20
8.54545025
 30
0.0
 40
0.25400002
100
AcDbArc
 50
107.73687203
 51
252.26313799
  0
ARC
  5
12E
100
AcDbEntity
  8
MST_1_1
 62
   137
  6
CONTINUOUS
100
AcDbCircle
 10
-85.35953075
 20
7.73385666
 30
0.0
 40
0.59813807
100
AcDbArc
 50
347.74903638
 51
72.25097948
  0
ARC
  5
12F
100
AcDbEntity
  8
MST_1_1
 62
   137
  6
CONTINUOUS
100
AcDbCircle
 10
-84.52680946
 20
7.55298512
 30
0.0
 40
0.254
100
AcDbArc
 50
167.7368553
 51
312.26315504
  0
ARC
  5
130
100
AcDbEntity
  8
MST_1_1
 62
   137
  6
CONTINUOUS
100
AcDbCircle
 10
-83.95380946
 20
6.92226302
 30
0.0
 40
0.59813812
100
AcDbArc
 50
47.74903104
 51
132.25096896
  0
ARC
  5
131
100
AcDbEntity
  8
MST_1_1
 62
   137
  6
CONTINUOUS
100
AcDbCircle
 10
-83.38080945
 20
7.55298511
 30
0.0
 40
0.25399999
100
AcDbArc
 50
227.73686234
 51
12.26314736
  0
ARC
  5
132
100
AcDbEntity
  8
MST_1_1
 62
   137
  6
CONTINUOUS
100
AcDbCircle
 10
-82.54808813
 20
7.73385665
 30
0.0
 40
0.59813809
100
AcDbArc
 50
107.74902273
 51
192.25098144
  0
ARC
  5
133
100
AcDbEntity
  8
MST_1_1
 62
   137
  6
CONTINUOUS
100
AcDbCircle
 10
-82.80780947
 20
8.54545025
 30
0.0
 40
0.25400002
100
AcDbArc
 50
287.73688205
 51
72.26312797
  0
ARC
  5
134
100
AcDbEntity
  8
MST_1_1
 62
   137
  6
CONTINUOUS
100
AcDbCircle
 10
-82.54808816
 20
9.35704384
 30
0.0
 40
0.59813807
100
AcDbArc
 50
167.74902636
 51
252.2509895
  0
ARC
  5
135
100
AcDbEntity
  8
MST_1_1
 62
   137
  6
CONTINUOUS
100
AcDbCircle
 10
-83.38080945
 20
9.53791539
 30
0.0
 40
0.254
100
AcDbArc
 50
347.73686532
 51
132.26314502
  0
ARC
  5
136
100
AcDbEntity
  8
MST_1_1
 62
   137
  6
CONTINUOUS
100
AcDbCircle
 10
-83.95380946
 20
10.16863748
 30
0.0
 40
0.59813812
100
AcDbArc
 50
227.74904106
 51
312.25097898
  0
ARC
  5
137
100
AcDbEntity
  8
MST_1_1
 62
   137
  6
CONTINUOUS
100
AcDbCircle
 10
-84.52680947
 20
9.5379154
 30
0.0
 40
0.25399999
100
AcDbArc
 50
47.73685232
 51
192.26315737
  0
ARC
  5
138
100
AcDbEntity
  8
MST_1_1
 62
   137
  6
CONTINUOUS
100
AcDbCircle
 10
-85.35953078
 20
9.35704386
 30
0.0
 40
0.59813809
100
AcDbArc
 50
287.74903275
 51
12.25097142
  0
LWPOLYLINE
  5
139
100
AcDbEntity
  8
MST_1_1
 62
   137
  6
CONTINUOUS
100
AcDbPolyline
 90
        9
 70
     0
 43
0.0
 10
-85.18240752
 20
6.52135708
 10
-85.174851
 20
6.52891359
 10
-85.16728959
 20
6.536475
 10
-85.15972329
 20
6.5440413
 10
-85.15215222
 20
6.55161225
 10
-85.14457638
 20
6.5591881
 10
-85.13699576
 20
6.56676883
 10
-85.12941037
 20
6.57435422
 10
-85.12182033
 20
6.58194427
  0
ARC
  5
13A
100
AcDbEntity
  8
MST_1_1
 62
   137
  6
CONTINUOUS
100
AcDbCircle
 10
-84.99502417
 20
6.68752715
 30
0.0
 40
0.16500003
100
AcDbArc
 50
50.2159403
 51
219.78408407
  0
LWPOLYLINE
  5
13B
100
AcDbEntity
  8
MST_1_1
 62
   137
  6
CONTINUOUS
100
AcDbPolyline
 90
        9
 70
     0
 43
0.0
 10
-84.88944132
 20
6.81432333
 10
-84.88188107
 20
6.82188346
 10
-84.87431705
 20
6.82944755
 10
-84.86674924
 20
6.83701536
 10
-84.8591777
 20
6.84458689
 10
-84.85160238
 20
6.85216227
 10
-84.84402328
 20
6.85974126
 10
-84.83644057
 20
6.86732409
 10
-84.82885407
 20
6.87491052
  0
LWPOLYLINE
  5
13C
100
AcDbEntity
  8
MST_1_1
 62
   137
  6
CONTINUOUS
100
AcDbPolyline
 90
        9
 70
     0
 43
0.0
 10
-84.82885407
 20
6.87491052
 10
-84.87416448
 20
6.92022088
 10
-84.91951105
 20
6.96556744
 10
-84.9648891
 20
7.01094544
 10
-85.01029387
 20
7.05635021
 10
-85.05572087
 20
7.10177721
 10
-85.10116534
 20
7.14722168
 10
-85.14662273
 20
7.19267907
 10
-85.19208827
 20
7.23814461
  0
LINE
  5
13D
100
AcDbEntity
  8
MST_1_1
 62
   137
  6
CONTINUOUS
100
AcDbLine
 10
-85.19208827
 20
7.23814461
 30
0.0
 11
-85.21355455
 21
7.21667832
 31
0.0
  0
LWPOLYLINE
  5
13E
100
AcDbEntity
  8
MST_1_1
 62
   137
  6
CONTINUOUS
100
AcDbPolyline
 90
       25
 70
     0
 43
0.0
 10
-85.21355452
 20
7.21667834
 10
-85.21579794
 20
7.22013387
 10
-85.21810096
 20
7.22354362
 10
-85.22046296
 20
7.22690696
 10
-85.22288331
 20
7.23022326
 10
-85.22536139
 20
7.2334919
 10
-85.22789657
 20
7.23671225
 10
-85.23048823
 20
7.23988367
 10
-85.23313574
 20
7.24300556
 10
-85.23583848
 20
7.24607726
 10
-85.23859581
 20
7.24909817
 10
-85.24140712
 20
7.25206764
 10
-85.24427178
 20
7.25498506
 10
-85.24718917
 20
7.25784979
 10
-85.25015865
 20
7.26066121
 10
-85.25317961
 20
7.2634187
 10
-85.25625142
 20
7.26612161
 10
-85.25937345
 20
7.26876933
 10
-85.26254507
 20
7.27136122
 10
-85.26576567
 20
7.27389667
 10
-85.26903462
 20
7.27637504
 10
-85.27235129
 20
7.2787957
 10
-85.27571505
 20
7.28115803
 10
-85.27912529
 20
7.2834614
 10
-85.28258137
 20
7.28570519
  0
LINE
  5
13F
100
AcDbEntity
  8
MST_1_1
 62
   137
  6
CONTINUOUS
100
AcDbLine
 10
-85.28258139
 20
7.28570515
 30
0.0
 11
-85.2611151
 21
7.30717144
 31
0.0
  0
LWPOLYLINE
  5
140
100
AcDbEntity
  8
MST_1_1
 62
   137
  6
CONTINUOUS
100
AcDbPolyline
 90
        9
 70
     0
 43
0.0
 10
-85.2611151
 20
7.30717144
 10
-85.30658064
 20
7.35263698
 10
-85.35203803
 20
7.39809437
 10
-85.3974825
 20
7.44353884
 10
-85.4429095
 20
7.48896584
 10
-85.48831427
 20
7.53437061
 10
-85.53369227
 20
7.57974866
 10
-85.57903883
 20
7.62509522
 10
-85.62434918
 20
7.67040564
  0
LWPOLYLINE
  5
141
100
AcDbEntity
  8
MST_1_1
 62
   137
  6
CONTINUOUS
100
AcDbPolyline
 90
        9
 70
     0
 43
0.0
 10
-85.62434918
 20
7.67040564
 10
-85.63193562
 20
7.66281914
 10
-85.63951845
 20
7.65523643
 10
-85.64709744
 20
7.64765733
 10
-85.65467281
 20
7.64008201
 10
-85.66224435
 20
7.63251047
 10
-85.66981216
 20
7.62494266
 10
-85.67737625
 20
7.61737863
 10
-85.68493637
 20
7.60981839
  0
ARC
  5
142
100
AcDbEntity
  8
MST_1_1
 62
   137
  6
CONTINUOUS
100
AcDbCircle
 10
-85.81173255
 20
7.50423553
 30
0.0
 40
0.16500003
100
AcDbArc
 50
230.21593198
 51
39.78406368
  0
LWPOLYLINE
  5
143
100
AcDbEntity
  8
MST_1_1
 62
   137
  6
CONTINUOUS
100
AcDbPolyline
 90
        9
 70
     0
 43
0.0
 10
-85.91731544
 20
7.37743938
 10
-85.92490549
 20
7.36984933
 10
-85.93249088
 20
7.36226394
 10
-85.94007161
 20
7.35468333
 10
-85.94764745
 20
7.34710748
 10
-85.95521841
 20
7.33953641
 10
-85.96278471
 20
7.33197012
 10
-85.97034611
 20
7.32440871
 10
-85.97790263
 20
7.31685219
  0
LWPOLYLINE
  5
144
100
AcDbEntity
  8
MST_1_1
 62
   137
  6
CONTINUOUS
100
AcDbPolyline
 90
        9
 70
     0
 43
0.0
 10
-85.97790263
 20
7.31685219
 10
-85.93259728
 20
7.27154684
 10
-85.88725386
 20
7.22620342
 10
-85.84187727
 20
7.18082682
 10
-85.79647238
 20
7.13542194
 10
-85.75104421
 20
7.08999377
 10
-85.70559753
 20
7.04454709
 10
-85.66013735
 20
6.99908691
 10
-85.61466843
 20
6.95361811
  0
LINE
  5
145
100
AcDbEntity
  8
MST_1_1
 62
   137
  6
CONTINUOUS
100
AcDbLine
 10
-85.61466843
 20
6.95361811
 30
0.0
 11
-85.59320215
 21
6.97508439
 31
0.0
  0
LWPOLYLINE
  5
146
100
AcDbEntity
  8
MST_1_1
 62
   137
  6
CONTINUOUS
100
AcDbPolyline
 90
       25
 70
     0
 43
0.0
 10
-85.59320219
 20
6.97508437
 10
-85.59095894
 20
6.9716291
 10
-85.58865603
 20
6.96821956
 10
-85.58629409
 20
6.96485637
 10
-85.58387377
 20
6.96154017
 10
-85.58139568
 20
6.95827159
 10
-85.57886046
 20
6.95505126
 10
-85.57626873
 20
6.95187981
 10
-85.57362114
 20
6.94875788
 10
-85.5709183
 20
6.9456861
 10
-85.56816085
 20
6.9426651
 10
-85.56534942
 20
6.93969552
 10
-85.56248464
 20
6.93677799
 10
-85.55956714
 20
6.93391313
 10
-85.55659754
 20
6.93110159
 10
-85.55357649
 20
6.92834399
 10
-85.55050461
 20
6.92564097
 10
-85.54738253
 20
6.92299316
 10
-85.54421088
 20
6.92040119
 10
-85.5409903
 20
6.9178657
 10
-85.5377214
 20
6.91538732
 10
-85.53440483
 20
6.91296668
 10
-85.53104121
 20
6.91060441
 10
-85.52763117
 20
6.90830114
 10
-85.52417534
 20
6.90605752
  0
LINE
  5
147
100
AcDbEntity
  8
MST_1_1
 62
   137
  6
CONTINUOUS
100
AcDbLine
 10
-85.52417531
 20
6.90605756
 30
0.0
 11
-85.5456416
 21
6.88459127
 31
0.0
  0
LWPOLYLINE
  5
148
100
AcDbEntity
  8
MST_1_1
 62
   137
  6
CONTINUOUS
100
AcDbPolyline
 90
        9
 70
     0
 43
0.0
 10
-85.5456416
 20
6.88459127
 10
-85.5001728
 20
6.83912236
 10
-85.45471262
 20
6.79366218
 10
-85.40926594
 20
6.7482155
 10
-85.36383777
 20
6.70278733
 10
-85.31843288
 20
6.65738244
 10
-85.27305629
 20
6.61200584
 10
-85.22771287
 20
6.56666243
 10
-85.18240752
 20
6.52135708
  0
CIRCLE
  5
149
100
AcDbEntity
  8
MST_1_1
 62
   137
  6
CONTINUOUS
100
AcDbCircle
 10
-83.95380946
 20
8.54545025
 30
0.0
 40
2.80967609
  0
LWPOLYLINE
  5
14A
100
AcDbEntity
  8
MST_1_1
 62
   137
  6
CONTINUOUS
100
AcDbPolyline
 90
        9
 70
     0
 43
0.0
 10
-85.35424841
 20
7.31545195
 10
-85.38401452
 20
7.34521806
 10
-85.41377564
 20
7.37497917
 10
-85.44353034
 20
7.40473388
 10
-85.47327737
 20
7.43448091
 10
-85.50301531
 20
7.46421885
 10
-85.5327429
 20
7.49394655
 10
-85.56245896
 20
7.5236625
 10
-85.59216198
 20
7.55336552
  0
ARC
  5
14B
100
AcDbEntity
  8
MST_1_1
 62
   137
  6
CONTINUOUS
100
AcDbCircle
 10
-85.40337841
 20
7.09588132
 30
0.0
 40
0.22500004
100
AcDbArc
 50
77.38753746
 51
127.33773016
  0
LINE
  5
14C
100
AcDbEntity
  8
MST_1_1
 62
   137
  6
CONTINUOUS
100
AcDbLine
 10
-85.22448665
 20
6.95941606
 30
0.0
 11
-85.53984365
 21
7.27477306
 31
0.0
  0
ARC
  5
14D
100
AcDbEntity
  8
MST_1_1
 62
   137
  6
CONTINUOUS
100
AcDbCircle
 10
-85.40337882
 20
7.0958814
 30
0.0
 40
0.22500044
100
AcDbArc
 50
322.66232758
 51
12.61241482
  0
LWPOLYLINE
  5
14E
100
AcDbEntity
  8
MST_1_1
 62
   137
  6
CONTINUOUS
100
AcDbPolyline
 90
        9
 70
     0
 43
0.0
 10
-84.94589419
 20
6.90709773
 10
-84.97559721
 20
6.93680075
 10
-85.00531315
 20
6.96651681
 10
-85.03504085
 20
6.99624439
 10
-85.0647788
 20
7.02598234
 10
-85.09452582
 20
7.05572936
 10
-85.12428053
 20
7.08548407
 10
-85.15404164
 20
7.11524518
 10
-85.18380776
 20
7.1450113
  0
ARC
  5
14F
100
AcDbEntity
  8
MST_1_1
 62
   137
  6
CONTINUOUS
100
AcDbCircle
 10
-84.99502429
 20
6.68752729
 30
0.0
 40
0.22499987
100
AcDbArc
 50
77.38750317
 51
192.61250685
  0
LWPOLYLINE
  5
150
100
AcDbEntity
  8
MST_1_1
 62
   137
  6
CONTINUOUS
100
AcDbPolyline
 90
        9
 70
     0
 43
0.0
 10
-85.45250829
 20
6.87631077
 10
-85.42274113
 20
6.84654349
 10
-85.39297909
 20
6.81678156
 10
-85.3632238
 20
6.78702615
 10
-85.33347642
 20
6.75727889
 10
-85.30373859
 20
6.72754095
 10
-85.27401136
 20
6.69781383
 10
-85.24429635
 20
6.6680987
 10
-85.21459473
 20
6.6383972
  0
ARC
  5
151
100
AcDbEntity
  8
MST_1_1
 62
   137
  6
CONTINUOUS
100
AcDbCircle
 10
-85.40337828
 20
7.09588133
 30
0.0
 40
0.22499997
100
AcDbArc
 50
257.38753999
 51
307.33774766
  0
LINE
  5
152
100
AcDbEntity
  8
MST_1_1
 62
   137
  6
CONTINUOUS
100
AcDbLine
 10
-85.58227005
 20
7.23234666
 30
0.0
 11
-85.26691305
 21
6.91698966
 31
0.0
  0
ARC
  5
153
100
AcDbEntity
  8
MST_1_1
 62
   137
  6
CONTINUOUS
100
AcDbCircle
 10
-85.40337799
 20
7.09588134
 30
0.0
 40
0.22500034
100
AcDbArc
 50
142.66230552
 51
192.61243688
  0
LWPOLYLINE
  5
154
100
AcDbEntity
  8
MST_1_1
 62
   137
  6
CONTINUOUS
100
AcDbPolyline
 90
        9
 70
     0
 43
0.0
 10
-85.86086251
 20
7.28466498
 10
-85.831161
 20
7.25496336
 10
-85.80144588
 20
7.22524835
 10
-85.77171876
 20
7.19552111
 10
-85.74198081
 20
7.16578329
 10
-85.71223355
 20
7.13603591
 10
-85.68247815
 20
7.10628062
 10
-85.65271622
 20
7.07651858
 10
-85.62294894
 20
7.04675141
  0
ARC
  5
155
100
AcDbEntity
  8
MST_1_1
 62
   137
  6
CONTINUOUS
100
AcDbCircle
 10
-85.81173177
 20
7.50423478
 30
0.0
 40
0.22499939
100
AcDbArc
 50
257.38731744
 51
12.61269257
  0
LINE
  5
156
100
AcDbEntity
  8
MST_1_1
 62
   137
  6
CONTINUOUS
100
AcDbLine
 10
-85.4696373
 20
7.2469931
 30
0.0
 11
-85.25226661
 21
7.02962241
 31
0.0
  0
ARC
  5
157
100
AcDbEntity
  8
MST_1_1
 62
   137
  6
CONTINUOUS
100
AcDbCircle
 10
-85.40337836
 20
7.09588134
 30
0.0
 40
0.16500003
100
AcDbArc
 50
336.32369525
 51
113.67631477
  0
LINE
  5
158
100
AcDbEntity
  8
MST_1_1
 62
   137
  6
CONTINUOUS
100
AcDbLine
 10
-85.33711941
 20
6.94476961
 30
0.0
 11
-85.5544901
 21
7.1621403
 31
0.0
  0
ARC
  5
159
100
AcDbEntity
  8
MST_1_1
 62
   137
  6
CONTINUOUS
100
AcDbCircle
 10
-85.40337833
 20
7.09588137
 30
0.0
 40
0.16500003
100
AcDbArc
 50
156.32368721
 51
293.6763228
  0
LINE
  5
15A
100
AcDbEntity
  8
MST_1_1
 62
   137
  6
CONTINUOUS
100
AcDbLine
 10
-2.06250403
 20
8.54545025
 30
0.0
 11
-2.06250403
 21
11.49545025
 31
0.0
  0
LINE
  5
15B
100
AcDbEntity
  8
MST_1_1
 62
   137
  6
CONTINUOUS
100
AcDbLine
 10
-2.06250403
 20
11.49545025
 30
0.0
 11
-1.98750405
 21
11.49545025
 31
0.0
  0
LWPOLYLINE
  5
15C
100
AcDbEntity
  8
MST_1_1
 62
   137
  6
CONTINUOUS
100
AcDbPolyline
 90
        6
 70
     0
 43
0.0
 38
2500.0
 10
2.0133026
 20
10.04545036
 10
1.88035311
 20
9.47116454
 10
3.00440011
 20
7.04545025
 10
3.13734964
 20
7.61973597
 10
2.0133026
 20
10.04545036
 10
3.00440011
 20
7.04545025
  0
LINE
  5
15D
100
AcDbEntity
  8
MST_1_1
 62
   137
  6
CONTINUOUS
100
AcDbLine
 10
-0.16250403
 20
9.47116454
 30
2500.0
 11
1.88035311
 21
9.47116454
 31
2500.0
  0
LWPOLYLINE
  5
15E
100
AcDbEntity
  8
MST_1_1
 62
   137
  6
CONTINUOUS
100
AcDbPolyline
 90
        4
 70
     0
 43
0.0
 38
2500.0
 10
1.02399726
 20
7.61973597
 10
1.29011439
 20
7.04545025
 10
1.42306393
 20
7.61973597
 10
1.2236492
 20
8.05007665
  0
LINE
  5
15F
100
AcDbEntity
  8
MST_1_1
 62
   137
  6
CONTINUOUS
100
AcDbLine
 10
1.06861689
 20
7.71591156
 30
2500.0
 11
1.29011439
 21
7.04545025
 31
2500.0
  0
LINE
  5
160
100
AcDbEntity
  8
MST_1_1
 62
   137
  6
CONTINUOUS
100
AcDbLine
 10
1.02399726
 20
7.61973597
 30
2500.0
 11
1.2236492
 21
8.05007665
 31
2500.0
  0
LINE
  5
161
100
AcDbEntity
  8
MST_1_1
 62
   137
  6
CONTINUOUS
100
AcDbLine
 10
2.73828297
 20
7.61973597
 30
2500.0
 11
1.42306393
 21
7.61973597
 31
2500.0
  0
LINE
  5
162
100
AcDbEntity
  8
MST_1_1
 62
   137
  6
CONTINUOUS
100
AcDbLine
 10
1.02399726
 20
7.61973597
 30
2500.0
 11
-0.16250403
 21
7.61973597
 31
2500.0
  0
LINE
  5
163
100
AcDbEntity
  8
MST_1_1
 62
   137
  6
CONTINUOUS
100
AcDbLine
 10
-1.98750405
 20
11.49545025
 30
0.0
 11
-0.16250403
 21
9.47116454
 31
0.0
  0
LINE
  5
164
100
AcDbEntity
  8
MST_1_1
 62
   137
  6
CONTINUOUS
100
AcDbLine
 10
-0.16250403
 20
7.61973597
 30
0.0
 11
-1.98750405
 21
5.59545025
 31
0.0
  0
LINE
  5
165
100
AcDbEntity
  8
MST_1_1
 62
   137
  6
CONTINUOUS
100
AcDbLine
 10
-1.98750405
 20
5.59545025
 30
0.0
 11
-2.06250403
 21
5.59545025
 31
0.0
  0
LINE
  5
166
100
AcDbEntity
  8
MST_1_1
 62
   137
  6
CONTINUOUS
100
AcDbLine
 10
-2.06250403
 20
5.59545025
 30
0.0
 11
-2.06250403
 21
8.54545025
 31
0.0
  0
LWPOLYLINE
  5
167
100
AcDbEntity
  8
MST_1_1
 62
   137
  6
CONTINUOUS
100
AcDbPolyline
 90
        6
 70
     0
 43
0.0
 38
2500.0
 10
3.72758831
 20
10.04545036
 10
3.59463883
 20
9.47116454
 10
4.71868582
 20
7.04545025
 10
4.83137886
 20
7.66344986
 10
3.72758831
 20
10.04545036
 10
4.71868582
 20
7.04545025
  0
LWPOLYLINE
  5
168
100
AcDbEntity
  8
MST_1_1
 62
   137
  6
CONTINUOUS
100
AcDbPolyline
 90
        6
 70
     0
 43
0.0
 38
2500.0
 10
5.41661362
 20
9.85028808
 10
5.30892454
 20
9.38511656
 10
6.23718234
 20
7.38191899
 10
6.34487143
 20
7.8470905
 10
5.41661362
 20
9.85028808
 10
6.21940261
 20
7.42028799
  0
LINE
  5
169
100
AcDbEntity
  8
MST_1_1
 62
   137
  6
CONTINUOUS
100
AcDbLine
 10
3.13734964
 20
7.61973597
 30
2500.0
 11
3.99546217
 21
7.62352691
 31
2500.0
  0
LINE
  5
16A
100
AcDbEntity
  8
MST_1_1
 62
   137
  6
CONTINUOUS
100
AcDbLine
 10
3.59463883
 20
9.47116454
 30
2500.0
 11
2.27941978
 21
9.47116454
 31
2500.0
  0
ARC
  5
16B
100
AcDbEntity
  8
MST_1_1
 62
   137
  6
CONTINUOUS
100
AcDbCircle
 10
3.64209713
 20
-6.70275235
 30
2500.0
 40
16.17398651
100
AcDbArc
 50
84.08482032
 51
88.74811714
  0
LWPOLYLINE
  5
16C
100
AcDbEntity
  8
MST_1_1
 62
   137
  6
CONTINUOUS
100
AcDbPolyline
 90
        3
 70
     0
 43
0.0
 38
2500.0
 10
9.93749597
 20
8.54545025
 10
6.75122202
 20
9.16958781
 42
0.01723995
 10
5.65025591
 20
9.34608369
  0
ARC
  5
16D
100
AcDbEntity
  8
MST_1_1
 62
   137
  6
CONTINUOUS
100
AcDbCircle
 10
3.64209713
 20
23.79365285
 30
2500.0
 40
16.17398651
100
AcDbArc
 50
271.25189287
 51
272.83975061
  0
LWPOLYLINE
  5
16E
100
AcDbEntity
  8
MST_1_1
 62
   137
  6
CONTINUOUS
100
AcDbPolyline
 90
        3
 70
     0
 43
0.0
 38
2500.0
 10
9.93749597
 20
8.54545025
 10
6.75122202
 20
7.92131269
 42
-0.0063851
 10
6.34487143
 20
7.8470905
  0
ARC
  5
16F
100
AcDbEntity
  8
MST_1_1
 62
   137
  6
CONTINUOUS
100
AcDbCircle
 10
3.64209713
 20
23.79365285
 30
2500.0
 40
16.17398651
100
AcDbArc
 50
274.21680449
 51
278.53995004
  0
LWPOLYLINE
  5
170
100
AcDbEntity
  8
MST_1_1
 62
   137
  6
CONTINUOUS
100
AcDbPolyline
 90
        6
 70
     0
 43
0.0
 38
2500.0
 10
7.09428505
 20
9.42332308
 10
7.02321025
 20
9.11630988
 10
7.6358604
 20
7.79419949
 10
7.70383049
 20
8.1079127
 10
7.09428505
 20
9.42332308
 10
7.62412578
 20
7.81952303
  0
LINE
  5
171
100
AcDbEntity
  8
MST_1_1
 62
   137
  6
CONTINUOUS
100
AcDbLine
 10
-2.84415951
 20
10.25760711
 30
2500.0
 11
-2.84415951
 21
6.83329339
 31
2500.0
  0
LWPOLYLINE
  5
172
100
AcDbEntity
  8
MST_1_1
 62
   137
  6
CONTINUOUS
100
AcDbPolyline
 90
       13
 70
     0
 43
0.0
 38
2500.0
 10
-2.84415951
 20
10.25760711
 10
-2.84273309
 20
10.3765616
 10
-2.82885536
 20
10.49504966
 10
-2.80261488
 20
10.61231504
 10
-2.76417915
 20
10.72760931
 10
-2.71379346
 20
10.84019658
 10
-2.65177942
 20
10.94935828
 10
-2.57853283
 20
11.05439766
 10
-2.49452118
 20
11.15464433
 10
-2.40028069
 20
11.24945844
 10
-2.29641283
 20
11.33823485
 10
-2.18358056
 20
11.42040695
 10
-2.06250403
 20
11.49545025
  0
LWPOLYLINE
  5
173
100
AcDbEntity
  8
MST_1_1
 62
   137
  6
CONTINUOUS
100
AcDbPolyline
 90
       13
 70
     0
 43
0.0
 38
2500.0
 10
-2.84415951
 20
6.83329339
 10
-2.84273309
 20
6.71433891
 10
-2.82885536
 20
6.59585085
 10
-2.80261488
 20
6.47858546
 10
-2.76417915
 20
6.3632912
 10
-2.71379346
 20
6.25070392
 10
-2.65177942
 20
6.14154223
 10
-2.57853283
 20
6.03650284
 10
-2.49452118
 20
5.93625618
 10
-2.40028069
 20
5.84144206
 10
-2.29641283
 20
5.75266565
 10
-2.18358056
 20
5.67049356
 10
-2.06250403
 20
5.59545025
  0
LINE
  5
174
100
AcDbEntity
  8
MST_1_1
 62
   137
  6
CONTINUOUS
100
AcDbLine
 10
-2.84415951
 20
-19.74239289
 30
2500.0
 11
-2.84415951
 21
-23.16670661
 31
2500.0
  0
LWPOLYLINE
  5
175
100
AcDbEntity
  8
MST_1_1
 62
   137
  6
CONTINUOUS
100
AcDbPolyline
 90
       13
 70
     0
 43
0.0
 38
2500.0
 10
-2.84415951
 20
-19.74239289
 10
-2.84273309
 20
-19.6234384
 10
-2.82885536
 20
-19.50495034
 10
-2.80261488
 20
-19.38768496
 10
-2.76417915
 20
-19.27239069
 10
-2.71379346
 20
-19.15980342
 10
-2.65177942
 20
-19.05064172
 10
-2.57853283
 20
-18.94560234
 10
-2.49452118
 20
-18.84535567
 10
-2.40028069
 20
-18.75054156
 10
-2.29641283
 20
-18.66176515
 10
-2.18358056
 20
-18.57959305
 10
-2.06250403
 20
-18.50454975
  0
LWPOLYLINE
  5
176
100
AcDbEntity
  8
MST_1_1
 62
   137
  6
CONTINUOUS
100
AcDbPolyline
 90
       13
 70
     0
 43
0.0
 38
2500.0
 10
-2.84415951
 20
-23.16670661
 10
-2.84273309
 20
-23.28566109
 10
-2.82885536
 20
-23.40414915
 10
-2.80261488
 20
-23.52141454
 10
-2.76417915
 20
-23.6367088
 10
-2.71379346
 20
-23.74929608
 10
-2.65177942
 20
-23.85845777
 10
-2.57853283
 20
-23.96349716
 10
-2.49452118
 20
-24.06374382
 10
-2.40028069
 20
-24.15855794
 10
-2.29641283
 20
-24.24733435
 10
-2.18358056
 20
-24.32950644
 10
-2.06250403
 20
-24.40454975
  0
LINE
  5
177
100
AcDbEntity
  8
MST_1_1
 62
   137
  6
CONTINUOUS
100
AcDbLine
 10
-2.84415951
 20
-49.74239289
 30
2500.0
 11
-2.84415951
 21
-53.16670661
 31
2500.0
  0
LWPOLYLINE
  5
178
100
AcDbEntity
  8
MST_1_1
 62
   137
  6
CONTINUOUS
100
AcDbPolyline
 90
       13
 70
     0
 43
0.0
 38
2500.0
 10
-2.84415951
 20
-49.74239289
 10
-2.84273309
 20
-49.6234384
 10
-2.82885536
 20
-49.50495034
 10
-2.80261488
 20
-49.38768496
 10
-2.76417915
 20
-49.27239069
 10
-2.71379346
 20
-49.15980342
 10
-2.65177942
 20
-49.05064172
 10
-2.57853283
 20
-48.94560234
 10
-2.49452118
 20
-48.84535567
 10
-2.40028069
 20
-48.75054156
 10
-2.29641283
 20
-48.66176515
 10
-2.18358056
 20
-48.57959305
 10
-2.06250403
 20
-48.50454975
  0
LWPOLYLINE
  5
179
100
AcDbEntity
  8
MST_1_1
 62
   137
  6
CONTINUOUS
100
AcDbPolyline
 90
       13
 70
     0
 43
0.0
 38
2500.0
 10
-2.84415951
 20
-53.16670661
 10
-2.84273309
 20
-53.28566109
 10
-2.82885536
 20
-53.40414915
 10
-2.80261488
 20
-53.52141454
 10
-2.76417915
 20
-53.6367088
 10
-2.71379346
 20
-53.74929608
 10
-2.65177942
 20
-53.85845777
 10
-2.57853283
 20
-53.96349716
 10
-2.49452118
 20
-54.06374382
 10
-2.40028069
 20
-54.15855794
 10
-2.29641283
 20
-54.24733435
 10
-2.18358056
 20
-54.32950644
 10
-2.06250403
 20
-54.40454975
  0
LINE
  5
17A
100
AcDbEntity
  8
MST_1_1
 62
   137
  6
CONTINUOUS
100
AcDbLine
 10
-2.84415951
 20
-79.74239289
 30
2500.0
 11
-2.84415951
 21
-83.16670661
 31
2500.0
  0
LWPOLYLINE
  5
17B
100
AcDbEntity
  8
MST_1_1
 62
   137
  6
CONTINUOUS
100
AcDbPolyline
 90
       13
 70
     0
 43
0.0
 38
2500.0
 10
-2.84415951
 20
-79.74239289
 10
-2.84273309
 20
-79.6234384
 10
-2.82885536
 20
-79.50495034
 10
-2.80261488
 20
-79.38768496
 10
-2.76417915
 20
-79.27239069
 10
-2.71379346
 20
-79.15980342
 10
-2.65177942
 20
-79.05064172
 10
-2.57853283
 20
-78.94560234
 10
-2.49452118
 20
-78.84535567
 10
-2.40028069
 20
-78.75054156
 10
-2.29641283
 20
-78.66176515
 10
-2.18358056
 20
-78.57959305
 10
-2.06250403
 20
-78.50454975
  0
LWPOLYLINE
  5
17C
100
AcDbEntity
  8
MST_1_1
 62
   137
  6
CONTINUOUS
100
AcDbPolyline
 90
       13
 70
     0
 43
0.0
 38
2500.0
 10
-2.84415951
 20
-83.16670661
 10
-2.84273309
 20
-83.28566109
 10
-2.82885536
 20
-83.40414915
 10
-2.80261488
 20
-83.52141454
 10
-2.76417915
 20
-83.6367088
 10
-2.71379346
 20
-83.74929608
 10
-2.65177942
 20
-83.85845777
 10
-2.57853283
 20
-83.96349716
 10
-2.49452118
 20
-84.06374382
 10
-2.40028069
 20
-84.15855794
 10
-2.29641283
 20
-84.24733435
 10
-2.18358056
 20
-84.32950644
 10
-2.06250403
 20
-84.40454975
  0
LINE
  5
17D
100
AcDbEntity
  8
MST_1_1
 62
   137
  6
CONTINUOUS
100
AcDbLine
 10
-2.84415951
 20
-109.74239289
 30
2500.0
 11
-2.84415951
 21
-113.16670661
 31
2500.0
  0
LWPOLYLINE
  5
17E
100
AcDbEntity
  8
MST_1_1
 62
   137
  6
CONTINUOUS
100
AcDbPolyline
 90
       13
 70
     0
 43
0.0
 38
2500.0
 10
-2.84415951
 20
-109.74239289
 10
-2.84273309
 20
-109.6234384
 10
-2.82885536
 20
-109.50495034
 10
-2.80261488
 20
-109.38768496
 10
-2.76417915
 20
-109.27239069
 10
-2.71379346
 20
-109.15980342
 10
-2.65177942
 20
-109.05064172
 10
-2.57853283
 20
-108.94560234
 10
-2.49452118
 20
-108.84535567
 10
-2.40028069
 20
-108.75054156
 10
-2.29641283
 20
-108.66176515
 10
-2.18358056
 20
-108.57959305
 10
-2.06250403
 20
-108.50454975
  0
LWPOLYLINE
  5
17F
100
AcDbEntity
  8
MST_1_1
 62
   137
  6
CONTINUOUS
100
AcDbPolyline
 90
       13
 70
     0
 43
0.0
 38
2500.0
 10
-2.84415951
 20
-113.16670661
 10
-2.84273309
 20
-113.28566109
 10
-2.82885536
 20
-113.40414915
 10
-2.80261488
 20
-113.52141454
 10
-2.76417915
 20
-113.6367088
 10
-2.71379346
 20
-113.74929608
 10
-2.65177942
 20
-113.85845777
 10
-2.57853283
 20
-113.96349716
 10
-2.49452118
 20
-114.06374382
 10
-2.40028069
 20
-114.15855794
 10
-2.29641283
 20
-114.24733435
 10
-2.18358056
 20
-114.32950644
 10
-2.06250403
 20
-114.40454975
  0
CIRCLE
  5
180
100
AcDbEntity
  8
MST_1_1
 62
   137
  6
CONTINUOUS
100
AcDbCircle
 10
-83.95380946
 20
-21.45454975
 30
0.0
 40
1.57981333
  0
CIRCLE
  5
181
100
AcDbEntity
  8
MST_1_1
 62
   137
  6
CONTINUOUS
100
AcDbCircle
 10
-83.95380946
 20
-21.45454975
 30
0.0
 40
0.92740167
  0
CIRCLE
  5
182
100
AcDbEntity
  8
MST_1_1
 62
   137
  6
CONTINUOUS
100
AcDbCircle
 10
-83.95380946
 20
-21.45454975
 30
0.0
 40
1.57981333
  0
CIRCLE
  5
183
100
AcDbEntity
  8
MST_1_1
 62
   137
  6
CONTINUOUS
100
AcDbCircle
 10
-83.95380946
 20
-21.45454975
 30
0.0
 40
0.92740167
  0
CIRCLE
  5
184
100
AcDbEntity
  8
MST_1_1
 62
   137
  6
CONTINUOUS
100
AcDbCircle
 10
-83.95380946
 20
-21.45454975
 30
0.0
 40
1.57981333
  0
CIRCLE
  5
185
100
AcDbEntity
  8
MST_1_1
 62
   137
  6
CONTINUOUS
100
AcDbCircle
 10
-83.95380946
 20
-21.45454975
 30
0.0
 40
0.92740167
  0
CIRCLE
  5
186
100
AcDbEntity
  8
MST_1_1
 62
   137
  6
CONTINUOUS
100
AcDbCircle
 10
-83.95380946
 20
-21.45454975
 30
0.0
 40
2.94765956
  0
ARC
  5
187
100
AcDbEntity
  8
MST_1_1
 62
   137
  6
CONTINUOUS
100
AcDbCircle
 10
-85.09980944
 20
-21.45454975
 30
0.0
 40
0.25400002
100
AcDbArc
 50
107.73687203
 51
252.26313799
  0
ARC
  5
188
100
AcDbEntity
  8
MST_1_1
 62
   137
  6
CONTINUOUS
100
AcDbCircle
 10
-85.35953075
 20
-22.26614334
 30
0.0
 40
0.59813807
100
AcDbArc
 50
347.74903638
 51
72.25097948
  0
ARC
  5
189
100
AcDbEntity
  8
MST_1_1
 62
   137
  6
CONTINUOUS
100
AcDbCircle
 10
-84.52680946
 20
-22.44701488
 30
0.0
 40
0.254
100
AcDbArc
 50
167.7368553
 51
312.26315504
  0
ARC
  5
18A
100
AcDbEntity
  8
MST_1_1
 62
   137
  6
CONTINUOUS
100
AcDbCircle
 10
-83.95380946
 20
-23.07773698
 30
0.0
 40
0.59813812
100
AcDbArc
 50
47.74903104
 51
132.25096896
  0
ARC
  5
18B
100
AcDbEntity
  8
MST_1_1
 62
   137
  6
CONTINUOUS
100
AcDbCircle
 10
-83.38080945
 20
-22.44701489
 30
0.0
 40
0.25399999
100
AcDbArc
 50
227.73686234
 51
12.26314736
  0
ARC
  5
18C
100
AcDbEntity
  8
MST_1_1
 62
   137
  6
CONTINUOUS
100
AcDbCircle
 10
-82.54808813
 20
-22.26614335
 30
0.0
 40
0.59813809
100
AcDbArc
 50
107.74902273
 51
192.25098144
  0
ARC
  5
18D
100
AcDbEntity
  8
MST_1_1
 62
   137
  6
CONTINUOUS
100
AcDbCircle
 10
-82.80780947
 20
-21.45454975
 30
0.0
 40
0.25400002
100
AcDbArc
 50
287.73688205
 51
72.26312797
  0
ARC
  5
18E
100
AcDbEntity
  8
MST_1_1
 62
   137
  6
CONTINUOUS
100
AcDbCircle
 10
-82.54808816
 20
-20.64295616
 30
0.0
 40
0.59813807
100
AcDbArc
 50
167.74902636
 51
252.2509895
  0
ARC
  5
18F
100
AcDbEntity
  8
MST_1_1
 62
   137
  6
CONTINUOUS
100
AcDbCircle
 10
-83.38080945
 20
-20.46208461
 30
0.0
 40
0.254
100
AcDbArc
 50
347.73686532
 51
132.26314502
  0
ARC
  5
190
100
AcDbEntity
  8
MST_1_1
 62
   137
  6
CONTINUOUS
100
AcDbCircle
 10
-83.95380946
 20
-19.83136252
 30
0.0
 40
0.59813812
100
AcDbArc
 50
227.74904106
 51
312.25097898
  0
ARC
  5
191
100
AcDbEntity
  8
MST_1_1
 62
   137
  6
CONTINUOUS
100
AcDbCircle
 10
-84.52680947
 20
-20.4620846
 30
0.0
 40
0.25399999
100
AcDbArc
 50
47.73685232
 51
192.26315737
  0
ARC
  5
192
100
AcDbEntity
  8
MST_1_1
 62
   137
  6
CONTINUOUS
100
AcDbCircle
 10
-85.35953078
 20
-20.64295614
 30
0.0
 40
0.59813809
100
AcDbArc
 50
287.74903275
 51
12.25097142
  0
LWPOLYLINE
  5
193
100
AcDbEntity
  8
MST_1_1
 62
   137
  6
CONTINUOUS
100
AcDbPolyline
 90
        9
 70
     0
 43
0.0
 10
-85.18240752
 20
-23.47864292
 10
-85.174851
 20
-23.47108641
 10
-85.16728959
 20
-23.463525
 10
-85.15972329
 20
-23.4559587
 10
-85.15215222
 20
-23.44838775
 10
-85.14457638
 20
-23.4408119
 10
-85.13699576
 20
-23.43323117
 10
-85.12941037
 20
-23.42564578
 10
-85.12182033
 20
-23.41805573
  0
ARC
  5
194
100
AcDbEntity
  8
MST_1_1
 62
   137
  6
CONTINUOUS
100
AcDbCircle
 10
-84.99502417
 20
-23.31247285
 30
0.0
 40
0.16500003
100
AcDbArc
 50
50.2159403
 51
219.78408407
  0
LWPOLYLINE
  5
195
100
AcDbEntity
  8
MST_1_1
 62
   137
  6
CONTINUOUS
100
AcDbPolyline
 90
        9
 70
     0
 43
0.0
 10
-84.88944132
 20
-23.18567667
 10
-84.88188107
 20
-23.17811654
 10
-84.87431705
 20
-23.17055245
 10
-84.86674924
 20
-23.16298464
 10
-84.8591777
 20
-23.15541311
 10
-84.85160238
 20
-23.14783773
 10
-84.84402328
 20
-23.14025874
 10
-84.83644057
 20
-23.13267591
 10
-84.82885407
 20
-23.12508948
  0
LWPOLYLINE
  5
196
100
AcDbEntity
  8
MST_1_1
 62
   137
  6
CONTINUOUS
100
AcDbPolyline
 90
        9
 70
     0
 43
0.0
 10
-84.82885407
 20
-23.12508948
 10
-84.87416448
 20
-23.07977912
 10
-84.91951105
 20
-23.03443256
 10
-84.9648891
 20
-22.98905456
 10
-85.01029387
 20
-22.94364979
 10
-85.05572087
 20
-22.89822279
 10
-85.10116534
 20
-22.85277832
 10
-85.14662273
 20
-22.80732093
 10
-85.19208827
 20
-22.76185539
  0
LINE
  5
197
100
AcDbEntity
  8
MST_1_1
 62
   137
  6
CONTINUOUS
100
AcDbLine
 10
-85.19208827
 20
-22.76185539
 30
0.0
 11
-85.21355455
 21
-22.78332168
 31
0.0
  0
LWPOLYLINE
  5
198
100
AcDbEntity
  8
MST_1_1
 62
   137
  6
CONTINUOUS
100
AcDbPolyline
 90
       25
 70
     0
 43
0.0
 10
-85.21355452
 20
-22.78332166
 10
-85.21579794
 20
-22.77986613
 10
-85.21810096
 20
-22.77645638
 10
-85.22046296
 20
-22.77309304
 10
-85.22288331
 20
-22.76977674
 10
-85.22536139
 20
-22.7665081
 10
-85.22789657
 20
-22.76328775
 10
-85.23048823
 20
-22.76011633
 10
-85.23313574
 20
-22.75699444
 10
-85.23583848
 20
-22.75392274
 10
-85.23859581
 20
-22.75090183
 10
-85.24140712
 20
-22.74793236
 10
-85.24427178
 20
-22.74501494
 10
-85.24718917
 20
-22.74215021
 10
-85.25015865
 20
-22.73933879
 10
-85.25317961
 20
-22.7365813
 10
-85.25625142
 20
-22.73387839
 10
-85.25937345
 20
-22.73123067
 10
-85.26254507
 20
-22.72863878
 10
-85.26576567
 20
-22.72610333
 10
-85.26903462
 20
-22.72362496
 10
-85.27235129
 20
-22.7212043
 10
-85.27571505
 20
-22.71884197
 10
-85.27912529
 20
-22.7165386
 10
-85.28258137
 20
-22.71429481
  0
LINE
  5
199
100
AcDbEntity
  8
MST_1_1
 62
   137
  6
CONTINUOUS
100
AcDbLine
 10
-85.28258139
 20
-22.71429485
 30
0.0
 11
-85.2611151
 21
-22.69282856
 31
0.0
  0
LWPOLYLINE
  5
19A
100
AcDbEntity
  8
MST_1_1
 62
   137
  6
CONTINUOUS
100
AcDbPolyline
 90
        9
 70
     0
 43
0.0
 10
-85.2611151
 20
-22.69282856
 10
-85.30658064
 20
-22.64736302
 10
-85.35203803
 20
-22.60190563
 10
-85.3974825
 20
-22.55646116
 10
-85.4429095
 20
-22.51103416
 10
-85.48831427
 20
-22.46562939
 10
-85.53369227
 20
-22.42025134
 10
-85.57903883
 20
-22.37490478
 10
-85.62434918
 20
-22.32959436
  0
LWPOLYLINE
  5
19B
100
AcDbEntity
  8
MST_1_1
 62
   137
  6
CONTINUOUS
100
AcDbPolyline
 90
        9
 70
     0
 43
0.0
 10
-85.62434918
 20
-22.32959436
 10
-85.63193562
 20
-22.33718086
 10
-85.63951845
 20
-22.34476357
 10
-85.64709744
 20
-22.35234267
 10
-85.65467281
 20
-22.35991799
 10
-85.66224435
 20
-22.36748953
 10
-85.66981216
 20
-22.37505734
 10
-85.67737625
 20
-22.38262137
 10
-85.68493637
 20
-22.39018161
  0
ARC
  5
19C
100
AcDbEntity
  8
MST_1_1
 62
   137
  6
CONTINUOUS
100
AcDbCircle
 10
-85.81173255
 20
-22.49576447
 30
0.0
 40
0.16500003
100
AcDbArc
 50
230.21593198
 51
39.78406368
  0
LWPOLYLINE
  5
19D
100
AcDbEntity
  8
MST_1_1
 62
   137
  6
CONTINUOUS
100
AcDbPolyline
 90
        9
 70
     0
 43
0.0
 10
-85.91731544
 20
-22.62256062
 10
-85.92490549
 20
-22.63015067
 10
-85.93249088
 20
-22.63773606
 10
-85.94007161
 20
-22.64531667
 10
-85.94764745
 20
-22.65289252
 10
-85.95521841
 20
-22.66046359
 10
-85.96278471
 20
-22.66802988
 10
-85.97034611
 20
-22.67559129
 10
-85.97790263
 20
-22.68314781
  0
LWPOLYLINE
  5
19E
100
AcDbEntity
  8
MST_1_1
 62
   137
  6
CONTINUOUS
100
AcDbPolyline
 90
        9
 70
     0
 43
0.0
 10
-85.97790263
 20
-22.68314781
 10
-85.93259728
 20
-22.72845316
 10
-85.88725386
 20
-22.77379658
 10
-85.84187727
 20
-22.81917318
 10
-85.79647238
 20
-22.86457806
 10
-85.75104421
 20
-22.91000623
 10
-85.70559753
 20
-22.95545291
 10
-85.66013735
 20
-23.00091309
 10
-85.61466843
 20
-23.04638189
  0
LINE
  5
19F
100
AcDbEntity
  8
MST_1_1
 62
   137
  6
CONTINUOUS
100
AcDbLine
 10
-85.61466843
 20
-23.04638189
 30
0.0
 11
-85.59320215
 21
-23.02491561
 31
0.0
  0
LWPOLYLINE
  5
1A0
100
AcDbEntity
  8
MST_1_1
 62
   137
  6
CONTINUOUS
100
AcDbPolyline
 90
       25
 70
     0
 43
0.0
 10
-85.59320219
 20
-23.02491563
 10
-85.59095894
 20
-23.0283709
 10
-85.58865603
 20
-23.03178044
 10
-85.58629409
 20
-23.03514363
 10
-85.58387377
 20
-23.03845983
 10
-85.58139568
 20
-23.04172841
 10
-85.57886046
 20
-23.04494874
 10
-85.57626873
 20
-23.04812019
 10
-85.57362114
 20
-23.05124212
 10
-85.5709183
 20
-23.0543139
 10
-85.56816085
 20
-23.0573349
 10
-85.56534942
 20
-23.06030448
 10
-85.56248464
 20
-23.06322201
 10
-85.55956714
 20
-23.06608687
 10
-85.55659754
 20
-23.06889841
 10
-85.55357649
 20
-23.07165601
 10
-85.55050461
 20
-23.07435903
 10
-85.54738253
 20
-23.07700684
 10
-85.54421088
 20
-23.07959881
 10
-85.5409903
 20
-23.0821343
 10
-85.5377214
 20
-23.08461268
 10
-85.53440483
 20
-23.08703332
 10
-85.53104121
 20
-23.08939559
 10
-85.52763117
 20
-23.09169886
 10
-85.52417534
 20
-23.09394248
  0
LINE
  5
1A1
100
AcDbEntity
  8
MST_1_1
 62
   137
  6
CONTINUOUS
100
AcDbLine
 10
-85.52417531
 20
-23.09394244
 30
0.0
 11
-85.5456416
 21
-23.11540873
 31
0.0
  0
LWPOLYLINE
  5
1A2
100
AcDbEntity
  8
MST_1_1
 62
   137
  6
CONTINUOUS
100
AcDbPolyline
 90
        9
 70
     0
 43
0.0
 10
-85.5456416
 20
-23.11540873
 10
-85.5001728
 20
-23.16087764
 10
-85.45471262
 20
-23.20633782
 10
-85.40926594
 20
-23.2517845
 10
-85.36383777
 20
-23.29721267
 10
-85.31843288
 20
-23.34261756
 10
-85.27305629
 20
-23.38799416
 10
-85.22771287
 20
-23.43333757
 10
-85.18240752
 20
-23.47864292
  0
CIRCLE
  5
1A3
100
AcDbEntity
  8
MST_1_1
 62
   137
  6
CONTINUOUS
100
AcDbCircle
 10
-83.95380946
 20
-21.45454975
 30
0.0
 40
2.80967609
  0
LWPOLYLINE
  5
1A4
100
AcDbEntity
  8
MST_1_1
 62
   137
  6
CONTINUOUS
100
AcDbPolyline
 90
        9
 70
     0
 43
0.0
 10
-85.35424841
 20
-22.68454805
 10
-85.38401452
 20
-22.65478194
 10
-85.41377564
 20
-22.62502083
 10
-85.44353034
 20
-22.59526612
 10
-85.47327737
 20
-22.56551909
 10
-85.50301531
 20
-22.53578115
 10
-85.5327429
 20
-22.50605345
 10
-85.56245896
 20
-22.4763375
 10
-85.59216198
 20
-22.44663448
  0
ARC
  5
1A5
100
AcDbEntity
  8
MST_1_1
 62
   137
  6
CONTINUOUS
100
AcDbCircle
 10
-85.40337841
 20
-22.90411868
 30
0.0
 40
0.22500004
100
AcDbArc
 50
77.38753746
 51
127.33773016
  0
LINE
  5
1A6
100
AcDbEntity
  8
MST_1_1
 62
   137
  6
CONTINUOUS
100
AcDbLine
 10
-85.22448665
 20
-23.04058394
 30
0.0
 11
-85.53984365
 21
-22.72522694
 31
0.0
  0
ARC
  5
1A7
100
AcDbEntity
  8
MST_1_1
 62
   137
  6
CONTINUOUS
100
AcDbCircle
 10
-85.40337882
 20
-22.9041186
 30
0.0
 40
0.22500044
100
AcDbArc
 50
322.66232758
 51
12.61241482
  0
LWPOLYLINE
  5
1A8
100
AcDbEntity
  8
MST_1_1
 62
   137
  6
CONTINUOUS
100
AcDbPolyline
 90
        9
 70
     0
 43
0.0
 10
-84.94589419
 20
-23.09290227
 10
-84.97559721
 20
-23.06319925
 10
-85.00531315
 20
-23.03348319
 10
-85.03504085
 20
-23.00375561
 10
-85.0647788
 20
-22.97401766
 10
-85.09452582
 20
-22.94427064
 10
-85.12428053
 20
-22.91451593
 10
-85.15404164
 20
-22.88475482
 10
-85.18380776
 20
-22.8549887
  0
ARC
  5
1A9
100
AcDbEntity
  8
MST_1_1
 62
   137
  6
CONTINUOUS
100
AcDbCircle
 10
-84.99502429
 20
-23.31247271
 30
0.0
 40
0.22499987
100
AcDbArc
 50
77.38750317
 51
192.61250685
  0
LWPOLYLINE
  5
1AA
100
AcDbEntity
  8
MST_1_1
 62
   137
  6
CONTINUOUS
100
AcDbPolyline
 90
        9
 70
     0
 43
0.0
 10
-85.45250829
 20
-23.12368923
 10
-85.42274113
 20
-23.15345651
 10
-85.39297909
 20
-23.18321844
 10
-85.3632238
 20
-23.21297385
 10
-85.33347642
 20
-23.24272111
 10
-85.30373859
 20
-23.27245905
 10
-85.27401136
 20
-23.30218617
 10
-85.24429635
 20
-23.3319013
 10
-85.21459473
 20
-23.3616028
  0
ARC
  5
1AB
100
AcDbEntity
  8
MST_1_1
 62
   137
  6
CONTINUOUS
100
AcDbCircle
 10
-85.40337828
 20
-22.90411867
 30
0.0
 40
0.22499997
100
AcDbArc
 50
257.38753999
 51
307.33774766
  0
LINE
  5
1AC
100
AcDbEntity
  8
MST_1_1
 62
   137
  6
CONTINUOUS
100
AcDbLine
 10
-85.58227005
 20
-22.76765334
 30
0.0
 11
-85.26691305
 21
-23.08301034
 31
0.0
  0
ARC
  5
1AD
100
AcDbEntity
  8
MST_1_1
 62
   137
  6
CONTINUOUS
100
AcDbCircle
 10
-85.40337799
 20
-22.90411866
 30
0.0
 40
0.22500034
100
AcDbArc
 50
142.66230552
 51
192.61243688
  0
LWPOLYLINE
  5
1AE
100
AcDbEntity
  8
MST_1_1
 62
   137
  6
CONTINUOUS
100
AcDbPolyline
 90
        9
 70
     0
 43
0.0
 10
-85.86086251
 20
-22.71533502
 10
-85.831161
 20
-22.74503664
 10
-85.80144588
 20
-22.77475165
 10
-85.77171876
 20
-22.80447889
 10
-85.74198081
 20
-22.83421671
 10
-85.71223355
 20
-22.86396409
 10
-85.68247815
 20
-22.89371938
 10
-85.65271622
 20
-22.92348142
 10
-85.62294894
 20
-22.95324859
  0
ARC
  5
1AF
100
AcDbEntity
  8
MST_1_1
 62
   137
  6
CONTINUOUS
100
AcDbCircle
 10
-85.81173177
 20
-22.49576522
 30
0.0
 40
0.22499939
100
AcDbArc
 50
257.38731744
 51
12.61269257
  0
LINE
  5
1B0
100
AcDbEntity
  8
MST_1_1
 62
   137
  6
CONTINUOUS
100
AcDbLine
 10
-85.4696373
 20
-22.7530069
 30
0.0
 11
-85.25226661
 21
-22.97037759
 31
0.0
  0
ARC
  5
1B1
100
AcDbEntity
  8
MST_1_1
 62
   137
  6
CONTINUOUS
100
AcDbCircle
 10
-85.40337836
 20
-22.90411866
 30
0.0
 40
0.16500003
100
AcDbArc
 50
336.32369525
 51
113.67631477
  0
LINE
  5
1B2
100
AcDbEntity
  8
MST_1_1
 62
   137
  6
CONTINUOUS
100
AcDbLine
 10
-85.33711941
 20
-23.05523039
 30
0.0
 11
-85.5544901
 21
-22.8378597
 31
0.0
  0
ARC
  5
1B3
100
AcDbEntity
  8
MST_1_1
 62
   137
  6
CONTINUOUS
100
AcDbCircle
 10
-85.40337833
 20
-22.90411863
 30
0.0
 40
0.16500003
100
AcDbArc
 50
156.32368721
 51
293.6763228
  0
CIRCLE
  5
1B4
100
AcDbEntity
  8
MST_1_1
 62
   137
  6
CONTINUOUS
100
AcDbCircle
 10
-83.95380946
 20
-51.45454975
 30
0.0
 40
1.57981333
  0
CIRCLE
  5
1B5
100
AcDbEntity
  8
MST_1_1
 62
   137
  6
CONTINUOUS
100
AcDbCircle
 10
-83.95380946
 20
-51.45454975
 30
0.0
 40
0.92740167
  0
CIRCLE
  5
1B6
100
AcDbEntity
  8
MST_1_1
 62
   137
  6
CONTINUOUS
100
AcDbCircle
 10
-83.95380946
 20
-51.45454975
 30
0.0
 40
1.57981333
  0
CIRCLE
  5
1B7
100
AcDbEntity
  8
MST_1_1
 62
   137
  6
CONTINUOUS
100
AcDbCircle
 10
-83.95380946
 20
-51.45454975
 30
0.0
 40
0.92740167
  0
CIRCLE
  5
1B8
100
AcDbEntity
  8
MST_1_1
 62
   137
  6
CONTINUOUS
100
AcDbCircle
 10
-83.95380946
 20
-51.45454975
 30
0.0
 40
1.57981333
  0
CIRCLE
  5
1B9
100
AcDbEntity
  8
MST_1_1
 62
   137
  6
CONTINUOUS
100
AcDbCircle
 10
-83.95380946
 20
-51.45454975
 30
0.0
 40
0.92740167
  0
CIRCLE
  5
1BA
100
AcDbEntity
  8
MST_1_1
 62
   137
  6
CONTINUOUS
100
AcDbCircle
 10
-83.95380946
 20
-51.45454975
 30
0.0
 40
2.94765956
  0
ARC
  5
1BB
100
AcDbEntity
  8
MST_1_1
 62
   137
  6
CONTINUOUS
100
AcDbCircle
 10
-85.09980944
 20
-51.45454975
 30
0.0
 40
0.25400002
100
AcDbArc
 50
107.73687203
 51
252.26313799
  0
ARC
  5
1BC
100
AcDbEntity
  8
MST_1_1
 62
   137
  6
CONTINUOUS
100
AcDbCircle
 10
-85.35953075
 20
-52.26614334
 30
0.0
 40
0.59813807
100
AcDbArc
 50
347.74903638
 51
72.25097948
  0
ARC
  5
1BD
100
AcDbEntity
  8
MST_1_1
 62
   137
  6
CONTINUOUS
100
AcDbCircle
 10
-84.52680946
 20
-52.44701488
 30
0.0
 40
0.254
100
AcDbArc
 50
167.7368553
 51
312.26315504
  0
ARC
  5
1BE
100
AcDbEntity
  8
MST_1_1
 62
   137
  6
CONTINUOUS
100
AcDbCircle
 10
-83.95380946
 20
-53.07773698
 30
0.0
 40
0.59813812
100
AcDbArc
 50
47.74903104
 51
132.25096896
  0
ARC
  5
1BF
100
AcDbEntity
  8
MST_1_1
 62
   137
  6
CONTINUOUS
100
AcDbCircle
 10
-83.38080945
 20
-52.44701489
 30
0.0
 40
0.25399999
100
AcDbArc
 50
227.73686234
 51
12.26314736
  0
ARC
  5
1C0
100
AcDbEntity
  8
MST_1_1
 62
   137
  6
CONTINUOUS
100
AcDbCircle
 10
-82.54808813
 20
-52.26614335
 30
0.0
 40
0.59813809
100
AcDbArc
 50
107.74902273
 51
192.25098144
  0
ARC
  5
1C1
100
AcDbEntity
  8
MST_1_1
 62
   137
  6
CONTINUOUS
100
AcDbCircle
 10
-82.80780947
 20
-51.45454975
 30
0.0
 40
0.25400002
100
AcDbArc
 50
287.73688205
 51
72.26312797
  0
ARC
  5
1C2
100
AcDbEntity
  8
MST_1_1
 62
   137
  6
CONTINUOUS
100
AcDbCircle
 10
-82.54808816
 20
-50.64295616
 30
0.0
 40
0.59813807
100
AcDbArc
 50
167.74902636
 51
252.2509895
  0
ARC
  5
1C3
100
AcDbEntity
  8
MST_1_1
 62
   137
  6
CONTINUOUS
100
AcDbCircle
 10
-83.38080945
 20
-50.46208461
 30
0.0
 40
0.254
100
AcDbArc
 50
347.73686532
 51
132.26314502
  0
ARC
  5
1C4
100
AcDbEntity
  8
MST_1_1
 62
   137
  6
CONTINUOUS
100
AcDbCircle
 10
-83.95380946
 20
-49.83136252
 30
0.0
 40
0.59813812
100
AcDbArc
 50
227.74904106
 51
312.25097898
  0
ARC
  5
1C5
100
AcDbEntity
  8
MST_1_1
 62
   137
  6
CONTINUOUS
100
AcDbCircle
 10
-84.52680947
 20
-50.4620846
 30
0.0
 40
0.25399999
100
AcDbArc
 50
47.73685232
 51
192.26315737
  0
ARC
  5
1C6
100
AcDbEntity
  8
MST_1_1
 62
   137
  6
CONTINUOUS
100
AcDbCircle
 10
-85.35953078
 20
-50.64295614
 30
0.0
 40
0.59813809
100
AcDbArc
 50
287.74903275
 51
12.25097142
  0
LWPOLYLINE
  5
1C7
100
AcDbEntity
  8
MST_1_1
 62
   137
  6
CONTINUOUS
100
AcDbPolyline
 90
        9
 70
     0
 43
0.0
 10
-85.18240752
 20
-53.47864292
 10
-85.174851
 20
-53.47108641
 10
-85.16728959
 20
-53.463525
 10
-85.15972329
 20
-53.4559587
 10
-85.15215222
 20
-53.44838775
 10
-85.14457638
 20
-53.4408119
 10
-85.13699576
 20
-53.43323117
 10
-85.12941037
 20
-53.42564578
 10
-85.12182033
 20
-53.41805573
  0
ARC
  5
1C8
100
AcDbEntity
  8
MST_1_1
 62
   137
  6
CONTINUOUS
100
AcDbCircle
 10
-84.99502417
 20
-53.31247285
 30
0.0
 40
0.16500003
100
AcDbArc
 50
50.2159403
 51
219.78408407
  0
LWPOLYLINE
  5
1C9
100
AcDbEntity
  8
MST_1_1
 62
   137
  6
CONTINUOUS
100
AcDbPolyline
 90
        9
 70
     0
 43
0.0
 10
-84.88944132
 20
-53.18567667
 10
-84.88188107
 20
-53.17811654
 10
-84.87431705
 20
-53.17055245
 10
-84.86674924
 20
-53.16298464
 10
-84.8591777
 20
-53.15541311
 10
-84.85160238
 20
-53.14783773
 10
-84.84402328
 20
-53.14025874
 10
-84.83644057
 20
-53.13267591
 10
-84.82885407
 20
-53.12508948
  0
LWPOLYLINE
  5
1CA
100
AcDbEntity
  8
MST_1_1
 62
   137
  6
CONTINUOUS
100
AcDbPolyline
 90
        9
 70
     0
 43
0.0
 10
-84.82885407
 20
-53.12508948
 10
-84.87416448
 20
-53.07977912
 10
-84.91951105
 20
-53.03443256
 10
-84.9648891
 20
-52.98905456
 10
-85.01029387
 20
-52.94364979
 10
-85.05572087
 20
-52.89822279
 10
-85.10116534
 20
-52.85277832
 10
-85.14662273
 20
-52.80732093
 10
-85.19208827
 20
-52.76185539
  0
LINE
  5
1CB
100
AcDbEntity
  8
MST_1_1
 62
   137
  6
CONTINUOUS
100
AcDbLine
 10
-85.19208827
 20
-52.76185539
 30
0.0
 11
-85.21355455
 21
-52.78332168
 31
0.0
  0
LWPOLYLINE
  5
1CC
100
AcDbEntity
  8
MST_1_1
 62
   137
  6
CONTINUOUS
100
AcDbPolyline
 90
       25
 70
     0
 43
0.0
 10
-85.21355452
 20
-52.78332166
 10
-85.21579794
 20
-52.77986613
 10
-85.21810096
 20
-52.77645638
 10
-85.22046296
 20
-52.77309304
 10
-85.22288331
 20
-52.76977674
 10
-85.22536139
 20
-52.7665081
 10
-85.22789657
 20
-52.76328775
 10
-85.23048823
 20
-52.76011633
 10
-85.23313574
 20
-52.75699444
 10
-85.23583848
 20
-52.75392274
 10
-85.23859581
 20
-52.75090183
 10
-85.24140712
 20
-52.74793236
 10
-85.24427178
 20
-52.74501494
 10
-85.24718917
 20
-52.74215021
 10
-85.25015865
 20
-52.73933879
 10
-85.25317961
 20
-52.7365813
 10
-85.25625142
 20
-52.73387839
 10
-85.25937345
 20
-52.73123067
 10
-85.26254507
 20
-52.72863878
 10
-85.26576567
 20
-52.72610333
 10
-85.26903462
 20
-52.72362496
 10
-85.27235129
 20
-52.7212043
 10
-85.27571505
 20
-52.71884197
 10
-85.27912529
 20
-52.7165386
 10
-85.28258137
 20
-52.71429481
  0
LINE
  5
1CD
100
AcDbEntity
  8
MST_1_1
 62
   137
  6
CONTINUOUS
100
AcDbLine
 10
-85.28258139
 20
-52.71429485
 30
0.0
 11
-85.2611151
 21
-52.69282856
 31
0.0
  0
LWPOLYLINE
  5
1CE
100
AcDbEntity
  8
MST_1_1
 62
   137
  6
CONTINUOUS
100
AcDbPolyline
 90
        9
 70
     0
 43
0.0
 10
-85.2611151
 20
-52.69282856
 10
-85.30658064
 20
-52.64736302
 10
-85.35203803
 20
-52.60190563
 10
-85.3974825
 20
-52.55646116
 10
-85.4429095
 20
-52.51103416
 10
-85.48831427
 20
-52.46562939
 10
-85.53369227
 20
-52.42025134
 10
-85.57903883
 20
-52.37490478
 10
-85.62434918
 20
-52.32959436
  0
LWPOLYLINE
  5
1CF
100
AcDbEntity
  8
MST_1_1
 62
   137
  6
CONTINUOUS
100
AcDbPolyline
 90
        9
 70
     0
 43
0.0
 10
-85.62434918
 20
-52.32959436
 10
-85.63193562
 20
-52.33718086
 10
-85.63951845
 20
-52.34476357
 10
-85.64709744
 20
-52.35234267
 10
-85.65467281
 20
-52.35991799
 10
-85.66224435
 20
-52.36748953
 10
-85.66981216
 20
-52.37505734
 10
-85.67737625
 20
-52.38262137
 10
-85.68493637
 20
-52.39018161
  0
ARC
  5
1D0
100
AcDbEntity
  8
MST_1_1
 62
   137
  6
CONTINUOUS
100
AcDbCircle
 10
-85.81173255
 20
-52.49576447
 30
0.0
 40
0.16500003
100
AcDbArc
 50
230.21593198
 51
39.78406368
  0
LWPOLYLINE
  5
1D1
100
AcDbEntity
  8
MST_1_1
 62
   137
  6
CONTINUOUS
100
AcDbPolyline
 90
        9
 70
     0
 43
0.0
 10
-85.91731544
 20
-52.62256062
 10
-85.92490549
 20
-52.63015067
 10
-85.93249088
 20
-52.63773606
 10
-85.94007161
 20
-52.64531667
 10
-85.94764745
 20
-52.65289252
 10
-85.95521841
 20
-52.66046359
 10
-85.96278471
 20
-52.66802988
 10
-85.97034611
 20
-52.67559129
 10
-85.97790263
 20
-52.68314781
  0
LWPOLYLINE
  5
1D2
100
AcDbEntity
  8
MST_1_1
 62
   137
  6
CONTINUOUS
100
AcDbPolyline
 90
        9
 70
     0
 43
0.0
 10
-85.97790263
 20
-52.68314781
 10
-85.93259728
 20
-52.72845316
 10
-85.88725386
 20
-52.77379658
 10
-85.84187727
 20
-52.81917318
 10
-85.79647238
 20
-52.86457806
 10
-85.75104421
 20
-52.91000623
 10
-85.70559753
 20
-52.95545291
 10
-85.66013735
 20
-53.00091309
 10
-85.61466843
 20
-53.04638189
  0
LINE
  5
1D3
100
AcDbEntity
  8
MST_1_1
 62
   137
  6
CONTINUOUS
100
AcDbLine
 10
-85.61466843
 20
-53.04638189
 30
0.0
 11
-85.59320215
 21
-53.02491561
 31
0.0
  0
LWPOLYLINE
  5
1D4
100
AcDbEntity
  8
MST_1_1
 62
   137
  6
CONTINUOUS
100
AcDbPolyline
 90
       25
 70
     0
 43
0.0
 10
-85.59320219
 20
-53.02491563
 10
-85.59095894
 20
-53.0283709
 10
-85.58865603
 20
-53.03178044
 10
-85.58629409
 20
-53.03514363
 10
-85.58387377
 20
-53.03845983
 10
-85.58139568
 20
-53.04172841
 10
-85.57886046
 20
-53.04494874
 10
-85.57626873
 20
-53.04812019
 10
-85.57362114
 20
-53.05124212
 10
-85.5709183
 20
-53.0543139
 10
-85.56816085
 20
-53.0573349
 10
-85.56534942
 20
-53.06030448
 10
-85.56248464
 20
-53.06322201
 10
-85.55956714
 20
-53.06608687
 10
-85.55659754
 20
-53.06889841
 10
-85.55357649
 20
-53.07165601
 10
-85.55050461
 20
-53.07435903
 10
-85.54738253
 20
-53.07700684
 10
-85.54421088
 20
-53.07959881
 10
-85.5409903
 20
-53.0821343
 10
-85.5377214
 20
-53.08461268
 10
-85.53440483
 20
-53.08703332
 10
-85.53104121
 20
-53.08939559
 10
-85.52763117
 20
-53.09169886
 10
-85.52417534
 20
-53.09394248
  0
LINE
  5
1D5
100
AcDbEntity
  8
MST_1_1
 62
   137
  6
CONTINUOUS
100
AcDbLine
 10
-85.52417531
 20
-53.09394244
 30
0.0
 11
-85.5456416
 21
-53.11540873
 31
0.0
  0
LWPOLYLINE
  5
1D6
100
AcDbEntity
  8
MST_1_1
 62
   137
  6
CONTINUOUS
100
AcDbPolyline
 90
        9
 70
     0
 43
0.0
 10
-85.5456416
 20
-53.11540873
 10
-85.5001728
 20
-53.16087764
 10
-85.45471262
 20
-53.20633782
 10
-85.40926594
 20
-53.2517845
 10
-85.36383777
 20
-53.29721267
 10
-85.31843288
 20
-53.34261756
 10
-85.27305629
 20
-53.38799416
 10
-85.22771287
 20
-53.43333757
 10
-85.18240752
 20
-53.47864292
  0
CIRCLE
  5
1D7
100
AcDbEntity
  8
MST_1_1
 62
   137
  6
CONTINUOUS
100
AcDbCircle
 10
-83.95380946
 20
-51.45454975
 30
0.0
 40
2.80967609
  0
LWPOLYLINE
  5
1D8
100
AcDbEntity
  8
MST_1_1
 62
   137
  6
CONTINUOUS
100
AcDbPolyline
 90
        9
 70
     0
 43
0.0
 10
-85.35424841
 20
-52.68454805
 10
-85.38401452
 20
-52.65478194
 10
-85.41377564
 20
-52.62502083
 10
-85.44353034
 20
-52.59526612
 10
-85.47327737
 20
-52.56551909
 10
-85.50301531
 20
-52.53578115
 10
-85.5327429
 20
-52.50605345
 10
-85.56245896
 20
-52.4763375
 10
-85.59216198
 20
-52.44663448
  0
ARC
  5
1D9
100
AcDbEntity
  8
MST_1_1
 62
   137
  6
CONTINUOUS
100
AcDbCircle
 10
-85.40337841
 20
-52.90411868
 30
0.0
 40
0.22500004
100
AcDbArc
 50
77.38753746
 51
127.33773016
  0
LINE
  5
1DA
100
AcDbEntity
  8
MST_1_1
 62
   137
  6
CONTINUOUS
100
AcDbLine
 10
-85.22448665
 20
-53.04058394
 30
0.0
 11
-85.53984365
 21
-52.72522694
 31
0.0
  0
ARC
  5
1DB
100
AcDbEntity
  8
MST_1_1
 62
   137
  6
CONTINUOUS
100
AcDbCircle
 10
-85.40337882
 20
-52.9041186
 30
0.0
 40
0.22500044
100
AcDbArc
 50
322.66232758
 51
12.61241482
  0
LWPOLYLINE
  5
1DC
100
AcDbEntity
  8
MST_1_1
 62
   137
  6
CONTINUOUS
100
AcDbPolyline
 90
        9
 70
     0
 43
0.0
 10
-84.94589419
 20
-53.09290227
 10
-84.97559721
 20
-53.06319925
 10
-85.00531315
 20
-53.03348319
 10
-85.03504085
 20
-53.00375561
 10
-85.0647788
 20
-52.97401766
 10
-85.09452582
 20
-52.94427064
 10
-85.12428053
 20
-52.91451593
 10
-85.15404164
 20
-52.88475482
 10
-85.18380776
 20
-52.8549887
  0
ARC
  5
1DD
100
AcDbEntity
  8
MST_1_1
 62
   137
  6
CONTINUOUS
100
AcDbCircle
 10
-84.99502429
 20
-53.31247271
 30
0.0
 40
0.22499987
100
AcDbArc
 50
77.38750317
 51
192.61250685
  0
LWPOLYLINE
  5
1DE
100
AcDbEntity
  8
MST_1_1
 62
   137
  6
CONTINUOUS
100
AcDbPolyline
 90
        9
 70
     0
 43
0.0
 10
-85.45250829
 20
-53.12368923
 10
-85.42274113
 20
-53.15345651
 10
-85.39297909
 20
-53.18321844
 10
-85.3632238
 20
-53.21297385
 10
-85.33347642
 20
-53.24272111
 10
-85.30373859
 20
-53.27245905
 10
-85.27401136
 20
-53.30218617
 10
-85.24429635
 20
-53.3319013
 10
-85.21459473
 20
-53.3616028
  0
ARC
  5
1DF
100
AcDbEntity
  8
MST_1_1
 62
   137
  6
CONTINUOUS
100
AcDbCircle
 10
-85.40337828
 20
-52.90411867
 30
0.0
 40
0.22499997
100
AcDbArc
 50
257.38753999
 51
307.33774766
  0
LINE
  5
1E0
100
AcDbEntity
  8
MST_1_1
 62
   137
  6
CONTINUOUS
100
AcDbLine
 10
-85.58227005
 20
-52.76765334
 30
0.0
 11
-85.26691305
 21
-53.08301034
 31
0.0
  0
ARC
  5
1E1
100
AcDbEntity
  8
MST_1_1
 62
   137
  6
CONTINUOUS
100
AcDbCircle
 10
-85.40337799
 20
-52.90411866
 30
0.0
 40
0.22500034
100
AcDbArc
 50
142.66230552
 51
192.61243688
  0
LWPOLYLINE
  5
1E2
100
AcDbEntity
  8
MST_1_1
 62
   137
  6
CONTINUOUS
100
AcDbPolyline
 90
        9
 70
     0
 43
0.0
 10
-85.86086251
 20
-52.71533502
 10
-85.831161
 20
-52.74503664
 10
-85.80144588
 20
-52.77475165
 10
-85.77171876
 20
-52.80447889
 10
-85.74198081
 20
-52.83421671
 10
-85.71223355
 20
-52.86396409
 10
-85.68247815
 20
-52.89371938
 10
-85.65271622
 20
-52.92348142
 10
-85.62294894
 20
-52.95324859
  0
ARC
  5
1E3
100
AcDbEntity
  8
MST_1_1
 62
   137
  6
CONTINUOUS
100
AcDbCircle
 10
-85.81173177
 20
-52.49576522
 30
0.0
 40
0.22499939
100
AcDbArc
 50
257.38731744
 51
12.61269257
  0
LINE
  5
1E4
100
AcDbEntity
  8
MST_1_1
 62
   137
  6
CONTINUOUS
100
AcDbLine
 10
-85.4696373
 20
-52.7530069
 30
0.0
 11
-85.25226661
 21
-52.97037759
 31
0.0
  0
ARC
  5
1E5
100
AcDbEntity
  8
MST_1_1
 62
   137
  6
CONTINUOUS
100
AcDbCircle
 10
-85.40337836
 20
-52.90411866
 30
0.0
 40
0.16500003
100
AcDbArc
 50
336.32369525
 51
113.67631477
  0
LINE
  5
1E6
100
AcDbEntity
  8
MST_1_1
 62
   137
  6
CONTINUOUS
100
AcDbLine
 10
-85.33711941
 20
-53.05523039
 30
0.0
 11
-85.5544901
 21
-52.8378597
 31
0.0
  0
ARC
  5
1E7
100
AcDbEntity
  8
MST_1_1
 62
   137
  6
CONTINUOUS
100
AcDbCircle
 10
-85.40337833
 20
-52.90411863
 30
0.0
 40
0.16500003
100
AcDbArc
 50
156.32368721
 51
293.6763228
  0
CIRCLE
  5
1E8
100
AcDbEntity
  8
MST_1_1
 62
   137
  6
CONTINUOUS
100
AcDbCircle
 10
-83.95380946
 20
-81.45454975
 30
0.0
 40
1.57981333
  0
CIRCLE
  5
1E9
100
AcDbEntity
  8
MST_1_1
 62
   137
  6
CONTINUOUS
100
AcDbCircle
 10
-83.95380946
 20
-81.45454975
 30
0.0
 40
0.92740167
  0
CIRCLE
  5
1EA
100
AcDbEntity
  8
MST_1_1
 62
   137
  6
CONTINUOUS
100
AcDbCircle
 10
-83.95380946
 20
-81.45454975
 30
0.0
 40
1.57981333
  0
CIRCLE
  5
1EB
100
AcDbEntity
  8
MST_1_1
 62
   137
  6
CONTINUOUS
100
AcDbCircle
 10
-83.95380946
 20
-81.45454975
 30
0.0
 40
0.92740167
  0
CIRCLE
  5
1EC
100
AcDbEntity
  8
MST_1_1
 62
   137
  6
CONTINUOUS
100
AcDbCircle
 10
-83.95380946
 20
-81.45454975
 30
0.0
 40
1.57981333
  0
CIRCLE
  5
1ED
100
AcDbEntity
  8
MST_1_1
 62
   137
  6
CONTINUOUS
100
AcDbCircle
 10
-83.95380946
 20
-81.45454975
 30
0.0
 40
0.92740167
  0
CIRCLE
  5
1EE
100
AcDbEntity
  8
MST_1_1
 62
   137
  6
CONTINUOUS
100
AcDbCircle
 10
-83.95380946
 20
-81.45454975
 30
0.0
 40
2.94765956
  0
ARC
  5
1EF
100
AcDbEntity
  8
MST_1_1
 62
   137
  6
CONTINUOUS
100
AcDbCircle
 10
-85.09980944
 20
-81.45454975
 30
0.0
 40
0.25400002
100
AcDbArc
 50
107.73687203
 51
252.26313799
  0
ARC
  5
1F0
100
AcDbEntity
  8
MST_1_1
 62
   137
  6
CONTINUOUS
100
AcDbCircle
 10
-85.35953075
 20
-82.26614334
 30
0.0
 40
0.59813807
100
AcDbArc
 50
347.74903638
 51
72.25097948
  0
ARC
  5
1F1
100
AcDbEntity
  8
MST_1_1
 62
   137
  6
CONTINUOUS
100
AcDbCircle
 10
-84.52680946
 20
-82.44701488
 30
0.0
 40
0.254
100
AcDbArc
 50
167.7368553
 51
312.26315504
  0
ARC
  5
1F2
100
AcDbEntity
  8
MST_1_1
 62
   137
  6
CONTINUOUS
100
AcDbCircle
 10
-83.95380946
 20
-83.07773698
 30
0.0
 40
0.59813812
100
AcDbArc
 50
47.74903104
 51
132.25096896
  0
ARC
  5
1F3
100
AcDbEntity
  8
MST_1_1
 62
   137
  6
CONTINUOUS
100
AcDbCircle
 10
-83.38080945
 20
-82.44701489
 30
0.0
 40
0.25399999
100
AcDbArc
 50
227.73686234
 51
12.26314736
  0
ARC
  5
1F4
100
AcDbEntity
  8
MST_1_1
 62
   137
  6
CONTINUOUS
100
AcDbCircle
 10
-82.54808813
 20
-82.26614335
 30
0.0
 40
0.59813809
100
AcDbArc
 50
107.74902273
 51
192.25098144
  0
ARC
  5
1F5
100
AcDbEntity
  8
MST_1_1
 62
   137
  6
CONTINUOUS
100
AcDbCircle
 10
-82.80780947
 20
-81.45454975
 30
0.0
 40
0.25400002
100
AcDbArc
 50
287.73688205
 51
72.26312797
  0
ARC
  5
1F6
100
AcDbEntity
  8
MST_1_1
 62
   137
  6
CONTINUOUS
100
AcDbCircle
 10
-82.54808816
 20
-80.64295616
 30
0.0
 40
0.59813807
100
AcDbArc
 50
167.74902636
 51
252.2509895
  0
ARC
  5
1F7
100
AcDbEntity
  8
MST_1_1
 62
   137
  6
CONTINUOUS
100
AcDbCircle
 10
-83.38080945
 20
-80.46208461
 30
0.0
 40
0.254
100
AcDbArc
 50
347.73686532
 51
132.26314502
  0
ARC
  5
1F8
100
AcDbEntity
  8
MST_1_1
 62
   137
  6
CONTINUOUS
100
AcDbCircle
 10
-83.95380946
 20
-79.83136252
 30
0.0
 40
0.59813812
100
AcDbArc
 50
227.74904106
 51
312.25097898
  0
ARC
  5
1F9
100
AcDbEntity
  8
MST_1_1
 62
   137
  6
CONTINUOUS
100
AcDbCircle
 10
-84.52680947
 20
-80.4620846
 30
0.0
 40
0.25399999
100
AcDbArc
 50
47.73685232
 51
192.26315737
  0
ARC
  5
1FA
100
AcDbEntity
  8
MST_1_1
 62
   137
  6
CONTINUOUS
100
AcDbCircle
 10
-85.35953078
 20
-80.64295614
 30
0.0
 40
0.59813809
100
AcDbArc
 50
287.74903275
 51
12.25097142
  0
LWPOLYLINE
  5
1FB
100
AcDbEntity
  8
MST_1_1
 62
   137
  6
CONTINUOUS
100
AcDbPolyline
 90
        9
 70
     0
 43
0.0
 10
-85.18240752
 20
-83.47864292
 10
-85.174851
 20
-83.47108641
 10
-85.16728959
 20
-83.463525
 10
-85.15972329
 20
-83.4559587
 10
-85.15215222
 20
-83.44838775
 10
-85.14457638
 20
-83.4408119
 10
-85.13699576
 20
-83.43323117
 10
-85.12941037
 20
-83.42564578
 10
-85.12182033
 20
-83.41805573
  0
ARC
  5
1FC
100
AcDbEntity
  8
MST_1_1
 62
   137
  6
CONTINUOUS
100
AcDbCircle
 10
-84.99502417
 20
-83.31247285
 30
0.0
 40
0.16500003
100
AcDbArc
 50
50.2159403
 51
219.78408407
  0
LWPOLYLINE
  5
1FD
100
AcDbEntity
  8
MST_1_1
 62
   137
  6
CONTINUOUS
100
AcDbPolyline
 90
        9
 70
     0
 43
0.0
 10
-84.88944132
 20
-83.18567667
 10
-84.88188107
 20
-83.17811654
 10
-84.87431705
 20
-83.17055245
 10
-84.86674924
 20
-83.16298464
 10
-84.8591777
 20
-83.15541311
 10
-84.85160238
 20
-83.14783773
 10
-84.84402328
 20
-83.14025874
 10
-84.83644057
 20
-83.13267591
 10
-84.82885407
 20
-83.12508948
  0
LWPOLYLINE
  5
1FE
100
AcDbEntity
  8
MST_1_1
 62
   137
  6
CONTINUOUS
100
AcDbPolyline
 90
        9
 70
     0
 43
0.0
 10
-84.82885407
 20
-83.12508948
 10
-84.87416448
 20
-83.07977912
 10
-84.91951105
 20
-83.03443256
 10
-84.9648891
 20
-82.98905456
 10
-85.01029387
 20
-82.94364979
 10
-85.05572087
 20
-82.89822279
 10
-85.10116534
 20
-82.85277832
 10
-85.14662273
 20
-82.80732093
 10
-85.19208827
 20
-82.76185539
  0
LINE
  5
1FF
100
AcDbEntity
  8
MST_1_1
 62
   137
  6
CONTINUOUS
100
AcDbLine
 10
-85.19208827
 20
-82.76185539
 30
0.0
 11
-85.21355455
 21
-82.78332168
 31
0.0
  0
LWPOLYLINE
  5
200
100
AcDbEntity
  8
MST_1_1
 62
   137
  6
CONTINUOUS
100
AcDbPolyline
 90
       25
 70
     0
 43
0.0
 10
-85.21355452
 20
-82.78332166
 10
-85.21579794
 20
-82.77986613
 10
-85.21810096
 20
-82.77645638
 10
-85.22046296
 20
-82.77309304
 10
-85.22288331
 20
-82.76977674
 10
-85.22536139
 20
-82.7665081
 10
-85.22789657
 20
-82.76328775
 10
-85.23048823
 20
-82.76011633
 10
-85.23313574
 20
-82.75699444
 10
-85.23583848
 20
-82.75392274
 10
-85.23859581
 20
-82.75090183
 10
-85.24140712
 20
-82.74793236
 10
-85.24427178
 20
-82.74501494
 10
-85.24718917
 20
-82.74215021
 10
-85.25015865
 20
-82.73933879
 10
-85.25317961
 20
-82.7365813
 10
-85.25625142
 20
-82.73387839
 10
-85.25937345
 20
-82.73123067
 10
-85.26254507
 20
-82.72863878
 10
-85.26576567
 20
-82.72610333
 10
-85.26903462
 20
-82.72362496
 10
-85.27235129
 20
-82.7212043
 10
-85.27571505
 20
-82.71884197
 10
-85.27912529
 20
-82.7165386
 10
-85.28258137
 20
-82.71429481
  0
LINE
  5
201
100
AcDbEntity
  8
MST_1_1
 62
   137
  6
CONTINUOUS
100
AcDbLine
 10
-85.28258139
 20
-82.71429485
 30
0.0
 11
-85.2611151
 21
-82.69282856
 31
0.0
  0
LWPOLYLINE
  5
202
100
AcDbEntity
  8
MST_1_1
 62
   137
  6
CONTINUOUS
100
AcDbPolyline
 90
        9
 70
     0
 43
0.0
 10
-85.2611151
 20
-82.69282856
 10
-85.30658064
 20
-82.64736302
 10
-85.35203803
 20
-82.60190563
 10
-85.3974825
 20
-82.55646116
 10
-85.4429095
 20
-82.51103416
 10
-85.48831427
 20
-82.46562939
 10
-85.53369227
 20
-82.42025134
 10
-85.57903883
 20
-82.37490478
 10
-85.62434918
 20
-82.32959436
  0
LWPOLYLINE
  5
203
100
AcDbEntity
  8
MST_1_1
 62
   137
  6
CONTINUOUS
100
AcDbPolyline
 90
        9
 70
     0
 43
0.0
 10
-85.62434918
 20
-82.32959436
 10
-85.63193562
 20
-82.33718086
 10
-85.63951845
 20
-82.34476357
 10
-85.64709744
 20
-82.35234267
 10
-85.65467281
 20
-82.35991799
 10
-85.66224435
 20
-82.36748953
 10
-85.66981216
 20
-82.37505734
 10
-85.67737625
 20
-82.38262137
 10
-85.68493637
 20
-82.39018161
  0
ARC
  5
204
100
AcDbEntity
  8
MST_1_1
 62
   137
  6
CONTINUOUS
100
AcDbCircle
 10
-85.81173255
 20
-82.49576447
 30
0.0
 40
0.16500003
100
AcDbArc
 50
230.21593198
 51
39.78406368
  0
LWPOLYLINE
  5
205
100
AcDbEntity
  8
MST_1_1
 62
   137
  6
CONTINUOUS
100
AcDbPolyline
 90
        9
 70
     0
 43
0.0
 10
-85.91731544
 20
-82.62256062
 10
-85.92490549
 20
-82.63015067
 10
-85.93249088
 20
-82.63773606
 10
-85.94007161
 20
-82.64531667
 10
-85.94764745
 20
-82.65289252
 10
-85.95521841
 20
-82.66046359
 10
-85.96278471
 20
-82.66802988
 10
-85.97034611
 20
-82.67559129
 10
-85.97790263
 20
-82.68314781
  0
LWPOLYLINE
  5
206
100
AcDbEntity
  8
MST_1_1
 62
   137
  6
CONTINUOUS
100
AcDbPolyline
 90
        9
 70
     0
 43
0.0
 10
-85.97790263
 20
-82.68314781
 10
-85.93259728
 20
-82.72845316
 10
-85.88725386
 20
-82.77379658
 10
-85.84187727
 20
-82.81917318
 10
-85.79647238
 20
-82.86457806
 10
-85.75104421
 20
-82.91000623
 10
-85.70559753
 20
-82.95545291
 10
-85.66013735
 20
-83.00091309
 10
-85.61466843
 20
-83.04638189
  0
LINE
  5
207
100
AcDbEntity
  8
MST_1_1
 62
   137
  6
CONTINUOUS
100
AcDbLine
 10
-85.61466843
 20
-83.04638189
 30
0.0
 11
-85.59320215
 21
-83.02491561
 31
0.0
  0
LWPOLYLINE
  5
208
100
AcDbEntity
  8
MST_1_1
 62
   137
  6
CONTINUOUS
100
AcDbPolyline
 90
       25
 70
     0
 43
0.0
 10
-85.59320219
 20
-83.02491563
 10
-85.59095894
 20
-83.0283709
 10
-85.58865603
 20
-83.03178044
 10
-85.58629409
 20
-83.03514363
 10
-85.58387377
 20
-83.03845983
 10
-85.58139568
 20
-83.04172841
 10
-85.57886046
 20
-83.04494874
 10
-85.57626873
 20
-83.04812019
 10
-85.57362114
 20
-83.05124212
 10
-85.5709183
 20
-83.0543139
 10
-85.56816085
 20
-83.0573349
 10
-85.56534942
 20
-83.06030448
 10
-85.56248464
 20
-83.06322201
 10
-85.55956714
 20
-83.06608687
 10
-85.55659754
 20
-83.06889841
 10
-85.55357649
 20
-83.07165601
 10
-85.55050461
 20
-83.07435903
 10
-85.54738253
 20
-83.07700684
 10
-85.54421088
 20
-83.07959881
 10
-85.5409903
 20
-83.0821343
 10
-85.5377214
 20
-83.08461268
 10
-85.53440483
 20
-83.08703332
 10
-85.53104121
 20
-83.08939559
 10
-85.52763117
 20
-83.09169886
 10
-85.52417534
 20
-83.09394248
  0
LINE
  5
209
100
AcDbEntity
  8
MST_1_1
 62
   137
  6
CONTINUOUS
100
AcDbLine
 10
-85.52417531
 20
-83.09394244
 30
0.0
 11
-85.5456416
 21
-83.11540873
 31
0.0
  0
LWPOLYLINE
  5
20A
100
AcDbEntity
  8
MST_1_1
 62
   137
  6
CONTINUOUS
100
AcDbPolyline
 90
        9
 70
     0
 43
0.0
 10
-85.5456416
 20
-83.11540873
 10
-85.5001728
 20
-83.16087764
 10
-85.45471262
 20
-83.20633782
 10
-85.40926594
 20
-83.2517845
 10
-85.36383777
 20
-83.29721267
 10
-85.31843288
 20
-83.34261756
 10
-85.27305629
 20
-83.38799416
 10
-85.22771287
 20
-83.43333757
 10
-85.18240752
 20
-83.47864292
  0
CIRCLE
  5
20B
100
AcDbEntity
  8
MST_1_1
 62
   137
  6
CONTINUOUS
100
AcDbCircle
 10
-83.95380946
 20
-81.45454975
 30
0.0
 40
2.80967609
  0
LWPOLYLINE
  5
20C
100
AcDbEntity
  8
MST_1_1
 62
   137
  6
CONTINUOUS
100
AcDbPolyline
 90
        9
 70
     0
 43
0.0
 10
-85.35424841
 20
-82.68454805
 10
-85.38401452
 20
-82.65478194
 10
-85.41377564
 20
-82.62502083
 10
-85.44353034
 20
-82.59526612
 10
-85.47327737
 20
-82.56551909
 10
-85.50301531
 20
-82.53578115
 10
-85.5327429
 20
-82.50605345
 10
-85.56245896
 20
-82.4763375
 10
-85.59216198
 20
-82.44663448
  0
ARC
  5
20D
100
AcDbEntity
  8
MST_1_1
 62
   137
  6
CONTINUOUS
100
AcDbCircle
 10
-85.40337841
 20
-82.90411868
 30
0.0
 40
0.22500004
100
AcDbArc
 50
77.38753746
 51
127.33773016
  0
LINE
  5
20E
100
AcDbEntity
  8
MST_1_1
 62
   137
  6
CONTINUOUS
100
AcDbLine
 10
-85.22448665
 20
-83.04058394
 30
0.0
 11
-85.53984365
 21
-82.72522694
 31
0.0
  0
ARC
  5
20F
100
AcDbEntity
  8
MST_1_1
 62
   137
  6
CONTINUOUS
100
AcDbCircle
 10
-85.40337882
 20
-82.9041186
 30
0.0
 40
0.22500044
100
AcDbArc
 50
322.66232758
 51
12.61241482
  0
LWPOLYLINE
  5
210
100
AcDbEntity
  8
MST_1_1
 62
   137
  6
CONTINUOUS
100
AcDbPolyline
 90
        9
 70
     0
 43
0.0
 10
-84.94589419
 20
-83.09290227
 10
-84.97559721
 20
-83.06319925
 10
-85.00531315
 20
-83.03348319
 10
-85.03504085
 20
-83.00375561
 10
-85.0647788
 20
-82.97401766
 10
-85.09452582
 20
-82.94427064
 10
-85.12428053
 20
-82.91451593
 10
-85.15404164
 20
-82.88475482
 10
-85.18380776
 20
-82.8549887
  0
ARC
  5
211
100
AcDbEntity
  8
MST_1_1
 62
   137
  6
CONTINUOUS
100
AcDbCircle
 10
-84.99502429
 20
-83.31247271
 30
0.0
 40
0.22499987
100
AcDbArc
 50
77.38750317
 51
192.61250685
  0
LWPOLYLINE
  5
212
100
AcDbEntity
  8
MST_1_1
 62
   137
  6
CONTINUOUS
100
AcDbPolyline
 90
        9
 70
     0
 43
0.0
 10
-85.45250829
 20
-83.12368923
 10
-85.42274113
 20
-83.15345651
 10
-85.39297909
 20
-83.18321844
 10
-85.3632238
 20
-83.21297385
 10
-85.33347642
 20
-83.24272111
 10
-85.30373859
 20
-83.27245905
 10
-85.27401136
 20
-83.30218617
 10
-85.24429635
 20
-83.3319013
 10
-85.21459473
 20
-83.3616028
  0
ARC
  5
213
100
AcDbEntity
  8
MST_1_1
 62
   137
  6
CONTINUOUS
100
AcDbCircle
 10
-85.40337828
 20
-82.90411867
 30
0.0
 40
0.22499997
100
AcDbArc
 50
257.38753999
 51
307.33774766
  0
LINE
  5
214
100
AcDbEntity
  8
MST_1_1
 62
   137
  6
CONTINUOUS
100
AcDbLine
 10
-85.58227005
 20
-82.76765334
 30
0.0
 11
-85.26691305
 21
-83.08301034
 31
0.0
  0
ARC
  5
215
100
AcDbEntity
  8
MST_1_1
 62
   137
  6
CONTINUOUS
100
AcDbCircle
 10
-85.40337799
 20
-82.90411866
 30
0.0
 40
0.22500034
100
AcDbArc
 50
142.66230552
 51
192.61243688
  0
LWPOLYLINE
  5
216
100
AcDbEntity
  8
MST_1_1
 62
   137
  6
CONTINUOUS
100
AcDbPolyline
 90
        9
 70
     0
 43
0.0
 10
-85.86086251
 20
-82.71533502
 10
-85.831161
 20
-82.74503664
 10
-85.80144588
 20
-82.77475165
 10
-85.77171876
 20
-82.80447889
 10
-85.74198081
 20
-82.83421671
 10
-85.71223355
 20
-82.86396409
 10
-85.68247815
 20
-82.89371938
 10
-85.65271622
 20
-82.92348142
 10
-85.62294894
 20
-82.95324859
  0
ARC
  5
217
100
AcDbEntity
  8
MST_1_1
 62
   137
  6
CONTINUOUS
100
AcDbCircle
 10
-85.81173177
 20
-82.49576522
 30
0.0
 40
0.22499939
100
AcDbArc
 50
257.38731744
 51
12.61269257
  0
LINE
  5
218
100
AcDbEntity
  8
MST_1_1
 62
   137
  6
CONTINUOUS
100
AcDbLine
 10
-85.4696373
 20
-82.7530069
 30
0.0
 11
-85.25226661
 21
-82.97037759
 31
0.0
  0
ARC
  5
219
100
AcDbEntity
  8
MST_1_1
 62
   137
  6
CONTINUOUS
100
AcDbCircle
 10
-85.40337836
 20
-82.90411866
 30
0.0
 40
0.16500003
100
AcDbArc
 50
336.32369525
 51
113.67631477
  0
LINE
  5
21A
100
AcDbEntity
  8
MST_1_1
 62
   137
  6
CONTINUOUS
100
AcDbLine
 10
-85.33711941
 20
-83.05523039
 30
0.0
 11
-85.5544901
 21
-82.8378597
 31
0.0
  0
ARC
  5
21B
100
AcDbEntity
  8
MST_1_1
 62
   137
  6
CONTINUOUS
100
AcDbCircle
 10
-85.40337833
 20
-82.90411863
 30
0.0
 40
0.16500003
100
AcDbArc
 50
156.32368721
 51
293.6763228
  0
CIRCLE
  5
21C
100
AcDbEntity
  8
MST_1_1
 62
   137
  6
CONTINUOUS
100
AcDbCircle
 10
-83.95380946
 20
-111.45454975
 30
0.0
 40
1.57981333
  0
CIRCLE
  5
21D
100
AcDbEntity
  8
MST_1_1
 62
   137
  6
CONTINUOUS
100
AcDbCircle
 10
-83.95380946
 20
-111.45454975
 30
0.0
 40
0.92740167
  0
CIRCLE
  5
21E
100
AcDbEntity
  8
MST_1_1
 62
   137
  6
CONTINUOUS
100
AcDbCircle
 10
-83.95380946
 20
-111.45454975
 30
0.0
 40
1.57981333
  0
CIRCLE
  5
21F
100
AcDbEntity
  8
MST_1_1
 62
   137
  6
CONTINUOUS
100
AcDbCircle
 10
-83.95380946
 20
-111.45454975
 30
0.0
 40
0.92740167
  0
CIRCLE
  5
220
100
AcDbEntity
  8
MST_1_1
 62
   137
  6
CONTINUOUS
100
AcDbCircle
 10
-83.95380946
 20
-111.45454975
 30
0.0
 40
1.57981333
  0
CIRCLE
  5
221
100
AcDbEntity
  8
MST_1_1
 62
   137
  6
CONTINUOUS
100
AcDbCircle
 10
-83.95380946
 20
-111.45454975
 30
0.0
 40
0.92740167
  0
CIRCLE
  5
222
100
AcDbEntity
  8
MST_1_1
 62
   137
  6
CONTINUOUS
100
AcDbCircle
 10
-83.95380946
 20
-111.45454975
 30
0.0
 40
2.94765956
  0
ARC
  5
223
100
AcDbEntity
  8
MST_1_1
 62
   137
  6
CONTINUOUS
100
AcDbCircle
 10
-85.09980944
 20
-111.45454975
 30
0.0
 40
0.25400002
100
AcDbArc
 50
107.73687203
 51
252.26313799
  0
ARC
  5
224
100
AcDbEntity
  8
MST_1_1
 62
   137
  6
CONTINUOUS
100
AcDbCircle
 10
-85.35953075
 20
-112.26614334
 30
0.0
 40
0.59813807
100
AcDbArc
 50
347.74903638
 51
72.25097948
  0
ARC
  5
225
100
AcDbEntity
  8
MST_1_1
 62
   137
  6
CONTINUOUS
100
AcDbCircle
 10
-84.52680946
 20
-112.44701488
 30
0.0
 40
0.254
100
AcDbArc
 50
167.7368553
 51
312.26315504
  0
ARC
  5
226
100
AcDbEntity
  8
MST_1_1
 62
   137
  6
CONTINUOUS
100
AcDbCircle
 10
-83.95380946
 20
-113.07773698
 30
0.0
 40
0.59813812
100
AcDbArc
 50
47.74903104
 51
132.25096896
  0
ARC
  5
227
100
AcDbEntity
  8
MST_1_1
 62
   137
  6
CONTINUOUS
100
AcDbCircle
 10
-83.38080945
 20
-112.44701489
 30
0.0
 40
0.25399999
100
AcDbArc
 50
227.73686234
 51
12.26314736
  0
ARC
  5
228
100
AcDbEntity
  8
MST_1_1
 62
   137
  6
CONTINUOUS
100
AcDbCircle
 10
-82.54808813
 20
-112.26614335
 30
0.0
 40
0.59813809
100
AcDbArc
 50
107.74902273
 51
192.25098144
  0
ARC
  5
229
100
AcDbEntity
  8
MST_1_1
 62
   137
  6
CONTINUOUS
100
AcDbCircle
 10
-82.80780947
 20
-111.45454975
 30
0.0
 40
0.25400002
100
AcDbArc
 50
287.73688205
 51
72.26312797
  0
ARC
  5
22A
100
AcDbEntity
  8
MST_1_1
 62
   137
  6
CONTINUOUS
100
AcDbCircle
 10
-82.54808816
 20
-110.64295616
 30
0.0
 40
0.59813807
100
AcDbArc
 50
167.74902636
 51
252.2509895
  0
ARC
  5
22B
100
AcDbEntity
  8
MST_1_1
 62
   137
  6
CONTINUOUS
100
AcDbCircle
 10
-83.38080945
 20
-110.46208461
 30
0.0
 40
0.254
100
AcDbArc
 50
347.73686532
 51
132.26314502
  0
ARC
  5
22C
100
AcDbEntity
  8
MST_1_1
 62
   137
  6
CONTINUOUS
100
AcDbCircle
 10
-83.95380946
 20
-109.83136252
 30
0.0
 40
0.59813812
100
AcDbArc
 50
227.74904106
 51
312.25097898
  0
ARC
  5
22D
100
AcDbEntity
  8
MST_1_1
 62
   137
  6
CONTINUOUS
100
AcDbCircle
 10
-84.52680947
 20
-110.4620846
 30
0.0
 40
0.25399999
100
AcDbArc
 50
47.73685232
 51
192.26315737
  0
ARC
  5
22E
100
AcDbEntity
  8
MST_1_1
 62
   137
  6
CONTINUOUS
100
AcDbCircle
 10
-85.35953078
 20
-110.64295614
 30
0.0
 40
0.59813809
100
AcDbArc
 50
287.74903275
 51
12.25097142
  0
LWPOLYLINE
  5
22F
100
AcDbEntity
  8
MST_1_1
 62
   137
  6
CONTINUOUS
100
AcDbPolyline
 90
        9
 70
     0
 43
0.0
 10
-85.18240752
 20
-113.47864292
 10
-85.174851
 20
-113.47108641
 10
-85.16728959
 20
-113.463525
 10
-85.15972329
 20
-113.4559587
 10
-85.15215222
 20
-113.44838775
 10
-85.14457638
 20
-113.4408119
 10
-85.13699576
 20
-113.43323117
 10
-85.12941037
 20
-113.42564578
 10
-85.12182033
 20
-113.41805573
  0
ARC
  5
230
100
AcDbEntity
  8
MST_1_1
 62
   137
  6
CONTINUOUS
100
AcDbCircle
 10
-84.99502417
 20
-113.31247285
 30
0.0
 40
0.16500003
100
AcDbArc
 50
50.2159403
 51
219.78408407
  0
LWPOLYLINE
  5
231
100
AcDbEntity
  8
MST_1_1
 62
   137
  6
CONTINUOUS
100
AcDbPolyline
 90
        9
 70
     0
 43
0.0
 10
-84.88944132
 20
-113.18567667
 10
-84.88188107
 20
-113.17811654
 10
-84.87431705
 20
-113.17055245
 10
-84.86674924
 20
-113.16298464
 10
-84.8591777
 20
-113.15541311
 10
-84.85160238
 20
-113.14783773
 10
-84.84402328
 20
-113.14025874
 10
-84.83644057
 20
-113.13267591
 10
-84.82885407
 20
-113.12508948
  0
LWPOLYLINE
  5
232
100
AcDbEntity
  8
MST_1_1
 62
   137
  6
CONTINUOUS
100
AcDbPolyline
 90
        9
 70
     0
 43
0.0
 10
-84.82885407
 20
-113.12508948
 10
-84.87416448
 20
-113.07977912
 10
-84.91951105
 20
-113.03443256
 10
-84.9648891
 20
-112.98905456
 10
-85.01029387
 20
-112.94364979
 10
-85.05572087
 20
-112.89822279
 10
-85.10116534
 20
-112.85277832
 10
-85.14662273
 20
-112.80732093
 10
-85.19208827
 20
-112.76185539
  0
LINE
  5
233
100
AcDbEntity
  8
MST_1_1
 62
   137
  6
CONTINUOUS
100
AcDbLine
 10
-85.19208827
 20
-112.76185539
 30
0.0
 11
-85.21355455
 21
-112.78332168
 31
0.0
  0
LWPOLYLINE
  5
234
100
AcDbEntity
  8
MST_1_1
 62
   137
  6
CONTINUOUS
100
AcDbPolyline
 90
       25
 70
     0
 43
0.0
 10
-85.21355452
 20
-112.78332166
 10
-85.21579794
 20
-112.77986613
 10
-85.21810096
 20
-112.77645638
 10
-85.22046296
 20
-112.77309304
 10
-85.22288331
 20
-112.76977674
 10
-85.22536139
 20
-112.7665081
 10
-85.22789657
 20
-112.76328775
 10
-85.23048823
 20
-112.76011633
 10
-85.23313574
 20
-112.75699444
 10
-85.23583848
 20
-112.75392274
 10
-85.23859581
 20
-112.75090183
 10
-85.24140712
 20
-112.74793236
 10
-85.24427178
 20
-112.74501494
 10
-85.24718917
 20
-112.74215021
 10
-85.25015865
 20
-112.73933879
 10
-85.25317961
 20
-112.7365813
 10
-85.25625142
 20
-112.73387839
 10
-85.25937345
 20
-112.73123067
 10
-85.26254507
 20
-112.72863878
 10
-85.26576567
 20
-112.72610333
 10
-85.26903462
 20
-112.72362496
 10
-85.27235129
 20
-112.7212043
 10
-85.27571505
 20
-112.71884197
 10
-85.27912529
 20
-112.7165386
 10
-85.28258137
 20
-112.71429481
  0
LINE
  5
235
100
AcDbEntity
  8
MST_1_1
 62
   137
  6
CONTINUOUS
100
AcDbLine
 10
-85.28258139
 20
-112.71429485
 30
0.0
 11
-85.2611151
 21
-112.69282856
 31
0.0
  0
LWPOLYLINE
  5
236
100
AcDbEntity
  8
MST_1_1
 62
   137
  6
CONTINUOUS
100
AcDbPolyline
 90
        9
 70
     0
 43
0.0
 10
-85.2611151
 20
-112.69282856
 10
-85.30658064
 20
-112.64736302
 10
-85.35203803
 20
-112.60190563
 10
-85.3974825
 20
-112.55646116
 10
-85.4429095
 20
-112.51103416
 10
-85.48831427
 20
-112.46562939
 10
-85.53369227
 20
-112.42025134
 10
-85.57903883
 20
-112.37490478
 10
-85.62434918
 20
-112.32959436
  0
LWPOLYLINE
  5
237
100
AcDbEntity
  8
MST_1_1
 62
   137
  6
CONTINUOUS
100
AcDbPolyline
 90
        9
 70
     0
 43
0.0
 10
-85.62434918
 20
-112.32959436
 10
-85.63193562
 20
-112.33718086
 10
-85.63951845
 20
-112.34476357
 10
-85.64709744
 20
-112.35234267
 10
-85.65467281
 20
-112.35991799
 10
-85.66224435
 20
-112.36748953
 10
-85.66981216
 20
-112.37505734
 10
-85.67737625
 20
-112.38262137
 10
-85.68493637
 20
-112.39018161
  0
ARC
  5
238
100
AcDbEntity
  8
MST_1_1
 62
   137
  6
CONTINUOUS
100
AcDbCircle
 10
-85.81173255
 20
-112.49576447
 30
0.0
 40
0.16500003
100
AcDbArc
 50
230.21593198
 51
39.78406368
  0
LWPOLYLINE
  5
239
100
AcDbEntity
  8
MST_1_1
 62
   137
  6
CONTINUOUS
100
AcDbPolyline
 90
        9
 70
     0
 43
0.0
 10
-85.91731544
 20
-112.62256062
 10
-85.92490549
 20
-112.63015067
 10
-85.93249088
 20
-112.63773606
 10
-85.94007161
 20
-112.64531667
 10
-85.94764745
 20
-112.65289252
 10
-85.95521841
 20
-112.66046359
 10
-85.96278471
 20
-112.66802988
 10
-85.97034611
 20
-112.67559129
 10
-85.97790263
 20
-112.68314781
  0
LWPOLYLINE
  5
23A
100
AcDbEntity
  8
MST_1_1
 62
   137
  6
CONTINUOUS
100
AcDbPolyline
 90
        9
 70
     0
 43
0.0
 10
-85.97790263
 20
-112.68314781
 10
-85.93259728
 20
-112.72845316
 10
-85.88725386
 20
-112.77379658
 10
-85.84187727
 20
-112.81917318
 10
-85.79647238
 20
-112.86457806
 10
-85.75104421
 20
-112.91000623
 10
-85.70559753
 20
-112.95545291
 10
-85.66013735
 20
-113.00091309
 10
-85.61466843
 20
-113.04638189
  0
LINE
  5
23B
100
AcDbEntity
  8
MST_1_1
 62
   137
  6
CONTINUOUS
100
AcDbLine
 10
-85.61466843
 20
-113.04638189
 30
0.0
 11
-85.59320215
 21
-113.02491561
 31
0.0
  0
LWPOLYLINE
  5
23C
100
AcDbEntity
  8
MST_1_1
 62
   137
  6
CONTINUOUS
100
AcDbPolyline
 90
       25
 70
     0
 43
0.0
 10
-85.59320219
 20
-113.02491563
 10
-85.59095894
 20
-113.0283709
 10
-85.58865603
 20
-113.03178044
 10
-85.58629409
 20
-113.03514363
 10
-85.58387377
 20
-113.03845983
 10
-85.58139568
 20
-113.04172841
 10
-85.57886046
 20
-113.04494874
 10
-85.57626873
 20
-113.04812019
 10
-85.57362114
 20
-113.05124212
 10
-85.5709183
 20
-113.0543139
 10
-85.56816085
 20
-113.0573349
 10
-85.56534942
 20
-113.06030448
 10
-85.56248464
 20
-113.06322201
 10
-85.55956714
 20
-113.06608687
 10
-85.55659754
 20
-113.06889841
 10
-85.55357649
 20
-113.07165601
 10
-85.55050461
 20
-113.07435903
 10
-85.54738253
 20
-113.07700684
 10
-85.54421088
 20
-113.07959881
 10
-85.5409903
 20
-113.0821343
 10
-85.5377214
 20
-113.08461268
 10
-85.53440483
 20
-113.08703332
 10
-85.53104121
 20
-113.08939559
 10
-85.52763117
 20
-113.09169886
 10
-85.52417534
 20
-113.09394248
  0
LINE
  5
23D
100
AcDbEntity
  8
MST_1_1
 62
   137
  6
CONTINUOUS
100
AcDbLine
 10
-85.52417531
 20
-113.09394244
 30
0.0
 11
-85.5456416
 21
-113.11540873
 31
0.0
  0
LWPOLYLINE
  5
23E
100
AcDbEntity
  8
MST_1_1
 62
   137
  6
CONTINUOUS
100
AcDbPolyline
 90
        9
 70
     0
 43
0.0
 10
-85.5456416
 20
-113.11540873
 10
-85.5001728
 20
-113.16087764
 10
-85.45471262
 20
-113.20633782
 10
-85.40926594
 20
-113.2517845
 10
-85.36383777
 20
-113.29721267
 10
-85.31843288
 20
-113.34261756
 10
-85.27305629
 20
-113.38799416
 10
-85.22771287
 20
-113.43333757
 10
-85.18240752
 20
-113.47864292
  0
CIRCLE
  5
23F
100
AcDbEntity
  8
MST_1_1
 62
   137
  6
CONTINUOUS
100
AcDbCircle
 10
-83.95380946
 20
-111.45454975
 30
0.0
 40
2.80967609
  0
LWPOLYLINE
  5
240
100
AcDbEntity
  8
MST_1_1
 62
   137
  6
CONTINUOUS
100
AcDbPolyline
 90
        9
 70
     0
 43
0.0
 10
-85.35424841
 20
-112.68454805
 10
-85.38401452
 20
-112.65478194
 10
-85.41377564
 20
-112.62502083
 10
-85.44353034
 20
-112.59526612
 10
-85.47327737
 20
-112.56551909
 10
-85.50301531
 20
-112.53578115
 10
-85.5327429
 20
-112.50605345
 10
-85.56245896
 20
-112.4763375
 10
-85.59216198
 20
-112.44663448
  0
ARC
  5
241
100
AcDbEntity
  8
MST_1_1
 62
   137
  6
CONTINUOUS
100
AcDbCircle
 10
-85.40337841
 20
-112.90411868
 30
0.0
 40
0.22500004
100
AcDbArc
 50
77.38753746
 51
127.33773016
  0
LINE
  5
242
100
AcDbEntity
  8
MST_1_1
 62
   137
  6
CONTINUOUS
100
AcDbLine
 10
-85.22448665
 20
-113.04058394
 30
0.0
 11
-85.53984365
 21
-112.72522694
 31
0.0
  0
ARC
  5
243
100
AcDbEntity
  8
MST_1_1
 62
   137
  6
CONTINUOUS
100
AcDbCircle
 10
-85.40337882
 20
-112.9041186
 30
0.0
 40
0.22500044
100
AcDbArc
 50
322.66232758
 51
12.61241482
  0
LWPOLYLINE
  5
244
100
AcDbEntity
  8
MST_1_1
 62
   137
  6
CONTINUOUS
100
AcDbPolyline
 90
        9
 70
     0
 43
0.0
 10
-84.94589419
 20
-113.09290227
 10
-84.97559721
 20
-113.06319925
 10
-85.00531315
 20
-113.03348319
 10
-85.03504085
 20
-113.00375561
 10
-85.0647788
 20
-112.97401766
 10
-85.09452582
 20
-112.94427064
 10
-85.12428053
 20
-112.91451593
 10
-85.15404164
 20
-112.88475482
 10
-85.18380776
 20
-112.8549887
  0
ARC
  5
245
100
AcDbEntity
  8
MST_1_1
 62
   137
  6
CONTINUOUS
100
AcDbCircle
 10
-84.99502429
 20
-113.31247271
 30
0.0
 40
0.22499987
100
AcDbArc
 50
77.38750317
 51
192.61250685
  0
LWPOLYLINE
  5
246
100
AcDbEntity
  8
MST_1_1
 62
   137
  6
CONTINUOUS
100
AcDbPolyline
 90
        9
 70
     0
 43
0.0
 10
-85.45250829
 20
-113.12368923
 10
-85.42274113
 20
-113.15345651
 10
-85.39297909
 20
-113.18321844
 10
-85.3632238
 20
-113.21297385
 10
-85.33347642
 20
-113.24272111
 10
-85.30373859
 20
-113.27245905
 10
-85.27401136
 20
-113.30218617
 10
-85.24429635
 20
-113.3319013
 10
-85.21459473
 20
-113.3616028
  0
ARC
  5
247
100
AcDbEntity
  8
MST_1_1
 62
   137
  6
CONTINUOUS
100
AcDbCircle
 10
-85.40337828
 20
-112.90411867
 30
0.0
 40
0.22499997
100
AcDbArc
 50
257.38753999
 51
307.33774766
  0
LINE
  5
248
100
AcDbEntity
  8
MST_1_1
 62
   137
  6
CONTINUOUS
100
AcDbLine
 10
-85.58227005
 20
-112.76765334
 30
0.0
 11
-85.26691305
 21
-113.08301034
 31
0.0
  0
ARC
  5
249
100
AcDbEntity
  8
MST_1_1
 62
   137
  6
CONTINUOUS
100
AcDbCircle
 10
-85.40337799
 20
-112.90411866
 30
0.0
 40
0.22500034
100
AcDbArc
 50
142.66230552
 51
192.61243688
  0
LWPOLYLINE
  5
24A
100
AcDbEntity
  8
MST_1_1
 62
   137
  6
CONTINUOUS
100
AcDbPolyline
 90
        9
 70
     0
 43
0.0
 10
-85.86086251
 20
-112.71533502
 10
-85.831161
 20
-112.74503664
 10
-85.80144588
 20
-112.77475165
 10
-85.77171876
 20
-112.80447889
 10
-85.74198081
 20
-112.83421671
 10
-85.71223355
 20
-112.86396409
 10
-85.68247815
 20
-112.89371938
 10
-85.65271622
 20
-112.92348142
 10
-85.62294894
 20
-112.95324859
  0
ARC
  5
24B
100
AcDbEntity
  8
MST_1_1
 62
   137
  6
CONTINUOUS
100
AcDbCircle
 10
-85.81173177
 20
-112.49576522
 30
0.0
 40
0.22499939
100
AcDbArc
 50
257.38731744
 51
12.61269257
  0
LINE
  5
24C
100
AcDbEntity
  8
MST_1_1
 62
   137
  6
CONTINUOUS
100
AcDbLine
 10
-85.4696373
 20
-112.7530069
 30
0.0
 11
-85.25226661
 21
-112.97037759
 31
0.0
  0
ARC
  5
24D
100
AcDbEntity
  8
MST_1_1
 62
   137
  6
CONTINUOUS
100
AcDbCircle
 10
-85.40337836
 20
-112.90411866
 30
0.0
 40
0.16500003
100
AcDbArc
 50
336.32369525
 51
113.67631477
  0
LINE
  5
24E
100
AcDbEntity
  8
MST_1_1
 62
   137
  6
CONTINUOUS
100
AcDbLine
 10
-85.33711941
 20
-113.05523039
 30
0.0
 11
-85.5544901
 21
-112.8378597
 31
0.0
  0
ARC
  5
24F
100
AcDbEntity
  8
MST_1_1
 62
   137
  6
CONTINUOUS
100
AcDbCircle
 10
-85.40337833
 20
-112.90411863
 30
0.0
 40
0.16500003
100
AcDbArc
 50
156.32368721
 51
293.6763228
  0
MTEXT
  5
250
100
AcDbEntity
  8
MST_1_1
 62
     4
100
AcDbMText
 10
-111.34719685
 20
171.944974
 30
2500.0
 11
1.0
 21
0.0
 31
0.0
 40
20.0
 41
377.85535624
 71
     1
 72
     1
  1
\fTahoma|b0|i0|c0|p18;\H20;\W0.80000001;\C7;Spanplattenschrauben Linsensenkkopf\PHECO-FIX-plus 3.0mm\P35.001
  0
LWPOLYLINE
  5
251
102
{ACAD_REACTORS
330
252
102
}
100
AcDbEntity
  8
MST_1_1
 62
    12
100
AcDbPolyline
 90
       46
 70
     1
 43
0.0
 10
349.77656601
 20
182.510724
 10
349.64574468
 20
182.52136233
 10
349.52159535
 20
182.55215067
 10
349.40579001
 20
182.601399
 10
349.30000068
 20
182.66741733
 10
349.20589935
 20
182.74851567
 10
349.12515801
 20
182.843004
 10
349.05944868
 20
182.94919233
 10
349.01044335
 20
183.06539067
 10
348.97981401
 20
183.189909
 10
348.96923268
 20
183.32105733
 10
348.96923268
 20
183.32105733
 10
348.97981401
 20
183.4522695
 10
349.01044335
 20
183.57687467
 10
349.05944868
 20
183.69317583
 10
349.12515801
 20
183.799476
 10
349.20589935
 20
183.89407817
 10
349.30000068
 20
183.97528533
 10
349.40579001
 20
184.0414005
 10
349.52159535
 20
184.09072667
 10
349.64574468
 20
184.12156683
 10
349.77656601
 20
184.132224
 10
349.77656601
 20
184.132224
 10
349.90722068
 20
184.12156683
 10
350.03126335
 20
184.09072667
 10
350.14701201
 20
184.0414005
 10
350.25278468
 20
183.97528533
 10
350.34689935
 20
183.89407817
 10
350.42767401
 20
183.799476
 10
350.49342668
 20
183.69317583
 10
350.54247535
 20
183.57687467
 10
350.57313801
 20
183.4522695
 10
350.58373268
 20
183.32105733
 10
350.58373268
 20
183.32105733
 10
350.57313801
 20
183.189909
 10
350.54247535
 20
183.06539067
 10
350.49342668
 20
182.94919233
 10
350.42767401
 20
182.843004
 10
350.34689935
 20
182.74851567
 10
350.25278468
 20
182.66741733
 10
350.14701201
 20
182.601399
 10
350.03126335
 20
182.55215067
 10
349.90722068
 20
182.52136233
 10
349.77656601
 20
182.510724
 10
349.77656601
 20
182.510724
 10
349.77656601
 20
182.510724
  0
HATCH
  5
252
100
AcDbEntity
  8
MST_1_1
 62
    12
100
AcDbHatch
 10
0.0
 20
0.0
 30
0.0
210
0.0
220
0.0
230
1.0
  2
SOLID
 70
     1
 71
     1
 91
        1
 92
        7
 72
     0
 73
     1
 93
       40
 10
349.77656601
 20
182.510724
 10
349.64574468
 20
182.52136233
 10
349.52159535
 20
182.55215067
 10
349.40579001
 20
182.601399
 10
349.30000068
 20
182.66741733
 10
349.20589935
 20
182.74851567
 10
349.12515801
 20
182.843004
 10
349.05944868
 20
182.94919233
 10
349.01044335
 20
183.06539067
 10
348.97981401
 20
183.189909
 10
348.96923268
 20
183.32105733
 10
348.97981401
 20
183.4522695
 10
349.01044335
 20
183.57687467
 10
349.05944868
 20
183.69317583
 10
349.12515801
 20
183.799476
 10
349.20589935
 20
183.89407817
 10
349.30000068
 20
183.97528533
 10
349.40579001
 20
184.0414005
 10
349.52159535
 20
184.09072667
 10
349.64574468
 20
184.12156683
 10
349.77656601
 20
184.132224
 10
349.90722068
 20
184.12156683
 10
350.03126335
 20
184.09072667
 10
350.14701201
 20
184.0414005
 10
350.25278468
 20
183.97528533
 10
350.34689935
 20
183.89407817
 10
350.42767401
 20
183.799476
 10
350.49342668
 20
183.69317583
 10
350.54247535
 20
183.57687467
 10
350.57313801
 20
183.4522695
 10
350.58373268
 20
183.32105733
 10
350.57313801
 20
183.189909
 10
350.54247535
 20
183.06539067
 10
350.49342668
 20
182.94919233
 10
350.42767401
 20
182.843004
 10
350.34689935
 20
182.74851567
 10
350.25278468
 20
182.66741733
 10
350.14701201
 20
182.601399
 10
350.03126335
 20
182.55215067
 10
349.90722068
 20
182.52136233
 97
        1
330
251
 75
     0
 76
     2
 47
0.775229
 98
        1
 10
0.0
 20
0.0
  0
LWPOLYLINE
  5
253
102
{ACAD_REACTORS
330
254
102
}
100
AcDbEntity
  8
MST_1_1
 62
    12
100
AcDbPolyline
 90
        8
 70
     1
 43
0.0
 10
282.31156601
 20
181.944974
 10
348.27939935
 20
181.944974
 10
348.27939935
 20
181.944974
 10
348.27939935
 20
165.363724
 10
348.27939935
 20
165.363724
 10
282.31156601
 20
165.363724
 10
282.31156601
 20
165.363724
 10
282.31156601
 20
181.944974
  0
HATCH
  5
254
100
AcDbEntity
  8
MST_1_1
 62
    12
100
AcDbHatch
 10
0.0
 20
0.0
 30
0.0
210
0.0
220
0.0
230
1.0
  2
SOLID
 70
     1
 71
     1
 91
        1
 92
        7
 72
     0
 73
     1
 93
        4
 10
282.31156601
 20
181.944974
 10
348.27939935
 20
181.944974
 10
348.27939935
 20
165.363724
 10
282.31156601
 20
165.363724
 97
        1
330
253
 75
     0
 76
     2
 47
0.775229
 98
        1
 10
0.0
 20
0.0
  0
LINE
  5
255
100
AcDbEntity
  8
MST_1_1
100
AcDbLine
 10
282.31156601
 20
165.363724
 30
0.0
 11
282.31156601
 21
165.363724
 31
0.0
  0
LINE
  5
256
100
AcDbEntity
  8
MST_1_1
100
AcDbLine
 10
282.31156601
 20
165.363724
 30
0.0
 11
282.31156601
 21
165.363724
 31
0.0
  0
LINE
  5
257
100
AcDbEntity
  8
MST_1_1
100
AcDbLine
 10
282.31156601
 20
165.363724
 30
0.0
 11
282.31156601
 21
165.363724
 31
0.0
  0
LINE
  5
258
100
AcDbEntity
  8
MST_1_1
100
AcDbLine
 10
282.31156601
 20
165.363724
 30
0.0
 11
282.31156601
 21
165.363724
 31
0.0
  0
LINE
  5
259
100
AcDbEntity
  8
MST_1_1
100
AcDbLine
 10
282.31156601
 20
165.363724
 30
0.0
 11
282.31156601
 21
165.363724
 31
0.0
  0
LINE
  5
25A
100
AcDbEntity
  8
MST_1_1
100
AcDbLine
 10
282.31156601
 20
165.363724
 30
0.0
 11
282.31156601
 21
165.363724
 31
0.0
  0
LINE
  5
25B
100
AcDbEntity
  8
MST_1_1
100
AcDbLine
 10
282.31156601
 20
165.363724
 30
0.0
 11
282.31156601
 21
165.363724
 31
0.0
  0
LINE
  5
25C
100
AcDbEntity
  8
MST_1_1
100
AcDbLine
 10
282.31156601
 20
165.363724
 30
0.0
 11
282.31156601
 21
165.363724
 31
0.0
  0
LINE
  5
25D
100
AcDbEntity
  8
MST_1_1
100
AcDbLine
 10
282.31156601
 20
165.363724
 30
0.0
 11
282.31156601
 21
165.363724
 31
0.0
  0
LINE
  5
25E
100
AcDbEntity
  8
MST_1_1
100
AcDbLine
 10
282.31156601
 20
165.363724
 30
0.0
 11
282.31156601
 21
165.363724
 31
0.0
  0
LINE
  5
25F
100
AcDbEntity
  8
MST_1_1
100
AcDbLine
 10
282.31156601
 20
165.363724
 30
0.0
 11
282.31156601
 21
165.363724
 31
0.0
  0
LWPOLYLINE
  5
260
102
{ACAD_REACTORS
330
261
102
}
100
AcDbEntity
  8
MST_1_1
 62
   190
100
AcDbPolyline
 90
        8
 70
     1
 43
0.0
 10
315.11806601
 20
180.79530733
 10
347.13289935
 20
180.79530733
 10
347.13289935
 20
180.79530733
 10
347.13289935
 20
166.51155567
 10
347.13289935
 20
166.51155567
 10
315.11806601
 20
166.51155567
 10
315.11806601
 20
166.51155567
 10
315.11806601
 20
180.79530733
  0
HATCH
  5
261
100
AcDbEntity
  8
MST_1_1
 62
   190
100
AcDbHatch
 10
0.0
 20
0.0
 30
0.0
210
0.0
220
0.0
230
1.0
  2
SOLID
 70
     1
 71
     1
 91
        1
 92
        7
 72
     0
 73
     1
 93
        4
 10
315.11806601
 20
180.79530733
 10
347.13289935
 20
180.79530733
 10
347.13289935
 20
166.51155567
 10
315.11806601
 20
166.51155567
 97
        1
330
260
 75
     0
 76
     2
 47
0.775229
 98
        1
 10
0.0
 20
0.0
  0
LWPOLYLINE
  5
262
102
{ACAD_REACTORS
330
263
102
}
100
AcDbEntity
  8
MST_1_1
 62
    12
100
AcDbPolyline
 90
       22
 70
     1
 43
0.0
 10
317.03589935
 20
168.804824
 10
317.03589935
 20
177.89134067
 10
317.03589935
 20
177.89134067
 10
325.21523268
 20
177.89134067
 10
325.21523268
 20
177.89134067
 10
325.21523268
 20
175.42699067
 10
325.21523268
 20
175.42699067
 10
321.43923268
 20
175.42699067
 10
321.43923268
 20
175.42699067
 10
321.43923268
 20
174.372374
 10
321.43923268
 20
174.372374
 10
324.85689935
 20
174.372374
 10
324.85689935
 20
174.372374
 10
324.85689935
 20
172.044574
 10
324.85689935
 20
172.044574
 10
321.43923268
 20
172.044574
 10
321.43923268
 20
172.044574
 10
321.43923268
 20
168.804824
 10
321.43923268
 20
168.804824
 10
317.03589935
 20
168.804824
 10
317.03589935
 20
168.804824
 10
317.03589935
 20
168.804824
  0
HATCH
  5
263
100
AcDbEntity
  8
MST_1_1
 62
    12
100
AcDbHatch
 10
0.0
 20
0.0
 30
0.0
210
0.0
220
0.0
230
1.0
  2
SOLID
 70
     1
 71
     1
 91
        1
 92
        7
 72
     0
 73
     1
 93
       10
 10
317.03589935
 20
168.804824
 10
317.03589935
 20
177.89134067
 10
325.21523268
 20
177.89134067
 10
325.21523268
 20
175.42699067
 10
321.43923268
 20
175.42699067
 10
321.43923268
 20
174.372374
 10
324.85689935
 20
174.372374
 10
324.85689935
 20
172.044574
 10
321.43923268
 20
172.044574
 10
321.43923268
 20
168.804824
 97
        1
330
262
 75
     0
 76
     2
 47
0.775229
 98
        1
 10
0.0
 20
0.0
  0
LWPOLYLINE
  5
264
102
{ACAD_REACTORS
330
265
102
}
100
AcDbEntity
  8
MST_1_1
 62
   190
100
AcDbPolyline
 90
      178
 70
     1
 43
0.0
 10
313.26056601
 20
173.329974
 10
313.25699401
 20
173.13180728
 10
313.24629001
 20
172.93634027
 10
313.22847201
 20
172.74359265
 10
313.20355801
 20
172.55358413
 10
313.17156601
 20
172.36633442
 10
313.13251401
 20
172.1818632
 10
313.08642001
 20
172.00019018
 10
313.03330201
 20
171.82133507
 10
312.97317801
 20
171.64531755
 10
312.90606601
 20
171.47215733
 10
312.90606601
 20
171.47215733
 10
312.83233301
 20
171.30168347
 10
312.75194201
 20
171.1349364
 10
312.66490501
 20
170.97190793
 10
312.57123401
 20
170.81258987
 10
312.47094101
 20
170.656974
 10
312.36403801
 20
170.50505213
 10
312.25053701
 20
170.35681607
 10
312.13045001
 20
170.2122576
 10
312.00378901
 20
170.07136853
 10
311.87056601
 20
169.93414067
 10
311.87056601
 20
169.93414067
 10
311.73182735
 20
169.80435988
 10
311.58891668
 20
169.6807924
 10
311.44184201
 20
169.56344552
 10
311.29061135
 20
169.45232653
 10
311.13523268
 20
169.34744275
 10
310.97571401
 20
169.24880147
 10
310.81206335
 20
169.15640998
 10
310.64428868
 20
169.0702756
 10
310.47239801
 20
168.99040562
 10
310.29639935
 20
168.91680733
 10
310.29639935
 20
168.91680733
 10
310.11735135
 20
168.8498092
 10
309.93583535
 20
168.78975227
 10
309.75189335
 20
168.73666273
 10
309.56556735
 20
168.6905668
 10
309.37689935
 20
168.65149067
 10
309.18593135
 20
168.61946053
 10
308.99270535
 20
168.5945026
 10
308.79726335
 20
168.57664307
 10
308.59964735
 20
168.56590813
 10
308.39989935
 20
168.562324
 10
308.39989935
 20
168.562324
 10
308.19797901
 20
168.56590813
 10
307.99853668
 20
168.57664307
 10
307.80160035
 20
168.5945026
 10
307.60719801
 20
168.61946053
 10
307.41535768
 20
168.65149067
 10
307.22610735
 20
168.6905668
 10
307.03947501
 20
168.73666273
 10
306.85548868
 20
168.78975227
 10
306.67417635
 20
168.8498092
 10
306.49556601
 20
168.91680733
 10
306.49556601
 20
168.91680733
 10
306.31963951
 20
168.99052297
 10
306.14775401
 20
169.0707464
 10
305.97990051
 20
169.15747243
 10
305.81607001
 20
169.25069587
 10
305.65625351
 20
169.3504115
 10
305.50044201
 20
169.45661413
 10
305.34862651
 20
169.56929857
 10
305.20079801
 20
169.6884596
 10
305.05694751
 20
169.81409203
 10
304.91706601
 20
169.94619067
 10
304.91706601
 20
169.94619067
 10
304.78550718
 20
170.07996555
 10
304.66035535
 20
170.21770973
 10
304.54164751
 20
170.35940752
 10
304.42942068
 20
170.5050432
 10
304.32371185
 20
170.65460108
 10
304.22455801
 20
170.80806547
 10
304.13199618
 20
170.96542065
 10
304.04606335
 20
171.12665093
 10
303.96679651
 20
171.29174062
 10
303.89423268
 20
171.460674
 10
303.89423268
 20
171.460674
 10
303.82841485
 20
171.63379665
 10
303.76947001
 20
171.8100012
 10
303.71741118
 20
171.98928255
 10
303.67225135
 20
172.1716356
 10
303.63400351
 20
172.35705525
 10
303.60268068
 20
172.5455364
 10
303.57829585
 20
172.73707395
 10
303.56086201
 20
172.9316628
 10
303.55039218
 20
173.12929785
 10
303.54689935
 20
173.329974
 10
303.54689935
 20
173.329974
 10
303.55039218
 20
173.53064603
 10
303.56086201
 20
173.72836827
 10
303.57829585
 20
173.9231499
 10
303.60268068
 20
174.11500013
 10
303.63400351
 20
174.30392817
 10
303.67225135
 20
174.4899432
 10
303.71741118
 20
174.67305443
 10
303.76947001
 20
174.85327107
 10
303.82841485
 20
175.0306023
 10
303.89423268
 20
175.20505733
 10
303.89423268
 20
175.20505733
 10
303.96679651
 20
175.37512378
 10
304.04606335
 20
175.54129693
 10
304.13199618
 20
175.70353748
 10
304.22455801
 20
175.86180613
 10
304.32371185
 20
176.01606358
 10
304.42942068
 20
176.16627053
 10
304.54164751
 20
176.31238768
 10
304.66035535
 20
176.45437573
 10
304.78550718
 20
176.59219538
 10
304.91706601
 20
176.72580733
 10
304.91706601
 20
176.72580733
 10
305.05586985
 20
176.85619917
 10
305.19869668
 20
176.980322
 10
305.34556951
 20
177.09815683
 10
305.49651135
 20
177.20968467
 10
305.65154518
 20
177.3148865
 10
305.81069401
 20
177.41374333
 10
305.97398085
 20
177.50623617
 10
306.14142868
 20
177.592346
 10
306.31306051
 20
177.67205383
 10
306.48889935
 20
177.74534067
 10
306.48889935
 20
177.74534067
 10
306.66781335
 20
177.81237225
 10
306.84945135
 20
177.87226933
 10
307.03380735
 20
177.92505042
 10
307.22087535
 20
177.970734
 10
307.41064935
 20
178.00933858
 10
307.60312335
 20
178.04088267
 10
307.79829135
 20
178.06538475
 10
307.99614735
 20
178.08286333
 10
308.19668535
 20
178.09333692
 10
308.39989935
 20
178.096824
 10
308.39989935
 20
178.096824
 10
308.60327101
 20
178.09333692
 10
308.80397268
 20
178.08286333
 10
309.00198435
 20
178.06538475
 10
309.19728601
 20
178.04088267
 10
309.38985768
 20
178.00933858
 10
309.57967935
 20
177.970734
 10
309.76673101
 20
177.92505042
 10
309.95099268
 20
177.87226933
 10
310.13244435
 20
177.81237225
 10
310.31106601
 20
177.74534067
 10
310.31106601
 20
177.74534067
 10
310.48706868
 20
177.67205383
 10
310.65898735
 20
177.592346
 10
310.82683801
 20
177.50623617
 10
310.99063668
 20
177.41374333
 10
311.15039935
 20
177.3148865
 10
311.30614201
 20
177.20968467
 10
311.45788068
 20
177.09815683
 10
311.60563135
 20
176.980322
 10
311.74941001
 20
176.85619917
 10
311.88923268
 20
176.72580733
 10
311.88923268
 20
176.72580733
 10
312.01957751
 20
176.59103282
 10
312.14369135
 20
176.4522052
 10
312.26154318
 20
176.30934838
 10
312.37310201
 20
176.16248627
 10
312.47833685
 20
176.01164275
 10
312.57721668
 20
175.85684173
 10
312.66971051
 20
175.69810712
 10
312.75578735
 20
175.5354628
 10
312.83541618
 20
175.36893268
 10
312.90856601
 20
175.19854067
 10
312.90856601
 20
175.19854067
 10
312.97560801
 20
175.02424875
 10
313.03554201
 20
174.84717133
 10
313.08838001
 20
174.66730592
 10
313.13413401
 20
174.48465
 10
313.17281601
 20
174.29920108
 10
313.20443801
 20
174.11095667
 10
313.22901201
 20
173.91991425
 10
313.24655001
 20
173.72607133
 10
313.25706401
 20
173.52942542
 10
313.26056601
 20
173.329974
 10
313.26056601
 20
173.329974
 10
313.26056601
 20
173.329974
  0
HATCH
  5
265
100
AcDbEntity
  8
MST_1_1
 62
   190
100
AcDbHatch
 10
0.0
 20
0.0
 30
0.0
210
0.0
220
0.0
230
1.0
  2
SOLID
 70
     1
 71
     1
 91
        1
 92
        7
 72
     0
 73
     1
 93
      160
 10
313.26056601
 20
173.329974
 10
313.25699401
 20
173.13180728
 10
313.24629001
 20
172.93634027
 10
313.22847201
 20
172.74359265
 10
313.20355801
 20
172.55358413
 10
313.17156601
 20
172.36633442
 10
313.13251401
 20
172.1818632
 10
313.08642001
 20
172.00019018
 10
313.03330201
 20
171.82133507
 10
312.97317801
 20
171.64531755
 10
312.90606601
 20
171.47215733
 10
312.83233301
 20
171.30168347
 10
312.75194201
 20
171.1349364
 10
312.66490501
 20
170.97190793
 10
312.57123401
 20
170.81258987
 10
312.47094101
 20
170.656974
 10
312.36403801
 20
170.50505213
 10
312.25053701
 20
170.35681607
 10
312.13045001
 20
170.2122576
 10
312.00378901
 20
170.07136853
 10
311.87056601
 20
169.93414067
 10
311.73182735
 20
169.80435988
 10
311.58891668
 20
169.6807924
 10
311.44184201
 20
169.56344552
 10
311.29061135
 20
169.45232653
 10
311.13523268
 20
169.34744275
 10
310.97571401
 20
169.24880147
 10
310.81206335
 20
169.15640998
 10
310.64428868
 20
169.0702756
 10
310.47239801
 20
168.99040562
 10
310.29639935
 20
168.91680733
 10
310.11735135
 20
168.8498092
 10
309.93583535
 20
168.78975227
 10
309.75189335
 20
168.73666273
 10
309.56556735
 20
168.6905668
 10
309.37689935
 20
168.65149067
 10
309.18593135
 20
168.61946053
 10
308.99270535
 20
168.5945026
 10
308.79726335
 20
168.57664307
 10
308.59964735
 20
168.56590813
 10
308.39989935
 20
168.562324
 10
308.19797901
 20
168.56590813
 10
307.99853668
 20
168.57664307
 10
307.80160035
 20
168.5945026
 10
307.60719801
 20
168.61946053
 10
307.41535768
 20
168.65149067
 10
307.22610735
 20
168.6905668
 10
307.03947501
 20
168.73666273
 10
306.85548868
 20
168.78975227
 10
306.67417635
 20
168.8498092
 10
306.49556601
 20
168.91680733
 10
306.31963951
 20
168.99052297
 10
306.14775401
 20
169.0707464
 10
305.97990051
 20
169.15747243
 10
305.81607001
 20
169.25069587
 10
305.65625351
 20
169.3504115
 10
305.50044201
 20
169.45661413
 10
305.34862651
 20
169.56929857
 10
305.20079801
 20
169.6884596
 10
305.05694751
 20
169.81409203
 10
304.91706601
 20
169.94619067
 10
304.78550718
 20
170.07996555
 10
304.66035535
 20
170.21770973
 10
304.54164751
 20
170.35940752
 10
304.42942068
 20
170.5050432
 10
304.32371185
 20
170.65460108
 10
304.22455801
 20
170.80806547
 10
304.13199618
 20
170.96542065
 10
304.04606335
 20
171.12665093
 10
303.96679651
 20
171.29174062
 10
303.89423268
 20
171.460674
 10
303.82841485
 20
171.63379665
 10
303.76947001
 20
171.8100012
 10
303.71741118
 20
171.98928255
 10
303.67225135
 20
172.1716356
 10
303.63400351
 20
172.35705525
 10
303.60268068
 20
172.5455364
 10
303.57829585
 20
172.73707395
 10
303.56086201
 20
172.9316628
 10
303.55039218
 20
173.12929785
 10
303.54689935
 20
173.329974
 10
303.55039218
 20
173.53064603
 10
303.56086201
 20
173.72836827
 10
303.57829585
 20
173.9231499
 10
303.60268068
 20
174.11500013
 10
303.63400351
 20
174.30392817
 10
303.67225135
 20
174.4899432
 10
303.71741118
 20
174.67305443
 10
303.76947001
 20
174.85327107
 10
303.82841485
 20
175.0306023
 10
303.89423268
 20
175.20505733
 10
303.96679651
 20
175.37512378
 10
304.04606335
 20
175.54129693
 10
304.13199618
 20
175.70353748
 10
304.22455801
 20
175.86180613
 10
304.32371185
 20
176.01606358
 10
304.42942068
 20
176.16627053
 10
304.54164751
 20
176.31238768
 10
304.66035535
 20
176.45437573
 10
304.78550718
 20
176.59219538
 10
304.91706601
 20
176.72580733
 10
305.05586985
 20
176.85619917
 10
305.19869668
 20
176.980322
 10
305.34556951
 20
177.09815683
 10
305.49651135
 20
177.20968467
 10
305.65154518
 20
177.3148865
 10
305.81069401
 20
177.41374333
 10
305.97398085
 20
177.50623617
 10
306.14142868
 20
177.592346
 10
306.31306051
 20
177.67205383
 10
306.48889935
 20
177.74534067
 10
306.66781335
 20
177.81237225
 10
306.84945135
 20
177.87226933
 10
307.03380735
 20
177.92505042
 10
307.22087535
 20
177.970734
 10
307.41064935
 20
178.00933858
 10
307.60312335
 20
178.04088267
 10
307.79829135
 20
178.06538475
 10
307.99614735
 20
178.08286333
 10
308.19668535
 20
178.09333692
 10
308.39989935
 20
178.096824
 10
308.60327101
 20
178.09333692
 10
308.80397268
 20
178.08286333
 10
309.00198435
 20
178.06538475
 10
309.19728601
 20
178.04088267
 10
309.38985768
 20
178.00933858
 10
309.57967935
 20
177.970734
 10
309.76673101
 20
177.92505042
 10
309.95099268
 20
177.87226933
 10
310.13244435
 20
177.81237225
 10
310.31106601
 20
177.74534067
 10
310.48706868
 20
177.67205383
 10
310.65898735
 20
177.592346
 10
310.82683801
 20
177.50623617
 10
310.99063668
 20
177.41374333
 10
311.15039935
 20
177.3148865
 10
311.30614201
 20
177.20968467
 10
311.45788068
 20
177.09815683
 10
311.60563135
 20
176.980322
 10
311.74941001
 20
176.85619917
 10
311.88923268
 20
176.72580733
 10
312.01957751
 20
176.59103282
 10
312.14369135
 20
176.4522052
 10
312.26154318
 20
176.30934838
 10
312.37310201
 20
176.16248627
 10
312.47833685
 20
176.01164275
 10
312.57721668
 20
175.85684173
 10
312.66971051
 20
175.69810712
 10
312.75578735
 20
175.5354628
 10
312.83541618
 20
175.36893268
 10
312.90856601
 20
175.19854067
 10
312.97560801
 20
175.02424875
 10
313.03554201
 20
174.84717133
 10
313.08838001
 20
174.66730592
 10
313.13413401
 20
174.48465
 10
313.17281601
 20
174.29920108
 10
313.20443801
 20
174.11095667
 10
313.22901201
 20
173.91991425
 10
313.24655001
 20
173.72607133
 10
313.25706401
 20
173.52942542
 97
        1
330
264
 75
     0
 76
     2
 47
0.775229
 98
        1
 10
0.0
 20
0.0
  0
LWPOLYLINE
  5
266
102
{ACAD_REACTORS
330
267
102
}
100
AcDbEntity
  8
MST_1_1
 62
    12
100
AcDbPolyline
 90
       90
 70
     1
 43
0.0
 10
308.39989935
 20
171.61579067
 10
308.53511651
 20
171.62052598
 10
308.66487668
 20
171.6347092
 10
308.78919285
 20
171.65830622
 10
308.90807801
 20
171.69128293
 10
309.02154518
 20
171.73360525
 10
309.12960735
 20
171.78523907
 10
309.23227751
 20
171.84615028
 10
309.32956868
 20
171.9163048
 10
309.42149385
 20
171.99566852
 10
309.50806601
 20
172.08420733
 10
309.50806601
 20
172.08420733
 10
309.58775851
 20
172.18133235
 10
309.65912601
 20
172.28445347
 10
309.72215351
 20
172.39360978
 10
309.77682601
 20
172.5088404
 10
309.82312851
 20
172.63018442
 10
309.86104601
 20
172.75768093
 10
309.89056351
 20
172.89136905
 10
309.91166601
 20
173.03128787
 10
309.92433851
 20
173.17747648
 10
309.92856601
 20
173.329974
 10
309.92856601
 20
173.329974
 10
309.92433851
 20
173.48321953
 10
309.91166601
 20
173.63022827
 10
309.89056351
 20
173.7710334
 10
309.86104601
 20
173.90566813
 10
309.82312851
 20
174.03416567
 10
309.77682601
 20
174.1565592
 10
309.72215351
 20
174.27288193
 10
309.65912601
 20
174.38316707
 10
309.58775851
 20
174.4874478
 10
309.50806601
 20
174.58575733
 10
309.50806601
 20
174.58575733
 10
309.42149385
 20
174.67578272
 10
309.32956868
 20
174.7563984
 10
309.23227751
 20
174.82758868
 10
309.12960735
 20
174.88933787
 10
309.02154518
 20
174.94163025
 10
308.90807801
 20
174.98445013
 10
308.78919285
 20
175.01778182
 10
308.66487668
 20
175.0416096
 10
308.53511651
 20
175.05591778
 10
308.39989935
 20
175.06069067
 10
308.39989935
 20
175.06069067
 10
308.26474635
 20
175.05591372
 10
308.13489535
 20
175.04157707
 10
308.01035835
 20
175.01767202
 10
307.89114735
 20
174.98418987
 10
307.77727435
 20
174.94112192
 10
307.66875135
 20
174.88845947
 10
307.56559035
 20
174.82619382
 10
307.46780335
 20
174.75431627
 10
307.37540235
 20
174.67281812
 10
307.28839935
 20
174.58169067
 10
307.28839935
 20
174.58169067
 10
307.20805268
 20
174.4833267
 10
307.13620601
 20
174.37900493
 10
307.07284935
 20
174.26872557
 10
307.01797268
 20
174.1524888
 10
306.97156601
 20
174.03029483
 10
306.93361935
 20
173.90214387
 10
306.90412268
 20
173.7680361
 10
306.88306601
 20
173.62797173
 10
306.87043935
 20
173.48195097
 10
306.86623268
 20
173.329974
 10
306.86623268
 20
173.329974
 10
306.87043935
 20
173.17747648
 10
306.88306601
 20
173.03128787
 10
306.90412268
 20
172.89136905
 10
306.93361935
 20
172.75768093
 10
306.97156601
 20
172.63018442
 10
307.01797268
 20
172.5088404
 10
307.07284935
 20
172.39360978
 10
307.13620601
 20
172.28445347
 10
307.20805268
 20
172.18133235
 10
307.28839935
 20
172.08420733
 10
307.28839935
 20
172.08420733
 10
307.37540235
 20
171.99566852
 10
307.46780335
 20
171.9163048
 10
307.56559035
 20
171.84615028
 10
307.66875135
 20
171.78523907
 10
307.77727435
 20
171.73360525
 10
307.89114735
 20
171.69128293
 10
308.01035835
 20
171.65830622
 10
308.13489535
 20
171.6347092
 10
308.26474635
 20
171.62052598
 10
308.39989935
 20
171.61579067
 10
308.39989935
 20
171.61579067
 10
308.39989935
 20
171.61579067
  0
HATCH
  5
267
100
AcDbEntity
  8
MST_1_1
 62
    12
100
AcDbHatch
 10
0.0
 20
0.0
 30
0.0
210
0.0
220
0.0
230
1.0
  2
SOLID
 70
     1
 71
     1
 91
        1
 92
        7
 72
     0
 73
     1
 93
       80
 10
308.39989935
 20
171.61579067
 10
308.53511651
 20
171.62052598
 10
308.66487668
 20
171.6347092
 10
308.78919285
 20
171.65830622
 10
308.90807801
 20
171.69128293
 10
309.02154518
 20
171.73360525
 10
309.12960735
 20
171.78523907
 10
309.23227751
 20
171.84615028
 10
309.32956868
 20
171.9163048
 10
309.42149385
 20
171.99566852
 10
309.50806601
 20
172.08420733
 10
309.58775851
 20
172.18133235
 10
309.65912601
 20
172.28445347
 10
309.72215351
 20
172.39360978
 10
309.77682601
 20
172.5088404
 10
309.82312851
 20
172.63018442
 10
309.86104601
 20
172.75768093
 10
309.89056351
 20
172.89136905
 10
309.91166601
 20
173.03128787
 10
309.92433851
 20
173.17747648
 10
309.92856601
 20
173.329974
 10
309.92433851
 20
173.48321953
 10
309.91166601
 20
173.63022827
 10
309.89056351
 20
173.7710334
 10
309.86104601
 20
173.90566813
 10
309.82312851
 20
174.03416567
 10
309.77682601
 20
174.1565592
 10
309.72215351
 20
174.27288193
 10
309.65912601
 20
174.38316707
 10
309.58775851
 20
174.4874478
 10
309.50806601
 20
174.58575733
 10
309.42149385
 20
174.67578272
 10
309.32956868
 20
174.7563984
 10
309.23227751
 20
174.82758868
 10
309.12960735
 20
174.88933787
 10
309.02154518
 20
174.94163025
 10
308.90807801
 20
174.98445013
 10
308.78919285
 20
175.01778182
 10
308.66487668
 20
175.0416096
 10
308.53511651
 20
175.05591778
 10
308.39989935
 20
175.06069067
 10
308.26474635
 20
175.05591372
 10
308.13489535
 20
175.04157707
 10
308.01035835
 20
175.01767202
 10
307.89114735
 20
174.98418987
 10
307.77727435
 20
174.94112192
 10
307.66875135
 20
174.88845947
 10
307.56559035
 20
174.82619382
 10
307.46780335
 20
174.75431627
 10
307.37540235
 20
174.67281812
 10
307.28839935
 20
174.58169067
 10
307.20805268
 20
174.4833267
 10
307.13620601
 20
174.37900493
 10
307.07284935
 20
174.26872557
 10
307.01797268
 20
174.1524888
 10
306.97156601
 20
174.03029483
 10
306.93361935
 20
173.90214387
 10
306.90412268
 20
173.7680361
 10
306.88306601
 20
173.62797173
 10
306.87043935
 20
173.48195097
 10
306.86623268
 20
173.329974
 10
306.87043935
 20
173.17747648
 10
306.88306601
 20
173.03128787
 10
306.90412268
 20
172.89136905
 10
306.93361935
 20
172.75768093
 10
306.97156601
 20
172.63018442
 10
307.01797268
 20
172.5088404
 10
307.07284935
 20
172.39360978
 10
307.13620601
 20
172.28445347
 10
307.20805268
 20
172.18133235
 10
307.28839935
 20
172.08420733
 10
307.37540235
 20
171.99566852
 10
307.46780335
 20
171.9163048
 10
307.56559035
 20
171.84615028
 10
307.66875135
 20
171.78523907
 10
307.77727435
 20
171.73360525
 10
307.89114735
 20
171.69128293
 10
308.01035835
 20
171.65830622
 10
308.13489535
 20
171.6347092
 10
308.26474635
 20
171.62052598
 97
        1
330
266
 75
     0
 76
     2
 47
0.775229
 98
        1
 10
0.0
 20
0.0
  0
LWPOLYLINE
  5
268
102
{ACAD_REACTORS
330
269
102
}
100
AcDbEntity
  8
MST_1_1
 62
   190
100
AcDbPolyline
 90
       60
 70
     1
 43
0.0
 10
294.76086601
 20
168.804824
 10
294.76086601
 20
177.89134067
 10
294.76086601
 20
177.89134067
 10
298.87113268
 20
177.89134067
 10
298.87113268
 20
177.89134067
 10
299.21986845
 20
177.88344003
 10
299.55181081
 20
177.8597476
 10
299.86695238
 20
177.82027757
 10
300.16528575
 20
177.76504413
 10
300.44680351
 20
177.6940615
 10
300.71149828
 20
177.60734387
 10
300.95936265
 20
177.50490543
 10
301.19038921
 20
177.3867604
 10
301.40457058
 20
177.25292297
 10
301.60189935
 20
177.10340733
 10
301.60189935
 20
177.10340733
 10
301.78110518
 20
176.93881828
 10
301.94142601
 20
176.76025293
 10
302.08286685
 20
176.56774398
 10
302.20543268
 20
176.36132413
 10
302.30912851
 20
176.14102608
 10
302.39395935
 20
175.90688253
 10
302.45993018
 20
175.65892618
 10
302.50704601
 20
175.39718973
 10
302.53531185
 20
175.12170588
 10
302.54473268
 20
174.83250733
 10
302.54473268
 20
174.83250733
 10
302.53995101
 20
174.64202277
 10
302.52561935
 20
174.4583768
 10
302.50175768
 20
174.28158103
 10
302.46838601
 20
174.11164707
 10
302.42552435
 20
173.9485865
 10
302.37319268
 20
173.79241093
 10
302.31141101
 20
173.64313197
 10
302.24019935
 20
173.5007612
 10
302.15957768
 20
173.36531023
 10
302.06956601
 20
173.23679067
 10
302.06956601
 20
173.23679067
 10
301.97112501
 20
173.11619842
 10
301.86617801
 20
173.00616267
 10
301.75468901
 20
172.90666992
 10
301.63662201
 20
172.81770667
 10
301.51194101
 20
172.73925942
 10
301.38061001
 20
172.67131467
 10
301.24259301
 20
172.61385892
 10
301.09785401
 20
172.56687867
 10
300.94635701
 20
172.53036042
 10
300.78806601
 20
172.50429067
 10
300.78806601
 20
172.50429067
 10
303.21439935
 20
168.804824
 10
303.21439935
 20
168.804824
 10
299.55389935
 20
168.804824
 10
299.55389935
 20
168.804824
 10
297.96391601
 20
171.80214067
 10
297.96391601
 20
171.80214067
 10
297.96391601
 20
168.804824
 10
297.96391601
 20
168.804824
 10
294.76086601
 20
168.804824
 10
294.76086601
 20
168.804824
 10
294.76086601
 20
168.804824
  0
HATCH
  5
269
100
AcDbEntity
  8
MST_1_1
 62
   190
100
AcDbHatch
 10
0.0
 20
0.0
 30
0.0
210
0.0
220
0.0
230
1.0
  2
SOLID
 70
     1
 71
     1
 91
        1
 92
        7
 72
     0
 73
     1
 93
       47
 10
294.76086601
 20
168.804824
 10
294.76086601
 20
177.89134067
 10
298.87113268
 20
177.89134067
 10
299.21986845
 20
177.88344003
 10
299.55181081
 20
177.8597476
 10
299.86695238
 20
177.82027757
 10
300.16528575
 20
177.76504413
 10
300.44680351
 20
177.6940615
 10
300.71149828
 20
177.60734387
 10
300.95936265
 20
177.50490543
 10
301.19038921
 20
177.3867604
 10
301.40457058
 20
177.25292297
 10
301.60189935
 20
177.10340733
 10
301.78110518
 20
176.93881828
 10
301.94142601
 20
176.76025293
 10
302.08286685
 20
176.56774398
 10
302.20543268
 20
176.36132413
 10
302.30912851
 20
176.14102608
 10
302.39395935
 20
175.90688253
 10
302.45993018
 20
175.65892618
 10
302.50704601
 20
175.39718973
 10
302.53531185
 20
175.12170588
 10
302.54473268
 20
174.83250733
 10
302.53995101
 20
174.64202277
 10
302.52561935
 20
174.4583768
 10
302.50175768
 20
174.28158103
 10
302.46838601
 20
174.11164707
 10
302.42552435
 20
173.9485865
 10
302.37319268
 20
173.79241093
 10
302.31141101
 20
173.64313197
 10
302.24019935
 20
173.5007612
 10
302.15957768
 20
173.36531023
 10
302.06956601
 20
173.23679067
 10
301.97112501
 20
173.11619842
 10
301.86617801
 20
173.00616267
 10
301.75468901
 20
172.90666992
 10
301.63662201
 20
172.81770667
 10
301.51194101
 20
172.73925942
 10
301.38061001
 20
172.67131467
 10
301.24259301
 20
172.61385892
 10
301.09785401
 20
172.56687867
 10
300.94635701
 20
172.53036042
 10
300.78806601
 20
172.50429067
 10
303.21439935
 20
168.804824
 10
299.55389935
 20
168.804824
 10
297.96391601
 20
171.80214067
 10
297.96391601
 20
168.804824
 97
        1
330
268
 75
     0
 76
     2
 47
0.775229
 98
        1
 10
0.0
 20
0.0
  0
LWPOLYLINE
  5
26A
102
{ACAD_REACTORS
330
26B
102
}
100
AcDbEntity
  8
MST_1_1
 62
    12
100
AcDbPolyline
 90
       52
 70
     1
 43
0.0
 10
297.96391601
 20
175.55270733
 10
297.96391601
 20
173.77765733
 10
297.96391601
 20
173.77765733
 10
298.47303268
 20
173.77765733
 10
298.47303268
 20
173.77765733
 10
298.56407913
 20
173.77992873
 10
298.65075828
 20
173.78673853
 10
298.73308483
 20
173.79808013
 10
298.81107348
 20
173.81394693
 10
298.88473893
 20
173.83433233
 10
298.95409588
 20
173.85922973
 10
299.01915903
 20
173.88863253
 10
299.07994308
 20
173.92253413
 10
299.13646273
 20
173.96092793
 10
299.18873268
 20
174.00380733
 10
299.18873268
 20
174.00380733
 10
299.23657685
 20
174.05089082
 10
299.27940601
 20
174.1019132
 10
299.31721518
 20
174.15687738
 10
299.34999935
 20
174.21578627
 10
299.37775351
 20
174.27864275
 10
299.40047268
 20
174.34544973
 10
299.41815185
 20
174.41621012
 10
299.43078601
 20
174.4909268
 10
299.43837018
 20
174.56960268
 10
299.44089935
 20
174.65224067
 10
299.44089935
 20
174.65224067
 10
299.43837018
 20
174.73707947
 10
299.43078601
 20
174.81790907
 10
299.41815185
 20
174.89471927
 10
299.40047268
 20
174.96749987
 10
299.37775351
 20
175.03624067
 10
299.34999935
 20
175.10093147
 10
299.31721518
 20
175.16156207
 10
299.27940601
 20
175.21812227
 10
299.23657685
 20
175.27060187
 10
299.18873268
 20
175.31899067
 10
299.18873268
 20
175.31899067
 10
299.13646273
 20
175.36312683
 10
299.07994308
 20
175.402702
 10
299.01915903
 20
175.43769617
 10
298.95409588
 20
175.46808933
 10
298.88473893
 20
175.4938615
 10
298.81107348
 20
175.51499267
 10
298.73308483
 20
175.53146283
 10
298.65075828
 20
175.543252
 10
298.56407913
 20
175.55034017
 10
298.47303268
 20
175.55270733
 10
298.47303268
 20
175.55270733
 10
297.96391601
 20
175.55270733
 10
297.96391601
 20
175.55270733
 10
297.96391601
 20
175.55270733
  0
HATCH
  5
26B
100
AcDbEntity
  8
MST_1_1
 62
    12
100
AcDbHatch
 10
0.0
 20
0.0
 30
0.0
210
0.0
220
0.0
230
1.0
  2
SOLID
 70
     1
 71
     1
 91
        1
 92
        7
 72
     0
 73
     1
 93
       43
 10
297.96391601
 20
175.55270733
 10
297.96391601
 20
173.77765733
 10
298.47303268
 20
173.77765733
 10
298.56407913
 20
173.77992873
 10
298.65075828
 20
173.78673853
 10
298.73308483
 20
173.79808013
 10
298.81107348
 20
173.81394693
 10
298.88473893
 20
173.83433233
 10
298.95409588
 20
173.85922973
 10
299.01915903
 20
173.88863253
 10
299.07994308
 20
173.92253413
 10
299.13646273
 20
173.96092793
 10
299.18873268
 20
174.00380733
 10
299.23657685
 20
174.05089082
 10
299.27940601
 20
174.1019132
 10
299.31721518
 20
174.15687738
 10
299.34999935
 20
174.21578627
 10
299.37775351
 20
174.27864275
 10
299.40047268
 20
174.34544973
 10
299.41815185
 20
174.41621012
 10
299.43078601
 20
174.4909268
 10
299.43837018
 20
174.56960268
 10
299.44089935
 20
174.65224067
 10
299.43837018
 20
174.73707947
 10
299.43078601
 20
174.81790907
 10
299.41815185
 20
174.89471927
 10
299.40047268
 20
174.96749987
 10
299.37775351
 20
175.03624067
 10
299.34999935
 20
175.10093147
 10
299.31721518
 20
175.16156207
 10
299.27940601
 20
175.21812227
 10
299.23657685
 20
175.27060187
 10
299.18873268
 20
175.31899067
 10
299.13646273
 20
175.36312683
 10
299.07994308
 20
175.402702
 10
299.01915903
 20
175.43769617
 10
298.95409588
 20
175.46808933
 10
298.88473893
 20
175.4938615
 10
298.81107348
 20
175.51499267
 10
298.73308483
 20
175.53146283
 10
298.65075828
 20
175.543252
 10
298.56407913
 20
175.55034017
 10
298.47303268
 20
175.55270733
 97
        1
330
26A
 75
     0
 76
     2
 47
0.775229
 98
        1
 10
0.0
 20
0.0
  0
LWPOLYLINE
  5
26C
102
{ACAD_REACTORS
330
26D
102
}
100
AcDbEntity
  8
MST_1_1
 62
   190
100
AcDbPolyline
 90
       56
 70
     1
 43
0.0
 10
285.76126601
 20
168.804824
 10
285.76126601
 20
177.89134067
 10
285.76126601
 20
177.89134067
 10
289.66598268
 20
177.89134067
 10
289.66598268
 20
177.89134067
 10
290.06675883
 20
177.883392
 10
290.44540988
 20
177.85954933
 10
290.80193973
 20
177.81981767
 10
291.13635228
 20
177.764202
 10
291.44865143
 20
177.69270733
 10
291.73884108
 20
177.60533867
 10
292.00692513
 20
177.502101
 10
292.25290748
 20
177.38299933
 10
292.47679203
 20
177.24803867
 10
292.67858268
 20
177.097224
 10
292.67858268
 20
177.097224
 10
292.85963788
 20
176.92886267
 10
293.02164228
 20
176.74197533
 10
293.16459408
 20
176.536542
 10
293.28849148
 20
176.31254267
 10
293.39333268
 20
176.06995733
 10
293.47911588
 20
175.808766
 10
293.54583928
 20
175.52894867
 10
293.59350108
 20
175.23048533
 10
293.62209948
 20
174.913356
 10
293.63163268
 20
174.57754067
 10
293.63163268
 20
174.57754067
 10
293.62306278
 20
174.26454865
 10
293.59735948
 20
173.96888653
 10
293.55453238
 20
173.69056022
 10
293.49459108
 20
173.4295756
 10
293.41754518
 20
173.18593858
 10
293.32340428
 20
172.95965507
 10
293.21217798
 20
172.75073095
 10
293.08387588
 20
172.55917213
 10
292.93850758
 20
172.38498452
 10
292.77608268
 20
172.228174
 10
292.77608268
 20
172.228174
 10
292.59433001
 20
172.08761655
 10
292.39252735
 20
171.9618024
 10
292.17066768
 20
171.85074385
 10
291.92874401
 20
171.7544532
 10
291.66674935
 20
171.67294275
 10
291.38467668
 20
171.6062248
 10
291.08251901
 20
171.55431165
 10
290.76026935
 20
171.5172156
 10
290.41792068
 20
171.49494895
 10
290.05546601
 20
171.487524
 10
290.05546601
 20
171.487524
 10
289.03251601
 20
171.487524
 10
289.03251601
 20
171.487524
 10
289.03251601
 20
168.804824
 10
289.03251601
 20
168.804824
 10
285.76126601
 20
168.804824
 10
285.76126601
 20
168.804824
 10
285.76126601
 20
168.804824
  0
HATCH
  5
26D
100
AcDbEntity
  8
MST_1_1
 62
   190
100
AcDbHatch
 10
0.0
 20
0.0
 30
0.0
210
0.0
220
0.0
230
1.0
  2
SOLID
 70
     1
 71
     1
 91
        1
 92
        7
 72
     0
 73
     1
 93
       45
 10
285.76126601
 20
168.804824
 10
285.76126601
 20
177.89134067
 10
289.66598268
 20
177.89134067
 10
290.06675883
 20
177.883392
 10
290.44540988
 20
177.85954933
 10
290.80193973
 20
177.81981767
 10
291.13635228
 20
177.764202
 10
291.44865143
 20
177.69270733
 10
291.73884108
 20
177.60533867
 10
292.00692513
 20
177.502101
 10
292.25290748
 20
177.38299933
 10
292.47679203
 20
177.24803867
 10
292.67858268
 20
177.097224
 10
292.85963788
 20
176.92886267
 10
293.02164228
 20
176.74197533
 10
293.16459408
 20
176.536542
 10
293.28849148
 20
176.31254267
 10
293.39333268
 20
176.06995733
 10
293.47911588
 20
175.808766
 10
293.54583928
 20
175.52894867
 10
293.59350108
 20
175.23048533
 10
293.62209948
 20
174.913356
 10
293.63163268
 20
174.57754067
 10
293.62306278
 20
174.26454865
 10
293.59735948
 20
173.96888653
 10
293.55453238
 20
173.69056022
 10
293.49459108
 20
173.4295756
 10
293.41754518
 20
173.18593858
 10
293.32340428
 20
172.95965507
 10
293.21217798
 20
172.75073095
 10
293.08387588
 20
172.55917213
 10
292.93850758
 20
172.38498452
 10
292.77608268
 20
172.228174
 10
292.59433001
 20
172.08761655
 10
292.39252735
 20
171.9618024
 10
292.17066768
 20
171.85074385
 10
291.92874401
 20
171.7544532
 10
291.66674935
 20
171.67294275
 10
291.38467668
 20
171.6062248
 10
291.08251901
 20
171.55431165
 10
290.76026935
 20
171.5172156
 10
290.41792068
 20
171.49494895
 10
290.05546601
 20
171.487524
 10
289.03251601
 20
171.487524
 10
289.03251601
 20
168.804824
 97
        1
330
26C
 75
     0
 76
     2
 47
0.775229
 98
        1
 10
0.0
 20
0.0
  0
LWPOLYLINE
  5
26E
102
{ACAD_REACTORS
330
26F
102
}
100
AcDbEntity
  8
MST_1_1
 62
    12
100
AcDbPolyline
 90
       52
 70
     1
 43
0.0
 10
289.04528268
 20
175.36579067
 10
289.04528268
 20
173.851224
 10
289.04528268
 20
173.851224
 10
289.55293268
 20
173.851224
 10
289.55293268
 20
173.851224
 10
289.6437708
 20
173.8531923
 10
289.73037561
 20
173.8590904
 10
289.81271783
 20
173.8689081
 10
289.89076815
 20
173.8826352
 10
289.96449726
 20
173.9002615
 10
290.03387588
 20
173.9217768
 10
290.0988747
 20
173.9471709
 10
290.15946441
 20
173.9764336
 10
290.21561573
 20
174.0095547
 10
290.26729935
 20
174.046524
 10
290.26729935
 20
174.046524
 10
290.3143681
 20
174.08734137
 10
290.35650135
 20
174.13142893
 10
290.3936946
 20
174.1787949
 10
290.42594335
 20
174.22944747
 10
290.4532431
 20
174.28339483
 10
290.47558935
 20
174.3406452
 10
290.4929776
 20
174.40120677
 10
290.50540335
 20
174.46508773
 10
290.5128621
 20
174.5322963
 10
290.51534935
 20
174.60284067
 10
290.51534935
 20
174.60284067
 10
290.51281558
 20
174.67309835
 10
290.50520721
 20
174.74021413
 10
290.49251365
 20
174.80419212
 10
290.47472428
 20
174.8650364
 10
290.45182851
 20
174.92275108
 10
290.42381575
 20
174.97734027
 10
290.39067538
 20
175.02880805
 10
290.35239681
 20
175.07715853
 10
290.30896945
 20
175.12239582
 10
290.26038268
 20
175.164524
 10
290.26038268
 20
175.164524
 10
290.20763678
 20
175.20255542
 10
290.15091348
 20
175.23664933
 10
290.09020438
 20
175.26679025
 10
290.02550108
 20
175.29296267
 10
289.95679518
 20
175.31515108
 10
289.88407828
 20
175.33334
 10
289.80734198
 20
175.34751392
 10
289.72657788
 20
175.35765733
 10
289.64177758
 20
175.36375475
 10
289.55293268
 20
175.36579067
 10
289.55293268
 20
175.36579067
 10
289.04528268
 20
175.36579067
 10
289.04528268
 20
175.36579067
 10
289.04528268
 20
175.36579067
  0
HATCH
  5
26F
100
AcDbEntity
  8
MST_1_1
 62
    12
100
AcDbHatch
 10
0.0
 20
0.0
 30
0.0
210
0.0
220
0.0
230
1.0
  2
SOLID
 70
     1
 71
     1
 91
        1
 92
        7
 72
     0
 73
     1
 93
       43
 10
289.04528268
 20
175.36579067
 10
289.04528268
 20
173.851224
 10
289.55293268
 20
173.851224
 10
289.6437708
 20
173.8531923
 10
289.73037561
 20
173.8590904
 10
289.81271783
 20
173.8689081
 10
289.89076815
 20
173.8826352
 10
289.96449726
 20
173.9002615
 10
290.03387588
 20
173.9217768
 10
290.0988747
 20
173.9471709
 10
290.15946441
 20
173.9764336
 10
290.21561573
 20
174.0095547
 10
290.26729935
 20
174.046524
 10
290.3143681
 20
174.08734137
 10
290.35650135
 20
174.13142893
 10
290.3936946
 20
174.1787949
 10
290.42594335
 20
174.22944747
 10
290.4532431
 20
174.28339483
 10
290.47558935
 20
174.3406452
 10
290.4929776
 20
174.40120677
 10
290.50540335
 20
174.46508773
 10
290.5128621
 20
174.5322963
 10
290.51534935
 20
174.60284067
 10
290.51281558
 20
174.67309835
 10
290.50520721
 20
174.74021413
 10
290.49251365
 20
174.80419212
 10
290.47472428
 20
174.8650364
 10
290.45182851
 20
174.92275108
 10
290.42381575
 20
174.97734027
 10
290.39067538
 20
175.02880805
 10
290.35239681
 20
175.07715853
 10
290.30896945
 20
175.12239582
 10
290.26038268
 20
175.164524
 10
290.20763678
 20
175.20255542
 10
290.15091348
 20
175.23664933
 10
290.09020438
 20
175.26679025
 10
290.02550108
 20
175.29296267
 10
289.95679518
 20
175.31515108
 10
289.88407828
 20
175.33334
 10
289.80734198
 20
175.34751392
 10
289.72657788
 20
175.35765733
 10
289.64177758
 20
175.36375475
 10
289.55293268
 20
175.36579067
 97
        1
330
26E
 75
     0
 76
     2
 47
0.775229
 98
        1
 10
0.0
 20
0.0
  0
LWPOLYLINE
  5
270
102
{ACAD_REACTORS
330
271
102
}
100
AcDbEntity
  8
MST_1_1
 62
    12
100
AcDbPolyline
 90
       10
 70
     1
 43
0.0
 10
326.80773268
 20
168.804824
 10
326.80773268
 20
177.89134067
 10
326.80773268
 20
177.89134067
 10
331.27556601
 20
177.89134067
 10
331.27556601
 20
177.89134067
 10
331.27556601
 20
168.804824
 10
331.27556601
 20
168.804824
 10
326.80773268
 20
168.804824
 10
326.80773268
 20
168.804824
 10
326.80773268
 20
168.804824
  0
HATCH
  5
271
100
AcDbEntity
  8
MST_1_1
 62
    12
100
AcDbHatch
 10
0.0
 20
0.0
 30
0.0
210
0.0
220
0.0
230
1.0
  2
SOLID
 70
     1
 71
     1
 91
        1
 92
        7
 72
     0
 73
     1
 93
        4
 10
326.80773268
 20
168.804824
 10
326.80773268
 20
177.89134067
 10
331.27556601
 20
177.89134067
 10
331.27556601
 20
168.804824
 97
        1
330
270
 75
     0
 76
     2
 47
0.775229
 98
        1
 10
0.0
 20
0.0
  0
LWPOLYLINE
  5
272
102
{ACAD_REACTORS
330
273
102
}
100
AcDbEntity
  8
MST_1_1
 62
    12
100
AcDbPolyline
 90
      114
 70
     1
 43
0.0
 10
339.02489935
 20
170.86594067
 10
338.99054535
 20
170.92075902
 10
338.95798735
 20
170.97330947
 10
338.92723135
 20
171.02361512
 10
338.89828335
 20
171.07169907
 10
338.87114935
 20
171.11758442
 10
338.84583535
 20
171.16129427
 10
338.82234735
 20
171.20285172
 10
338.80069135
 20
171.24227987
 10
338.78087335
 20
171.27960182
 10
338.76289935
 20
171.31484067
 10
338.76289935
 20
171.31484067
 10
338.74559668
 20
171.34879183
 10
338.72927801
 20
171.382002
 10
338.71392735
 20
171.41448117
 10
338.69952868
 20
171.44623933
 10
338.68606601
 20
171.4772865
 10
338.67352335
 20
171.50763267
 10
338.66188468
 20
171.53728783
 10
338.65113401
 20
171.566262
 10
338.64125535
 20
171.59456517
 10
338.63223268
 20
171.62220733
 10
338.63223268
 20
171.62220733
 10
338.62456835
 20
171.59600335
 10
338.61613801
 20
171.56923947
 10
338.60688568
 20
171.54191278
 10
338.59675535
 20
171.5140204
 10
338.58569101
 20
171.48555942
 10
338.57363668
 20
171.45652693
 10
338.56053635
 20
171.42692005
 10
338.54633401
 20
171.39673587
 10
338.53097368
 20
171.36597148
 10
338.51439935
 20
171.334624
 10
338.51439935
 20
171.334624
 10
338.49706301
 20
171.30121802
 10
338.47706868
 20
171.26478013
 10
338.45443835
 20
171.22532545
 10
338.42919401
 20
171.18286907
 10
338.40135768
 20
171.13742608
 10
338.37095135
 20
171.0890116
 10
338.33799701
 20
171.03764072
 10
338.30251668
 20
170.98332853
 10
338.26453235
 20
170.92609015
 10
338.22406601
 20
170.86594067
 10
338.22406601
 20
170.86594067
 10
336.83439935
 20
168.804824
 10
336.83439935
 20
168.804824
 10
331.80673268
 20
168.804824
 10
331.80673268
 20
168.804824
 10
336.14956601
 20
173.64484067
 10
336.14956601
 20
173.64484067
 10
332.31756601
 20
177.89134067
 10
332.31756601
 20
177.89134067
 10
337.33706601
 20
177.89134067
 10
337.33706601
 20
177.89134067
 10
338.24039935
 20
176.40825733
 10
338.24039935
 20
176.40825733
 10
338.24322535
 20
176.40274425
 10
338.24658735
 20
176.39664667
 10
338.25046135
 20
176.38996708
 10
338.25482335
 20
176.382708
 10
338.25964935
 20
176.37487192
 10
338.26491535
 20
176.36646133
 10
338.27059735
 20
176.35747875
 10
338.27667135
 20
176.34792667
 10
338.28311335
 20
176.33780758
 10
338.28989935
 20
176.327124
 10
338.28989935
 20
176.327124
 10
338.33863468
 20
176.24447108
 10
338.38414201
 20
176.16522267
 10
338.42642335
 20
176.08939425
 10
338.46548068
 20
176.01700133
 10
338.50131601
 20
175.94805942
 10
338.53393135
 20
175.882584
 10
338.56332868
 20
175.82059058
 10
338.58951001
 20
175.76209467
 10
338.61247735
 20
175.70711175
 10
338.63223268
 20
175.65565733
 10
338.63223268
 20
175.65565733
 10
338.64434635
 20
175.68830063
 10
338.65700201
 20
175.72104973
 10
338.67022168
 20
175.75391843
 10
338.68402735
 20
175.78692053
 10
338.69844101
 20
175.82006983
 10
338.71348468
 20
175.85338013
 10
338.72918035
 20
175.88686523
 10
338.74555001
 20
175.92053893
 10
338.76261568
 20
175.95441503
 10
338.78039935
 20
175.98850733
 10
338.78039935
 20
175.98850733
 10
338.79768568
 20
176.02358968
 10
338.81631001
 20
176.06023013
 10
338.83622035
 20
176.09841878
 10
338.85736468
 20
176.13814573
 10
338.87969101
 20
176.17940108
 10
338.90314735
 20
176.22217493
 10
338.92768168
 20
176.26645738
 10
338.95324201
 20
176.31223853
 10
338.97977635
 20
176.35950848
 10
339.00723268
 20
176.40825733
 10
339.00723268
 20
176.40825733
 10
339.93473268
 20
177.89134067
 10
339.93473268
 20
177.89134067
 10
344.93139935
 20
177.89134067
 10
344.93139935
 20
177.89134067
 10
341.11206601
 20
173.64484067
 10
341.11206601
 20
173.64484067
 10
345.45973268
 20
168.804824
 10
345.45973268
 20
168.804824
 10
340.42756601
 20
168.804824
 10
340.42756601
 20
168.804824
 10
339.02489935
 20
170.86594067
 10
339.02489935
 20
170.86594067
 10
339.02489935
 20
170.86594067
  0
HATCH
  5
273
100
AcDbEntity
  8
MST_1_1
 62
    12
100
AcDbHatch
 10
0.0
 20
0.0
 30
0.0
210
0.0
220
0.0
230
1.0
  2
SOLID
 70
     1
 71
     1
 91
        1
 92
        7
 72
     0
 73
     1
 93
       92
 10
339.02489935
 20
170.86594067
 10
338.99054535
 20
170.92075902
 10
338.95798735
 20
170.97330947
 10
338.92723135
 20
171.02361512
 10
338.89828335
 20
171.07169907
 10
338.87114935
 20
171.11758442
 10
338.84583535
 20
171.16129427
 10
338.82234735
 20
171.20285172
 10
338.80069135
 20
171.24227987
 10
338.78087335
 20
171.27960182
 10
338.76289935
 20
171.31484067
 10
338.74559668
 20
171.34879183
 10
338.72927801
 20
171.382002
 10
338.71392735
 20
171.41448117
 10
338.69952868
 20
171.44623933
 10
338.68606601
 20
171.4772865
 10
338.67352335
 20
171.50763267
 10
338.66188468
 20
171.53728783
 10
338.65113401
 20
171.566262
 10
338.64125535
 20
171.59456517
 10
338.63223268
 20
171.62220733
 10
338.62456835
 20
171.59600335
 10
338.61613801
 20
171.56923947
 10
338.60688568
 20
171.54191278
 10
338.59675535
 20
171.5140204
 10
338.58569101
 20
171.48555942
 10
338.57363668
 20
171.45652693
 10
338.56053635
 20
171.42692005
 10
338.54633401
 20
171.39673587
 10
338.53097368
 20
171.36597148
 10
338.51439935
 20
171.334624
 10
338.49706301
 20
171.30121802
 10
338.47706868
 20
171.26478013
 10
338.45443835
 20
171.22532545
 10
338.42919401
 20
171.18286907
 10
338.40135768
 20
171.13742608
 10
338.37095135
 20
171.0890116
 10
338.33799701
 20
171.03764072
 10
338.30251668
 20
170.98332853
 10
338.26453235
 20
170.92609015
 10
338.22406601
 20
170.86594067
 10
336.83439935
 20
168.804824
 10
331.80673268
 20
168.804824
 10
336.14956601
 20
173.64484067
 10
332.31756601
 20
177.89134067
 10
337.33706601
 20
177.89134067
 10
338.24039935
 20
176.40825733
 10
338.24322535
 20
176.40274425
 10
338.24658735
 20
176.39664667
 10
338.25046135
 20
176.38996708
 10
338.25482335
 20
176.382708
 10
338.25964935
 20
176.37487192
 10
338.26491535
 20
176.36646133
 10
338.27059735
 20
176.35747875
 10
338.27667135
 20
176.34792667
 10
338.28311335
 20
176.33780758
 10
338.28989935
 20
176.327124
 10
338.33863468
 20
176.24447108
 10
338.38414201
 20
176.16522267
 10
338.42642335
 20
176.08939425
 10
338.46548068
 20
176.01700133
 10
338.50131601
 20
175.94805942
 10
338.53393135
 20
175.882584
 10
338.56332868
 20
175.82059058
 10
338.58951001
 20
175.76209467
 10
338.61247735
 20
175.70711175
 10
338.63223268
 20
175.65565733
 10
338.64434635
 20
175.68830063
 10
338.65700201
 20
175.72104973
 10
338.67022168
 20
175.75391843
 10
338.68402735
 20
175.78692053
 10
338.69844101
 20
175.82006983
 10
338.71348468
 20
175.85338013
 10
338.72918035
 20
175.88686523
 10
338.74555001
 20
175.92053893
 10
338.76261568
 20
175.95441503
 10
338.78039935
 20
175.98850733
 10
338.79768568
 20
176.02358968
 10
338.81631001
 20
176.06023013
 10
338.83622035
 20
176.09841878
 10
338.85736468
 20
176.13814573
 10
338.87969101
 20
176.17940108
 10
338.90314735
 20
176.22217493
 10
338.92768168
 20
176.26645738
 10
338.95324201
 20
176.31223853
 10
338.97977635
 20
176.35950848
 10
339.00723268
 20
176.40825733
 10
339.93473268
 20
177.89134067
 10
344.93139935
 20
177.89134067
 10
341.11206601
 20
173.64484067
 10
345.45973268
 20
168.804824
 10
340.42756601
 20
168.804824
 97
        1
330
272
 75
     0
 76
     2
 47
0.775229
 98
        1
 10
0.0
 20
0.0
  0
LWPOLYLINE
  5
274
102
{ACAD_REACTORS
330
275
102
}
100
AcDbEntity
  8
MST_1_1
 62
     7
100
AcDbPolyline
 90
       46
 70
     1
 43
0.0
 10
349.77489935
 20
184.01739067
 10
349.88742985
 20
184.00827717
 10
349.99434335
 20
183.98190267
 10
350.09417285
 20
183.93971617
 10
350.18545135
 20
183.88316667
 10
350.26671185
 20
183.81370317
 10
350.33648735
 20
183.73277467
 10
350.39331085
 20
183.64183017
 10
350.43571535
 20
183.54231867
 10
350.46223385
 20
183.43568917
 10
350.47139935
 20
183.32339067
 10
350.47139935
 20
183.32339067
 10
350.46223385
 20
183.211237
 10
350.43571535
 20
183.10474133
 10
350.39331085
 20
183.00535167
 10
350.33648735
 20
182.914516
 10
350.26671185
 20
182.83368233
 10
350.18545135
 20
182.76429867
 10
350.09417285
 20
182.707813
 10
349.99434335
 20
182.66567333
 10
349.88742985
 20
182.63932767
 10
349.77489935
 20
182.630224
 10
349.77489935
 20
182.630224
 10
349.66177851
 20
182.63932767
 10
349.55447268
 20
182.66567333
 10
349.45441685
 20
182.707813
 10
349.36304601
 20
182.76429867
 10
349.28179518
 20
182.83368233
 10
349.21209935
 20
182.914516
 10
349.15539351
 20
183.00535167
 10
349.11311268
 20
183.10474133
 10
349.08669185
 20
183.211237
 10
349.07756601
 20
183.32339067
 10
349.07756601
 20
183.32339067
 10
349.08669185
 20
183.43568917
 10
349.11311268
 20
183.54231867
 10
349.15539351
 20
183.64183017
 10
349.21209935
 20
183.73277467
 10
349.28179518
 20
183.81370317
 10
349.36304601
 20
183.88316667
 10
349.45441685
 20
183.93971617
 10
349.55447268
 20
183.98190267
 10
349.66177851
 20
184.00827717
 10
349.77489935
 20
184.01739067
 10
349.77489935
 20
184.01739067
 10
349.77489935
 20
184.01739067
  0
HATCH
  5
275
100
AcDbEntity
  8
MST_1_1
 62
     7
100
AcDbHatch
 10
0.0
 20
0.0
 30
0.0
210
0.0
220
0.0
230
1.0
  2
SOLID
 70
     1
 71
     1
 91
        1
 92
        7
 72
     0
 73
     1
 93
       40
 10
349.77489935
 20
184.01739067
 10
349.88742985
 20
184.00827717
 10
349.99434335
 20
183.98190267
 10
350.09417285
 20
183.93971617
 10
350.18545135
 20
183.88316667
 10
350.26671185
 20
183.81370317
 10
350.33648735
 20
183.73277467
 10
350.39331085
 20
183.64183017
 10
350.43571535
 20
183.54231867
 10
350.46223385
 20
183.43568917
 10
350.47139935
 20
183.32339067
 10
350.46223385
 20
183.211237
 10
350.43571535
 20
183.10474133
 10
350.39331085
 20
183.00535167
 10
350.33648735
 20
182.914516
 10
350.26671185
 20
182.83368233
 10
350.18545135
 20
182.76429867
 10
350.09417285
 20
182.707813
 10
349.99434335
 20
182.66567333
 10
349.88742985
 20
182.63932767
 10
349.77489935
 20
182.630224
 10
349.66177851
 20
182.63932767
 10
349.55447268
 20
182.66567333
 10
349.45441685
 20
182.707813
 10
349.36304601
 20
182.76429867
 10
349.28179518
 20
182.83368233
 10
349.21209935
 20
182.914516
 10
349.15539351
 20
183.00535167
 10
349.11311268
 20
183.10474133
 10
349.08669185
 20
183.211237
 10
349.07756601
 20
183.32339067
 10
349.08669185
 20
183.43568917
 10
349.11311268
 20
183.54231867
 10
349.15539351
 20
183.64183017
 10
349.21209935
 20
183.73277467
 10
349.28179518
 20
183.81370317
 10
349.36304601
 20
183.88316667
 10
349.45441685
 20
183.93971617
 10
349.55447268
 20
183.98190267
 10
349.66177851
 20
184.00827717
 97
        1
330
274
 75
     0
 76
     2
 47
0.775229
 98
        1
 10
0.0
 20
0.0
  0
LWPOLYLINE
  5
276
102
{ACAD_REACTORS
330
277
102
}
100
AcDbEntity
  8
MST_1_1
 62
    12
100
AcDbPolyline
 90
       29
 70
     1
 43
0.0
 10
349.45523268
 20
183.80539067
 10
349.45523268
 20
182.898724
 10
349.45523268
 20
182.898724
 10
349.58939935
 20
182.898724
 10
349.58939935
 20
182.898724
 10
349.58939935
 20
183.305724
 10
349.58939935
 20
183.305724
 10
349.76773268
 20
183.305724
 10
349.76773268
 20
183.305724
 10
350.02706601
 20
182.904724
 10
350.02706601
 20
182.904724
 10
350.16323268
 20
182.904724
 10
350.16323268
 20
182.904724
 10
349.90439935
 20
183.31305733
 10
349.90439935
 20
183.31305733
 10
349.99298635
 20
183.331479
 10
350.06265535
 20
183.37163067
 10
350.11311835
 20
183.42794233
 10
350.14408735
 20
183.494844
 10
350.15527435
 20
183.56676567
 10
350.14639135
 20
183.63813733
 10
350.11715035
 20
183.703389
 10
350.06726335
 20
183.75695067
 10
349.99644235
 20
183.79325233
 10
349.90439935
 20
183.806724
 10
349.90439935
 20
183.806724
 10
349.45523268
 20
183.80539067
 10
349.45523268
 20
183.80539067
 10
349.45523268
 20
183.80539067
  0
HATCH
  5
277
100
AcDbEntity
  8
MST_1_1
 62
    12
100
AcDbHatch
 10
0.0
 20
0.0
 30
0.0
210
0.0
220
0.0
230
1.0
  2
SOLID
 70
     1
 71
     1
 91
        1
 92
        7
 72
     0
 73
     1
 93
       18
 10
349.45523268
 20
183.80539067
 10
349.45523268
 20
182.898724
 10
349.58939935
 20
182.898724
 10
349.58939935
 20
183.305724
 10
349.76773268
 20
183.305724
 10
350.02706601
 20
182.904724
 10
350.16323268
 20
182.904724
 10
349.90439935
 20
183.31305733
 10
349.99298635
 20
183.331479
 10
350.06265535
 20
183.37163067
 10
350.11311835
 20
183.42794233
 10
350.14408735
 20
183.494844
 10
350.15527435
 20
183.56676567
 10
350.14639135
 20
183.63813733
 10
350.11715035
 20
183.703389
 10
350.06726335
 20
183.75695067
 10
349.99644235
 20
183.79325233
 10
349.90439935
 20
183.806724
 97
        1
330
276
 75
     0
 76
     2
 47
0.775229
 98
        1
 10
0.0
 20
0.0
  0
LWPOLYLINE
  5
278
102
{ACAD_REACTORS
330
279
102
}
100
AcDbEntity
  8
MST_1_1
 62
     7
100
AcDbPolyline
 90
       19
 70
     1
 43
0.0
 10
349.58939935
 20
183.702224
 10
349.58939935
 20
183.41155733
 10
349.58939935
 20
183.41155733
 10
349.89073268
 20
183.41239067
 10
349.89073268
 20
183.41239067
 10
349.94371118
 20
183.424241
 10
349.98518068
 20
183.44861333
 10
350.01504218
 20
183.48223967
 10
350.03319668
 20
183.521852
 10
350.03954518
 20
183.56418233
 10
350.03398868
 20
183.60596267
 10
350.01642818
 20
183.643925
 10
349.98676468
 20
183.67480133
 10
349.94489918
 20
183.69532367
 10
349.89073268
 20
183.702224
 10
349.89073268
 20
183.702224
 10
349.58939935
 20
183.702224
 10
349.58939935
 20
183.702224
 10
349.58939935
 20
183.702224
  0
HATCH
  5
279
100
AcDbEntity
  8
MST_1_1
 62
     7
100
AcDbHatch
 10
0.0
 20
0.0
 30
0.0
210
0.0
220
0.0
230
1.0
  2
SOLID
 70
     1
 71
     1
 91
        1
 92
        7
 72
     0
 73
     1
 93
       13
 10
349.58939935
 20
183.702224
 10
349.58939935
 20
183.41155733
 10
349.89073268
 20
183.41239067
 10
349.94371118
 20
183.424241
 10
349.98518068
 20
183.44861333
 10
350.01504218
 20
183.48223967
 10
350.03319668
 20
183.521852
 10
350.03954518
 20
183.56418233
 10
350.03398868
 20
183.60596267
 10
350.01642818
 20
183.643925
 10
349.98676468
 20
183.67480133
 10
349.94489918
 20
183.69532367
 10
349.89073268
 20
183.702224
 97
        1
330
278
 75
     0
 76
     2
 47
0.775229
 98
        1
 10
0.0
 20
0.0
  0
TEXT
  5
27A
100
AcDbEntity
  8
MST_1_1
 62
     7
100
AcDbText
 10
32.93749597
 20
28.54545025
 30
0.0
 40
5.0
  1
30
  7
ARIAL
 50
89.9999975
 41
0.8
 51
0.0
100
AcDbText
  0
TEXT
  5
27B
100
AcDbEntity
  8
MST_1_1
 62
     7
100
AcDbText
 10
22.93749597
 20
28.54545025
 30
0.0
 40
5.0
  1
20
  7
ARIAL
 50
89.9999975
 41
0.8
 51
0.0
100
AcDbText
  0
TEXT
  5
27C
100
AcDbEntity
  8
MST_1_1
 62
     7
100
AcDbText
 10
27.93749597
 20
18.54545025
 30
0.0
 40
5.0
  1
25
  7
ARIAL
 50
89.9999975
 41
0.8
 51
0.0
100
AcDbText
  0
TEXT
  5
27D
100
AcDbEntity
  8
MST_1_1
 62
     7
100
AcDbText
 10
18.93749597
 20
18.54545025
 30
0.0
 40
5.0
  1
16
  7
ARIAL
 50
89.9999975
 41
0.8
 51
0.0
100
AcDbText
  0
TEXT
  5
27E
100
AcDbEntity
  8
MST_1_1
 62
     7
100
AcDbText
 10
14.93749597
 20
28.54545025
 30
0.0
 40
5.0
  1
12
  7
ARIAL
 50
89.9999975
 41
0.8
 51
0.0
100
AcDbText
  0
TEXT
  5
27F
100
AcDbEntity
  8
MST_1_1
 62
     7
100
AcDbText
 10
-74.81504965
 20
-83.95454975
 30
0.0
 40
5.0
  1
HECO-FIX-plus LSK 3.0x25
  7
ARIAL
 50
0.0
 41
0.8
 51
0.0
100
AcDbText
  0
TEXT
  5
280
100
AcDbEntity
  8
MST_1_1
 62
     7
100
AcDbText
 10
-74.81504965
 20
-113.95454975
 30
0.0
 40
5.0
  1
HECO-FIX-plus LSK 3.0x30
  7
ARIAL
 50
0.0
 41
0.8
 51
0.0
100
AcDbText
  0
TEXT
  5
281
100
AcDbEntity
  8
MST_1_1
 62
     7
100
AcDbText
 10
-74.81504965
 20
-53.95454975
 30
0.0
 40
5.0
  1
HECO-FIX-plus LSK 3.0x20
  7
ARIAL
 50
0.0
 41
0.8
 51
0.0
100
AcDbText
  0
TEXT
  5
282
100
AcDbEntity
  8
MST_1_1
 62
     7
100
AcDbText
 10
-74.81504965
 20
-23.95454975
 30
0.0
 40
5.0
  1
HECO-FIX-plus LSK 3.0x16
  7
ARIAL
 50
0.0
 41
0.8
 51
0.0
100
AcDbText
  0
TEXT
  5
283
100
AcDbEntity
  8
MST_1_1
 62
     7
100
AcDbText
 10
-76.14564785
 20
6.04545025
 30
0.0
 40
5.0
  1
HECO-FIX-plus LSK 3.0x12
  7
ARIAL
 50
0.0
 41
0.8
 51
0.0
100
AcDbText
  0
TEXT
  5
284
100
AcDbEntity
  8
MST_1_1
 62
     7
100
AcDbText
 10
-120.58332378
 20
6.04545025
 30
0.0
 40
5.0
  1
T-Drive T10
  7
ARIAL
 50
0.0
 41
0.8
 51
0.0
100
AcDbText
  0
TEXT
  5
285
100
AcDbEntity
  8
MST_1_1
 62
     7
100
AcDbText
 10
-120.58332378
 20
-23.95454975
 30
0.0
 40
5.0
  1
T-Drive T10
  7
ARIAL
 50
0.0
 41
0.8
 51
0.0
100
AcDbText
  0
TEXT
  5
286
100
AcDbEntity
  8
MST_1_1
 62
     7
100
AcDbText
 10
-120.58332378
 20
-53.95454975
 30
0.0
 40
5.0
  1
T-Drive T10
  7
ARIAL
 50
0.0
 41
0.8
 51
0.0
100
AcDbText
  0
TEXT
  5
287
100
AcDbEntity
  8
MST_1_1
 62
     7
100
AcDbText
 10
-120.58332378
 20
-83.95454975
 30
0.0
 40
5.0
  1
T-Drive T10
  7
ARIAL
 50
0.0
 41
0.8
 51
0.0
100
AcDbText
  0
TEXT
  5
288
100
AcDbEntity
  8
MST_1_1
 62
     7
100
AcDbText
 10
-120.58332378
 20
-113.95454975
 30
0.0
 40
5.0
  1
T-Drive T10
  7
ARIAL
 50
0.0
 41
0.8
 51
0.0
100
AcDbText
  0
ENDSEC
  0
SECTION
  2
OBJECTS
  0
DICTIONARY
  5
1
100
AcDbDictionary
  3
ACAD_GROUP
350
2
  3
ACAD_MLINESTYLE
350
3
  0
DICTIONARY
  5
2
102
{CDWK_REACTORS
330
1
102
}
100
AcDbDictionary
  0
DICTIONARY
  5
3
102
{CDWK_REACTORS
330
1
102
}
100
AcDbDictionary
  3
STANDARD
350
4
  0
MLINESTYLE
  5
4
102
{CDWK_REACTORS
330
3
102
}
100
AcDbMlineStyle
  2
STANDARD
 70
     0
  3

 62
     0
 51
90.0
 52
90.0
 71
     2
 49
0.5
 62
   256
  6
BYLAYER
 49
-0.5
 62
   256
  6
BYLAYER
  0
ENDSEC
  0
EOF
