  0
SECTION
  2
HEADER
  9
$ACADVER
  1
AC1012
  9
$DWGCODEPAGE
  3
ANSI_1252
  9
$INSBASE
 10
0.0
 20
0.0
 30
0.0
  9
$EXTMIN
 10
-135.43587855
 20
-119.83125083
  9
$EXTMAX
 10
288.26029889
 20
188.16929145
  9
$LIMMIN
 10
-135.43587855
 20
-119.83125083
  9
$LIMMAX
 10
288.26029889
 20
188.16929145
  9
$ORTHOMODE
 70
     0
  9
$REGENMODE
 70
     1
  9
$FILLMODE
 70
     1
  9
$QTEXTMODE
 70
     0
  9
$MIRRTEXT
 70
     1
  9
$DRAGMODE
 70
     2
  9
$LTSCALE
 40
1.0
  9
$OSMODE
 70
     0
  9
$ATTMODE
 70
     1
  9
$TEXTSIZE
 40
3.5
  9
$TRACEWID
 40
1.0
  9
$TEXTSTYLE
  7
STANDARD
  9
$CLAYER
  8
0
  9
$CELTYPE
  6
BYLAYER
  9
$CECOLOR
 62
   256
  9
$DIMSCALE
 40
1.0
  9
$DIMASZ
 40
2.0
  9
$DIMEXO
 40
5.0
  9
$DIMDLI
 40
10.0
  9
$DIMRND
 40
0.0
  9
$DIMDLE
 40
2.0
  9
$DIMEXE
 40
2.0
  9
$DIMTP
 40
0.0
  9
$DIMTM
 40
0.0
  9
$DIMTXT
 40
2.5
  9
$DIMCEN
 40
1.5
  9
$DIMTSZ
 40
0.0
  9
$DIMTOL
 70
     0
  9
$DIMLIM
 70
     0
  9
$DIMTIH
 70
     1
  9
$DIMTOH
 70
     0
  9
$DIMSE1
 70
     0
  9
$DIMSE2
 70
     0
  9
$DIMTAD
 70
     1
  9
$DIMZIN
 70
     8
  9
$DIMBLK
  1

  9
$DIMASO
 70
     1
  9
$DIMSHO
 70
     1
  9
$DIMPOST
  1

  9
$DIMAPOST
  1

  9
$DIMALT
 70
     0
  9
$DIMALTD
 70
     2
  9
$DIMALTF
 40
25.4
  9
$DIMLFAC
 40
1.0
  9
$DIMTOFL
 70
     0
  9
$DIMTVP
 40
0.0
  9
$DIMTIX
 70
     0
  9
$DIMSOXD
 70
     0
  9
$DIMSAH
 70
     0
  9
$DIMBLK1
  1

  9
$DIMBLK2
  1

  9
$DIMSTYLE
  2
*UNNAMED
  9
$DIMCLRD
 70
     9
  9
$DIMCLRE
 70
     9
  9
$DIMCLRT
 70
     7
  9
$DIMTFAC
 40
1.0
  9
$DIMGAP
 40
0.09
  9
$DIMUNIT
 70
     2
  9
$LUNITS
 70
     2
  9
$LUPREC
 70
     6
  9
$AXISMODE
 70
     0
  9
$AXISUNIT
 10
0.0
 20
0.0
  9
$SKETCHINC
 40
0.1
  9
$FILLETRAD
 40
0.0
  9
$AUNITS
 70
     0
  9
$AUPREC
 70
     0
  9
$MENU
  1
ACAD
  9
$ELEVATION
 40
0.0
  9
$PELEVATION
 40
0.0
  9
$THICKNESS
 40
0.0
  9
$LIMCHECK
 70
     0
  9
$BLIPMODE
 70
     1
  9
$CHAMFERA
 40
0.0
  9
$CHAMFERB
 40
0.0
  9
$SKPOLY
 70
     1
  9
$TDCREATE
 40
2456119.0000000000
  9
$TDUPDATE
 40
2456119.0000000000
  9
$TDINDWG
 40
0.0
  9
$TDUSRTIMER
 40
0.0
  9
$USRTIMER
 70
     1
  9
$ANGBASE
 50
0.0
  9
$ANGDIR
 70
     0
  9
$PDMODE
 70
     0
  9
$PDSIZE
 40
0.0
  9
$PLINEWID
 40
0.0
  9
$COORDS
 70
     2
  9
$SPLFRAME
 70
     0
  9
$SPLINETYPE
 70
     6
  9
$SPLINESEGS
 70
     8
  9
$ATTDIA
 70
     1
  9
$ATTREQ
 70
     1
  9
$HANDLING
 70
     1
  9
$HANDSEED
  5
     133
  9
$SURFTAB1
 70
     6
  9
$SURFTAB2
 70
     6
  9
$SURFTYPE
 70
     6
  9
$SURFU
 70
     6
  9
$SURFV
 70
     6
  9
$UCSNAME
  2

  9
$UCSORG
 10
0.0
 20
0.0
 30
0.0
  9
$UCSXDIR
 10
1.0
 20
0.0
 30
0.0
  9
$UCSYDIR
 10
0.0
 20
1.0
 30
0.0
  9
$PUCSNAME
  2

  9
$PUCSORG
 10
0.0
 20
0.0
 30
0.0
  9
$PUCSXDIR
 10
1.0
 20
0.0
 30
0.0
  9
$PUCSYDIR
 10
0.0
 20
1.0
 30
0.0
  9
$USERI1
 70
     0
  9
$USERI2
 70
     0
  9
$USERI3
 70
     0
  9
$USERI4
 70
     0
  9
$USERI5
 70
     0
  9
$USERR1
 40
0.0
  9
$USERR2
 40
0.0
  9
$USERR3
 40
0.0
  9
$USERR4
 40
0.0
  9
$USERR5
 40
0.0
  9
$WORLDVIEW
 70
     1
  9
$SHADEDGE
 70
     3
  9
$SHADEDIF
 70
    70
  9
$TILEMODE
 70
     1
  9
$MAXACTVP
 70
    16
  9
$PINSBASE
 10
0.0
 20
0.0
 30
0.0
  9
$PLIMCHECK
 70
     0
  9
$PEXTMIN
 10
1.0000000000000E+20
 20
1.0000000000000E+20
 30
1.0000000000000E+20
  9
$PEXTMAX
 10
-1.0000000000000E+20
 20
-1.0000000000000E+20
 30
-1.0000000000000E+20
  9
$PLIMMIN
 10
0.0
 20
0.0
  9
$UNITMODE
 70
     0
  9
$VISRETAIN
 70
     0
  9
$MEASUREMENT
 70
     1
  0
ENDSEC
  0
SECTION
  2
TABLES
  0
TABLE
  2
VPORT
  5
13
100
AcDbSymbolTable
 70
     1
  0
ENDTAB
  0
TABLE
  2
STYLE
  5
14
100
AcDbSymbolTable
 70
     4
  0
STYLE
  5
15
100
AcDbSymbolTableRecord
100
AcDbTextStyleTableRecord
  2
STANDARD
 70
     0
 40
0.0
 41
1.0
 50
0.0
 71
     0
 42
3.5
  3
MONOTXT
  4

  0
STYLE
  5
16
100
AcDbSymbolTableRecord
100
AcDbTextStyleTableRecord
  2
CADWORK1
 70
     0
 40
0.0
 41
1.0
 50
0.0
 71
     0
 42
3.5
  3
MONOTXT
  4

  0
STYLE
  5
17
100
AcDbSymbolTableRecord
100
AcDbTextStyleTableRecord
  2
MONOTXT
 70
     0
 40
0.0
 41
1.0
 50
0.0
 71
     0
 42
3.5
  3
MONOTXT
  4

  0
STYLE
  5
18
100
AcDbSymbolTableRecord
100
AcDbTextStyleTableRecord
  2
TAHOMA
 70
     0
 40
0.0
 41
1.0
 50
0.0
 71
     0
 42
3.5
  3

  4

1001
ACAD
1000
Tahoma
1071
        0
  0
STYLE
  5
19
100
AcDbSymbolTableRecord
100
AcDbTextStyleTableRecord
  2
ARIAL
 70
     0
 40
0.0
 41
1.0
 50
0.0
 71
     0
 42
3.5
  3

  4

1001
ACAD
1000
Arial
1071
        0
  0
ENDTAB
  0
TABLE
  2
LTYPE
  5
1A
100
AcDbSymbolTable
 70
    12
  0
LTYPE
  5
1B
100
AcDbSymbolTableRecord
100
AcDbLinetypeTableRecord
  2
BYBLOCK
 70
    64
  3

 72
    65
 73
     0
 40
0.0
  0
LTYPE
  5
1C
100
AcDbSymbolTableRecord
100
AcDbLinetypeTableRecord
  2
BYLAYER
 70
    64
  3

 72
    65
 73
     0
 40
0.0
  0
LTYPE
  5
1D
100
AcDbSymbolTableRecord
100
AcDbLinetypeTableRecord
  2
CONTINUOUS
 70
    64
  3
Solid line
 72
    65
 73
     0
 40
0.0
  0
LTYPE
  5
1E
100
AcDbSymbolTableRecord
100
AcDbLinetypeTableRecord
  2
DOT
 70
    64
  3
. . . . . . . . . . . . . . . . . . . . . . . .
 72
    65
 73
     2
 40
2.5
 49
0.0
 74
     0
 49
-2.5
 74
     0
  0
LTYPE
  5
1F
100
AcDbSymbolTableRecord
100
AcDbLinetypeTableRecord
  2
DASHED
 70
    64
  3
__ __ __ __ __ __ __ __ __ __ __ __ __ __ __ __
 72
    65
 73
     2
 40
7.5
 49
5.0
 74
     0
 49
-2.5
 74
     0
  0
LTYPE
  5
20
100
AcDbSymbolTableRecord
100
AcDbLinetypeTableRecord
  2
BORDER
 70
    64
  3
 __ __ . __ __ . __ __ . __ __ . __ __ . __ __ .
 72
    65
 73
     6
 40
17.0
 49
5.0
 74
     0
 49
-2.0
 74
     0
 49
5.0
 74
     0
 49
-2.0
 74
     0
 49
1.0
 74
     0
 49
-2.0
 74
     0
  0
LTYPE
  5
21
100
AcDbSymbolTableRecord
100
AcDbLinetypeTableRecord
  2
DAL
 70
    64
  3
Solid line (for MAPS)
 72
    65
 73
     0
 40
0.0
  0
LTYPE
  5
22
100
AcDbSymbolTableRecord
100
AcDbLinetypeTableRecord
  2
MUR
 70
    64
  3
Solid line (for MAPS)
 72
    65
 73
     0
 40
0.0
  0
LTYPE
  5
23
100
AcDbSymbolTableRecord
100
AcDbLinetypeTableRecord
  2
SOM
 70
    64
  3
Solid line (for MAPS)
 72
    65
 73
     0
 40
0.0
  0
LTYPE
  5
24
100
AcDbSymbolTableRecord
100
AcDbLinetypeTableRecord
  2
COL
 70
    64
  3
Solid line (for MAPS)
 72
    65
 73
     0
 40
0.0
  0
LTYPE
  5
25
100
AcDbSymbolTableRecord
100
AcDbLinetypeTableRecord
  2
LGN
 70
    64
  3
Solid line (for MAPS)
 72
    65
 73
     0
 40
0.0
  0
LTYPE
  5
26
100
AcDbSymbolTableRecord
100
AcDbLinetypeTableRecord
  2
PNT
 70
    64
  3
Solid line (for MAPS)
 72
    65
 73
     0
 40
0.0
  0
ENDTAB
  0
TABLE
  2
LAYER
  5
27
100
AcDbSymbolTable
 70
     1
  0
LAYER
  5
28
100
AcDbSymbolTableRecord
100
AcDbLayerTableRecord
  2
0
 70
     0
 62
     1
  6
CONTINUOUS
  0
LAYER
  5
29
100
AcDbSymbolTableRecord
100
AcDbLayerTableRecord
  2
MST_1_1
 70
     0
 62
     7
  6
CONTINUOUS
  0
ENDTAB
  0
TABLE
  2
VIEW
  5
2A
100
AcDbSymbolTable
 70
     0
  0
ENDTAB
  0
TABLE
  2
UCS
  5
2B
100
AcDbSymbolTable
 70
     0
  0
ENDTAB
  0
TABLE
  2
APPID
  5
2C
100
AcDbSymbolTable
 70
     1
  0
APPID
  5
2D
100
AcDbSymbolTableRecord
100
AcDbRegAppTableRecord
  2
ACAD
 70
     0
  0
ENDTAB
  0
TABLE
  2
DIMSTYLE
  5
2E
100
AcDbSymbolTable
 70
     0
  0
ENDTAB
  0
TABLE
  2
BLOCK_RECORD
  5
2F
100
AcDbSymbolTable
 70
     0
  0
BLOCK_RECORD
  5
30
100
AcDbSymbolTableRecord
100
AcDbBlockTableRecord
  2
*MODEL_SPACE
  0
BLOCK_RECORD
  5
31
100
AcDbSymbolTableRecord
100
AcDbBlockTableRecord
  2
*PAPER_SPACE
  0
BLOCK_RECORD
  5
32
100
AcDbSymbolTableRecord
100
AcDbBlockTableRecord
  2
CDWK_EXTR_0
  0
BLOCK_RECORD
  5
33
100
AcDbSymbolTableRecord
100
AcDbBlockTableRecord
  2
CDWK_EXTR_1D
  0
BLOCK_RECORD
  5
34
100
AcDbSymbolTableRecord
100
AcDbBlockTableRecord
  2
CDWK_EXTR_1G
  0
BLOCK_RECORD
  5
35
100
AcDbSymbolTableRecord
100
AcDbBlockTableRecord
  2
CDWK_EXTR_2
  0
BLOCK_RECORD
  5
36
100
AcDbSymbolTableRecord
100
AcDbBlockTableRecord
  2
CDWK_EXTR_3
  0
BLOCK_RECORD
  5
37
100
AcDbSymbolTableRecord
100
AcDbBlockTableRecord
  2
CDWK_EXTR_4
  0
BLOCK_RECORD
  5
38
100
AcDbSymbolTableRecord
100
AcDbBlockTableRecord
  2
CDWK_PTTYP0
  0
ENDTAB
  0
ENDSEC
  0
SECTION
  2
BLOCKS
  0
BLOCK
  5
39
100
AcDbEntity
  8
0
100
AcDbBlockBegin
  2
*MODEL_SPACE
 70
     0
 10
0.0
 20
0.0
 30
0.0
  3
*MODEL_SPACE
  1

  0
ENDBLK
  5
3A
100
AcDbEntity
100
AcDbBlockEnd
  0
BLOCK
  5
3B
100
AcDbEntity
  8
0
100
AcDbBlockBegin
  2
*PAPER_SPACE
 70
     0
 10
0.0
 20
0.0
 30
0.0
  3
*PAPER_SPACE
  1

  0
ENDBLK
  5
3C
100
AcDbEntity
100
AcDbBlockEnd
  0
BLOCK
  5
3D
100
AcDbEntity
  8
0
100
AcDbBlockBegin
  2
CDWK_EXTR_0
 70
     0
 10
0.0
 20
0.0
 30
0.0
  3
CDWK_EXTR_0
  1

  4
Cadwork line-extremity
  0
LINE
  5
3E
100
AcDbEntity
  8
0
 62
     0
100
AcDbLine
 10
0.0
 20
0.0
 30
0.0
 11
2.0
 21
0.5
 31
0.0
  0
LINE
  5
3F
100
AcDbEntity
  8
0
 62
     0
100
AcDbLine
 10
0.0
 20
0.0
 30
0.0
 11
2.0
 21
-0.5
 31
0.0
  0
LINE
  5
40
100
AcDbEntity
  8
0
 62
     0
100
AcDbLine
 10
2.0
 20
0.5
 30
0.0
 11
2.0
 21
-0.5
 31
0.0
  0
ENDBLK
  5
41
100
AcDbEntity
100
AcDbBlockEnd
  0
BLOCK
  5
42
100
AcDbEntity
  8
0
100
AcDbBlockBegin
  2
CDWK_EXTR_1D
 70
     0
 10
0.0
 20
0.0
 30
0.0
  3
CDWK_EXTR_1D
  1

  4
Cadwork line-extremity
  0
LINE
  5
43
100
AcDbEntity
  8
0
 62
     0
100
AcDbLine
 10
0.0
 20
0.0
 30
0.0
 11
0.0
 21
1.0
 31
0.0
  0
LINE
  5
44
100
AcDbEntity
  8
0
 62
     0
100
AcDbLine
 10
0.0
 20
1.0
 30
0.0
 11
0.5
 21
1.5
 31
0.0
  0
LINE
  5
45
100
AcDbEntity
  8
0
 62
     0
100
AcDbLine
 10
0.5
 20
1.5
 30
0.0
 11
1.5
 21
1.5
 31
0.0
  0
ENDBLK
  5
46
100
AcDbEntity
100
AcDbBlockEnd
  0
BLOCK
  5
47
100
AcDbEntity
  8
0
100
AcDbBlockBegin
  2
CDWK_EXTR_1G
 70
     0
 10
0.0
 20
0.0
 30
0.0
  3
CDWK_EXTR_1G
  1

  4
Cadwork line-extremity
  0
LINE
  5
48
100
AcDbEntity
  8
0
 62
     0
100
AcDbLine
 10
0.0
 20
0.0
 30
0.0
 11
0.0
 21
-1.0
 31
0.0
  0
LINE
  5
49
100
AcDbEntity
  8
0
 62
     0
100
AcDbLine
 10
0.0
 20
-1.0
 30
0.0
 11
0.5
 21
-1.5
 31
0.0
  0
LINE
  5
4A
100
AcDbEntity
  8
0
 62
     0
100
AcDbLine
 10
0.5
 20
-1.5
 30
0.0
 11
1.5
 21
-1.5
 31
0.0
  0
ENDBLK
  5
4B
100
AcDbEntity
100
AcDbBlockEnd
  0
BLOCK
  5
4C
100
AcDbEntity
  8
0
100
AcDbBlockBegin
  2
CDWK_EXTR_2
 70
     0
 10
0.0
 20
0.0
 30
0.0
  3
CDWK_EXTR_2
  1

  4
Cadwork line-extremity
  0
SOLID
  5
4D
100
AcDbEntity
  8
0
 62
     0
100
AcDbTrace
 10
0.0
 20
0.0
 11
2.0
 21
0.5
 12
2.0
 22
-0.5
 13
2.0
 23
-0.5
  0
ENDBLK
  5
4E
100
AcDbEntity
100
AcDbBlockEnd
  0
BLOCK
  5
4F
100
AcDbEntity
  8
0
100
AcDbBlockBegin
  2
CDWK_EXTR_3
 70
     0
 10
0.0
 20
0.0
 30
0.0
  3
CDWK_EXTR_3
  1

  4
Cadwork line-extremity
  0
SOLID
  5
50
100
AcDbEntity
  8
0
 62
     0
100
AcDbTrace
 10
0.0
 20
0.0
 11
2.0
 21
0.5
 12
2.0
 22
-0.5
 13
2.0
 23
-0.5
  0
LINE
  5
51
100
AcDbEntity
  8
0
 62
     0
100
AcDbLine
 10
0.0
 20
1.0
 30
0.0
 11
0.0
 21
-1.0
 31
0.0
  0
ENDBLK
  5
52
100
AcDbEntity
100
AcDbBlockEnd
  0
BLOCK
  5
53
100
AcDbEntity
  8
0
100
AcDbBlockBegin
  2
CDWK_EXTR_4
 70
     0
 10
0.0
 20
0.0
 30
0.0
  3
CDWK_EXTR_4
  1

  4
Cadwork line-extremity
  0
POLYLINE
  5
54
100
AcDbEntity
  8
0
 62
     0
100
AcDb2dPolyline
 70
     1
 66
     1
 10
0.0
 20
0.0
 30
0.0
 40
0.5
 41
0.5
  0
VERTEX
  5
55
100
AcDbEntity
  8
0
100
AcDbVertex
100
AcDb2dVertex
 10
-0.25
 20
0.0
 30
0.0
 42
1.0
  0
VERTEX
  5
56
100
AcDbEntity
  8
0
100
AcDbVertex
100
AcDb2dVertex
 10
0.25
 20
0.0
 30
0.0
 42
1.0
  0
SEQEND
  5
57
100
AcDbEntity
  0
ENDBLK
  5
58
100
AcDbEntity
100
AcDbBlockEnd
  0
BLOCK
  5
59
100
AcDbEntity
  8
0
100
AcDbBlockBegin
  2
CDWK_PTTYP0
 70
     0
 10
0.0
 20
0.0
 30
0.0
  3
CDWK_PTTYP0
  1

  4
Cadwork point
  0
POINT
  5
5A
100
AcDbEntity
  8
0
 62
     0
100
AcDbPoint
 10
0.0
 20
0.0
 30
0.0
  0
ENDBLK
  5
5B
100
AcDbEntity
100
AcDbBlockEnd
  0
ENDSEC
  0
SECTION
  2
ENTITIES
  0
LINE
  5
5C
100
AcDbEntity
  8
MST_1_1
 62
     7
  6
DASHED
100
AcDbLine
 10
-2.06250403
 20
28.54545025
 30
0.0
 11
-2.06250403
 21
-36.45454975
 31
0.0
  0
LINE
  5
5D
100
AcDbEntity
  8
MST_1_1
 62
     7
  6
DASHED
100
AcDbLine
 10
13.93749597
 20
18.54545025
 30
0.0
 11
13.93749597
 21
-36.45454975
 31
0.0
  0
LINE
  5
5E
100
AcDbEntity
  8
MST_1_1
 62
     7
  6
DASHED
100
AcDbLine
 10
9.93749597
 20
28.54545025
 30
0.0
 11
9.93749597
 21
-6.45454975
 31
0.0
  0
LWPOLYLINE
  5
5F
100
AcDbEntity
  8
MST_1_1
 62
     1
  6
BORDER
100
AcDbPolyline
 90
        3
 70
     0
 43
0.0
 10
13.93749597
 20
-21.45454975
 10
-2.06250403
 20
-21.45454975
 10
-7.06250403
 20
-21.45454975
  0
LWPOLYLINE
  5
60
100
AcDbEntity
  8
MST_1_1
 62
   137
  6
CONTINUOUS
100
AcDbPolyline
 90
        6
 70
     0
 43
0.0
 38
2500.0
 10
2.58473117
 20
-19.95454964
 10
2.45178168
 20
-20.52883546
 10
3.57582868
 20
-22.95454975
 10
3.70877821
 20
-22.38026403
 10
2.58473117
 20
-19.95454964
 10
3.57582868
 20
-22.95454975
  0
LINE
  5
61
100
AcDbEntity
  8
MST_1_1
 62
   137
  6
CONTINUOUS
100
AcDbLine
 10
-0.16250403
 20
-20.52883546
 30
2500.0
 11
2.45178168
 21
-20.52883546
 31
2500.0
  0
LWPOLYLINE
  5
62
100
AcDbEntity
  8
MST_1_1
 62
   137
  6
CONTINUOUS
100
AcDbPolyline
 90
        4
 70
     0
 43
0.0
 38
2500.0
 10
1.59542583
 20
-22.38026403
 10
1.86154296
 20
-22.95454975
 10
1.9944925
 20
-22.38026403
 10
1.79507777
 20
-21.94992335
  0
LINE
  5
63
100
AcDbEntity
  8
MST_1_1
 62
   137
  6
CONTINUOUS
100
AcDbLine
 10
1.64004546
 20
-22.28408844
 30
2500.0
 11
1.86154296
 21
-22.95454975
 31
2500.0
  0
LINE
  5
64
100
AcDbEntity
  8
MST_1_1
 62
   137
  6
CONTINUOUS
100
AcDbLine
 10
1.59542583
 20
-22.38026403
 30
2500.0
 11
1.79507777
 21
-21.94992335
 31
2500.0
  0
LINE
  5
65
100
AcDbEntity
  8
MST_1_1
 62
   137
  6
CONTINUOUS
100
AcDbLine
 10
3.30971155
 20
-22.38026403
 30
2500.0
 11
1.9944925
 21
-22.38026403
 31
2500.0
  0
LINE
  5
66
100
AcDbEntity
  8
MST_1_1
 62
   137
  6
CONTINUOUS
100
AcDbLine
 10
1.59542583
 20
-22.38026403
 30
2500.0
 11
-0.16250403
 21
-22.38026403
 31
2500.0
  0
LWPOLYLINE
  5
67
100
AcDbEntity
  8
MST_1_1
 62
   137
  6
CONTINUOUS
100
AcDbPolyline
 90
        6
 70
     0
 43
0.0
 38
2500.0
 10
4.29901688
 20
-19.95454964
 10
4.1660674
 20
-20.52883546
 10
5.29011439
 20
-22.95454975
 10
5.42306393
 20
-22.38026403
 10
4.29901688
 20
-19.95454964
 10
5.29011439
 20
-22.95454975
  0
LWPOLYLINE
  5
68
100
AcDbEntity
  8
MST_1_1
 62
   137
  6
CONTINUOUS
100
AcDbPolyline
 90
        6
 70
     0
 43
0.0
 38
2500.0
 10
6.0133026
 20
-19.95454964
 10
5.88035311
 20
-20.52883546
 10
7.00440011
 20
-22.95454975
 10
7.13734964
 20
-22.38026403
 10
6.0133026
 20
-19.95454964
 10
7.00440011
 20
-22.95454975
  0
LWPOLYLINE
  5
69
100
AcDbEntity
  8
MST_1_1
 62
   137
  6
CONTINUOUS
100
AcDbPolyline
 90
        6
 70
     0
 43
0.0
 38
2500.0
 10
7.72758831
 20
-19.95454964
 10
7.59463883
 20
-20.52883546
 10
8.71868582
 20
-22.95454975
 10
8.83137886
 20
-22.33655014
 10
7.72758831
 20
-19.95454964
 10
8.71868582
 20
-22.95454975
  0
LWPOLYLINE
  5
6A
100
AcDbEntity
  8
MST_1_1
 62
   137
  6
CONTINUOUS
100
AcDbPolyline
 90
        6
 70
     0
 43
0.0
 38
2500.0
 10
9.41661362
 20
-20.14971192
 10
9.30892454
 20
-20.61488344
 10
10.23718234
 20
-22.61808101
 10
10.34487143
 20
-22.1529095
 10
9.41661362
 20
-20.14971192
 10
10.21940261
 20
-22.57971201
  0
LINE
  5
6B
100
AcDbEntity
  8
MST_1_1
 62
   251
  6
CONTINUOUS
100
AcDbLine
 10
3.70877821
 20
-22.38026403
 30
2500.0
 11
5.02399726
 21
-22.38026403
 31
2500.0
  0
LINE
  5
6C
100
AcDbEntity
  8
MST_1_1
 62
   251
  6
CONTINUOUS
100
AcDbLine
 10
5.42306393
 20
-22.38026403
 30
2500.0
 11
6.73828297
 21
-22.38026403
 31
2500.0
  0
LINE
  5
6D
100
AcDbEntity
  8
MST_1_1
 62
   251
  6
CONTINUOUS
100
AcDbLine
 10
7.13734964
 20
-22.38026403
 30
2500.0
 11
7.99546217
 21
-22.37647309
 31
2500.0
  0
LINE
  5
6E
100
AcDbEntity
  8
MST_1_1
 62
   251
  6
CONTINUOUS
100
AcDbLine
 10
4.1660674
 20
-20.52883546
 30
2500.0
 11
2.85084835
 21
-20.52883546
 31
2500.0
  0
LINE
  5
6F
100
AcDbEntity
  8
MST_1_1
 62
   251
  6
CONTINUOUS
100
AcDbLine
 10
5.88035311
 20
-20.52883546
 30
2500.0
 11
4.56513406
 21
-20.52883546
 31
2500.0
  0
LINE
  5
70
100
AcDbEntity
  8
MST_1_1
 62
   251
  6
CONTINUOUS
100
AcDbLine
 10
7.59463883
 20
-20.52883546
 30
2500.0
 11
6.27941978
 21
-20.52883546
 31
2500.0
  0
ARC
  5
71
100
AcDbEntity
  8
MST_1_1
 62
   251
  6
CONTINUOUS
100
AcDbCircle
 10
7.64209713
 20
-36.70275235
 30
2500.0
 40
16.17398651
100
AcDbArc
 50
84.08482032
 51
88.74811714
  0
LWPOLYLINE
  5
72
100
AcDbEntity
  8
MST_1_1
 62
   251
  6
CONTINUOUS
100
AcDbPolyline
 90
        3
 70
     0
 43
0.0
 38
2500.0
 10
13.93749597
 20
-21.45454975
 10
10.75122202
 20
-20.83041219
 42
0.01723995
 10
9.65025591
 20
-20.65391631
  0
ARC
  5
73
100
AcDbEntity
  8
MST_1_1
 62
   251
  6
CONTINUOUS
100
AcDbCircle
 10
7.64209713
 20
-6.20634715
 30
2500.0
 40
16.17398651
100
AcDbArc
 50
271.25189287
 51
272.83975061
  0
LWPOLYLINE
  5
74
100
AcDbEntity
  8
MST_1_1
 62
   251
  6
CONTINUOUS
100
AcDbPolyline
 90
        3
 70
     0
 43
0.0
 38
2500.0
 10
13.93749597
 20
-21.45454975
 10
10.75122202
 20
-22.07868731
 42
-0.0063851
 10
10.34487143
 20
-22.1529095
  0
ARC
  5
75
100
AcDbEntity
  8
MST_1_1
 62
   251
  6
CONTINUOUS
100
AcDbCircle
 10
7.64209713
 20
-6.20634715
 30
2500.0
 40
16.17398651
100
AcDbArc
 50
274.21680449
 51
278.53995004
  0
LWPOLYLINE
  5
76
100
AcDbEntity
  8
MST_1_1
 62
   137
  6
CONTINUOUS
100
AcDbPolyline
 90
        6
 70
     0
 43
0.0
 38
2500.0
 10
11.09428505
 20
-20.57667692
 10
11.02321025
 20
-20.88369012
 10
11.6358604
 20
-22.20580051
 10
11.70383049
 20
-21.8920873
 10
11.09428505
 20
-20.57667692
 10
11.62412578
 20
-22.18047697
  0
LWPOLYLINE
  5
77
100
AcDbEntity
  8
MST_1_1
 62
     1
  6
BORDER
100
AcDbPolyline
 90
        3
 70
     0
 43
0.0
 10
9.93749597
 20
8.54545025
 10
-2.06250403
 20
8.54545025
 10
-7.06250403
 20
8.54545025
  0
LINE
  5
78
100
AcDbEntity
  8
MST_1_1
 62
   137
  6
CONTINUOUS
100
AcDbLine
 10
-2.06250403
 20
8.54545025
 30
0.0
 11
-2.06250403
 21
11.04545025
 31
0.0
  0
LINE
  5
79
100
AcDbEntity
  8
MST_1_1
 62
   137
  6
CONTINUOUS
100
AcDbLine
 10
-2.06250403
 20
11.04545025
 30
0.0
 11
-1.98750405
 21
11.04545025
 31
0.0
  0
LWPOLYLINE
  5
7A
100
AcDbEntity
  8
MST_1_1
 62
   137
  6
CONTINUOUS
100
AcDbPolyline
 90
        6
 70
     0
 43
0.0
 38
2500.0
 10
2.0133026
 20
10.04545036
 10
1.88035311
 20
9.47116454
 10
3.00440011
 20
7.04545025
 10
3.13734964
 20
7.61973597
 10
2.0133026
 20
10.04545036
 10
3.00440011
 20
7.04545025
  0
LINE
  5
7B
100
AcDbEntity
  8
MST_1_1
 62
   137
  6
CONTINUOUS
100
AcDbLine
 10
-0.16250403
 20
9.47116454
 30
2500.0
 11
1.88035311
 21
9.47116454
 31
2500.0
  0
LWPOLYLINE
  5
7C
100
AcDbEntity
  8
MST_1_1
 62
   137
  6
CONTINUOUS
100
AcDbPolyline
 90
        4
 70
     0
 43
0.0
 38
2500.0
 10
1.02399726
 20
7.61973597
 10
1.29011439
 20
7.04545025
 10
1.42306393
 20
7.61973597
 10
1.2236492
 20
8.05007665
  0
LINE
  5
7D
100
AcDbEntity
  8
MST_1_1
 62
   137
  6
CONTINUOUS
100
AcDbLine
 10
1.06861689
 20
7.71591156
 30
2500.0
 11
1.29011439
 21
7.04545025
 31
2500.0
  0
LINE
  5
7E
100
AcDbEntity
  8
MST_1_1
 62
   137
  6
CONTINUOUS
100
AcDbLine
 10
1.02399726
 20
7.61973597
 30
2500.0
 11
1.2236492
 21
8.05007665
 31
2500.0
  0
LINE
  5
7F
100
AcDbEntity
  8
MST_1_1
 62
   137
  6
CONTINUOUS
100
AcDbLine
 10
2.73828297
 20
7.61973597
 30
2500.0
 11
1.42306393
 21
7.61973597
 31
2500.0
  0
LINE
  5
80
100
AcDbEntity
  8
MST_1_1
 62
   137
  6
CONTINUOUS
100
AcDbLine
 10
1.02399726
 20
7.61973597
 30
2500.0
 11
-0.16250403
 21
7.61973597
 31
2500.0
  0
LINE
  5
81
100
AcDbEntity
  8
MST_1_1
 62
   137
  6
CONTINUOUS
100
AcDbLine
 10
-1.98750405
 20
11.04545025
 30
0.0
 11
-0.16250403
 21
9.47116454
 31
0.0
  0
LINE
  5
82
100
AcDbEntity
  8
MST_1_1
 62
   137
  6
CONTINUOUS
100
AcDbLine
 10
-0.16250403
 20
7.61973597
 30
0.0
 11
-1.98750405
 21
6.04545025
 31
0.0
  0
LINE
  5
83
100
AcDbEntity
  8
MST_1_1
 62
   137
  6
CONTINUOUS
100
AcDbLine
 10
-1.98750405
 20
6.04545025
 30
0.0
 11
-2.06250403
 21
6.04545025
 31
0.0
  0
LINE
  5
84
100
AcDbEntity
  8
MST_1_1
 62
   137
  6
CONTINUOUS
100
AcDbLine
 10
-2.06250403
 20
6.04545025
 30
0.0
 11
-2.06250403
 21
8.54545025
 31
0.0
  0
LWPOLYLINE
  5
85
100
AcDbEntity
  8
MST_1_1
 62
   137
  6
CONTINUOUS
100
AcDbPolyline
 90
        6
 70
     0
 43
0.0
 38
2500.0
 10
3.72758831
 20
10.04545036
 10
3.59463883
 20
9.47116454
 10
4.71868582
 20
7.04545025
 10
4.83137886
 20
7.66344986
 10
3.72758831
 20
10.04545036
 10
4.71868582
 20
7.04545025
  0
LWPOLYLINE
  5
86
100
AcDbEntity
  8
MST_1_1
 62
   137
  6
CONTINUOUS
100
AcDbPolyline
 90
        6
 70
     0
 43
0.0
 38
2500.0
 10
5.41661362
 20
9.85028808
 10
5.30892454
 20
9.38511656
 10
6.23718234
 20
7.38191899
 10
6.34487143
 20
7.8470905
 10
5.41661362
 20
9.85028808
 10
6.21940261
 20
7.42028799
  0
LINE
  5
87
100
AcDbEntity
  8
MST_1_1
 62
   251
  6
CONTINUOUS
100
AcDbLine
 10
3.13734964
 20
7.61973597
 30
2500.0
 11
3.99546217
 21
7.62352691
 31
2500.0
  0
LINE
  5
88
100
AcDbEntity
  8
MST_1_1
 62
   251
  6
CONTINUOUS
100
AcDbLine
 10
3.59463883
 20
9.47116454
 30
2500.0
 11
2.27941978
 21
9.47116454
 31
2500.0
  0
ARC
  5
89
100
AcDbEntity
  8
MST_1_1
 62
   251
  6
CONTINUOUS
100
AcDbCircle
 10
3.64209713
 20
-6.70275235
 30
2500.0
 40
16.17398651
100
AcDbArc
 50
84.08482032
 51
88.74811714
  0
LWPOLYLINE
  5
8A
100
AcDbEntity
  8
MST_1_1
 62
   251
  6
CONTINUOUS
100
AcDbPolyline
 90
        3
 70
     0
 43
0.0
 38
2500.0
 10
9.93749597
 20
8.54545025
 10
6.75122202
 20
9.16958781
 42
0.01723995
 10
5.65025591
 20
9.34608369
  0
ARC
  5
8B
100
AcDbEntity
  8
MST_1_1
 62
   251
  6
CONTINUOUS
100
AcDbCircle
 10
3.64209713
 20
23.79365285
 30
2500.0
 40
16.17398651
100
AcDbArc
 50
271.25189287
 51
272.83975061
  0
LWPOLYLINE
  5
8C
100
AcDbEntity
  8
MST_1_1
 62
   251
  6
CONTINUOUS
100
AcDbPolyline
 90
        3
 70
     0
 43
0.0
 38
2500.0
 10
9.93749597
 20
8.54545025
 10
6.75122202
 20
7.92131269
 42
-0.0063851
 10
6.34487143
 20
7.8470905
  0
ARC
  5
8D
100
AcDbEntity
  8
MST_1_1
 62
   251
  6
CONTINUOUS
100
AcDbCircle
 10
3.64209713
 20
23.79365285
 30
2500.0
 40
16.17398651
100
AcDbArc
 50
274.21680449
 51
278.53995004
  0
LWPOLYLINE
  5
8E
100
AcDbEntity
  8
MST_1_1
 62
   137
  6
CONTINUOUS
100
AcDbPolyline
 90
        6
 70
     0
 43
0.0
 38
2500.0
 10
7.09428505
 20
9.42332308
 10
7.02321025
 20
9.11630988
 10
7.6358604
 20
7.79419949
 10
7.70383049
 20
8.1079127
 10
7.09428505
 20
9.42332308
 10
7.62412578
 20
7.81952303
  0
LINE
  5
8F
100
AcDbEntity
  8
MST_1_1
 62
   137
  6
CONTINUOUS
100
AcDbLine
 10
-2.06250403
 20
-21.45454975
 30
0.0
 11
-2.06250403
 21
-18.95454975
 31
0.0
  0
LINE
  5
90
100
AcDbEntity
  8
MST_1_1
 62
   137
  6
CONTINUOUS
100
AcDbLine
 10
-2.06250403
 20
-18.95454975
 30
0.0
 11
-1.98750405
 21
-18.95454975
 31
0.0
  0
LINE
  5
91
100
AcDbEntity
  8
MST_1_1
 62
   137
  6
CONTINUOUS
100
AcDbLine
 10
-1.98750405
 20
-18.95454975
 30
0.0
 11
-0.16250403
 21
-20.52883546
 31
0.0
  0
LINE
  5
92
100
AcDbEntity
  8
MST_1_1
 62
   137
  6
CONTINUOUS
100
AcDbLine
 10
-0.16250403
 20
-22.38026403
 30
0.0
 11
-1.98750405
 21
-23.95454975
 31
0.0
  0
LINE
  5
93
100
AcDbEntity
  8
MST_1_1
 62
   137
  6
CONTINUOUS
100
AcDbLine
 10
-1.98750405
 20
-23.95454975
 30
0.0
 11
-2.06250403
 21
-23.95454975
 31
0.0
  0
LINE
  5
94
100
AcDbEntity
  8
MST_1_1
 62
   137
  6
CONTINUOUS
100
AcDbLine
 10
-2.06250403
 20
-23.95454975
 30
0.0
 11
-2.06250403
 21
-21.45454975
 31
0.0
  0
CIRCLE
  5
95
100
AcDbEntity
  8
MST_1_1
 62
   137
  6
CONTINUOUS
100
AcDbCircle
 10
-88.82751486
 20
8.54545025
 30
0.0
 40
1.35306095
  0
CIRCLE
  5
96
100
AcDbEntity
  8
MST_1_1
 62
   137
  6
CONTINUOUS
100
AcDbCircle
 10
-88.82751486
 20
8.54545025
 30
0.0
 40
0.75749598
  0
CIRCLE
  5
97
100
AcDbEntity
  8
MST_1_1
 62
   137
  6
CONTINUOUS
100
AcDbCircle
 10
-88.82751486
 20
8.54545025
 30
0.0
 40
1.35306095
  0
CIRCLE
  5
98
100
AcDbEntity
  8
MST_1_1
 62
   137
  6
CONTINUOUS
100
AcDbCircle
 10
-88.82751486
 20
8.54545025
 30
0.0
 40
0.75749598
  0
CIRCLE
  5
99
100
AcDbEntity
  8
MST_1_1
 62
   137
  6
CONTINUOUS
100
AcDbCircle
 10
-88.82751486
 20
8.54545025
 30
0.0
 40
1.35306095
  0
CIRCLE
  5
9A
100
AcDbEntity
  8
MST_1_1
 62
   137
  6
CONTINUOUS
100
AcDbCircle
 10
-88.82751486
 20
8.54545025
 30
0.0
 40
0.75749598
  0
CIRCLE
  5
9B
100
AcDbEntity
  8
MST_1_1
 62
   137
  6
CONTINUOUS
100
AcDbCircle
 10
-88.82751486
 20
8.54545025
 30
0.0
 40
1.13877524
  0
CIRCLE
  5
9C
100
AcDbEntity
  8
MST_1_1
 62
   137
  6
CONTINUOUS
100
AcDbCircle
 10
-88.82751486
 20
8.54545025
 30
0.0
 40
1.42448952
  0
CIRCLE
  5
9D
100
AcDbEntity
  8
MST_1_1
 62
   137
  6
CONTINUOUS
100
AcDbCircle
 10
-88.82751486
 20
8.54545025
 30
0.0
 40
0.80357143
  0
CIRCLE
  5
9E
100
AcDbEntity
  8
MST_1_1
 62
   137
  6
CONTINUOUS
100
AcDbCircle
 10
-88.82751486
 20
8.54545025
 30
0.0
 40
2.5
  0
ARC
  5
9F
100
AcDbEntity
  8
MST_1_1
 62
   137
  6
CONTINUOUS
100
AcDbCircle
 10
-89.80751484
 20
8.54545025
 30
0.0
 40
0.21642857
100
AcDbArc
 50
104.00039951
 51
255.99961051
  0
ARC
  5
A0
100
AcDbEntity
  8
MST_1_1
 62
   137
  6
CONTINUOUS
100
AcDbCircle
 10
-89.97231311
 20
7.88450065
 30
0.0
 40
0.46475631
100
AcDbArc
 50
344.00042282
 51
75.99958535
  0
ARC
  5
A1
100
AcDbEntity
  8
MST_1_1
 62
   137
  6
CONTINUOUS
100
AcDbCircle
 10
-89.31751484
 20
7.69674536
 30
0.0
 40
0.21642857
100
AcDbArc
 50
164.00040911
 51
315.99959504
  0
ARC
  5
A2
100
AcDbEntity
  8
MST_1_1
 62
   137
  6
CONTINUOUS
100
AcDbCircle
 10
-88.82751486
 20
7.22355114
 30
0.0
 40
0.46475625
100
AcDbArc
 50
44.00040429
 51
135.99959571
  0
ARC
  5
A3
100
AcDbEntity
  8
MST_1_1
 62
   137
  6
CONTINUOUS
100
AcDbCircle
 10
-88.33751486
 20
7.69674533
 30
0.0
 40
0.21642856
100
AcDbArc
 50
224.00041508
 51
15.9996008
  0
ARC
  5
A4
100
AcDbEntity
  8
MST_1_1
 62
   137
  6
CONTINUOUS
100
AcDbCircle
 10
-87.84751487
 20
8.54545025
 30
0.0
 40
0.21642857
100
AcDbArc
 50
284.00040953
 51
75.99960049
  0
ARC
  5
A5
100
AcDbEntity
  8
MST_1_1
 62
   137
  6
CONTINUOUS
100
AcDbCircle
 10
-87.6827166
 20
9.20639985
 30
0.0
 40
0.46475631
100
AcDbArc
 50
164.00041281
 51
255.99959537
  0
ARC
  5
A6
100
AcDbEntity
  8
MST_1_1
 62
   137
  6
CONTINUOUS
100
AcDbCircle
 10
-88.33751488
 20
9.39415514
 30
0.0
 40
0.21642857
100
AcDbArc
 50
344.00041913
 51
135.99958502
  0
ARC
  5
A7
100
AcDbEntity
  8
MST_1_1
 62
   137
  6
CONTINUOUS
100
AcDbCircle
 10
-88.82751486
 20
9.86734936
 30
0.0
 40
0.46475625
100
AcDbArc
 50
224.00041431
 51
315.99960573
  0
ARC
  5
A8
100
AcDbEntity
  8
MST_1_1
 62
   137
  6
CONTINUOUS
100
AcDbCircle
 10
-89.31751486
 20
9.39415518
 30
0.0
 40
0.21642856
100
AcDbArc
 50
44.00040506
 51
195.99961082
  0
ARC
  5
A9
100
AcDbEntity
  8
MST_1_1
 62
   137
  6
CONTINUOUS
100
AcDbCircle
 10
-89.97231311
 20
9.20639985
 30
0.0
 40
0.46475631
100
AcDbArc
 50
284.00042461
 51
15.99958726
  0
LWPOLYLINE
  5
AA
100
AcDbEntity
  8
MST_1_1
 62
   137
  6
CONTINUOUS
100
AcDbPolyline
 90
        9
 70
     0
 43
0.0
 10
-89.74927907
 20
6.94183302
 10
-89.74280338
 20
6.9483087
 10
-89.73632312
 20
6.95478905
 10
-89.72983837
 20
6.96127371
 10
-89.72334905
 20
6.96776304
 10
-89.71685532
 20
6.97425685
 10
-89.71035702
 20
6.98075515
 10
-89.70385431
 20
6.98725778
 10
-89.69734719
 20
6.9937649
  0
ARC
  5
AB
100
AcDbEntity
  8
MST_1_1
 62
   137
  6
CONTINUOUS
100
AcDbCircle
 10
-89.58866481
 20
7.08426454
 30
0.0
 40
0.14142859
100
AcDbArc
 50
50.21591721
 51
219.78410477
  0
LWPOLYLINE
  5
AC
100
AcDbEntity
  8
MST_1_1
 62
   137
  6
CONTINUOUS
100
AcDbPolyline
 90
        9
 70
     0
 43
0.0
 10
-89.49816519
 20
7.19294694
 10
-89.49168572
 20
7.19942645
 10
-89.4852028
 20
7.20590937
 10
-89.47871643
 20
7.2123957
 10
-89.47222657
 20
7.21888552
 10
-89.46573334
 20
7.22537883
 10
-89.4592367
 20
7.23187547
 10
-89.45273665
 20
7.23837544
 10
-89.44623327
 20
7.24487882
  0
LWPOLYLINE
  5
AD
100
AcDbEntity
  8
MST_1_1
 62
   137
  6
CONTINUOUS
100
AcDbPolyline
 90
        9
 70
     0
 43
0.0
 10
-89.44623327
 20
7.24487882
 10
-89.48505433
 20
7.28369992
 10
-89.52391264
 20
7.32255819
 10
-89.56280351
 20
7.36144905
 10
-89.60172198
 20
7.40036753
 10
-89.64066341
 20
7.43930895
 10
-89.67962287
 20
7.47826842
 10
-89.71859565
 20
7.51724119
 10
-89.75757682
 20
7.55622236
  0
LWPOLYLINE
  5
AE
100
AcDbEntity
  8
MST_1_1
 62
   137
  6
CONTINUOUS
100
AcDbPolyline
 90
        9
 70
     0
 43
0.0
 10
-89.75757682
 20
7.55622236
 10
-89.75987827
 20
7.553921
 10
-89.76217922
 20
7.55161997
 10
-89.76447983
 20
7.54931943
 10
-89.76678003
 20
7.54701923
 10
-89.76907973
 20
7.54471945
 10
-89.7713791
 20
7.54242016
 10
-89.77367797
 20
7.54012121
 10
-89.77597651
 20
7.53782276
  0
LWPOLYLINE
  5
AF
100
AcDbEntity
  8
MST_1_1
 62
   137
  6
CONTINUOUS
100
AcDbPolyline
 90
       25
 70
     0
 43
0.0
 10
-89.77597651
 20
7.53782273
 10
-89.7778996
 20
7.54078487
 10
-89.77987373
 20
7.54370771
 10
-89.78189837
 20
7.54659073
 10
-89.783973
 20
7.54943338
 10
-89.78609707
 20
7.55223513
 10
-89.78827006
 20
7.55499546
 10
-89.79049144
 20
7.55771382
 10
-89.79276066
 20
7.56038968
 10
-89.79507721
 20
7.56302251
 10
-89.79744055
 20
7.56561178
 10
-89.79985015
 20
7.56815695
 10
-89.80230547
 20
7.5706575
 10
-89.80480599
 20
7.57311287
 10
-89.80735117
 20
7.57552255
 10
-89.80994048
 20
7.577886
 10
-89.81257338
 20
7.58020268
 10
-89.81524936
 20
7.58247207
 10
-89.81796787
 20
7.58469362
 10
-89.82072838
 20
7.58686681
 10
-89.82353037
 20
7.5889911
 10
-89.82637329
 20
7.59106595
 10
-89.82925662
 20
7.59309084
 10
-89.83217983
 20
7.59506524
 10
-89.83514238
 20
7.5969886
  0
LWPOLYLINE
  5
B0
100
AcDbEntity
  8
MST_1_1
 62
   137
  6
CONTINUOUS
100
AcDbPolyline
 90
        9
 70
     0
 43
0.0
 10
-89.83514235
 20
7.5969886
 10
-89.8328439
 20
7.59928714
 10
-89.83054494
 20
7.60158601
 10
-89.82824566
 20
7.60388537
 10
-89.82594587
 20
7.60618508
 10
-89.82364567
 20
7.60848528
 10
-89.82134514
 20
7.61078589
 10
-89.81904411
 20
7.61308684
 10
-89.81674274
 20
7.61538829
  0
LWPOLYLINE
  5
B1
100
AcDbEntity
  8
MST_1_1
 62
   137
  6
CONTINUOUS
100
AcDbPolyline
 90
        9
 70
     0
 43
0.0
 10
-89.81674274
 20
7.61538829
 10
-89.85572392
 20
7.65436946
 10
-89.89469669
 20
7.69334223
 10
-89.93365616
 20
7.7323017
 10
-89.97259758
 20
7.77124313
 10
-90.01151605
 20
7.8101616
 10
-90.05040692
 20
7.84905247
 10
-90.08926519
 20
7.88791078
 10
-90.12808629
 20
7.92673184
  0
LWPOLYLINE
  5
B2
100
AcDbEntity
  8
MST_1_1
 62
   137
  6
CONTINUOUS
100
AcDbPolyline
 90
        9
 70
     0
 43
0.0
 10
-90.12808629
 20
7.92673184
 10
-90.13458967
 20
7.92022846
 10
-90.14108963
 20
7.91372841
 10
-90.14758627
 20
7.90723177
 10
-90.15407959
 20
7.90073854
 10
-90.16056941
 20
7.89424868
 10
-90.16705574
 20
7.88776231
 10
-90.17353866
 20
7.88127939
 10
-90.18001817
 20
7.87479992
  0
ARC
  5
B3
100
AcDbEntity
  8
MST_1_1
 62
   137
  6
CONTINUOUS
100
AcDbCircle
 10
-90.28870058
 20
7.78430031
 30
0.0
 40
0.14142859
100
AcDbArc
 50
230.21591956
 51
39.7840785
  0
LWPOLYLINE
  5
B4
100
AcDbEntity
  8
MST_1_1
 62
   137
  6
CONTINUOUS
100
AcDbPolyline
 90
        9
 70
     0
 43
0.0
 10
-90.37920021
 20
7.67561792
 10
-90.38570733
 20
7.6691108
 10
-90.39220996
 20
7.66260809
 10
-90.39870826
 20
7.65610979
 10
-90.40520207
 20
7.64961606
 10
-90.4116914
 20
7.64312673
 10
-90.41817606
 20
7.63664199
 10
-90.4246564
 20
7.63016173
 10
-90.43113209
 20
7.62368604
  0
LWPOLYLINE
  5
B5
100
AcDbEntity
  8
MST_1_1
 62
   137
  6
CONTINUOUS
100
AcDbPolyline
 90
        9
 70
     0
 43
0.0
 10
-90.43113209
 20
7.62368604
 10
-90.39231656
 20
7.58487068
 10
-90.35346178
 20
7.54601582
 10
-90.31457258
 20
7.50712653
 10
-90.27565394
 20
7.46820797
 10
-90.23671118
 20
7.42926522
 10
-90.1977493
 20
7.39030334
 10
-90.15877337
 20
7.35132741
 10
-90.11978846
 20
7.31234249
  0
LWPOLYLINE
  5
B6
100
AcDbEntity
  8
MST_1_1
 62
   137
  6
CONTINUOUS
100
AcDbPolyline
 90
        9
 70
     0
 43
0.0
 10
-90.11978846
 20
7.31234249
 10
-90.1174905
 20
7.31464045
 10
-90.11519196
 20
7.31693899
 10
-90.11289285
 20
7.3192381
 10
-90.11059314
 20
7.32153781
 10
-90.10829294
 20
7.32383801
 10
-90.10599216
 20
7.32613887
 10
-90.10369071
 20
7.32844024
 10
-90.10138877
 20
7.33074218
  0
LWPOLYLINE
  5
B7
100
AcDbEntity
  8
MST_1_1
 62
   137
  6
CONTINUOUS
100
AcDbPolyline
 90
       25
 70
     0
 43
0.0
 10
-90.1013888
 20
7.33074218
 10
-90.09946586
 20
7.32778028
 10
-90.09749182
 20
7.32485762
 10
-90.09546724
 20
7.32197474
 10
-90.09339264
 20
7.31913218
 10
-90.09126856
 20
7.31633048
 10
-90.08909553
 20
7.31357017
 10
-90.0868741
 20
7.31085179
 10
-90.08460479
 20
7.30817588
 10
-90.08228815
 20
7.30554298
 10
-90.07992471
 20
7.30295363
 10
-90.07751501
 20
7.30040837
 10
-90.07505958
 20
7.29790772
 10
-90.07255896
 20
7.29545223
 10
-90.07001368
 20
7.29304245
 10
-90.06742429
 20
7.2906789
 10
-90.06479131
 20
7.28836212
 10
-90.06211529
 20
7.28609265
 10
-90.05939677
 20
7.28387104
 10
-90.05663626
 20
7.28169781
 10
-90.05383433
 20
7.2795735
 10
-90.05099149
 20
7.27749867
 10
-90.04810828
 20
7.27547383
 10
-90.04518525
 20
7.27349953
 10
-90.04222293
 20
7.27157631
  0
LWPOLYLINE
  5
B8
100
AcDbEntity
  8
MST_1_1
 62
   137
  6
CONTINUOUS
100
AcDbPolyline
 90
        9
 70
     0
 43
0.0
 10
-90.04222292
 20
7.27157634
 10
-90.04452487
 20
7.26927439
 10
-90.04682624
 20
7.26697295
 10
-90.0491271
 20
7.26467216
 10
-90.0514273
 20
7.26237196
 10
-90.053727
 20
7.26007226
 10
-90.05602612
 20
7.25777314
 10
-90.05832466
 20
7.25547461
 10
-90.06062262
 20
7.25317665
  0
LWPOLYLINE
  5
B9
100
AcDbEntity
  8
MST_1_1
 62
   137
  6
CONTINUOUS
100
AcDbPolyline
 90
        9
 70
     0
 43
0.0
 10
-90.06062262
 20
7.25317665
 10
-90.0216377
 20
7.21419174
 10
-89.98266177
 20
7.1752158
 10
-89.94369989
 20
7.13625392
 10
-89.90475713
 20
7.09731117
 10
-89.86583858
 20
7.05839253
 10
-89.82694929
 20
7.01950333
 10
-89.78809443
 20
6.98064855
 10
-89.74927907
 20
6.94183302
  0
CIRCLE
  5
BA
100
AcDbEntity
  8
MST_1_1
 62
   137
  6
CONTINUOUS
100
AcDbCircle
 10
-88.82751486
 20
8.54545025
 30
0.0
 40
2.34514473
  0
ARC
  5
BB
100
AcDbEntity
  8
MST_1_1
 62
   137
  6
CONTINUOUS
100
AcDbCircle
 10
-87.6827166
 20
7.88450065
 30
0.0
 40
0.46475631
100
AcDbArc
 50
104.00041459
 51
195.99959727
  0
LWPOLYLINE
  5
BC
100
AcDbEntity
  8
MST_1_1
 62
   137
  6
CONTINUOUS
100
AcDbPolyline
 90
        9
 70
     0
 43
0.0
 10
-89.89657122
 20
7.6224858
 10
-89.92208988
 20
7.64800445
 10
-89.94760321
 20
7.67351779
 10
-89.97310998
 20
7.69902455
 10
-89.99860876
 20
7.72452333
 10
-90.02409822
 20
7.7500128
 10
-90.04957696
 20
7.77549162
 10
-90.07504373
 20
7.80095839
 10
-90.10049711
 20
7.82641177
  0
ARC
  5
BD
100
AcDbEntity
  8
MST_1_1
 62
   137
  6
CONTINUOUS
100
AcDbCircle
 10
-89.93868274
 20
7.43428292
 30
0.0
 40
0.19285669
100
AcDbArc
 50
77.38747914
 51
127.33780242
  0
LINE
  5
BE
100
AcDbEntity
  8
MST_1_1
 62
   137
  6
CONTINUOUS
100
AcDbLine
 10
-89.78534695
 20
7.31731226
 30
0.0
 11
-90.05565285
 21
7.58761816
 31
0.0
  0
ARC
  5
BF
100
AcDbEntity
  8
MST_1_1
 62
   137
  6
CONTINUOUS
100
AcDbCircle
 10
-89.93868227
 20
7.43428239
 30
0.0
 40
0.19285677
100
AcDbArc
 50
322.66221884
 51
12.61250962
  0
LWPOLYLINE
  5
C0
100
AcDbEntity
  8
MST_1_1
 62
   137
  6
CONTINUOUS
100
AcDbPolyline
 90
        9
 70
     0
 43
0.0
 10
-89.54655334
 20
7.272468
 10
-89.57200672
 20
7.29792138
 10
-89.59747349
 20
7.32338814
 10
-89.62295231
 20
7.34886689
 10
-89.64844178
 20
7.37435635
 10
-89.67394056
 20
7.39985513
 10
-89.69944732
 20
7.4253619
 10
-89.72496065
 20
7.45087523
 10
-89.75047931
 20
7.47639388
  0
ARC
  5
C1
100
AcDbEntity
  8
MST_1_1
 62
   137
  6
CONTINUOUS
100
AcDbCircle
 10
-89.58866473
 20
7.08426458
 30
0.0
 40
0.19285719
100
AcDbArc
 50
77.38755048
 51
192.61243885
  0
LWPOLYLINE
  5
C2
100
AcDbEntity
  8
MST_1_1
 62
   137
  6
CONTINUOUS
100
AcDbPolyline
 90
        9
 70
     0
 43
0.0
 10
-89.98079405
 20
7.24607906
 10
-89.95527423
 20
7.22055924
 10
-89.9297599
 20
7.19504491
 10
-89.90425247
 20
7.16953748
 10
-89.87875328
 20
7.14403828
 10
-89.85326389
 20
7.11854898
 10
-89.82778565
 20
7.09307066
 10
-89.80231988
 20
7.06760497
 10
-89.77686817
 20
7.04215326
  0
ARC
  5
C3
100
AcDbEntity
  8
MST_1_1
 62
   137
  6
CONTINUOUS
100
AcDbCircle
 10
-89.93868278
 20
7.43428305
 30
0.0
 40
0.19285773
100
AcDbArc
 50
257.38763285
 51
307.33766874
  0
LWPOLYLINE
  5
C4
100
AcDbEntity
  8
MST_1_1
 62
   137
  6
CONTINUOUS
100
AcDbPolyline
 90
        9
 70
     0
 43
0.0
 10
-90.09201841
 20
7.55125268
 10
-90.05824142
 20
7.51747577
 10
-90.02445479
 20
7.48368913
 10
-89.99066175
 20
7.44989601
 10
-89.95686538
 20
7.41609973
 10
-89.9230691
 20
7.38230336
 10
-89.88927598
 20
7.34851032
 10
-89.85548934
 20
7.31472368
 10
-89.82171243
 20
7.28094669
  0
ARC
  5
C5
100
AcDbEntity
  8
MST_1_1
 62
   137
  6
CONTINUOUS
100
AcDbCircle
 10
-89.93868259
 20
7.43428244
 30
0.0
 40
0.19285723
100
AcDbArc
 50
142.662273
 51
192.61245546
  0
LWPOLYLINE
  5
C6
100
AcDbEntity
  8
MST_1_1
 62
   137
  6
CONTINUOUS
100
AcDbPolyline
 90
        9
 70
     0
 43
0.0
 10
-90.33081185
 20
7.59609694
 10
-90.30536014
 20
7.57064522
 10
-90.27989445
 20
7.54517946
 10
-90.25441612
 20
7.51970121
 10
-90.22892682
 20
7.49421183
 10
-90.20342763
 20
7.46871263
 10
-90.1779202
 20
7.44320521
 10
-90.15240587
 20
7.41769087
 10
-90.12688605
 20
7.39217106
  0
ARC
  5
C7
100
AcDbEntity
  8
MST_1_1
 62
   137
  6
CONTINUOUS
100
AcDbCircle
 10
-90.28870035
 20
7.78430019
 30
0.0
 40
0.19285706
100
AcDbArc
 50
257.38751638
 51
12.61251432
  0
LWPOLYLINE
  5
C8
100
AcDbEntity
  8
MST_1_1
 62
   137
  6
CONTINUOUS
100
AcDbPolyline
 90
        9
 70
     0
 43
0.0
 10
-89.99547602
 20
7.56380682
 10
-89.97218996
 20
7.54052076
 10
-89.94890074
 20
7.51723155
 10
-89.92560953
 20
7.49394025
 10
-89.90231715
 20
7.47064796
 10
-89.87902486
 20
7.44735558
 10
-89.85573356
 20
7.42406436
 10
-89.83244434
 20
7.40077515
 10
-89.80915829
 20
7.37748909
  0
ARC
  5
C9
100
AcDbEntity
  8
MST_1_1
 62
   137
  6
CONTINUOUS
100
AcDbCircle
 10
-89.9386827
 20
7.43428241
 30
0.0
 40
0.14142862
100
AcDbArc
 50
336.32372311
 51
113.6762869
  0
LWPOLYLINE
  5
CA
100
AcDbEntity
  8
MST_1_1
 62
   137
  6
CONTINUOUS
100
AcDbPolyline
 90
        9
 70
     0
 43
0.0
 10
-89.88188926
 20
7.30475812
 10
-89.90517532
 20
7.32804409
 10
-89.92846445
 20
7.35133331
 10
-89.95175575
 20
7.37462461
 10
-89.97504812
 20
7.39791698
 10
-89.9983405
 20
7.42120936
 10
-90.0216318
 20
7.44450066
 10
-90.04492102
 20
7.46778979
 10
-90.06820699
 20
7.49107585
  0
ARC
  5
CB
100
AcDbEntity
  8
MST_1_1
 62
   137
  6
CONTINUOUS
100
AcDbCircle
 10
-89.93868261
 20
7.4342825
 30
0.0
 40
0.1414286
100
AcDbArc
 50
156.32369345
 51
293.67631657
  0
CIRCLE
  5
CC
100
AcDbEntity
  8
MST_1_1
 62
   137
  6
CONTINUOUS
100
AcDbCircle
 10
-88.82751486
 20
-21.45454975
 30
0.0
 40
1.35306095
  0
CIRCLE
  5
CD
100
AcDbEntity
  8
MST_1_1
 62
   137
  6
CONTINUOUS
100
AcDbCircle
 10
-88.82751486
 20
-21.45454975
 30
0.0
 40
0.75749598
  0
CIRCLE
  5
CE
100
AcDbEntity
  8
MST_1_1
 62
   137
  6
CONTINUOUS
100
AcDbCircle
 10
-88.82751486
 20
-21.45454975
 30
0.0
 40
1.35306095
  0
CIRCLE
  5
CF
100
AcDbEntity
  8
MST_1_1
 62
   137
  6
CONTINUOUS
100
AcDbCircle
 10
-88.82751486
 20
-21.45454975
 30
0.0
 40
0.75749598
  0
CIRCLE
  5
D0
100
AcDbEntity
  8
MST_1_1
 62
   137
  6
CONTINUOUS
100
AcDbCircle
 10
-88.82751486
 20
-21.45454975
 30
0.0
 40
1.35306095
  0
CIRCLE
  5
D1
100
AcDbEntity
  8
MST_1_1
 62
   137
  6
CONTINUOUS
100
AcDbCircle
 10
-88.82751486
 20
-21.45454975
 30
0.0
 40
0.75749598
  0
CIRCLE
  5
D2
100
AcDbEntity
  8
MST_1_1
 62
   137
  6
CONTINUOUS
100
AcDbCircle
 10
-88.82751486
 20
-21.45454975
 30
0.0
 40
1.13877524
  0
CIRCLE
  5
D3
100
AcDbEntity
  8
MST_1_1
 62
   137
  6
CONTINUOUS
100
AcDbCircle
 10
-88.82751486
 20
-21.45454975
 30
0.0
 40
1.42448952
  0
CIRCLE
  5
D4
100
AcDbEntity
  8
MST_1_1
 62
   137
  6
CONTINUOUS
100
AcDbCircle
 10
-88.82751486
 20
-21.45454975
 30
0.0
 40
0.80357143
  0
CIRCLE
  5
D5
100
AcDbEntity
  8
MST_1_1
 62
   137
  6
CONTINUOUS
100
AcDbCircle
 10
-88.82751486
 20
-21.45454975
 30
0.0
 40
2.5
  0
ARC
  5
D6
100
AcDbEntity
  8
MST_1_1
 62
   137
  6
CONTINUOUS
100
AcDbCircle
 10
-89.80751484
 20
-21.45454975
 30
0.0
 40
0.21642857
100
AcDbArc
 50
104.00039951
 51
255.99961051
  0
ARC
  5
D7
100
AcDbEntity
  8
MST_1_1
 62
   137
  6
CONTINUOUS
100
AcDbCircle
 10
-89.97231311
 20
-22.11549935
 30
0.0
 40
0.46475631
100
AcDbArc
 50
344.00042282
 51
75.99958535
  0
ARC
  5
D8
100
AcDbEntity
  8
MST_1_1
 62
   137
  6
CONTINUOUS
100
AcDbCircle
 10
-89.31751484
 20
-22.30325464
 30
0.0
 40
0.21642857
100
AcDbArc
 50
164.00040911
 51
315.99959504
  0
ARC
  5
D9
100
AcDbEntity
  8
MST_1_1
 62
   137
  6
CONTINUOUS
100
AcDbCircle
 10
-88.82751486
 20
-22.77644886
 30
0.0
 40
0.46475625
100
AcDbArc
 50
44.00040429
 51
135.99959571
  0
ARC
  5
DA
100
AcDbEntity
  8
MST_1_1
 62
   137
  6
CONTINUOUS
100
AcDbCircle
 10
-88.33751486
 20
-22.30325467
 30
0.0
 40
0.21642856
100
AcDbArc
 50
224.00041508
 51
15.9996008
  0
ARC
  5
DB
100
AcDbEntity
  8
MST_1_1
 62
   137
  6
CONTINUOUS
100
AcDbCircle
 10
-87.84751487
 20
-21.45454975
 30
0.0
 40
0.21642857
100
AcDbArc
 50
284.00040953
 51
75.99960049
  0
ARC
  5
DC
100
AcDbEntity
  8
MST_1_1
 62
   137
  6
CONTINUOUS
100
AcDbCircle
 10
-87.6827166
 20
-20.79360015
 30
0.0
 40
0.46475631
100
AcDbArc
 50
164.00041281
 51
255.99959537
  0
ARC
  5
DD
100
AcDbEntity
  8
MST_1_1
 62
   137
  6
CONTINUOUS
100
AcDbCircle
 10
-88.33751488
 20
-20.60584486
 30
0.0
 40
0.21642857
100
AcDbArc
 50
344.00041913
 51
135.99958502
  0
ARC
  5
DE
100
AcDbEntity
  8
MST_1_1
 62
   137
  6
CONTINUOUS
100
AcDbCircle
 10
-88.82751486
 20
-20.13265064
 30
0.0
 40
0.46475625
100
AcDbArc
 50
224.00041431
 51
315.99960573
  0
ARC
  5
DF
100
AcDbEntity
  8
MST_1_1
 62
   137
  6
CONTINUOUS
100
AcDbCircle
 10
-89.31751486
 20
-20.60584482
 30
0.0
 40
0.21642856
100
AcDbArc
 50
44.00040506
 51
195.99961082
  0
ARC
  5
E0
100
AcDbEntity
  8
MST_1_1
 62
   137
  6
CONTINUOUS
100
AcDbCircle
 10
-89.97231311
 20
-20.79360015
 30
0.0
 40
0.46475631
100
AcDbArc
 50
284.00042461
 51
15.99958726
  0
LWPOLYLINE
  5
E1
100
AcDbEntity
  8
MST_1_1
 62
   137
  6
CONTINUOUS
100
AcDbPolyline
 90
        9
 70
     0
 43
0.0
 10
-89.74927907
 20
-23.05816698
 10
-89.74280338
 20
-23.0516913
 10
-89.73632312
 20
-23.04521095
 10
-89.72983837
 20
-23.03872629
 10
-89.72334905
 20
-23.03223696
 10
-89.71685532
 20
-23.02574315
 10
-89.71035702
 20
-23.01924485
 10
-89.70385431
 20
-23.01274222
 10
-89.69734719
 20
-23.0062351
  0
ARC
  5
E2
100
AcDbEntity
  8
MST_1_1
 62
   137
  6
CONTINUOUS
100
AcDbCircle
 10
-89.58866481
 20
-22.91573546
 30
0.0
 40
0.14142859
100
AcDbArc
 50
50.21591721
 51
219.78410477
  0
LWPOLYLINE
  5
E3
100
AcDbEntity
  8
MST_1_1
 62
   137
  6
CONTINUOUS
100
AcDbPolyline
 90
        9
 70
     0
 43
0.0
 10
-89.49816519
 20
-22.80705306
 10
-89.49168572
 20
-22.80057355
 10
-89.4852028
 20
-22.79409063
 10
-89.47871643
 20
-22.7876043
 10
-89.47222657
 20
-22.78111448
 10
-89.46573334
 20
-22.77462117
 10
-89.4592367
 20
-22.76812453
 10
-89.45273665
 20
-22.76162456
 10
-89.44623327
 20
-22.75512118
  0
LWPOLYLINE
  5
E4
100
AcDbEntity
  8
MST_1_1
 62
   137
  6
CONTINUOUS
100
AcDbPolyline
 90
        9
 70
     0
 43
0.0
 10
-89.44623327
 20
-22.75512118
 10
-89.48505433
 20
-22.71630008
 10
-89.52391264
 20
-22.67744181
 10
-89.56280351
 20
-22.63855095
 10
-89.60172198
 20
-22.59963247
 10
-89.64066341
 20
-22.56069105
 10
-89.67962287
 20
-22.52173158
 10
-89.71859565
 20
-22.48275881
 10
-89.75757682
 20
-22.44377764
  0
LWPOLYLINE
  5
E5
100
AcDbEntity
  8
MST_1_1
 62
   137
  6
CONTINUOUS
100
AcDbPolyline
 90
        9
 70
     0
 43
0.0
 10
-89.75757682
 20
-22.44377764
 10
-89.75987827
 20
-22.446079
 10
-89.76217922
 20
-22.44838003
 10
-89.76447983
 20
-22.45068057
 10
-89.76678003
 20
-22.45298077
 10
-89.76907973
 20
-22.45528055
 10
-89.7713791
 20
-22.45757984
 10
-89.77367797
 20
-22.45987879
 10
-89.77597651
 20
-22.46217724
  0
LWPOLYLINE
  5
E6
100
AcDbEntity
  8
MST_1_1
 62
   137
  6
CONTINUOUS
100
AcDbPolyline
 90
       25
 70
     0
 43
0.0
 10
-89.77597651
 20
-22.46217727
 10
-89.7778996
 20
-22.45921513
 10
-89.77987373
 20
-22.45629229
 10
-89.78189837
 20
-22.45340927
 10
-89.783973
 20
-22.45056662
 10
-89.78609707
 20
-22.44776487
 10
-89.78827006
 20
-22.44500454
 10
-89.79049144
 20
-22.44228618
 10
-89.79276066
 20
-22.43961032
 10
-89.79507721
 20
-22.43697749
 10
-89.79744055
 20
-22.43438822
 10
-89.79985015
 20
-22.43184305
 10
-89.80230547
 20
-22.4293425
 10
-89.80480599
 20
-22.42688713
 10
-89.80735117
 20
-22.42447745
 10
-89.80994048
 20
-22.422114
 10
-89.81257338
 20
-22.41979732
 10
-89.81524936
 20
-22.41752793
 10
-89.81796787
 20
-22.41530638
 10
-89.82072838
 20
-22.41313319
 10
-89.82353037
 20
-22.4110089
 10
-89.82637329
 20
-22.40893405
 10
-89.82925662
 20
-22.40690916
 10
-89.83217983
 20
-22.40493476
 10
-89.83514238
 20
-22.4030114
  0
LWPOLYLINE
  5
E7
100
AcDbEntity
  8
MST_1_1
 62
   137
  6
CONTINUOUS
100
AcDbPolyline
 90
        9
 70
     0
 43
0.0
 10
-89.83514235
 20
-22.4030114
 10
-89.8328439
 20
-22.40071286
 10
-89.83054494
 20
-22.39841399
 10
-89.82824566
 20
-22.39611463
 10
-89.82594587
 20
-22.39381492
 10
-89.82364567
 20
-22.39151472
 10
-89.82134514
 20
-22.38921411
 10
-89.81904411
 20
-22.38691316
 10
-89.81674274
 20
-22.38461171
  0
LWPOLYLINE
  5
E8
100
AcDbEntity
  8
MST_1_1
 62
   137
  6
CONTINUOUS
100
AcDbPolyline
 90
        9
 70
     0
 43
0.0
 10
-89.81674274
 20
-22.38461171
 10
-89.85572392
 20
-22.34563054
 10
-89.89469669
 20
-22.30665777
 10
-89.93365616
 20
-22.2676983
 10
-89.97259758
 20
-22.22875687
 10
-90.01151605
 20
-22.1898384
 10
-90.05040692
 20
-22.15094753
 10
-90.08926519
 20
-22.11208922
 10
-90.12808629
 20
-22.07326816
  0
LWPOLYLINE
  5
E9
100
AcDbEntity
  8
MST_1_1
 62
   137
  6
CONTINUOUS
100
AcDbPolyline
 90
        9
 70
     0
 43
0.0
 10
-90.12808629
 20
-22.07326816
 10
-90.13458967
 20
-22.07977154
 10
-90.14108963
 20
-22.08627159
 10
-90.14758627
 20
-22.09276823
 10
-90.15407959
 20
-22.09926146
 10
-90.16056941
 20
-22.10575132
 10
-90.16705574
 20
-22.11223769
 10
-90.17353866
 20
-22.11872061
 10
-90.18001817
 20
-22.12520008
  0
ARC
  5
EA
100
AcDbEntity
  8
MST_1_1
 62
   137
  6
CONTINUOUS
100
AcDbCircle
 10
-90.28870058
 20
-22.21569969
 30
0.0
 40
0.14142859
100
AcDbArc
 50
230.21591956
 51
39.7840785
  0
LWPOLYLINE
  5
EB
100
AcDbEntity
  8
MST_1_1
 62
   137
  6
CONTINUOUS
100
AcDbPolyline
 90
        9
 70
     0
 43
0.0
 10
-90.37920021
 20
-22.32438208
 10
-90.38570733
 20
-22.3308892
 10
-90.39220996
 20
-22.33739191
 10
-90.39870826
 20
-22.34389021
 10
-90.40520207
 20
-22.35038394
 10
-90.4116914
 20
-22.35687327
 10
-90.41817606
 20
-22.36335801
 10
-90.4246564
 20
-22.36983827
 10
-90.43113209
 20
-22.37631396
  0
LWPOLYLINE
  5
EC
100
AcDbEntity
  8
MST_1_1
 62
   137
  6
CONTINUOUS
100
AcDbPolyline
 90
        9
 70
     0
 43
0.0
 10
-90.43113209
 20
-22.37631396
 10
-90.39231656
 20
-22.41512932
 10
-90.35346178
 20
-22.45398418
 10
-90.31457258
 20
-22.49287347
 10
-90.27565394
 20
-22.53179203
 10
-90.23671118
 20
-22.57073478
 10
-90.1977493
 20
-22.60969666
 10
-90.15877337
 20
-22.64867259
 10
-90.11978846
 20
-22.68765751
  0
LWPOLYLINE
  5
ED
100
AcDbEntity
  8
MST_1_1
 62
   137
  6
CONTINUOUS
100
AcDbPolyline
 90
        9
 70
     0
 43
0.0
 10
-90.11978846
 20
-22.68765751
 10
-90.1174905
 20
-22.68535955
 10
-90.11519196
 20
-22.68306101
 10
-90.11289285
 20
-22.6807619
 10
-90.11059314
 20
-22.67846219
 10
-90.10829294
 20
-22.67616199
 10
-90.10599216
 20
-22.67386113
 10
-90.10369071
 20
-22.67155976
 10
-90.10138877
 20
-22.66925782
  0
LWPOLYLINE
  5
EE
100
AcDbEntity
  8
MST_1_1
 62
   137
  6
CONTINUOUS
100
AcDbPolyline
 90
       25
 70
     0
 43
0.0
 10
-90.1013888
 20
-22.66925782
 10
-90.09946586
 20
-22.67221972
 10
-90.09749182
 20
-22.67514238
 10
-90.09546724
 20
-22.67802526
 10
-90.09339264
 20
-22.68086782
 10
-90.09126856
 20
-22.68366952
 10
-90.08909553
 20
-22.68642983
 10
-90.0868741
 20
-22.68914821
 10
-90.08460479
 20
-22.69182412
 10
-90.08228815
 20
-22.69445702
 10
-90.07992471
 20
-22.69704637
 10
-90.07751501
 20
-22.69959163
 10
-90.07505958
 20
-22.70209228
 10
-90.07255896
 20
-22.70454777
 10
-90.07001368
 20
-22.70695755
 10
-90.06742429
 20
-22.7093211
 10
-90.06479131
 20
-22.71163788
 10
-90.06211529
 20
-22.71390735
 10
-90.05939677
 20
-22.71612896
 10
-90.05663626
 20
-22.71830219
 10
-90.05383433
 20
-22.7204265
 10
-90.05099149
 20
-22.72250133
 10
-90.04810828
 20
-22.72452617
 10
-90.04518525
 20
-22.72650047
 10
-90.04222293
 20
-22.72842369
  0
LWPOLYLINE
  5
EF
100
AcDbEntity
  8
MST_1_1
 62
   137
  6
CONTINUOUS
100
AcDbPolyline
 90
        9
 70
     0
 43
0.0
 10
-90.04222292
 20
-22.72842366
 10
-90.04452487
 20
-22.73072561
 10
-90.04682624
 20
-22.73302705
 10
-90.0491271
 20
-22.73532784
 10
-90.0514273
 20
-22.73762804
 10
-90.053727
 20
-22.73992774
 10
-90.05602612
 20
-22.74222686
 10
-90.05832466
 20
-22.74452539
 10
-90.06062262
 20
-22.74682335
  0
LWPOLYLINE
  5
F0
100
AcDbEntity
  8
MST_1_1
 62
   137
  6
CONTINUOUS
100
AcDbPolyline
 90
        9
 70
     0
 43
0.0
 10
-90.06062262
 20
-22.74682335
 10
-90.0216377
 20
-22.78580826
 10
-89.98266177
 20
-22.8247842
 10
-89.94369989
 20
-22.86374608
 10
-89.90475713
 20
-22.90268883
 10
-89.86583858
 20
-22.94160747
 10
-89.82694929
 20
-22.98049667
 10
-89.78809443
 20
-23.01935145
 10
-89.74927907
 20
-23.05816698
  0
CIRCLE
  5
F1
100
AcDbEntity
  8
MST_1_1
 62
   137
  6
CONTINUOUS
100
AcDbCircle
 10
-88.82751486
 20
-21.45454975
 30
0.0
 40
2.34514473
  0
ARC
  5
F2
100
AcDbEntity
  8
MST_1_1
 62
   137
  6
CONTINUOUS
100
AcDbCircle
 10
-87.6827166
 20
-22.11549935
 30
0.0
 40
0.46475631
100
AcDbArc
 50
104.00041459
 51
195.99959727
  0
LWPOLYLINE
  5
F3
100
AcDbEntity
  8
MST_1_1
 62
   137
  6
CONTINUOUS
100
AcDbPolyline
 90
        9
 70
     0
 43
0.0
 10
-89.89657122
 20
-22.3775142
 10
-89.92208988
 20
-22.35199555
 10
-89.94760321
 20
-22.32648221
 10
-89.97310998
 20
-22.30097545
 10
-89.99860876
 20
-22.27547667
 10
-90.02409822
 20
-22.2499872
 10
-90.04957696
 20
-22.22450838
 10
-90.07504373
 20
-22.19904161
 10
-90.10049711
 20
-22.17358823
  0
ARC
  5
F4
100
AcDbEntity
  8
MST_1_1
 62
   137
  6
CONTINUOUS
100
AcDbCircle
 10
-89.93868274
 20
-22.56571708
 30
0.0
 40
0.19285669
100
AcDbArc
 50
77.38747914
 51
127.33780242
  0
LINE
  5
F5
100
AcDbEntity
  8
MST_1_1
 62
   137
  6
CONTINUOUS
100
AcDbLine
 10
-89.78534695
 20
-22.68268774
 30
0.0
 11
-90.05565285
 21
-22.41238184
 31
0.0
  0
ARC
  5
F6
100
AcDbEntity
  8
MST_1_1
 62
   137
  6
CONTINUOUS
100
AcDbCircle
 10
-89.93868227
 20
-22.56571761
 30
0.0
 40
0.19285677
100
AcDbArc
 50
322.66221884
 51
12.61250962
  0
LWPOLYLINE
  5
F7
100
AcDbEntity
  8
MST_1_1
 62
   137
  6
CONTINUOUS
100
AcDbPolyline
 90
        9
 70
     0
 43
0.0
 10
-89.54655334
 20
-22.727532
 10
-89.57200672
 20
-22.70207862
 10
-89.59747349
 20
-22.67661186
 10
-89.62295231
 20
-22.65113311
 10
-89.64844178
 20
-22.62564365
 10
-89.67394056
 20
-22.60014487
 10
-89.69944732
 20
-22.5746381
 10
-89.72496065
 20
-22.54912477
 10
-89.75047931
 20
-22.52360612
  0
ARC
  5
F8
100
AcDbEntity
  8
MST_1_1
 62
   137
  6
CONTINUOUS
100
AcDbCircle
 10
-89.58866473
 20
-22.91573542
 30
0.0
 40
0.19285719
100
AcDbArc
 50
77.38755048
 51
192.61243885
  0
LWPOLYLINE
  5
F9
100
AcDbEntity
  8
MST_1_1
 62
   137
  6
CONTINUOUS
100
AcDbPolyline
 90
        9
 70
     0
 43
0.0
 10
-89.98079405
 20
-22.75392094
 10
-89.95527423
 20
-22.77944076
 10
-89.9297599
 20
-22.80495509
 10
-89.90425247
 20
-22.83046252
 10
-89.87875328
 20
-22.85596172
 10
-89.85326389
 20
-22.88145102
 10
-89.82778565
 20
-22.90692934
 10
-89.80231988
 20
-22.93239503
 10
-89.77686817
 20
-22.95784674
  0
ARC
  5
FA
100
AcDbEntity
  8
MST_1_1
 62
   137
  6
CONTINUOUS
100
AcDbCircle
 10
-89.93868278
 20
-22.56571695
 30
0.0
 40
0.19285773
100
AcDbArc
 50
257.38763285
 51
307.33766874
  0
LWPOLYLINE
  5
FB
100
AcDbEntity
  8
MST_1_1
 62
   137
  6
CONTINUOUS
100
AcDbPolyline
 90
        9
 70
     0
 43
0.0
 10
-90.09201841
 20
-22.44874732
 10
-90.05824142
 20
-22.48252423
 10
-90.02445479
 20
-22.51631087
 10
-89.99066175
 20
-22.55010399
 10
-89.95686538
 20
-22.58390027
 10
-89.9230691
 20
-22.61769664
 10
-89.88927598
 20
-22.65148968
 10
-89.85548934
 20
-22.68527632
 10
-89.82171243
 20
-22.71905331
  0
ARC
  5
FC
100
AcDbEntity
  8
MST_1_1
 62
   137
  6
CONTINUOUS
100
AcDbCircle
 10
-89.93868259
 20
-22.56571756
 30
0.0
 40
0.19285723
100
AcDbArc
 50
142.662273
 51
192.61245546
  0
LWPOLYLINE
  5
FD
100
AcDbEntity
  8
MST_1_1
 62
   137
  6
CONTINUOUS
100
AcDbPolyline
 90
        9
 70
     0
 43
0.0
 10
-90.33081185
 20
-22.40390306
 10
-90.30536014
 20
-22.42935478
 10
-90.27989445
 20
-22.45482054
 10
-90.25441612
 20
-22.48029879
 10
-90.22892682
 20
-22.50578817
 10
-90.20342763
 20
-22.53128737
 10
-90.1779202
 20
-22.55679479
 10
-90.15240587
 20
-22.58230913
 10
-90.12688605
 20
-22.60782894
  0
ARC
  5
FE
100
AcDbEntity
  8
MST_1_1
 62
   137
  6
CONTINUOUS
100
AcDbCircle
 10
-90.28870035
 20
-22.21569981
 30
0.0
 40
0.19285706
100
AcDbArc
 50
257.38751638
 51
12.61251432
  0
LWPOLYLINE
  5
FF
100
AcDbEntity
  8
MST_1_1
 62
   137
  6
CONTINUOUS
100
AcDbPolyline
 90
        9
 70
     0
 43
0.0
 10
-89.99547602
 20
-22.43619318
 10
-89.97218996
 20
-22.45947924
 10
-89.94890074
 20
-22.48276845
 10
-89.92560953
 20
-22.50605975
 10
-89.90231715
 20
-22.52935204
 10
-89.87902486
 20
-22.55264442
 10
-89.85573356
 20
-22.57593564
 10
-89.83244434
 20
-22.59922485
 10
-89.80915829
 20
-22.62251091
  0
ARC
  5
100
100
AcDbEntity
  8
MST_1_1
 62
   137
  6
CONTINUOUS
100
AcDbCircle
 10
-89.9386827
 20
-22.56571759
 30
0.0
 40
0.14142862
100
AcDbArc
 50
336.32372311
 51
113.6762869
  0
LWPOLYLINE
  5
101
100
AcDbEntity
  8
MST_1_1
 62
   137
  6
CONTINUOUS
100
AcDbPolyline
 90
        9
 70
     0
 43
0.0
 10
-89.88188926
 20
-22.69524188
 10
-89.90517532
 20
-22.67195591
 10
-89.92846445
 20
-22.64866669
 10
-89.95175575
 20
-22.62537539
 10
-89.97504812
 20
-22.60208302
 10
-89.9983405
 20
-22.57879064
 10
-90.0216318
 20
-22.55549934
 10
-90.04492102
 20
-22.53221021
 10
-90.06820699
 20
-22.50892415
  0
ARC
  5
102
100
AcDbEntity
  8
MST_1_1
 62
   137
  6
CONTINUOUS
100
AcDbCircle
 10
-89.93868261
 20
-22.5657175
 30
0.0
 40
0.1414286
100
AcDbArc
 50
156.32369345
 51
293.67631657
  0
MTEXT
  5
103
100
AcDbEntity
  8
MST_1_1
 62
     4
100
AcDbMText
 10
-124.56011475
 20
169.95900578
 30
2500.0
 11
1.0
 21
0.0
 31
0.0
 40
20.0
 41
316.1838307
 71
     1
 72
     1
  1
\fTahoma|b0|i0|c0|p18;\H20;\W0.80000001;\C7;Spanplattenschrauben Senkkopf\PHECO-FIX-plus 3k mm\P35.301
  0
LWPOLYLINE
  5
104
102
{ACAD_REACTORS
330
105
102
}
100
AcDbEntity
  8
MST_1_1
 62
    12
100
AcDbPolyline
 90
       46
 70
     1
 43
0.0
 10
282.32248012
 20
180.52475578
 10
282.19165878
 20
180.53539411
 10
282.06750945
 20
180.56618244
 10
281.95170412
 20
180.61543078
 10
281.84591478
 20
180.68144911
 10
281.75181345
 20
180.76254744
 10
281.67107212
 20
180.85703578
 10
281.60536278
 20
180.96322411
 10
281.55635745
 20
181.07942244
 10
281.52572812
 20
181.20394078
 10
281.51514678
 20
181.33508911
 10
281.51514678
 20
181.33508911
 10
281.52572812
 20
181.46630128
 10
281.55635745
 20
181.59090644
 10
281.60536278
 20
181.70720761
 10
281.67107212
 20
181.81350778
 10
281.75181345
 20
181.90810994
 10
281.84591478
 20
181.98931711
 10
281.95170412
 20
182.05543228
 10
282.06750945
 20
182.10475844
 10
282.19165878
 20
182.13559861
 10
282.32248012
 20
182.14625578
 10
282.32248012
 20
182.14625578
 10
282.45313478
 20
182.13559861
 10
282.57717745
 20
182.10475844
 10
282.69292612
 20
182.05543228
 10
282.79869878
 20
181.98931711
 10
282.89281345
 20
181.90810994
 10
282.97358812
 20
181.81350778
 10
283.03934078
 20
181.70720761
 10
283.08838945
 20
181.59090644
 10
283.11905212
 20
181.46630128
 10
283.12964678
 20
181.33508911
 10
283.12964678
 20
181.33508911
 10
283.11905212
 20
181.20394078
 10
283.08838945
 20
181.07942244
 10
283.03934078
 20
180.96322411
 10
282.97358812
 20
180.85703578
 10
282.89281345
 20
180.76254744
 10
282.79869878
 20
180.68144911
 10
282.69292612
 20
180.61543078
 10
282.57717745
 20
180.56618244
 10
282.45313478
 20
180.53539411
 10
282.32248012
 20
180.52475578
 10
282.32248012
 20
180.52475578
 10
282.32248012
 20
180.52475578
  0
HATCH
  5
105
100
AcDbEntity
  8
MST_1_1
 62
    12
100
AcDbHatch
 10
0.0
 20
0.0
 30
0.0
210
0.0
220
0.0
230
1.0
  2
SOLID
 70
     1
 71
     1
 91
        1
 92
        7
 72
     0
 73
     1
 93
       40
 10
282.32248012
 20
180.52475578
 10
282.19165878
 20
180.53539411
 10
282.06750945
 20
180.56618244
 10
281.95170412
 20
180.61543078
 10
281.84591478
 20
180.68144911
 10
281.75181345
 20
180.76254744
 10
281.67107212
 20
180.85703578
 10
281.60536278
 20
180.96322411
 10
281.55635745
 20
181.07942244
 10
281.52572812
 20
181.20394078
 10
281.51514678
 20
181.33508911
 10
281.52572812
 20
181.46630128
 10
281.55635745
 20
181.59090644
 10
281.60536278
 20
181.70720761
 10
281.67107212
 20
181.81350778
 10
281.75181345
 20
181.90810994
 10
281.84591478
 20
181.98931711
 10
281.95170412
 20
182.05543228
 10
282.06750945
 20
182.10475844
 10
282.19165878
 20
182.13559861
 10
282.32248012
 20
182.14625578
 10
282.45313478
 20
182.13559861
 10
282.57717745
 20
182.10475844
 10
282.69292612
 20
182.05543228
 10
282.79869878
 20
181.98931711
 10
282.89281345
 20
181.90810994
 10
282.97358812
 20
181.81350778
 10
283.03934078
 20
181.70720761
 10
283.08838945
 20
181.59090644
 10
283.11905212
 20
181.46630128
 10
283.12964678
 20
181.33508911
 10
283.11905212
 20
181.20394078
 10
283.08838945
 20
181.07942244
 10
283.03934078
 20
180.96322411
 10
282.97358812
 20
180.85703578
 10
282.89281345
 20
180.76254744
 10
282.79869878
 20
180.68144911
 10
282.69292612
 20
180.61543078
 10
282.57717745
 20
180.56618244
 10
282.45313478
 20
180.53539411
 97
        1
330
104
 75
     0
 76
     2
 47
0.775229
 98
        1
 10
0.0
 20
0.0
  0
LWPOLYLINE
  5
106
102
{ACAD_REACTORS
330
107
102
}
100
AcDbEntity
  8
MST_1_1
 62
    12
100
AcDbPolyline
 90
        8
 70
     1
 43
0.0
 10
214.85748012
 20
179.95900578
 10
280.82531345
 20
179.95900578
 10
280.82531345
 20
179.95900578
 10
280.82531345
 20
163.37775578
 10
280.82531345
 20
163.37775578
 10
214.85748012
 20
163.37775578
 10
214.85748012
 20
163.37775578
 10
214.85748012
 20
179.95900578
  0
HATCH
  5
107
100
AcDbEntity
  8
MST_1_1
 62
    12
100
AcDbHatch
 10
0.0
 20
0.0
 30
0.0
210
0.0
220
0.0
230
1.0
  2
SOLID
 70
     1
 71
     1
 91
        1
 92
        7
 72
     0
 73
     1
 93
        4
 10
214.85748012
 20
179.95900578
 10
280.82531345
 20
179.95900578
 10
280.82531345
 20
163.37775578
 10
214.85748012
 20
163.37775578
 97
        1
330
106
 75
     0
 76
     2
 47
0.775229
 98
        1
 10
0.0
 20
0.0
  0
LINE
  5
108
100
AcDbEntity
  8
MST_1_1
100
AcDbLine
 10
214.85748012
 20
163.37775578
 30
0.0
 11
214.85748012
 21
163.37775578
 31
0.0
  0
LINE
  5
109
100
AcDbEntity
  8
MST_1_1
100
AcDbLine
 10
214.85748012
 20
163.37775578
 30
0.0
 11
214.85748012
 21
163.37775578
 31
0.0
  0
LINE
  5
10A
100
AcDbEntity
  8
MST_1_1
100
AcDbLine
 10
214.85748012
 20
163.37775578
 30
0.0
 11
214.85748012
 21
163.37775578
 31
0.0
  0
LINE
  5
10B
100
AcDbEntity
  8
MST_1_1
100
AcDbLine
 10
214.85748012
 20
163.37775578
 30
0.0
 11
214.85748012
 21
163.37775578
 31
0.0
  0
LINE
  5
10C
100
AcDbEntity
  8
MST_1_1
100
AcDbLine
 10
214.85748012
 20
163.37775578
 30
0.0
 11
214.85748012
 21
163.37775578
 31
0.0
  0
LINE
  5
10D
100
AcDbEntity
  8
MST_1_1
100
AcDbLine
 10
214.85748012
 20
163.37775578
 30
0.0
 11
214.85748012
 21
163.37775578
 31
0.0
  0
LINE
  5
10E
100
AcDbEntity
  8
MST_1_1
100
AcDbLine
 10
214.85748012
 20
163.37775578
 30
0.0
 11
214.85748012
 21
163.37775578
 31
0.0
  0
LINE
  5
10F
100
AcDbEntity
  8
MST_1_1
100
AcDbLine
 10
214.85748012
 20
163.37775578
 30
0.0
 11
214.85748012
 21
163.37775578
 31
0.0
  0
LINE
  5
110
100
AcDbEntity
  8
MST_1_1
100
AcDbLine
 10
214.85748012
 20
163.37775578
 30
0.0
 11
214.85748012
 21
163.37775578
 31
0.0
  0
LINE
  5
111
100
AcDbEntity
  8
MST_1_1
100
AcDbLine
 10
214.85748012
 20
163.37775578
 30
0.0
 11
214.85748012
 21
163.37775578
 31
0.0
  0
LINE
  5
112
100
AcDbEntity
  8
MST_1_1
100
AcDbLine
 10
214.85748012
 20
163.37775578
 30
0.0
 11
214.85748012
 21
163.37775578
 31
0.0
  0
LWPOLYLINE
  5
113
102
{ACAD_REACTORS
330
114
102
}
100
AcDbEntity
  8
MST_1_1
 62
   190
100
AcDbPolyline
 90
        8
 70
     1
 43
0.0
 10
247.66398012
 20
178.80933911
 10
279.67881345
 20
178.80933911
 10
279.67881345
 20
178.80933911
 10
279.67881345
 20
164.52558744
 10
279.67881345
 20
164.52558744
 10
247.66398012
 20
164.52558744
 10
247.66398012
 20
164.52558744
 10
247.66398012
 20
178.80933911
  0
HATCH
  5
114
100
AcDbEntity
  8
MST_1_1
 62
   190
100
AcDbHatch
 10
0.0
 20
0.0
 30
0.0
210
0.0
220
0.0
230
1.0
  2
SOLID
 70
     1
 71
     1
 91
        1
 92
        7
 72
     0
 73
     1
 93
        4
 10
247.66398012
 20
178.80933911
 10
279.67881345
 20
178.80933911
 10
279.67881345
 20
164.52558744
 10
247.66398012
 20
164.52558744
 97
        1
330
113
 75
     0
 76
     2
 47
0.775229
 98
        1
 10
0.0
 20
0.0
  0
LWPOLYLINE
  5
115
102
{ACAD_REACTORS
330
116
102
}
100
AcDbEntity
  8
MST_1_1
 62
    12
100
AcDbPolyline
 90
       22
 70
     1
 43
0.0
 10
249.58181345
 20
166.81885578
 10
249.58181345
 20
175.90537244
 10
249.58181345
 20
175.90537244
 10
257.76114678
 20
175.90537244
 10
257.76114678
 20
175.90537244
 10
257.76114678
 20
173.44102244
 10
257.76114678
 20
173.44102244
 10
253.98514678
 20
173.44102244
 10
253.98514678
 20
173.44102244
 10
253.98514678
 20
172.38640578
 10
253.98514678
 20
172.38640578
 10
257.40281345
 20
172.38640578
 10
257.40281345
 20
172.38640578
 10
257.40281345
 20
170.05860578
 10
257.40281345
 20
170.05860578
 10
253.98514678
 20
170.05860578
 10
253.98514678
 20
170.05860578
 10
253.98514678
 20
166.81885578
 10
253.98514678
 20
166.81885578
 10
249.58181345
 20
166.81885578
 10
249.58181345
 20
166.81885578
 10
249.58181345
 20
166.81885578
  0
HATCH
  5
116
100
AcDbEntity
  8
MST_1_1
 62
    12
100
AcDbHatch
 10
0.0
 20
0.0
 30
0.0
210
0.0
220
0.0
230
1.0
  2
SOLID
 70
     1
 71
     1
 91
        1
 92
        7
 72
     0
 73
     1
 93
       10
 10
249.58181345
 20
166.81885578
 10
249.58181345
 20
175.90537244
 10
257.76114678
 20
175.90537244
 10
257.76114678
 20
173.44102244
 10
253.98514678
 20
173.44102244
 10
253.98514678
 20
172.38640578
 10
257.40281345
 20
172.38640578
 10
257.40281345
 20
170.05860578
 10
253.98514678
 20
170.05860578
 10
253.98514678
 20
166.81885578
 97
        1
330
115
 75
     0
 76
     2
 47
0.775229
 98
        1
 10
0.0
 20
0.0
  0
LWPOLYLINE
  5
117
102
{ACAD_REACTORS
330
118
102
}
100
AcDbEntity
  8
MST_1_1
 62
   190
100
AcDbPolyline
 90
      178
 70
     1
 43
0.0
 10
245.80648012
 20
171.34400578
 10
245.80290812
 20
171.14583906
 10
245.79220412
 20
170.95037204
 10
245.77438612
 20
170.75762443
 10
245.74947212
 20
170.56761591
 10
245.71748012
 20
170.38036619
 10
245.67842812
 20
170.19589498
 10
245.63233412
 20
170.01422196
 10
245.57921612
 20
169.83536684
 10
245.51909212
 20
169.65934933
 10
245.45198012
 20
169.48618911
 10
245.45198012
 20
169.48618911
 10
245.37824712
 20
169.31571524
 10
245.29785612
 20
169.14896818
 10
245.21081912
 20
168.98593971
 10
245.11714812
 20
168.82662164
 10
245.01685512
 20
168.67100578
 10
244.90995212
 20
168.51908391
 10
244.79645112
 20
168.37084784
 10
244.67636412
 20
168.22628938
 10
244.54970312
 20
168.08540031
 10
244.41648012
 20
167.94817244
 10
244.41648012
 20
167.94817244
 10
244.27774145
 20
167.81839166
 10
244.13483078
 20
167.69482418
 10
243.98775612
 20
167.57747729
 10
243.83652545
 20
167.46635831
 10
243.68114678
 20
167.36147453
 10
243.52162812
 20
167.26283324
 10
243.35797745
 20
167.17044176
 10
243.19020278
 20
167.08430738
 10
243.01831212
 20
167.00443739
 10
242.84231345
 20
166.93083911
 10
242.84231345
 20
166.93083911
 10
242.66326545
 20
166.86384098
 10
242.48174945
 20
166.80378404
 10
242.29780745
 20
166.75069451
 10
242.11148145
 20
166.70459858
 10
241.92281345
 20
166.66552244
 10
241.73184545
 20
166.63349231
 10
241.53861945
 20
166.60853438
 10
241.34317745
 20
166.59067484
 10
241.14556145
 20
166.57993991
 10
240.94581345
 20
166.57635578
 10
240.94581345
 20
166.57635578
 10
240.74389312
 20
166.57993991
 10
240.54445078
 20
166.59067484
 10
240.34751445
 20
166.60853438
 10
240.15311212
 20
166.63349231
 10
239.96127178
 20
166.66552244
 10
239.77202145
 20
166.70459858
 10
239.58538912
 20
166.75069451
 10
239.40140278
 20
166.80378404
 10
239.22009045
 20
166.86384098
 10
239.04148012
 20
166.93083911
 10
239.04148012
 20
166.93083911
 10
238.86555362
 20
167.00455474
 10
238.69366812
 20
167.08477818
 10
238.52581462
 20
167.17150421
 10
238.36198412
 20
167.26472764
 10
238.20216762
 20
167.36444328
 10
238.04635612
 20
167.47064591
 10
237.89454062
 20
167.58333034
 10
237.74671212
 20
167.70249138
 10
237.60286162
 20
167.82812381
 10
237.46298012
 20
167.96022244
 10
237.46298012
 20
167.96022244
 10
237.33142128
 20
168.09399733
 10
237.20626945
 20
168.23174151
 10
237.08756162
 20
168.37343929
 10
236.97533478
 20
168.51907498
 10
236.86962595
 20
168.66863286
 10
236.77047212
 20
168.82209724
 10
236.67791028
 20
168.97945243
 10
236.59197745
 20
169.14068271
 10
236.51271062
 20
169.30577239
 10
236.44014678
 20
169.47470578
 10
236.44014678
 20
169.47470578
 10
236.37432895
 20
169.64782843
 10
236.31538412
 20
169.82403298
 10
236.26332528
 20
170.00331433
 10
236.21816545
 20
170.18566738
 10
236.17991762
 20
170.37108703
 10
236.14859478
 20
170.55956818
 10
236.12420995
 20
170.75110573
 10
236.10677612
 20
170.94569458
 10
236.09630628
 20
171.14332963
 10
236.09281345
 20
171.34400578
 10
236.09281345
 20
171.34400578
 10
236.09630628
 20
171.54467781
 10
236.10677612
 20
171.74240004
 10
236.12420995
 20
171.93718168
 10
236.14859478
 20
172.12903191
 10
236.17991762
 20
172.31795994
 10
236.21816545
 20
172.50397498
 10
236.26332528
 20
172.68708621
 10
236.31538412
 20
172.86730284
 10
236.37432895
 20
173.04463408
 10
236.44014678
 20
173.21908911
 10
236.44014678
 20
173.21908911
 10
236.51271062
 20
173.38915556
 10
236.59197745
 20
173.55532871
 10
236.67791028
 20
173.71756926
 10
236.77047212
 20
173.87583791
 10
236.86962595
 20
174.03009536
 10
236.97533478
 20
174.18030231
 10
237.08756162
 20
174.32641946
 10
237.20626945
 20
174.46840751
 10
237.33142128
 20
174.60622716
 10
237.46298012
 20
174.73983911
 10
237.46298012
 20
174.73983911
 10
237.60178395
 20
174.87023094
 10
237.74461078
 20
174.99435378
 10
237.89148362
 20
175.11218861
 10
238.04242545
 20
175.22371644
 10
238.19745928
 20
175.32891828
 10
238.35660812
 20
175.42777511
 10
238.51989495
 20
175.52026794
 10
238.68734278
 20
175.60637778
 10
238.85897462
 20
175.68608561
 10
239.03481345
 20
175.75937244
 10
239.03481345
 20
175.75937244
 10
239.21372745
 20
175.82640403
 10
239.39536545
 20
175.88630111
 10
239.57972145
 20
175.93908219
 10
239.76678945
 20
175.98476578
 10
239.95656345
 20
176.02337036
 10
240.14903745
 20
176.05491444
 10
240.34420545
 20
176.07941653
 10
240.54206145
 20
176.09689511
 10
240.74259945
 20
176.10736869
 10
240.94581345
 20
176.11085578
 10
240.94581345
 20
176.11085578
 10
241.14918512
 20
176.10736869
 10
241.34988678
 20
176.09689511
 10
241.54789845
 20
176.07941653
 10
241.74320012
 20
176.05491444
 10
241.93577178
 20
176.02337036
 10
242.12559345
 20
175.98476578
 10
242.31264512
 20
175.93908219
 10
242.49690678
 20
175.88630111
 10
242.67835845
 20
175.82640403
 10
242.85698012
 20
175.75937244
 10
242.85698012
 20
175.75937244
 10
243.03298278
 20
175.68608561
 10
243.20490145
 20
175.60637778
 10
243.37275212
 20
175.52026794
 10
243.53655078
 20
175.42777511
 10
243.69631345
 20
175.32891828
 10
243.85205612
 20
175.22371644
 10
244.00379478
 20
175.11218861
 10
244.15154545
 20
174.99435378
 10
244.29532412
 20
174.87023094
 10
244.43514678
 20
174.73983911
 10
244.43514678
 20
174.73983911
 10
244.56549162
 20
174.60506459
 10
244.68960545
 20
174.46623698
 10
244.80745728
 20
174.32338016
 10
244.91901612
 20
174.17651804
 10
245.02425095
 20
174.02567453
 10
245.12313078
 20
173.87087351
 10
245.21562462
 20
173.71213889
 10
245.30170145
 20
173.54949458
 10
245.38133028
 20
173.38296446
 10
245.45448012
 20
173.21257244
 10
245.45448012
 20
173.21257244
 10
245.52152212
 20
173.03828053
 10
245.58145612
 20
172.86120311
 10
245.63429412
 20
172.68133769
 10
245.68004812
 20
172.49868178
 10
245.71873012
 20
172.31323286
 10
245.75035212
 20
172.12498844
 10
245.77492612
 20
171.93394603
 10
245.79246412
 20
171.74010311
 10
245.80297812
 20
171.54345719
 10
245.80648012
 20
171.34400578
 10
245.80648012
 20
171.34400578
 10
245.80648012
 20
171.34400578
  0
HATCH
  5
118
100
AcDbEntity
  8
MST_1_1
 62
   190
100
AcDbHatch
 10
0.0
 20
0.0
 30
0.0
210
0.0
220
0.0
230
1.0
  2
SOLID
 70
     1
 71
     1
 91
        1
 92
        7
 72
     0
 73
     1
 93
      160
 10
245.80648012
 20
171.34400578
 10
245.80290812
 20
171.14583906
 10
245.79220412
 20
170.95037204
 10
245.77438612
 20
170.75762443
 10
245.74947212
 20
170.56761591
 10
245.71748012
 20
170.38036619
 10
245.67842812
 20
170.19589498
 10
245.63233412
 20
170.01422196
 10
245.57921612
 20
169.83536684
 10
245.51909212
 20
169.65934933
 10
245.45198012
 20
169.48618911
 10
245.37824712
 20
169.31571524
 10
245.29785612
 20
169.14896818
 10
245.21081912
 20
168.98593971
 10
245.11714812
 20
168.82662164
 10
245.01685512
 20
168.67100578
 10
244.90995212
 20
168.51908391
 10
244.79645112
 20
168.37084784
 10
244.67636412
 20
168.22628938
 10
244.54970312
 20
168.08540031
 10
244.41648012
 20
167.94817244
 10
244.27774145
 20
167.81839166
 10
244.13483078
 20
167.69482418
 10
243.98775612
 20
167.57747729
 10
243.83652545
 20
167.46635831
 10
243.68114678
 20
167.36147453
 10
243.52162812
 20
167.26283324
 10
243.35797745
 20
167.17044176
 10
243.19020278
 20
167.08430738
 10
243.01831212
 20
167.00443739
 10
242.84231345
 20
166.93083911
 10
242.66326545
 20
166.86384098
 10
242.48174945
 20
166.80378404
 10
242.29780745
 20
166.75069451
 10
242.11148145
 20
166.70459858
 10
241.92281345
 20
166.66552244
 10
241.73184545
 20
166.63349231
 10
241.53861945
 20
166.60853438
 10
241.34317745
 20
166.59067484
 10
241.14556145
 20
166.57993991
 10
240.94581345
 20
166.57635578
 10
240.74389312
 20
166.57993991
 10
240.54445078
 20
166.59067484
 10
240.34751445
 20
166.60853438
 10
240.15311212
 20
166.63349231
 10
239.96127178
 20
166.66552244
 10
239.77202145
 20
166.70459858
 10
239.58538912
 20
166.75069451
 10
239.40140278
 20
166.80378404
 10
239.22009045
 20
166.86384098
 10
239.04148012
 20
166.93083911
 10
238.86555362
 20
167.00455474
 10
238.69366812
 20
167.08477818
 10
238.52581462
 20
167.17150421
 10
238.36198412
 20
167.26472764
 10
238.20216762
 20
167.36444328
 10
238.04635612
 20
167.47064591
 10
237.89454062
 20
167.58333034
 10
237.74671212
 20
167.70249138
 10
237.60286162
 20
167.82812381
 10
237.46298012
 20
167.96022244
 10
237.33142128
 20
168.09399733
 10
237.20626945
 20
168.23174151
 10
237.08756162
 20
168.37343929
 10
236.97533478
 20
168.51907498
 10
236.86962595
 20
168.66863286
 10
236.77047212
 20
168.82209724
 10
236.67791028
 20
168.97945243
 10
236.59197745
 20
169.14068271
 10
236.51271062
 20
169.30577239
 10
236.44014678
 20
169.47470578
 10
236.37432895
 20
169.64782843
 10
236.31538412
 20
169.82403298
 10
236.26332528
 20
170.00331433
 10
236.21816545
 20
170.18566738
 10
236.17991762
 20
170.37108703
 10
236.14859478
 20
170.55956818
 10
236.12420995
 20
170.75110573
 10
236.10677612
 20
170.94569458
 10
236.09630628
 20
171.14332963
 10
236.09281345
 20
171.34400578
 10
236.09630628
 20
171.54467781
 10
236.10677612
 20
171.74240004
 10
236.12420995
 20
171.93718168
 10
236.14859478
 20
172.12903191
 10
236.17991762
 20
172.31795994
 10
236.21816545
 20
172.50397498
 10
236.26332528
 20
172.68708621
 10
236.31538412
 20
172.86730284
 10
236.37432895
 20
173.04463408
 10
236.44014678
 20
173.21908911
 10
236.51271062
 20
173.38915556
 10
236.59197745
 20
173.55532871
 10
236.67791028
 20
173.71756926
 10
236.77047212
 20
173.87583791
 10
236.86962595
 20
174.03009536
 10
236.97533478
 20
174.18030231
 10
237.08756162
 20
174.32641946
 10
237.20626945
 20
174.46840751
 10
237.33142128
 20
174.60622716
 10
237.46298012
 20
174.73983911
 10
237.60178395
 20
174.87023094
 10
237.74461078
 20
174.99435378
 10
237.89148362
 20
175.11218861
 10
238.04242545
 20
175.22371644
 10
238.19745928
 20
175.32891828
 10
238.35660812
 20
175.42777511
 10
238.51989495
 20
175.52026794
 10
238.68734278
 20
175.60637778
 10
238.85897462
 20
175.68608561
 10
239.03481345
 20
175.75937244
 10
239.21372745
 20
175.82640403
 10
239.39536545
 20
175.88630111
 10
239.57972145
 20
175.93908219
 10
239.76678945
 20
175.98476578
 10
239.95656345
 20
176.02337036
 10
240.14903745
 20
176.05491444
 10
240.34420545
 20
176.07941653
 10
240.54206145
 20
176.09689511
 10
240.74259945
 20
176.10736869
 10
240.94581345
 20
176.11085578
 10
241.14918512
 20
176.10736869
 10
241.34988678
 20
176.09689511
 10
241.54789845
 20
176.07941653
 10
241.74320012
 20
176.05491444
 10
241.93577178
 20
176.02337036
 10
242.12559345
 20
175.98476578
 10
242.31264512
 20
175.93908219
 10
242.49690678
 20
175.88630111
 10
242.67835845
 20
175.82640403
 10
242.85698012
 20
175.75937244
 10
243.03298278
 20
175.68608561
 10
243.20490145
 20
175.60637778
 10
243.37275212
 20
175.52026794
 10
243.53655078
 20
175.42777511
 10
243.69631345
 20
175.32891828
 10
243.85205612
 20
175.22371644
 10
244.00379478
 20
175.11218861
 10
244.15154545
 20
174.99435378
 10
244.29532412
 20
174.87023094
 10
244.43514678
 20
174.73983911
 10
244.56549162
 20
174.60506459
 10
244.68960545
 20
174.46623698
 10
244.80745728
 20
174.32338016
 10
244.91901612
 20
174.17651804
 10
245.02425095
 20
174.02567453
 10
245.12313078
 20
173.87087351
 10
245.21562462
 20
173.71213889
 10
245.30170145
 20
173.54949458
 10
245.38133028
 20
173.38296446
 10
245.45448012
 20
173.21257244
 10
245.52152212
 20
173.03828053
 10
245.58145612
 20
172.86120311
 10
245.63429412
 20
172.68133769
 10
245.68004812
 20
172.49868178
 10
245.71873012
 20
172.31323286
 10
245.75035212
 20
172.12498844
 10
245.77492612
 20
171.93394603
 10
245.79246412
 20
171.74010311
 10
245.80297812
 20
171.54345719
 97
        1
330
117
 75
     0
 76
     2
 47
0.775229
 98
        1
 10
0.0
 20
0.0
  0
LWPOLYLINE
  5
119
102
{ACAD_REACTORS
330
11A
102
}
100
AcDbEntity
  8
MST_1_1
 62
    12
100
AcDbPolyline
 90
       90
 70
     1
 43
0.0
 10
240.94581345
 20
169.62982244
 10
241.08103062
 20
169.63455776
 10
241.21079078
 20
169.64874098
 10
241.33510695
 20
169.67233799
 10
241.45399212
 20
169.70531471
 10
241.56745928
 20
169.74763703
 10
241.67552145
 20
169.79927084
 10
241.77819162
 20
169.86018206
 10
241.87548278
 20
169.93033658
 10
241.96740795
 20
170.00970029
 10
242.05398012
 20
170.09823911
 10
242.05398012
 20
170.09823911
 10
242.13367262
 20
170.19536413
 10
242.20504012
 20
170.29848524
 10
242.26806762
 20
170.40764156
 10
242.32274012
 20
170.52287218
 10
242.36904262
 20
170.64421619
 10
242.40696012
 20
170.77171271
 10
242.43647762
 20
170.90540083
 10
242.45758012
 20
171.04531964
 10
242.47025262
 20
171.19150826
 10
242.47448012
 20
171.34400578
 10
242.47448012
 20
171.34400578
 10
242.47025262
 20
171.49725131
 10
242.45758012
 20
171.64426004
 10
242.43647762
 20
171.78506518
 10
242.40696012
 20
171.91969991
 10
242.36904262
 20
172.04819744
 10
242.32274012
 20
172.17059098
 10
242.26806762
 20
172.28691371
 10
242.20504012
 20
172.39719884
 10
242.13367262
 20
172.50147958
 10
242.05398012
 20
172.59978911
 10
242.05398012
 20
172.59978911
 10
241.96740795
 20
172.68981449
 10
241.87548278
 20
172.77043018
 10
241.77819162
 20
172.84162046
 10
241.67552145
 20
172.90336964
 10
241.56745928
 20
172.95566203
 10
241.45399212
 20
172.99848191
 10
241.33510695
 20
173.03181359
 10
241.21079078
 20
173.05564138
 10
241.08103062
 20
173.06994956
 10
240.94581345
 20
173.07472244
 10
240.94581345
 20
173.07472244
 10
240.81066045
 20
173.06994549
 10
240.68080945
 20
173.05560884
 10
240.55627245
 20
173.03170379
 10
240.43706145
 20
172.99822164
 10
240.32318845
 20
172.95515369
 10
240.21466545
 20
172.90249124
 10
240.11150445
 20
172.84022559
 10
240.01371745
 20
172.76834804
 10
239.92131645
 20
172.68684989
 10
239.83431345
 20
172.59572244
 10
239.83431345
 20
172.59572244
 10
239.75396678
 20
172.49735848
 10
239.68212012
 20
172.39303671
 10
239.61876345
 20
172.28275734
 10
239.56388678
 20
172.16652058
 10
239.51748012
 20
172.04432661
 10
239.47953345
 20
171.91617564
 10
239.45003678
 20
171.78206788
 10
239.42898012
 20
171.64200351
 10
239.41635345
 20
171.49598274
 10
239.41214678
 20
171.34400578
 10
239.41214678
 20
171.34400578
 10
239.41635345
 20
171.19150826
 10
239.42898012
 20
171.04531964
 10
239.45003678
 20
170.90540083
 10
239.47953345
 20
170.77171271
 10
239.51748012
 20
170.64421619
 10
239.56388678
 20
170.52287218
 10
239.61876345
 20
170.40764156
 10
239.68212012
 20
170.29848524
 10
239.75396678
 20
170.19536413
 10
239.83431345
 20
170.09823911
 10
239.83431345
 20
170.09823911
 10
239.92131645
 20
170.00970029
 10
240.01371745
 20
169.93033658
 10
240.11150445
 20
169.86018206
 10
240.21466545
 20
169.79927084
 10
240.32318845
 20
169.74763703
 10
240.43706145
 20
169.70531471
 10
240.55627245
 20
169.67233799
 10
240.68080945
 20
169.64874098
 10
240.81066045
 20
169.63455776
 10
240.94581345
 20
169.62982244
 10
240.94581345
 20
169.62982244
 10
240.94581345
 20
169.62982244
  0
HATCH
  5
11A
100
AcDbEntity
  8
MST_1_1
 62
    12
100
AcDbHatch
 10
0.0
 20
0.0
 30
0.0
210
0.0
220
0.0
230
1.0
  2
SOLID
 70
     1
 71
     1
 91
        1
 92
        7
 72
     0
 73
     1
 93
       80
 10
240.94581345
 20
169.62982244
 10
241.08103062
 20
169.63455776
 10
241.21079078
 20
169.64874098
 10
241.33510695
 20
169.67233799
 10
241.45399212
 20
169.70531471
 10
241.56745928
 20
169.74763703
 10
241.67552145
 20
169.79927084
 10
241.77819162
 20
169.86018206
 10
241.87548278
 20
169.93033658
 10
241.96740795
 20
170.00970029
 10
242.05398012
 20
170.09823911
 10
242.13367262
 20
170.19536413
 10
242.20504012
 20
170.29848524
 10
242.26806762
 20
170.40764156
 10
242.32274012
 20
170.52287218
 10
242.36904262
 20
170.64421619
 10
242.40696012
 20
170.77171271
 10
242.43647762
 20
170.90540083
 10
242.45758012
 20
171.04531964
 10
242.47025262
 20
171.19150826
 10
242.47448012
 20
171.34400578
 10
242.47025262
 20
171.49725131
 10
242.45758012
 20
171.64426004
 10
242.43647762
 20
171.78506518
 10
242.40696012
 20
171.91969991
 10
242.36904262
 20
172.04819744
 10
242.32274012
 20
172.17059098
 10
242.26806762
 20
172.28691371
 10
242.20504012
 20
172.39719884
 10
242.13367262
 20
172.50147958
 10
242.05398012
 20
172.59978911
 10
241.96740795
 20
172.68981449
 10
241.87548278
 20
172.77043018
 10
241.77819162
 20
172.84162046
 10
241.67552145
 20
172.90336964
 10
241.56745928
 20
172.95566203
 10
241.45399212
 20
172.99848191
 10
241.33510695
 20
173.03181359
 10
241.21079078
 20
173.05564138
 10
241.08103062
 20
173.06994956
 10
240.94581345
 20
173.07472244
 10
240.81066045
 20
173.06994549
 10
240.68080945
 20
173.05560884
 10
240.55627245
 20
173.03170379
 10
240.43706145
 20
172.99822164
 10
240.32318845
 20
172.95515369
 10
240.21466545
 20
172.90249124
 10
240.11150445
 20
172.84022559
 10
240.01371745
 20
172.76834804
 10
239.92131645
 20
172.68684989
 10
239.83431345
 20
172.59572244
 10
239.75396678
 20
172.49735848
 10
239.68212012
 20
172.39303671
 10
239.61876345
 20
172.28275734
 10
239.56388678
 20
172.16652058
 10
239.51748012
 20
172.04432661
 10
239.47953345
 20
171.91617564
 10
239.45003678
 20
171.78206788
 10
239.42898012
 20
171.64200351
 10
239.41635345
 20
171.49598274
 10
239.41214678
 20
171.34400578
 10
239.41635345
 20
171.19150826
 10
239.42898012
 20
171.04531964
 10
239.45003678
 20
170.90540083
 10
239.47953345
 20
170.77171271
 10
239.51748012
 20
170.64421619
 10
239.56388678
 20
170.52287218
 10
239.61876345
 20
170.40764156
 10
239.68212012
 20
170.29848524
 10
239.75396678
 20
170.19536413
 10
239.83431345
 20
170.09823911
 10
239.92131645
 20
170.00970029
 10
240.01371745
 20
169.93033658
 10
240.11150445
 20
169.86018206
 10
240.21466545
 20
169.79927084
 10
240.32318845
 20
169.74763703
 10
240.43706145
 20
169.70531471
 10
240.55627245
 20
169.67233799
 10
240.68080945
 20
169.64874098
 10
240.81066045
 20
169.63455776
 97
        1
330
119
 75
     0
 76
     2
 47
0.775229
 98
        1
 10
0.0
 20
0.0
  0
LWPOLYLINE
  5
11B
102
{ACAD_REACTORS
330
11C
102
}
100
AcDbEntity
  8
MST_1_1
 62
   190
100
AcDbPolyline
 90
       60
 70
     1
 43
0.0
 10
227.30678012
 20
166.81885578
 10
227.30678012
 20
175.90537244
 10
227.30678012
 20
175.90537244
 10
231.41704678
 20
175.90537244
 10
231.41704678
 20
175.90537244
 10
231.76578255
 20
175.89747181
 10
232.09772492
 20
175.87377938
 10
232.41286648
 20
175.83430934
 10
232.71119985
 20
175.77907591
 10
232.99271762
 20
175.70809328
 10
233.25741238
 20
175.62137564
 10
233.50527675
 20
175.51893721
 10
233.73630332
 20
175.40079218
 10
233.95048468
 20
175.26695474
 10
234.14781345
 20
175.11743911
 10
234.14781345
 20
175.11743911
 10
234.32701928
 20
174.95285006
 10
234.48734012
 20
174.77428471
 10
234.62878095
 20
174.58177576
 10
234.75134678
 20
174.37535591
 10
234.85504262
 20
174.15505786
 10
234.93987345
 20
173.92091431
 10
235.00584428
 20
173.67295796
 10
235.05296012
 20
173.41122151
 10
235.08122595
 20
173.13573766
 10
235.09064678
 20
172.84653911
 10
235.09064678
 20
172.84653911
 10
235.08586512
 20
172.65605454
 10
235.07153345
 20
172.47240858
 10
235.04767178
 20
172.29561281
 10
235.01430012
 20
172.12567884
 10
234.97143845
 20
171.96261828
 10
234.91910678
 20
171.80644271
 10
234.85732512
 20
171.65716374
 10
234.78611345
 20
171.51479298
 10
234.70549178
 20
171.37934201
 10
234.61548012
 20
171.25082244
 10
234.61548012
 20
171.25082244
 10
234.51703912
 20
171.13023019
 10
234.41209212
 20
171.02019444
 10
234.30060312
 20
170.92070169
 10
234.18253612
 20
170.83173844
 10
234.05785512
 20
170.75329119
 10
233.92652412
 20
170.68534644
 10
233.78850712
 20
170.62789069
 10
233.64376812
 20
170.58091044
 10
233.49227112
 20
170.54439219
 10
233.33398012
 20
170.51832244
 10
233.33398012
 20
170.51832244
 10
235.76031345
 20
166.81885578
 10
235.76031345
 20
166.81885578
 10
232.09981345
 20
166.81885578
 10
232.09981345
 20
166.81885578
 10
230.50983012
 20
169.81617244
 10
230.50983012
 20
169.81617244
 10
230.50983012
 20
166.81885578
 10
230.50983012
 20
166.81885578
 10
227.30678012
 20
166.81885578
 10
227.30678012
 20
166.81885578
 10
227.30678012
 20
166.81885578
  0
HATCH
  5
11C
100
AcDbEntity
  8
MST_1_1
 62
   190
100
AcDbHatch
 10
0.0
 20
0.0
 30
0.0
210
0.0
220
0.0
230
1.0
  2
SOLID
 70
     1
 71
     1
 91
        1
 92
        7
 72
     0
 73
     1
 93
       47
 10
227.30678012
 20
166.81885578
 10
227.30678012
 20
175.90537244
 10
231.41704678
 20
175.90537244
 10
231.76578255
 20
175.89747181
 10
232.09772492
 20
175.87377938
 10
232.41286648
 20
175.83430934
 10
232.71119985
 20
175.77907591
 10
232.99271762
 20
175.70809328
 10
233.25741238
 20
175.62137564
 10
233.50527675
 20
175.51893721
 10
233.73630332
 20
175.40079218
 10
233.95048468
 20
175.26695474
 10
234.14781345
 20
175.11743911
 10
234.32701928
 20
174.95285006
 10
234.48734012
 20
174.77428471
 10
234.62878095
 20
174.58177576
 10
234.75134678
 20
174.37535591
 10
234.85504262
 20
174.15505786
 10
234.93987345
 20
173.92091431
 10
235.00584428
 20
173.67295796
 10
235.05296012
 20
173.41122151
 10
235.08122595
 20
173.13573766
 10
235.09064678
 20
172.84653911
 10
235.08586512
 20
172.65605454
 10
235.07153345
 20
172.47240858
 10
235.04767178
 20
172.29561281
 10
235.01430012
 20
172.12567884
 10
234.97143845
 20
171.96261828
 10
234.91910678
 20
171.80644271
 10
234.85732512
 20
171.65716374
 10
234.78611345
 20
171.51479298
 10
234.70549178
 20
171.37934201
 10
234.61548012
 20
171.25082244
 10
234.51703912
 20
171.13023019
 10
234.41209212
 20
171.02019444
 10
234.30060312
 20
170.92070169
 10
234.18253612
 20
170.83173844
 10
234.05785512
 20
170.75329119
 10
233.92652412
 20
170.68534644
 10
233.78850712
 20
170.62789069
 10
233.64376812
 20
170.58091044
 10
233.49227112
 20
170.54439219
 10
233.33398012
 20
170.51832244
 10
235.76031345
 20
166.81885578
 10
232.09981345
 20
166.81885578
 10
230.50983012
 20
169.81617244
 10
230.50983012
 20
166.81885578
 97
        1
330
11B
 75
     0
 76
     2
 47
0.775229
 98
        1
 10
0.0
 20
0.0
  0
LWPOLYLINE
  5
11D
102
{ACAD_REACTORS
330
11E
102
}
100
AcDbEntity
  8
MST_1_1
 62
    12
100
AcDbPolyline
 90
       52
 70
     1
 43
0.0
 10
230.50983012
 20
173.56673911
 10
230.50983012
 20
171.79168911
 10
230.50983012
 20
171.79168911
 10
231.01894678
 20
171.79168911
 10
231.01894678
 20
171.79168911
 10
231.10999323
 20
171.79396051
 10
231.19667238
 20
171.80077031
 10
231.27899893
 20
171.81211191
 10
231.35698758
 20
171.82797871
 10
231.43065303
 20
171.84836411
 10
231.50000998
 20
171.87326151
 10
231.56507313
 20
171.90266431
 10
231.62585718
 20
171.93656591
 10
231.68237683
 20
171.97495971
 10
231.73464678
 20
172.01783911
 10
231.73464678
 20
172.01783911
 10
231.78249095
 20
172.06492259
 10
231.82532012
 20
172.11594498
 10
231.86312928
 20
172.17090916
 10
231.89591345
 20
172.22981804
 10
231.92366762
 20
172.29267453
 10
231.94638678
 20
172.35948151
 10
231.96406595
 20
172.43024189
 10
231.97670012
 20
172.50495858
 10
231.98428428
 20
172.58363446
 10
231.98681345
 20
172.66627244
 10
231.98681345
 20
172.66627244
 10
231.98428428
 20
172.75111124
 10
231.97670012
 20
172.83194084
 10
231.96406595
 20
172.90875104
 10
231.94638678
 20
172.98153164
 10
231.92366762
 20
173.05027244
 10
231.89591345
 20
173.11496324
 10
231.86312928
 20
173.17559384
 10
231.82532012
 20
173.23215404
 10
231.78249095
 20
173.28463364
 10
231.73464678
 20
173.33302244
 10
231.73464678
 20
173.33302244
 10
231.68237683
 20
173.37715861
 10
231.62585718
 20
173.41673378
 10
231.56507313
 20
173.45172794
 10
231.50000998
 20
173.48212111
 10
231.43065303
 20
173.50789328
 10
231.35698758
 20
173.52902444
 10
231.27899893
 20
173.54549461
 10
231.19667238
 20
173.55728378
 10
231.10999323
 20
173.56437194
 10
231.01894678
 20
173.56673911
 10
231.01894678
 20
173.56673911
 10
230.50983012
 20
173.56673911
 10
230.50983012
 20
173.56673911
 10
230.50983012
 20
173.56673911
  0
HATCH
  5
11E
100
AcDbEntity
  8
MST_1_1
 62
    12
100
AcDbHatch
 10
0.0
 20
0.0
 30
0.0
210
0.0
220
0.0
230
1.0
  2
SOLID
 70
     1
 71
     1
 91
        1
 92
        7
 72
     0
 73
     1
 93
       43
 10
230.50983012
 20
173.56673911
 10
230.50983012
 20
171.79168911
 10
231.01894678
 20
171.79168911
 10
231.10999323
 20
171.79396051
 10
231.19667238
 20
171.80077031
 10
231.27899893
 20
171.81211191
 10
231.35698758
 20
171.82797871
 10
231.43065303
 20
171.84836411
 10
231.50000998
 20
171.87326151
 10
231.56507313
 20
171.90266431
 10
231.62585718
 20
171.93656591
 10
231.68237683
 20
171.97495971
 10
231.73464678
 20
172.01783911
 10
231.78249095
 20
172.06492259
 10
231.82532012
 20
172.11594498
 10
231.86312928
 20
172.17090916
 10
231.89591345
 20
172.22981804
 10
231.92366762
 20
172.29267453
 10
231.94638678
 20
172.35948151
 10
231.96406595
 20
172.43024189
 10
231.97670012
 20
172.50495858
 10
231.98428428
 20
172.58363446
 10
231.98681345
 20
172.66627244
 10
231.98428428
 20
172.75111124
 10
231.97670012
 20
172.83194084
 10
231.96406595
 20
172.90875104
 10
231.94638678
 20
172.98153164
 10
231.92366762
 20
173.05027244
 10
231.89591345
 20
173.11496324
 10
231.86312928
 20
173.17559384
 10
231.82532012
 20
173.23215404
 10
231.78249095
 20
173.28463364
 10
231.73464678
 20
173.33302244
 10
231.68237683
 20
173.37715861
 10
231.62585718
 20
173.41673378
 10
231.56507313
 20
173.45172794
 10
231.50000998
 20
173.48212111
 10
231.43065303
 20
173.50789328
 10
231.35698758
 20
173.52902444
 10
231.27899893
 20
173.54549461
 10
231.19667238
 20
173.55728378
 10
231.10999323
 20
173.56437194
 10
231.01894678
 20
173.56673911
 97
        1
330
11D
 75
     0
 76
     2
 47
0.775229
 98
        1
 10
0.0
 20
0.0
  0
LWPOLYLINE
  5
11F
102
{ACAD_REACTORS
330
120
102
}
100
AcDbEntity
  8
MST_1_1
 62
   190
100
AcDbPolyline
 90
       56
 70
     1
 43
0.0
 10
218.30718012
 20
166.81885578
 10
218.30718012
 20
175.90537244
 10
218.30718012
 20
175.90537244
 10
222.21189678
 20
175.90537244
 10
222.21189678
 20
175.90537244
 10
222.61267293
 20
175.89742378
 10
222.99132398
 20
175.87358111
 10
223.34785383
 20
175.83384944
 10
223.68226638
 20
175.77823378
 10
223.99456553
 20
175.70673911
 10
224.28475518
 20
175.61937044
 10
224.55283923
 20
175.51613278
 10
224.79882158
 20
175.39703111
 10
225.02270613
 20
175.26207044
 10
225.22449678
 20
175.11125578
 10
225.22449678
 20
175.11125578
 10
225.40555198
 20
174.94289444
 10
225.56755638
 20
174.75600711
 10
225.71050818
 20
174.55057378
 10
225.83440558
 20
174.32657444
 10
225.93924678
 20
174.08398911
 10
226.02502998
 20
173.82279778
 10
226.09175338
 20
173.54298044
 10
226.13941518
 20
173.24451711
 10
226.16801358
 20
172.92738778
 10
226.17754678
 20
172.59157244
 10
226.17754678
 20
172.59157244
 10
226.16897688
 20
172.27858043
 10
226.14327358
 20
171.98291831
 10
226.10044648
 20
171.70459199
 10
226.04050518
 20
171.44360738
 10
225.96345928
 20
171.19997036
 10
225.86931838
 20
170.97368684
 10
225.75809208
 20
170.76476273
 10
225.62978998
 20
170.57320391
 10
225.48442168
 20
170.39901629
 10
225.32199678
 20
170.24220578
 10
225.32199678
 20
170.24220578
 10
225.14024412
 20
170.10164833
 10
224.93844145
 20
169.97583418
 10
224.71658178
 20
169.86477563
 10
224.47465812
 20
169.76848498
 10
224.21266345
 20
169.68697453
 10
223.93059078
 20
169.62025658
 10
223.62843312
 20
169.56834343
 10
223.30618345
 20
169.53124738
 10
222.96383478
 20
169.50898073
 10
222.60138012
 20
169.50155578
 10
222.60138012
 20
169.50155578
 10
221.57843012
 20
169.50155578
 10
221.57843012
 20
169.50155578
 10
221.57843012
 20
166.81885578
 10
221.57843012
 20
166.81885578
 10
218.30718012
 20
166.81885578
 10
218.30718012
 20
166.81885578
 10
218.30718012
 20
166.81885578
  0
HATCH
  5
120
100
AcDbEntity
  8
MST_1_1
 62
   190
100
AcDbHatch
 10
0.0
 20
0.0
 30
0.0
210
0.0
220
0.0
230
1.0
  2
SOLID
 70
     1
 71
     1
 91
        1
 92
        7
 72
     0
 73
     1
 93
       45
 10
218.30718012
 20
166.81885578
 10
218.30718012
 20
175.90537244
 10
222.21189678
 20
175.90537244
 10
222.61267293
 20
175.89742378
 10
222.99132398
 20
175.87358111
 10
223.34785383
 20
175.83384944
 10
223.68226638
 20
175.77823378
 10
223.99456553
 20
175.70673911
 10
224.28475518
 20
175.61937044
 10
224.55283923
 20
175.51613278
 10
224.79882158
 20
175.39703111
 10
225.02270613
 20
175.26207044
 10
225.22449678
 20
175.11125578
 10
225.40555198
 20
174.94289444
 10
225.56755638
 20
174.75600711
 10
225.71050818
 20
174.55057378
 10
225.83440558
 20
174.32657444
 10
225.93924678
 20
174.08398911
 10
226.02502998
 20
173.82279778
 10
226.09175338
 20
173.54298044
 10
226.13941518
 20
173.24451711
 10
226.16801358
 20
172.92738778
 10
226.17754678
 20
172.59157244
 10
226.16897688
 20
172.27858043
 10
226.14327358
 20
171.98291831
 10
226.10044648
 20
171.70459199
 10
226.04050518
 20
171.44360738
 10
225.96345928
 20
171.19997036
 10
225.86931838
 20
170.97368684
 10
225.75809208
 20
170.76476273
 10
225.62978998
 20
170.57320391
 10
225.48442168
 20
170.39901629
 10
225.32199678
 20
170.24220578
 10
225.14024412
 20
170.10164833
 10
224.93844145
 20
169.97583418
 10
224.71658178
 20
169.86477563
 10
224.47465812
 20
169.76848498
 10
224.21266345
 20
169.68697453
 10
223.93059078
 20
169.62025658
 10
223.62843312
 20
169.56834343
 10
223.30618345
 20
169.53124738
 10
222.96383478
 20
169.50898073
 10
222.60138012
 20
169.50155578
 10
221.57843012
 20
169.50155578
 10
221.57843012
 20
166.81885578
 97
        1
330
11F
 75
     0
 76
     2
 47
0.775229
 98
        1
 10
0.0
 20
0.0
  0
LWPOLYLINE
  5
121
102
{ACAD_REACTORS
330
122
102
}
100
AcDbEntity
  8
MST_1_1
 62
    12
100
AcDbPolyline
 90
       52
 70
     1
 43
0.0
 10
221.59119678
 20
173.37982244
 10
221.59119678
 20
171.86525578
 10
221.59119678
 20
171.86525578
 10
222.09884678
 20
171.86525578
 10
222.09884678
 20
171.86525578
 10
222.1896849
 20
171.86722408
 10
222.27628972
 20
171.87312218
 10
222.35863193
 20
171.88293988
 10
222.43668225
 20
171.89666698
 10
222.51041137
 20
171.91429328
 10
222.57978998
 20
171.93580858
 10
222.6447888
 20
171.96120268
 10
222.70537852
 20
171.99046538
 10
222.76152983
 20
172.02358648
 10
222.81321345
 20
172.06055578
 10
222.81321345
 20
172.06055578
 10
222.8602822
 20
172.10137314
 10
222.90241545
 20
172.14546071
 10
222.9396087
 20
172.19282668
 10
222.97185745
 20
172.24347924
 10
222.9991572
 20
172.29742661
 10
223.02150345
 20
172.35467698
 10
223.0388917
 20
172.41523854
 10
223.05131745
 20
172.47911951
 10
223.0587762
 20
172.54632808
 10
223.06126345
 20
172.61687244
 10
223.06126345
 20
172.61687244
 10
223.05872968
 20
172.68713013
 10
223.05112132
 20
172.75424591
 10
223.03842775
 20
172.81822389
 10
223.02063838
 20
172.87906818
 10
222.99774262
 20
172.93678286
 10
222.96972985
 20
172.99137204
 10
222.93658948
 20
173.04283983
 10
222.89831092
 20
173.09119031
 10
222.85488355
 20
173.13642759
 10
222.80629678
 20
173.17855578
 10
222.80629678
 20
173.17855578
 10
222.75355088
 20
173.21658719
 10
222.69682758
 20
173.25068111
 10
222.63611848
 20
173.28082203
 10
222.57141518
 20
173.30699444
 10
222.50270928
 20
173.32918286
 10
222.42999238
 20
173.34737178
 10
222.35325608
 20
173.36154569
 10
222.27249198
 20
173.37168911
 10
222.18769168
 20
173.37778653
 10
222.09884678
 20
173.37982244
 10
222.09884678
 20
173.37982244
 10
221.59119678
 20
173.37982244
 10
221.59119678
 20
173.37982244
 10
221.59119678
 20
173.37982244
  0
HATCH
  5
122
100
AcDbEntity
  8
MST_1_1
 62
    12
100
AcDbHatch
 10
0.0
 20
0.0
 30
0.0
210
0.0
220
0.0
230
1.0
  2
SOLID
 70
     1
 71
     1
 91
        1
 92
        7
 72
     0
 73
     1
 93
       43
 10
221.59119678
 20
173.37982244
 10
221.59119678
 20
171.86525578
 10
222.09884678
 20
171.86525578
 10
222.1896849
 20
171.86722408
 10
222.27628972
 20
171.87312218
 10
222.35863193
 20
171.88293988
 10
222.43668225
 20
171.89666698
 10
222.51041137
 20
171.91429328
 10
222.57978998
 20
171.93580858
 10
222.6447888
 20
171.96120268
 10
222.70537852
 20
171.99046538
 10
222.76152983
 20
172.02358648
 10
222.81321345
 20
172.06055578
 10
222.8602822
 20
172.10137314
 10
222.90241545
 20
172.14546071
 10
222.9396087
 20
172.19282668
 10
222.97185745
 20
172.24347924
 10
222.9991572
 20
172.29742661
 10
223.02150345
 20
172.35467698
 10
223.0388917
 20
172.41523854
 10
223.05131745
 20
172.47911951
 10
223.0587762
 20
172.54632808
 10
223.06126345
 20
172.61687244
 10
223.05872968
 20
172.68713013
 10
223.05112132
 20
172.75424591
 10
223.03842775
 20
172.81822389
 10
223.02063838
 20
172.87906818
 10
222.99774262
 20
172.93678286
 10
222.96972985
 20
172.99137204
 10
222.93658948
 20
173.04283983
 10
222.89831092
 20
173.09119031
 10
222.85488355
 20
173.13642759
 10
222.80629678
 20
173.17855578
 10
222.75355088
 20
173.21658719
 10
222.69682758
 20
173.25068111
 10
222.63611848
 20
173.28082203
 10
222.57141518
 20
173.30699444
 10
222.50270928
 20
173.32918286
 10
222.42999238
 20
173.34737178
 10
222.35325608
 20
173.36154569
 10
222.27249198
 20
173.37168911
 10
222.18769168
 20
173.37778653
 10
222.09884678
 20
173.37982244
 97
        1
330
121
 75
     0
 76
     2
 47
0.775229
 98
        1
 10
0.0
 20
0.0
  0
LWPOLYLINE
  5
123
102
{ACAD_REACTORS
330
124
102
}
100
AcDbEntity
  8
MST_1_1
 62
    12
100
AcDbPolyline
 90
       10
 70
     1
 43
0.0
 10
259.35364678
 20
166.81885578
 10
259.35364678
 20
175.90537244
 10
259.35364678
 20
175.90537244
 10
263.82148012
 20
175.90537244
 10
263.82148012
 20
175.90537244
 10
263.82148012
 20
166.81885578
 10
263.82148012
 20
166.81885578
 10
259.35364678
 20
166.81885578
 10
259.35364678
 20
166.81885578
 10
259.35364678
 20
166.81885578
  0
HATCH
  5
124
100
AcDbEntity
  8
MST_1_1
 62
    12
100
AcDbHatch
 10
0.0
 20
0.0
 30
0.0
210
0.0
220
0.0
230
1.0
  2
SOLID
 70
     1
 71
     1
 91
        1
 92
        7
 72
     0
 73
     1
 93
        4
 10
259.35364678
 20
166.81885578
 10
259.35364678
 20
175.90537244
 10
263.82148012
 20
175.90537244
 10
263.82148012
 20
166.81885578
 97
        1
330
123
 75
     0
 76
     2
 47
0.775229
 98
        1
 10
0.0
 20
0.0
  0
LWPOLYLINE
  5
125
102
{ACAD_REACTORS
330
126
102
}
100
AcDbEntity
  8
MST_1_1
 62
    12
100
AcDbPolyline
 90
      114
 70
     1
 43
0.0
 10
271.57081345
 20
168.87997244
 10
271.53645945
 20
168.93479079
 10
271.50390145
 20
168.98734124
 10
271.47314545
 20
169.03764689
 10
271.44419745
 20
169.08573084
 10
271.41706345
 20
169.13161619
 10
271.39174945
 20
169.17532604
 10
271.36826145
 20
169.21688349
 10
271.34660545
 20
169.25631164
 10
271.32678745
 20
169.29363359
 10
271.30881345
 20
169.32887244
 10
271.30881345
 20
169.32887244
 10
271.29151078
 20
169.36282361
 10
271.27519212
 20
169.39603378
 10
271.25984145
 20
169.42851294
 10
271.24544278
 20
169.46027111
 10
271.23198012
 20
169.49131828
 10
271.21943745
 20
169.52166444
 10
271.20779878
 20
169.55131961
 10
271.19704812
 20
169.58029378
 10
271.18716945
 20
169.60859694
 10
271.17814678
 20
169.63623911
 10
271.17814678
 20
169.63623911
 10
271.17048245
 20
169.61003513
 10
271.16205212
 20
169.58327124
 10
271.15279978
 20
169.55594456
 10
271.14266945
 20
169.52805218
 10
271.13160512
 20
169.49959119
 10
271.11955078
 20
169.47055871
 10
271.10645045
 20
169.44095183
 10
271.09224812
 20
169.41076764
 10
271.07688778
 20
169.38000326
 10
271.06031345
 20
169.34865578
 10
271.06031345
 20
169.34865578
 10
271.04297712
 20
169.31524979
 10
271.02298278
 20
169.27881191
 10
271.00035245
 20
169.23935723
 10
270.97510812
 20
169.19690084
 10
270.94727178
 20
169.15145786
 10
270.91686545
 20
169.10304338
 10
270.88391112
 20
169.05167249
 10
270.84843078
 20
168.99736031
 10
270.81044645
 20
168.94012193
 10
270.76998012
 20
168.87997244
 10
270.76998012
 20
168.87997244
 10
269.38031345
 20
166.81885578
 10
269.38031345
 20
166.81885578
 10
264.35264678
 20
166.81885578
 10
264.35264678
 20
166.81885578
 10
268.69548012
 20
171.65887244
 10
268.69548012
 20
171.65887244
 10
264.86348012
 20
175.90537244
 10
264.86348012
 20
175.90537244
 10
269.88298012
 20
175.90537244
 10
269.88298012
 20
175.90537244
 10
270.78631345
 20
174.42228911
 10
270.78631345
 20
174.42228911
 10
270.78913945
 20
174.41677603
 10
270.79250145
 20
174.41067844
 10
270.79637545
 20
174.40399886
 10
270.80073745
 20
174.39673978
 10
270.80556345
 20
174.38890369
 10
270.81082945
 20
174.38049311
 10
270.81651145
 20
174.37151053
 10
270.82258545
 20
174.36195844
 10
270.82902745
 20
174.35183936
 10
270.83581345
 20
174.34115578
 10
270.83581345
 20
174.34115578
 10
270.88454878
 20
174.25850286
 10
270.93005612
 20
174.17925444
 10
270.97233745
 20
174.10342603
 10
271.01139478
 20
174.03103311
 10
271.04723012
 20
173.96209119
 10
271.07984545
 20
173.89661578
 10
271.10924278
 20
173.83462236
 10
271.13542412
 20
173.77612644
 10
271.15839145
 20
173.72114353
 10
271.17814678
 20
173.66968911
 10
271.17814678
 20
173.66968911
 10
271.19026045
 20
173.70233241
 10
271.20291612
 20
173.73508151
 10
271.21613578
 20
173.76795021
 10
271.22994145
 20
173.80095231
 10
271.24435512
 20
173.83410161
 10
271.25939878
 20
173.86741191
 10
271.27509445
 20
173.90089701
 10
271.29146412
 20
173.93457071
 10
271.30852978
 20
173.96844681
 10
271.32631345
 20
174.00253911
 10
271.32631345
 20
174.00253911
 10
271.34359978
 20
174.03762146
 10
271.36222412
 20
174.07426191
 10
271.38213445
 20
174.11245056
 10
271.40327878
 20
174.15217751
 10
271.42560512
 20
174.19343286
 10
271.44906145
 20
174.23620671
 10
271.47359578
 20
174.28048916
 10
271.49915612
 20
174.32627031
 10
271.52569045
 20
174.37354026
 10
271.55314678
 20
174.42228911
 10
271.55314678
 20
174.42228911
 10
272.48064678
 20
175.90537244
 10
272.48064678
 20
175.90537244
 10
277.47731345
 20
175.90537244
 10
277.47731345
 20
175.90537244
 10
273.65798012
 20
171.65887244
 10
273.65798012
 20
171.65887244
 10
278.00564678
 20
166.81885578
 10
278.00564678
 20
166.81885578
 10
272.97348012
 20
166.81885578
 10
272.97348012
 20
166.81885578
 10
271.57081345
 20
168.87997244
 10
271.57081345
 20
168.87997244
 10
271.57081345
 20
168.87997244
  0
HATCH
  5
126
100
AcDbEntity
  8
MST_1_1
 62
    12
100
AcDbHatch
 10
0.0
 20
0.0
 30
0.0
210
0.0
220
0.0
230
1.0
  2
SOLID
 70
     1
 71
     1
 91
        1
 92
        7
 72
     0
 73
     1
 93
       92
 10
271.57081345
 20
168.87997244
 10
271.53645945
 20
168.93479079
 10
271.50390145
 20
168.98734124
 10
271.47314545
 20
169.03764689
 10
271.44419745
 20
169.08573084
 10
271.41706345
 20
169.13161619
 10
271.39174945
 20
169.17532604
 10
271.36826145
 20
169.21688349
 10
271.34660545
 20
169.25631164
 10
271.32678745
 20
169.29363359
 10
271.30881345
 20
169.32887244
 10
271.29151078
 20
169.36282361
 10
271.27519212
 20
169.39603378
 10
271.25984145
 20
169.42851294
 10
271.24544278
 20
169.46027111
 10
271.23198012
 20
169.49131828
 10
271.21943745
 20
169.52166444
 10
271.20779878
 20
169.55131961
 10
271.19704812
 20
169.58029378
 10
271.18716945
 20
169.60859694
 10
271.17814678
 20
169.63623911
 10
271.17048245
 20
169.61003513
 10
271.16205212
 20
169.58327124
 10
271.15279978
 20
169.55594456
 10
271.14266945
 20
169.52805218
 10
271.13160512
 20
169.49959119
 10
271.11955078
 20
169.47055871
 10
271.10645045
 20
169.44095183
 10
271.09224812
 20
169.41076764
 10
271.07688778
 20
169.38000326
 10
271.06031345
 20
169.34865578
 10
271.04297712
 20
169.31524979
 10
271.02298278
 20
169.27881191
 10
271.00035245
 20
169.23935723
 10
270.97510812
 20
169.19690084
 10
270.94727178
 20
169.15145786
 10
270.91686545
 20
169.10304338
 10
270.88391112
 20
169.05167249
 10
270.84843078
 20
168.99736031
 10
270.81044645
 20
168.94012193
 10
270.76998012
 20
168.87997244
 10
269.38031345
 20
166.81885578
 10
264.35264678
 20
166.81885578
 10
268.69548012
 20
171.65887244
 10
264.86348012
 20
175.90537244
 10
269.88298012
 20
175.90537244
 10
270.78631345
 20
174.42228911
 10
270.78913945
 20
174.41677603
 10
270.79250145
 20
174.41067844
 10
270.79637545
 20
174.40399886
 10
270.80073745
 20
174.39673978
 10
270.80556345
 20
174.38890369
 10
270.81082945
 20
174.38049311
 10
270.81651145
 20
174.37151053
 10
270.82258545
 20
174.36195844
 10
270.82902745
 20
174.35183936
 10
270.83581345
 20
174.34115578
 10
270.88454878
 20
174.25850286
 10
270.93005612
 20
174.17925444
 10
270.97233745
 20
174.10342603
 10
271.01139478
 20
174.03103311
 10
271.04723012
 20
173.96209119
 10
271.07984545
 20
173.89661578
 10
271.10924278
 20
173.83462236
 10
271.13542412
 20
173.77612644
 10
271.15839145
 20
173.72114353
 10
271.17814678
 20
173.66968911
 10
271.19026045
 20
173.70233241
 10
271.20291612
 20
173.73508151
 10
271.21613578
 20
173.76795021
 10
271.22994145
 20
173.80095231
 10
271.24435512
 20
173.83410161
 10
271.25939878
 20
173.86741191
 10
271.27509445
 20
173.90089701
 10
271.29146412
 20
173.93457071
 10
271.30852978
 20
173.96844681
 10
271.32631345
 20
174.00253911
 10
271.34359978
 20
174.03762146
 10
271.36222412
 20
174.07426191
 10
271.38213445
 20
174.11245056
 10
271.40327878
 20
174.15217751
 10
271.42560512
 20
174.19343286
 10
271.44906145
 20
174.23620671
 10
271.47359578
 20
174.28048916
 10
271.49915612
 20
174.32627031
 10
271.52569045
 20
174.37354026
 10
271.55314678
 20
174.42228911
 10
272.48064678
 20
175.90537244
 10
277.47731345
 20
175.90537244
 10
273.65798012
 20
171.65887244
 10
278.00564678
 20
166.81885578
 10
272.97348012
 20
166.81885578
 97
        1
330
125
 75
     0
 76
     2
 47
0.775229
 98
        1
 10
0.0
 20
0.0
  0
LWPOLYLINE
  5
127
102
{ACAD_REACTORS
330
128
102
}
100
AcDbEntity
  8
MST_1_1
 62
     7
100
AcDbPolyline
 90
       46
 70
     1
 43
0.0
 10
282.32081345
 20
182.03142244
 10
282.43334395
 20
182.02230894
 10
282.54025745
 20
181.99593444
 10
282.64008695
 20
181.95374794
 10
282.73136545
 20
181.89719844
 10
282.81262595
 20
181.82773494
 10
282.88240145
 20
181.74680644
 10
282.93922495
 20
181.65586194
 10
282.98162945
 20
181.55635044
 10
283.00814795
 20
181.44972094
 10
283.01731345
 20
181.33742244
 10
283.01731345
 20
181.33742244
 10
283.00814795
 20
181.22526878
 10
282.98162945
 20
181.11877311
 10
282.93922495
 20
181.01938344
 10
282.88240145
 20
180.92854778
 10
282.81262595
 20
180.84771411
 10
282.73136545
 20
180.77833044
 10
282.64008695
 20
180.72184478
 10
282.54025745
 20
180.67970511
 10
282.43334395
 20
180.65335944
 10
282.32081345
 20
180.64425578
 10
282.32081345
 20
180.64425578
 10
282.20769262
 20
180.65335944
 10
282.10038678
 20
180.67970511
 10
282.00033095
 20
180.72184478
 10
281.90896012
 20
180.77833044
 10
281.82770928
 20
180.84771411
 10
281.75801345
 20
180.92854778
 10
281.70130762
 20
181.01938344
 10
281.65902678
 20
181.11877311
 10
281.63260595
 20
181.22526878
 10
281.62348012
 20
181.33742244
 10
281.62348012
 20
181.33742244
 10
281.63260595
 20
181.44972094
 10
281.65902678
 20
181.55635044
 10
281.70130762
 20
181.65586194
 10
281.75801345
 20
181.74680644
 10
281.82770928
 20
181.82773494
 10
281.90896012
 20
181.89719844
 10
282.00033095
 20
181.95374794
 10
282.10038678
 20
181.99593444
 10
282.20769262
 20
182.02230894
 10
282.32081345
 20
182.03142244
 10
282.32081345
 20
182.03142244
 10
282.32081345
 20
182.03142244
  0
HATCH
  5
128
100
AcDbEntity
  8
MST_1_1
 62
     7
100
AcDbHatch
 10
0.0
 20
0.0
 30
0.0
210
0.0
220
0.0
230
1.0
  2
SOLID
 70
     1
 71
     1
 91
        1
 92
        7
 72
     0
 73
     1
 93
       40
 10
282.32081345
 20
182.03142244
 10
282.43334395
 20
182.02230894
 10
282.54025745
 20
181.99593444
 10
282.64008695
 20
181.95374794
 10
282.73136545
 20
181.89719844
 10
282.81262595
 20
181.82773494
 10
282.88240145
 20
181.74680644
 10
282.93922495
 20
181.65586194
 10
282.98162945
 20
181.55635044
 10
283.00814795
 20
181.44972094
 10
283.01731345
 20
181.33742244
 10
283.00814795
 20
181.22526878
 10
282.98162945
 20
181.11877311
 10
282.93922495
 20
181.01938344
 10
282.88240145
 20
180.92854778
 10
282.81262595
 20
180.84771411
 10
282.73136545
 20
180.77833044
 10
282.64008695
 20
180.72184478
 10
282.54025745
 20
180.67970511
 10
282.43334395
 20
180.65335944
 10
282.32081345
 20
180.64425578
 10
282.20769262
 20
180.65335944
 10
282.10038678
 20
180.67970511
 10
282.00033095
 20
180.72184478
 10
281.90896012
 20
180.77833044
 10
281.82770928
 20
180.84771411
 10
281.75801345
 20
180.92854778
 10
281.70130762
 20
181.01938344
 10
281.65902678
 20
181.11877311
 10
281.63260595
 20
181.22526878
 10
281.62348012
 20
181.33742244
 10
281.63260595
 20
181.44972094
 10
281.65902678
 20
181.55635044
 10
281.70130762
 20
181.65586194
 10
281.75801345
 20
181.74680644
 10
281.82770928
 20
181.82773494
 10
281.90896012
 20
181.89719844
 10
282.00033095
 20
181.95374794
 10
282.10038678
 20
181.99593444
 10
282.20769262
 20
182.02230894
 97
        1
330
127
 75
     0
 76
     2
 47
0.775229
 98
        1
 10
0.0
 20
0.0
  0
LWPOLYLINE
  5
129
102
{ACAD_REACTORS
330
12A
102
}
100
AcDbEntity
  8
MST_1_1
 62
    12
100
AcDbPolyline
 90
       29
 70
     1
 43
0.0
 10
282.00114678
 20
181.81942244
 10
282.00114678
 20
180.91275578
 10
282.00114678
 20
180.91275578
 10
282.13531345
 20
180.91275578
 10
282.13531345
 20
180.91275578
 10
282.13531345
 20
181.31975578
 10
282.13531345
 20
181.31975578
 10
282.31364678
 20
181.31975578
 10
282.31364678
 20
181.31975578
 10
282.57298012
 20
180.91875578
 10
282.57298012
 20
180.91875578
 10
282.70914678
 20
180.91875578
 10
282.70914678
 20
180.91875578
 10
282.45031345
 20
181.32708911
 10
282.45031345
 20
181.32708911
 10
282.53890045
 20
181.34551078
 10
282.60856945
 20
181.38566244
 10
282.65903245
 20
181.44197411
 10
282.69000145
 20
181.50887578
 10
282.70118845
 20
181.58079744
 10
282.69230545
 20
181.65216911
 10
282.66306445
 20
181.71742078
 10
282.61317745
 20
181.77098244
 10
282.54235645
 20
181.80728411
 10
282.45031345
 20
181.82075578
 10
282.45031345
 20
181.82075578
 10
282.00114678
 20
181.81942244
 10
282.00114678
 20
181.81942244
 10
282.00114678
 20
181.81942244
  0
HATCH
  5
12A
100
AcDbEntity
  8
MST_1_1
 62
    12
100
AcDbHatch
 10
0.0
 20
0.0
 30
0.0
210
0.0
220
0.0
230
1.0
  2
SOLID
 70
     1
 71
     1
 91
        1
 92
        7
 72
     0
 73
     1
 93
       18
 10
282.00114678
 20
181.81942244
 10
282.00114678
 20
180.91275578
 10
282.13531345
 20
180.91275578
 10
282.13531345
 20
181.31975578
 10
282.31364678
 20
181.31975578
 10
282.57298012
 20
180.91875578
 10
282.70914678
 20
180.91875578
 10
282.45031345
 20
181.32708911
 10
282.53890045
 20
181.34551078
 10
282.60856945
 20
181.38566244
 10
282.65903245
 20
181.44197411
 10
282.69000145
 20
181.50887578
 10
282.70118845
 20
181.58079744
 10
282.69230545
 20
181.65216911
 10
282.66306445
 20
181.71742078
 10
282.61317745
 20
181.77098244
 10
282.54235645
 20
181.80728411
 10
282.45031345
 20
181.82075578
 97
        1
330
129
 75
     0
 76
     2
 47
0.775229
 98
        1
 10
0.0
 20
0.0
  0
LWPOLYLINE
  5
12B
102
{ACAD_REACTORS
330
12C
102
}
100
AcDbEntity
  8
MST_1_1
 62
     7
100
AcDbPolyline
 90
       19
 70
     1
 43
0.0
 10
282.13531345
 20
181.71625578
 10
282.13531345
 20
181.42558911
 10
282.13531345
 20
181.42558911
 10
282.43664678
 20
181.42642244
 10
282.43664678
 20
181.42642244
 10
282.48962528
 20
181.43827278
 10
282.53109478
 20
181.46264511
 10
282.56095628
 20
181.49627144
 10
282.57911078
 20
181.53588378
 10
282.58545928
 20
181.57821411
 10
282.57990278
 20
181.61999444
 10
282.56234228
 20
181.65795678
 10
282.53267878
 20
181.68883311
 10
282.49081328
 20
181.70935544
 10
282.43664678
 20
181.71625578
 10
282.43664678
 20
181.71625578
 10
282.13531345
 20
181.71625578
 10
282.13531345
 20
181.71625578
 10
282.13531345
 20
181.71625578
  0
HATCH
  5
12C
100
AcDbEntity
  8
MST_1_1
 62
     7
100
AcDbHatch
 10
0.0
 20
0.0
 30
0.0
210
0.0
220
0.0
230
1.0
  2
SOLID
 70
     1
 71
     1
 91
        1
 92
        7
 72
     0
 73
     1
 93
       13
 10
282.13531345
 20
181.71625578
 10
282.13531345
 20
181.42558911
 10
282.43664678
 20
181.42642244
 10
282.48962528
 20
181.43827278
 10
282.53109478
 20
181.46264511
 10
282.56095628
 20
181.49627144
 10
282.57911078
 20
181.53588378
 10
282.58545928
 20
181.57821411
 10
282.57990278
 20
181.61999444
 10
282.56234228
 20
181.65795678
 10
282.53267878
 20
181.68883311
 10
282.49081328
 20
181.70935544
 10
282.43664678
 20
181.71625578
 97
        1
330
12B
 75
     0
 76
     2
 47
0.775229
 98
        1
 10
0.0
 20
0.0
  0
TEXT
  5
12D
100
AcDbEntity
  8
MST_1_1
 62
     7
100
AcDbText
 10
18.93749597
 20
18.54545025
 30
0.0
 40
5.0
  1
16
  7
ARIAL
 50
89.9999975
 41
0.8
 51
0.0
100
AcDbText
  0
TEXT
  5
12E
100
AcDbEntity
  8
MST_1_1
 62
     7
100
AcDbText
 10
14.93749597
 20
28.54545025
 30
0.0
 40
5.0
  1
12
  7
ARIAL
 50
89.9999975
 41
0.8
 51
0.0
100
AcDbText
  0
TEXT
  5
12F
100
AcDbEntity
  8
MST_1_1
 62
     7
100
AcDbText
 10
-74.34408066
 20
-23.95454975
 30
0.0
 40
5.0
  1
HECO-FIX-plus SK 3kx16
  7
ARIAL
 50
0.0
 41
0.8
 51
0.0
100
AcDbText
  0
TEXT
  5
130
100
AcDbEntity
  8
MST_1_1
 62
     7
100
AcDbText
 10
-74.34408066
 20
6.04545025
 30
0.0
 40
5.0
  1
HECO-FIX-plus SK 3kx12
  7
ARIAL
 50
0.0
 41
0.8
 51
0.0
100
AcDbText
  0
TEXT
  5
131
100
AcDbEntity
  8
MST_1_1
 62
     7
100
AcDbText
 10
-128.66023365
 20
6.04545025
 30
0.0
 40
5.0
  1
T-Drive T8
  7
ARIAL
 50
0.0
 41
0.8
 51
0.0
100
AcDbText
  0
TEXT
  5
132
100
AcDbEntity
  8
MST_1_1
 62
     7
100
AcDbText
 10
-128.66023365
 20
-23.95454975
 30
0.0
 40
5.0
  1
T-Drive T8
  7
ARIAL
 50
0.0
 41
0.8
 51
0.0
100
AcDbText
  0
ENDSEC
  0
SECTION
  2
OBJECTS
  0
DICTIONARY
  5
1
100
AcDbDictionary
  3
ACAD_GROUP
350
2
  3
ACAD_MLINESTYLE
350
3
  0
DICTIONARY
  5
2
102
{CDWK_REACTORS
330
1
102
}
100
AcDbDictionary
  0
DICTIONARY
  5
3
102
{CDWK_REACTORS
330
1
102
}
100
AcDbDictionary
  3
STANDARD
350
4
  0
MLINESTYLE
  5
4
102
{CDWK_REACTORS
330
3
102
}
100
AcDbMlineStyle
  2
STANDARD
 70
     0
  3

 62
     0
 51
90.0
 52
90.0
 71
     2
 49
0.5
 62
   256
  6
BYLAYER
 49
-0.5
 62
   256
  6
BYLAYER
  0
ENDSEC
  0
EOF
