  0
SECTION
  2
HEADER
  9
$ACADVER
  1
AC1012
  9
$DWGCODEPAGE
  3
ANSI_1252
  9
$INSBASE
 10
0.0
 20
0.0
 30
0.0
  9
$EXTMIN
 10
-166.60311266
 20
-433.03069358
  9
$EXTMAX
 10
694.482785
 20
192.92473756
  9
$LIMMIN
 10
-166.60311266
 20
-433.03069358
  9
$LIMMAX
 10
694.482785
 20
192.92473756
  9
$ORTHOMODE
 70
     0
  9
$REGENMODE
 70
     1
  9
$FILLMODE
 70
     1
  9
$QTEXTMODE
 70
     0
  9
$MIRRTEXT
 70
     1
  9
$DRAGMODE
 70
     2
  9
$LTSCALE
 40
1.0
  9
$OSMODE
 70
     0
  9
$ATTMODE
 70
     1
  9
$TEXTSIZE
 40
3.5
  9
$TRACEWID
 40
1.0
  9
$TEXTSTYLE
  7
STANDARD
  9
$CLAYER
  8
0
  9
$CELTYPE
  6
BYLAYER
  9
$CECOLOR
 62
   256
  9
$DIMSCALE
 40
1.0
  9
$DIMASZ
 40
2.0
  9
$DIMEXO
 40
5.0
  9
$DIMDLI
 40
10.0
  9
$DIMRND
 40
0.0
  9
$DIMDLE
 40
2.0
  9
$DIMEXE
 40
2.0
  9
$DIMTP
 40
0.0
  9
$DIMTM
 40
0.0
  9
$DIMTXT
 40
2.5
  9
$DIMCEN
 40
1.5
  9
$DIMTSZ
 40
0.0
  9
$DIMTOL
 70
     0
  9
$DIMLIM
 70
     0
  9
$DIMTIH
 70
     1
  9
$DIMTOH
 70
     0
  9
$DIMSE1
 70
     0
  9
$DIMSE2
 70
     0
  9
$DIMTAD
 70
     1
  9
$DIMZIN
 70
     8
  9
$DIMBLK
  1

  9
$DIMASO
 70
     1
  9
$DIMSHO
 70
     1
  9
$DIMPOST
  1

  9
$DIMAPOST
  1

  9
$DIMALT
 70
     0
  9
$DIMALTD
 70
     2
  9
$DIMALTF
 40
25.4
  9
$DIMLFAC
 40
1.0
  9
$DIMTOFL
 70
     0
  9
$DIMTVP
 40
0.0
  9
$DIMTIX
 70
     0
  9
$DIMSOXD
 70
     0
  9
$DIMSAH
 70
     0
  9
$DIMBLK1
  1

  9
$DIMBLK2
  1

  9
$DIMSTYLE
  2
*UNNAMED
  9
$DIMCLRD
 70
     9
  9
$DIMCLRE
 70
     9
  9
$DIMCLRT
 70
     7
  9
$DIMTFAC
 40
1.0
  9
$DIMGAP
 40
0.09
  9
$DIMUNIT
 70
     2
  9
$LUNITS
 70
     2
  9
$LUPREC
 70
     6
  9
$AXISMODE
 70
     0
  9
$AXISUNIT
 10
0.0
 20
0.0
  9
$SKETCHINC
 40
0.1
  9
$FILLETRAD
 40
0.0
  9
$AUNITS
 70
     0
  9
$AUPREC
 70
     0
  9
$MENU
  1
ACAD
  9
$ELEVATION
 40
0.0
  9
$PELEVATION
 40
0.0
  9
$THICKNESS
 40
0.0
  9
$LIMCHECK
 70
     0
  9
$BLIPMODE
 70
     1
  9
$CHAMFERA
 40
0.0
  9
$CHAMFERB
 40
0.0
  9
$SKPOLY
 70
     1
  9
$TDCREATE
 40
2456124.0000000000
  9
$TDUPDATE
 40
2456124.0000000000
  9
$TDINDWG
 40
0.0
  9
$TDUSRTIMER
 40
0.0
  9
$USRTIMER
 70
     1
  9
$ANGBASE
 50
0.0
  9
$ANGDIR
 70
     0
  9
$PDMODE
 70
     0
  9
$PDSIZE
 40
0.0
  9
$PLINEWID
 40
0.0
  9
$COORDS
 70
     2
  9
$SPLFRAME
 70
     0
  9
$SPLINETYPE
 70
     6
  9
$SPLINESEGS
 70
     8
  9
$ATTDIA
 70
     1
  9
$ATTREQ
 70
     1
  9
$HANDLING
 70
     1
  9
$HANDSEED
  5
     5FB
  9
$SURFTAB1
 70
     6
  9
$SURFTAB2
 70
     6
  9
$SURFTYPE
 70
     6
  9
$SURFU
 70
     6
  9
$SURFV
 70
     6
  9
$UCSNAME
  2

  9
$UCSORG
 10
0.0
 20
0.0
 30
0.0
  9
$UCSXDIR
 10
1.0
 20
0.0
 30
0.0
  9
$UCSYDIR
 10
0.0
 20
1.0
 30
0.0
  9
$PUCSNAME
  2

  9
$PUCSORG
 10
0.0
 20
0.0
 30
0.0
  9
$PUCSXDIR
 10
1.0
 20
0.0
 30
0.0
  9
$PUCSYDIR
 10
0.0
 20
1.0
 30
0.0
  9
$USERI1
 70
     0
  9
$USERI2
 70
     0
  9
$USERI3
 70
     0
  9
$USERI4
 70
     0
  9
$USERI5
 70
     0
  9
$USERR1
 40
0.0
  9
$USERR2
 40
0.0
  9
$USERR3
 40
0.0
  9
$USERR4
 40
0.0
  9
$USERR5
 40
0.0
  9
$WORLDVIEW
 70
     1
  9
$SHADEDGE
 70
     3
  9
$SHADEDIF
 70
    70
  9
$TILEMODE
 70
     1
  9
$MAXACTVP
 70
    16
  9
$PINSBASE
 10
0.0
 20
0.0
 30
0.0
  9
$PLIMCHECK
 70
     0
  9
$PEXTMIN
 10
1.0000000000000E+20
 20
1.0000000000000E+20
 30
1.0000000000000E+20
  9
$PEXTMAX
 10
-1.0000000000000E+20
 20
-1.0000000000000E+20
 30
-1.0000000000000E+20
  9
$PLIMMIN
 10
0.0
 20
0.0
  9
$UNITMODE
 70
     0
  9
$VISRETAIN
 70
     0
  9
$MEASUREMENT
 70
     1
  0
ENDSEC
  0
SECTION
  2
TABLES
  0
TABLE
  2
VPORT
  5
119
100
AcDbSymbolTable
 70
     1
  0
ENDTAB
  0
TABLE
  2
STYLE
  5
11A
100
AcDbSymbolTable
 70
     4
  0
STYLE
  5
11B
100
AcDbSymbolTableRecord
100
AcDbTextStyleTableRecord
  2
STANDARD
 70
     0
 40
0.0
 41
1.0
 50
0.0
 71
     0
 42
3.5
  3
MONOTXT
  4

  0
STYLE
  5
11C
100
AcDbSymbolTableRecord
100
AcDbTextStyleTableRecord
  2
CADWORK1
 70
     0
 40
0.0
 41
1.0
 50
0.0
 71
     0
 42
3.5
  3
MONOTXT
  4

  0
STYLE
  5
11D
100
AcDbSymbolTableRecord
100
AcDbTextStyleTableRecord
  2
MONOTXT
 70
     0
 40
0.0
 41
1.0
 50
0.0
 71
     0
 42
3.5
  3
MONOTXT
  4

  0
STYLE
  5
11E
100
AcDbSymbolTableRecord
100
AcDbTextStyleTableRecord
  2
TAHOMA
 70
     0
 40
0.0
 41
1.0
 50
0.0
 71
     0
 42
3.5
  3

  4

1001
ACAD
1000
Tahoma
1071
        0
  0
STYLE
  5
11F
100
AcDbSymbolTableRecord
100
AcDbTextStyleTableRecord
  2
ARIAL
 70
     0
 40
0.0
 41
1.0
 50
0.0
 71
     0
 42
3.5
  3

  4

1001
ACAD
1000
Arial
1071
        0
  0
ENDTAB
  0
TABLE
  2
LTYPE
  5
120
100
AcDbSymbolTable
 70
    12
  0
LTYPE
  5
121
100
AcDbSymbolTableRecord
100
AcDbLinetypeTableRecord
  2
BYBLOCK
 70
    64
  3

 72
    65
 73
     0
 40
0.0
  0
LTYPE
  5
122
100
AcDbSymbolTableRecord
100
AcDbLinetypeTableRecord
  2
BYLAYER
 70
    64
  3

 72
    65
 73
     0
 40
0.0
  0
LTYPE
  5
123
100
AcDbSymbolTableRecord
100
AcDbLinetypeTableRecord
  2
CONTINUOUS
 70
    64
  3
Solid line
 72
    65
 73
     0
 40
0.0
  0
LTYPE
  5
124
100
AcDbSymbolTableRecord
100
AcDbLinetypeTableRecord
  2
DOT
 70
    64
  3
. . . . . . . . . . . . . . . . . . . . . . . .
 72
    65
 73
     2
 40
2.5
 49
0.0
 74
     0
 49
-2.5
 74
     0
  0
LTYPE
  5
125
100
AcDbSymbolTableRecord
100
AcDbLinetypeTableRecord
  2
DASHED
 70
    64
  3
__ __ __ __ __ __ __ __ __ __ __ __ __ __ __ __
 72
    65
 73
     2
 40
7.5
 49
5.0
 74
     0
 49
-2.5
 74
     0
  0
LTYPE
  5
126
100
AcDbSymbolTableRecord
100
AcDbLinetypeTableRecord
  2
BORDER
 70
    64
  3
 __ __ . __ __ . __ __ . __ __ . __ __ . __ __ .
 72
    65
 73
     6
 40
17.0
 49
5.0
 74
     0
 49
-2.0
 74
     0
 49
5.0
 74
     0
 49
-2.0
 74
     0
 49
1.0
 74
     0
 49
-2.0
 74
     0
  0
LTYPE
  5
127
100
AcDbSymbolTableRecord
100
AcDbLinetypeTableRecord
  2
DAL
 70
    64
  3
Solid line (for MAPS)
 72
    65
 73
     0
 40
0.0
  0
LTYPE
  5
128
100
AcDbSymbolTableRecord
100
AcDbLinetypeTableRecord
  2
MUR
 70
    64
  3
Solid line (for MAPS)
 72
    65
 73
     0
 40
0.0
  0
LTYPE
  5
129
100
AcDbSymbolTableRecord
100
AcDbLinetypeTableRecord
  2
SOM
 70
    64
  3
Solid line (for MAPS)
 72
    65
 73
     0
 40
0.0
  0
LTYPE
  5
12A
100
AcDbSymbolTableRecord
100
AcDbLinetypeTableRecord
  2
COL
 70
    64
  3
Solid line (for MAPS)
 72
    65
 73
     0
 40
0.0
  0
LTYPE
  5
12B
100
AcDbSymbolTableRecord
100
AcDbLinetypeTableRecord
  2
LGN
 70
    64
  3
Solid line (for MAPS)
 72
    65
 73
     0
 40
0.0
  0
LTYPE
  5
12C
100
AcDbSymbolTableRecord
100
AcDbLinetypeTableRecord
  2
PNT
 70
    64
  3
Solid line (for MAPS)
 72
    65
 73
     0
 40
0.0
  0
ENDTAB
  0
TABLE
  2
LAYER
  5
12D
100
AcDbSymbolTable
 70
     1
  0
LAYER
  5
12E
100
AcDbSymbolTableRecord
100
AcDbLayerTableRecord
  2
0
 70
     0
 62
     1
  6
CONTINUOUS
  0
LAYER
  5
12F
100
AcDbSymbolTableRecord
100
AcDbLayerTableRecord
  2
MST_1_1
 70
     0
 62
     7
  6
CONTINUOUS
  0
ENDTAB
  0
TABLE
  2
VIEW
  5
130
100
AcDbSymbolTable
 70
     0
  0
ENDTAB
  0
TABLE
  2
UCS
  5
131
100
AcDbSymbolTable
 70
     0
  0
ENDTAB
  0
TABLE
  2
APPID
  5
132
100
AcDbSymbolTable
 70
     1
  0
APPID
  5
133
100
AcDbSymbolTableRecord
100
AcDbRegAppTableRecord
  2
ACAD
 70
     0
  0
ENDTAB
  0
TABLE
  2
DIMSTYLE
  5
134
100
AcDbSymbolTable
 70
     0
  0
ENDTAB
  0
TABLE
  2
BLOCK_RECORD
  5
135
100
AcDbSymbolTable
 70
     0
  0
BLOCK_RECORD
  5
136
100
AcDbSymbolTableRecord
100
AcDbBlockTableRecord
  2
*MODEL_SPACE
  0
BLOCK_RECORD
  5
137
100
AcDbSymbolTableRecord
100
AcDbBlockTableRecord
  2
*PAPER_SPACE
  0
BLOCK_RECORD
  5
138
100
AcDbSymbolTableRecord
100
AcDbBlockTableRecord
  2
CDWK_EXTR_0
  0
BLOCK_RECORD
  5
139
100
AcDbSymbolTableRecord
100
AcDbBlockTableRecord
  2
CDWK_EXTR_1D
  0
BLOCK_RECORD
  5
13A
100
AcDbSymbolTableRecord
100
AcDbBlockTableRecord
  2
CDWK_EXTR_1G
  0
BLOCK_RECORD
  5
13B
100
AcDbSymbolTableRecord
100
AcDbBlockTableRecord
  2
CDWK_EXTR_2
  0
BLOCK_RECORD
  5
13C
100
AcDbSymbolTableRecord
100
AcDbBlockTableRecord
  2
CDWK_EXTR_3
  0
BLOCK_RECORD
  5
13D
100
AcDbSymbolTableRecord
100
AcDbBlockTableRecord
  2
CDWK_EXTR_4
  0
BLOCK_RECORD
  5
13E
100
AcDbSymbolTableRecord
100
AcDbBlockTableRecord
  2
CDWK_PTTYP0
  0
ENDTAB
  0
ENDSEC
  0
SECTION
  2
BLOCKS
  0
BLOCK
  5
13F
100
AcDbEntity
  8
0
100
AcDbBlockBegin
  2
*MODEL_SPACE
 70
     0
 10
0.0
 20
0.0
 30
0.0
  3
*MODEL_SPACE
  1

  0
ENDBLK
  5
140
100
AcDbEntity
100
AcDbBlockEnd
  0
BLOCK
  5
141
100
AcDbEntity
  8
0
100
AcDbBlockBegin
  2
*PAPER_SPACE
 70
     0
 10
0.0
 20
0.0
 30
0.0
  3
*PAPER_SPACE
  1

  0
ENDBLK
  5
142
100
AcDbEntity
100
AcDbBlockEnd
  0
BLOCK
  5
143
100
AcDbEntity
  8
0
100
AcDbBlockBegin
  2
CDWK_EXTR_0
 70
     0
 10
0.0
 20
0.0
 30
0.0
  3
CDWK_EXTR_0
  1

  4
Cadwork line-extremity
  0
LINE
  5
144
100
AcDbEntity
  8
0
 62
     0
100
AcDbLine
 10
0.0
 20
0.0
 30
0.0
 11
2.0
 21
0.5
 31
0.0
  0
LINE
  5
145
100
AcDbEntity
  8
0
 62
     0
100
AcDbLine
 10
0.0
 20
0.0
 30
0.0
 11
2.0
 21
-0.5
 31
0.0
  0
LINE
  5
146
100
AcDbEntity
  8
0
 62
     0
100
AcDbLine
 10
2.0
 20
0.5
 30
0.0
 11
2.0
 21
-0.5
 31
0.0
  0
ENDBLK
  5
147
100
AcDbEntity
100
AcDbBlockEnd
  0
BLOCK
  5
148
100
AcDbEntity
  8
0
100
AcDbBlockBegin
  2
CDWK_EXTR_1D
 70
     0
 10
0.0
 20
0.0
 30
0.0
  3
CDWK_EXTR_1D
  1

  4
Cadwork line-extremity
  0
LINE
  5
149
100
AcDbEntity
  8
0
 62
     0
100
AcDbLine
 10
0.0
 20
0.0
 30
0.0
 11
0.0
 21
1.0
 31
0.0
  0
LINE
  5
14A
100
AcDbEntity
  8
0
 62
     0
100
AcDbLine
 10
0.0
 20
1.0
 30
0.0
 11
0.5
 21
1.5
 31
0.0
  0
LINE
  5
14B
100
AcDbEntity
  8
0
 62
     0
100
AcDbLine
 10
0.5
 20
1.5
 30
0.0
 11
1.5
 21
1.5
 31
0.0
  0
ENDBLK
  5
14C
100
AcDbEntity
100
AcDbBlockEnd
  0
BLOCK
  5
14D
100
AcDbEntity
  8
0
100
AcDbBlockBegin
  2
CDWK_EXTR_1G
 70
     0
 10
0.0
 20
0.0
 30
0.0
  3
CDWK_EXTR_1G
  1

  4
Cadwork line-extremity
  0
LINE
  5
14E
100
AcDbEntity
  8
0
 62
     0
100
AcDbLine
 10
0.0
 20
0.0
 30
0.0
 11
0.0
 21
-1.0
 31
0.0
  0
LINE
  5
14F
100
AcDbEntity
  8
0
 62
     0
100
AcDbLine
 10
0.0
 20
-1.0
 30
0.0
 11
0.5
 21
-1.5
 31
0.0
  0
LINE
  5
150
100
AcDbEntity
  8
0
 62
     0
100
AcDbLine
 10
0.5
 20
-1.5
 30
0.0
 11
1.5
 21
-1.5
 31
0.0
  0
ENDBLK
  5
151
100
AcDbEntity
100
AcDbBlockEnd
  0
BLOCK
  5
152
100
AcDbEntity
  8
0
100
AcDbBlockBegin
  2
CDWK_EXTR_2
 70
     0
 10
0.0
 20
0.0
 30
0.0
  3
CDWK_EXTR_2
  1

  4
Cadwork line-extremity
  0
SOLID
  5
153
100
AcDbEntity
  8
0
 62
     0
100
AcDbTrace
 10
0.0
 20
0.0
 11
2.0
 21
0.5
 12
2.0
 22
-0.5
 13
2.0
 23
-0.5
  0
ENDBLK
  5
154
100
AcDbEntity
100
AcDbBlockEnd
  0
BLOCK
  5
155
100
AcDbEntity
  8
0
100
AcDbBlockBegin
  2
CDWK_EXTR_3
 70
     0
 10
0.0
 20
0.0
 30
0.0
  3
CDWK_EXTR_3
  1

  4
Cadwork line-extremity
  0
SOLID
  5
156
100
AcDbEntity
  8
0
 62
     0
100
AcDbTrace
 10
0.0
 20
0.0
 11
2.0
 21
0.5
 12
2.0
 22
-0.5
 13
2.0
 23
-0.5
  0
LINE
  5
157
100
AcDbEntity
  8
0
 62
     0
100
AcDbLine
 10
0.0
 20
1.0
 30
0.0
 11
0.0
 21
-1.0
 31
0.0
  0
ENDBLK
  5
158
100
AcDbEntity
100
AcDbBlockEnd
  0
BLOCK
  5
159
100
AcDbEntity
  8
0
100
AcDbBlockBegin
  2
CDWK_EXTR_4
 70
     0
 10
0.0
 20
0.0
 30
0.0
  3
CDWK_EXTR_4
  1

  4
Cadwork line-extremity
  0
POLYLINE
  5
15A
100
AcDbEntity
  8
0
 62
     0
100
AcDb2dPolyline
 70
     1
 66
     1
 10
0.0
 20
0.0
 30
0.0
 40
0.5
 41
0.5
  0
VERTEX
  5
15B
100
AcDbEntity
  8
0
100
AcDbVertex
100
AcDb2dVertex
 10
-0.25
 20
0.0
 30
0.0
 42
1.0
  0
VERTEX
  5
15C
100
AcDbEntity
  8
0
100
AcDbVertex
100
AcDb2dVertex
 10
0.25
 20
0.0
 30
0.0
 42
1.0
  0
SEQEND
  5
15D
100
AcDbEntity
  0
ENDBLK
  5
15E
100
AcDbEntity
100
AcDbBlockEnd
  0
BLOCK
  5
15F
100
AcDbEntity
  8
0
100
AcDbBlockBegin
  2
CDWK_PTTYP0
 70
     0
 10
0.0
 20
0.0
 30
0.0
  3
CDWK_PTTYP0
  1

  4
Cadwork point
  0
POINT
  5
160
100
AcDbEntity
  8
0
 62
     0
100
AcDbPoint
 10
0.0
 20
0.0
 30
0.0
  0
ENDBLK
  5
161
100
AcDbEntity
100
AcDbBlockEnd
  0
ENDSEC
  0
SECTION
  2
ENTITIES
  0
LINE
  5
162
100
AcDbEntity
  8
MST_1_1
 62
     7
  6
DASHED
100
AcDbLine
 10
36.0389121
 20
28.54545025
 30
0.0
 11
36.0389121
 21
-426.45454975
 31
0.0
  0
LINE
  5
163
100
AcDbEntity
  8
MST_1_1
 62
     7
  6
DASHED
100
AcDbLine
 10
96.0389121
 20
28.54545025
 30
0.0
 11
96.0389121
 21
-6.45454975
 31
0.0
  0
LINE
  5
164
100
AcDbEntity
  8
MST_1_1
 62
     7
  6
DASHED
100
AcDbLine
 10
116.0389121
 20
28.54545025
 30
0.0
 11
116.0389121
 21
-36.45454975
 31
0.0
  0
LINE
  5
165
100
AcDbEntity
  8
MST_1_1
 62
     7
  6
DASHED
100
AcDbLine
 10
136.0389121
 20
28.54545025
 30
0.0
 11
136.0389121
 21
-66.45454975
 31
0.0
  0
LINE
  5
166
100
AcDbEntity
  8
MST_1_1
 62
     7
  6
DASHED
100
AcDbLine
 10
156.0389121
 20
28.54545025
 30
0.0
 11
156.0389121
 21
-96.45454975
 31
0.0
  0
LINE
  5
167
100
AcDbEntity
  8
MST_1_1
 62
     7
  6
DASHED
100
AcDbLine
 10
186.0389121
 20
28.54545025
 30
0.0
 11
186.0389121
 21
-126.45454975
 31
0.0
  0
LINE
  5
168
100
AcDbEntity
  8
MST_1_1
 62
     7
  6
DASHED
100
AcDbLine
 10
216.0389121
 20
28.54545025
 30
0.0
 11
216.0389121
 21
-156.45454975
 31
0.0
  0
LINE
  5
169
100
AcDbEntity
  8
MST_1_1
 62
     7
  6
DASHED
100
AcDbLine
 10
236.0389121
 20
28.54545025
 30
0.0
 11
236.0389121
 21
-186.45454975
 31
0.0
  0
LINE
  5
16A
100
AcDbEntity
  8
MST_1_1
 62
     7
  6
DASHED
100
AcDbLine
 10
266.0389121
 20
28.54545025
 30
0.0
 11
266.0389121
 21
-216.45454975
 31
0.0
  0
LINE
  5
16B
100
AcDbEntity
  8
MST_1_1
 62
     7
  6
DASHED
100
AcDbLine
 10
286.0389121
 20
28.54545025
 30
0.0
 11
286.0389121
 21
-246.45454975
 31
0.0
  0
CIRCLE
  5
16C
100
AcDbEntity
  8
MST_1_1
 62
   137
  6
CONTINUOUS
100
AcDbCircle
 10
-88.99233871
 20
8.54545025
 30
0.0
 40
3.94736842
  0
LWPOLYLINE
  5
16D
100
AcDbEntity
  8
MST_1_1
 62
   137
  6
CONTINUOUS
100
AcDbPolyline
 90
        6
 70
     1
 43
0.0
 38
2500.0
 39
-2500.0
 10
-88.99233871
 20
10.85485148
 10
-86.99233858
 20
9.70015087
 10
-86.99233858
 20
7.39074964
 10
-88.99233871
 20
6.23604902
 10
-90.99233885
 20
7.39074964
 10
-90.99233885
 20
9.70015087
  0
MTEXT
  5
16E
100
AcDbEntity
  8
MST_1_1
 62
     4
100
AcDbMText
 10
-150.88321771
 20
174.32799952
 30
2500.0
 11
1.0
 21
0.0
 31
0.0
 40
20.0
 41
413.41958221
 71
     1
 72
     1
  1
\fTahoma|b0|i0|c0|p18;\H20;\W0.80000001;\C7;Distanzschrauben Innensechskant\PTOPROC 6.0mm\P35.251
  0
LWPOLYLINE
  5
16F
102
{ACAD_REACTORS
330
170
102
}
100
AcDbEntity
  8
MST_1_1
 62
    12
100
AcDbPolyline
 90
       46
 70
     1
 43
0.0
 10
687.62242092
 20
184.89374952
 10
687.49159958
 20
184.90438786
 10
687.36745025
 20
184.93517619
 10
687.25164492
 20
184.98442452
 10
687.14585558
 20
185.05044286
 10
687.05175425
 20
185.13154119
 10
686.97101292
 20
185.22602952
 10
686.90530358
 20
185.33221786
 10
686.85629825
 20
185.44841619
 10
686.82566892
 20
185.57293452
 10
686.81508758
 20
185.70408286
 10
686.81508758
 20
185.70408286
 10
686.82566892
 20
185.83529502
 10
686.85629825
 20
185.95990019
 10
686.90530358
 20
186.07620136
 10
686.97101292
 20
186.18250152
 10
687.05175425
 20
186.27710369
 10
687.14585558
 20
186.35831086
 10
687.25164492
 20
186.42442602
 10
687.36745025
 20
186.47375219
 10
687.49159958
 20
186.50459236
 10
687.62242092
 20
186.51524952
 10
687.62242092
 20
186.51524952
 10
687.75307558
 20
186.50459236
 10
687.87711825
 20
186.47375219
 10
687.99286692
 20
186.42442602
 10
688.09863958
 20
186.35831086
 10
688.19275425
 20
186.27710369
 10
688.27352892
 20
186.18250152
 10
688.33928158
 20
186.07620136
 10
688.38833025
 20
185.95990019
 10
688.41899292
 20
185.83529502
 10
688.42958758
 20
185.70408286
 10
688.42958758
 20
185.70408286
 10
688.41899292
 20
185.57293452
 10
688.38833025
 20
185.44841619
 10
688.33928158
 20
185.33221786
 10
688.27352892
 20
185.22602952
 10
688.19275425
 20
185.13154119
 10
688.09863958
 20
185.05044286
 10
687.99286692
 20
184.98442452
 10
687.87711825
 20
184.93517619
 10
687.75307558
 20
184.90438786
 10
687.62242092
 20
184.89374952
 10
687.62242092
 20
184.89374952
 10
687.62242092
 20
184.89374952
  0
HATCH
  5
170
100
AcDbEntity
  8
MST_1_1
 62
    12
100
AcDbHatch
 10
0.0
 20
0.0
 30
0.0
210
0.0
220
0.0
230
1.0
  2
SOLID
 70
     1
 71
     1
 91
        1
 92
        7
 72
     0
 73
     1
 93
       40
 10
687.62242092
 20
184.89374952
 10
687.49159958
 20
184.90438786
 10
687.36745025
 20
184.93517619
 10
687.25164492
 20
184.98442452
 10
687.14585558
 20
185.05044286
 10
687.05175425
 20
185.13154119
 10
686.97101292
 20
185.22602952
 10
686.90530358
 20
185.33221786
 10
686.85629825
 20
185.44841619
 10
686.82566892
 20
185.57293452
 10
686.81508758
 20
185.70408286
 10
686.82566892
 20
185.83529502
 10
686.85629825
 20
185.95990019
 10
686.90530358
 20
186.07620136
 10
686.97101292
 20
186.18250152
 10
687.05175425
 20
186.27710369
 10
687.14585558
 20
186.35831086
 10
687.25164492
 20
186.42442602
 10
687.36745025
 20
186.47375219
 10
687.49159958
 20
186.50459236
 10
687.62242092
 20
186.51524952
 10
687.75307558
 20
186.50459236
 10
687.87711825
 20
186.47375219
 10
687.99286692
 20
186.42442602
 10
688.09863958
 20
186.35831086
 10
688.19275425
 20
186.27710369
 10
688.27352892
 20
186.18250152
 10
688.33928158
 20
186.07620136
 10
688.38833025
 20
185.95990019
 10
688.41899292
 20
185.83529502
 10
688.42958758
 20
185.70408286
 10
688.41899292
 20
185.57293452
 10
688.38833025
 20
185.44841619
 10
688.33928158
 20
185.33221786
 10
688.27352892
 20
185.22602952
 10
688.19275425
 20
185.13154119
 10
688.09863958
 20
185.05044286
 10
687.99286692
 20
184.98442452
 10
687.87711825
 20
184.93517619
 10
687.75307558
 20
184.90438786
 97
        1
330
16F
 75
     0
 76
     2
 47
0.775229
 98
        1
 10
0.0
 20
0.0
  0
LWPOLYLINE
  5
171
102
{ACAD_REACTORS
330
172
102
}
100
AcDbEntity
  8
MST_1_1
 62
    12
100
AcDbPolyline
 90
        8
 70
     1
 43
0.0
 10
620.15742092
 20
184.32799952
 10
686.12525425
 20
184.32799952
 10
686.12525425
 20
184.32799952
 10
686.12525425
 20
167.74674952
 10
686.12525425
 20
167.74674952
 10
620.15742092
 20
167.74674952
 10
620.15742092
 20
167.74674952
 10
620.15742092
 20
184.32799952
  0
HATCH
  5
172
100
AcDbEntity
  8
MST_1_1
 62
    12
100
AcDbHatch
 10
0.0
 20
0.0
 30
0.0
210
0.0
220
0.0
230
1.0
  2
SOLID
 70
     1
 71
     1
 91
        1
 92
        7
 72
     0
 73
     1
 93
        4
 10
620.15742092
 20
184.32799952
 10
686.12525425
 20
184.32799952
 10
686.12525425
 20
167.74674952
 10
620.15742092
 20
167.74674952
 97
        1
330
171
 75
     0
 76
     2
 47
0.775229
 98
        1
 10
0.0
 20
0.0
  0
LINE
  5
173
100
AcDbEntity
  8
MST_1_1
100
AcDbLine
 10
620.15742092
 20
167.74674952
 30
0.0
 11
620.15742092
 21
167.74674952
 31
0.0
  0
LINE
  5
174
100
AcDbEntity
  8
MST_1_1
100
AcDbLine
 10
620.15742092
 20
167.74674952
 30
0.0
 11
620.15742092
 21
167.74674952
 31
0.0
  0
LINE
  5
175
100
AcDbEntity
  8
MST_1_1
100
AcDbLine
 10
620.15742092
 20
167.74674952
 30
0.0
 11
620.15742092
 21
167.74674952
 31
0.0
  0
LINE
  5
176
100
AcDbEntity
  8
MST_1_1
100
AcDbLine
 10
620.15742092
 20
167.74674952
 30
0.0
 11
620.15742092
 21
167.74674952
 31
0.0
  0
LINE
  5
177
100
AcDbEntity
  8
MST_1_1
100
AcDbLine
 10
620.15742092
 20
167.74674952
 30
0.0
 11
620.15742092
 21
167.74674952
 31
0.0
  0
LINE
  5
178
100
AcDbEntity
  8
MST_1_1
100
AcDbLine
 10
620.15742092
 20
167.74674952
 30
0.0
 11
620.15742092
 21
167.74674952
 31
0.0
  0
LINE
  5
179
100
AcDbEntity
  8
MST_1_1
100
AcDbLine
 10
620.15742092
 20
167.74674952
 30
0.0
 11
620.15742092
 21
167.74674952
 31
0.0
  0
LINE
  5
17A
100
AcDbEntity
  8
MST_1_1
100
AcDbLine
 10
620.15742092
 20
167.74674952
 30
0.0
 11
620.15742092
 21
167.74674952
 31
0.0
  0
LINE
  5
17B
100
AcDbEntity
  8
MST_1_1
100
AcDbLine
 10
620.15742092
 20
167.74674952
 30
0.0
 11
620.15742092
 21
167.74674952
 31
0.0
  0
LINE
  5
17C
100
AcDbEntity
  8
MST_1_1
100
AcDbLine
 10
620.15742092
 20
167.74674952
 30
0.0
 11
620.15742092
 21
167.74674952
 31
0.0
  0
LINE
  5
17D
100
AcDbEntity
  8
MST_1_1
100
AcDbLine
 10
620.15742092
 20
167.74674952
 30
0.0
 11
620.15742092
 21
167.74674952
 31
0.0
  0
LWPOLYLINE
  5
17E
102
{ACAD_REACTORS
330
17F
102
}
100
AcDbEntity
  8
MST_1_1
 62
   190
100
AcDbPolyline
 90
        8
 70
     1
 43
0.0
 10
652.96392092
 20
183.17833286
 10
684.97875425
 20
183.17833286
 10
684.97875425
 20
183.17833286
 10
684.97875425
 20
168.89458119
 10
684.97875425
 20
168.89458119
 10
652.96392092
 20
168.89458119
 10
652.96392092
 20
168.89458119
 10
652.96392092
 20
183.17833286
  0
HATCH
  5
17F
100
AcDbEntity
  8
MST_1_1
 62
   190
100
AcDbHatch
 10
0.0
 20
0.0
 30
0.0
210
0.0
220
0.0
230
1.0
  2
SOLID
 70
     1
 71
     1
 91
        1
 92
        7
 72
     0
 73
     1
 93
        4
 10
652.96392092
 20
183.17833286
 10
684.97875425
 20
183.17833286
 10
684.97875425
 20
168.89458119
 10
652.96392092
 20
168.89458119
 97
        1
330
17E
 75
     0
 76
     2
 47
0.775229
 98
        1
 10
0.0
 20
0.0
  0
LWPOLYLINE
  5
180
102
{ACAD_REACTORS
330
181
102
}
100
AcDbEntity
  8
MST_1_1
 62
    12
100
AcDbPolyline
 90
       22
 70
     1
 43
0.0
 10
654.88175425
 20
171.18784952
 10
654.88175425
 20
180.27436619
 10
654.88175425
 20
180.27436619
 10
663.06108758
 20
180.27436619
 10
663.06108758
 20
180.27436619
 10
663.06108758
 20
177.81001619
 10
663.06108758
 20
177.81001619
 10
659.28508758
 20
177.81001619
 10
659.28508758
 20
177.81001619
 10
659.28508758
 20
176.75539952
 10
659.28508758
 20
176.75539952
 10
662.70275425
 20
176.75539952
 10
662.70275425
 20
176.75539952
 10
662.70275425
 20
174.42759952
 10
662.70275425
 20
174.42759952
 10
659.28508758
 20
174.42759952
 10
659.28508758
 20
174.42759952
 10
659.28508758
 20
171.18784952
 10
659.28508758
 20
171.18784952
 10
654.88175425
 20
171.18784952
 10
654.88175425
 20
171.18784952
 10
654.88175425
 20
171.18784952
  0
HATCH
  5
181
100
AcDbEntity
  8
MST_1_1
 62
    12
100
AcDbHatch
 10
0.0
 20
0.0
 30
0.0
210
0.0
220
0.0
230
1.0
  2
SOLID
 70
     1
 71
     1
 91
        1
 92
        7
 72
     0
 73
     1
 93
       10
 10
654.88175425
 20
171.18784952
 10
654.88175425
 20
180.27436619
 10
663.06108758
 20
180.27436619
 10
663.06108758
 20
177.81001619
 10
659.28508758
 20
177.81001619
 10
659.28508758
 20
176.75539952
 10
662.70275425
 20
176.75539952
 10
662.70275425
 20
174.42759952
 10
659.28508758
 20
174.42759952
 10
659.28508758
 20
171.18784952
 97
        1
330
180
 75
     0
 76
     2
 47
0.775229
 98
        1
 10
0.0
 20
0.0
  0
LWPOLYLINE
  5
182
102
{ACAD_REACTORS
330
183
102
}
100
AcDbEntity
  8
MST_1_1
 62
   190
100
AcDbPolyline
 90
      178
 70
     1
 43
0.0
 10
651.10642092
 20
175.71299952
 10
651.10284892
 20
175.51483281
 10
651.09214492
 20
175.31936579
 10
651.07432692
 20
175.12661817
 10
651.04941292
 20
174.93660966
 10
651.01742092
 20
174.74935994
 10
650.97836892
 20
174.56488872
 10
650.93227492
 20
174.38321571
 10
650.87915692
 20
174.20436059
 10
650.81903292
 20
174.02834307
 10
650.75192092
 20
173.85518286
 10
650.75192092
 20
173.85518286
 10
650.67818792
 20
173.68470899
 10
650.59779692
 20
173.51796192
 10
650.51075992
 20
173.35493346
 10
650.41708892
 20
173.19561539
 10
650.31679592
 20
173.03999952
 10
650.20989292
 20
172.88807766
 10
650.09639192
 20
172.73984159
 10
649.97630492
 20
172.59528312
 10
649.84964392
 20
172.45439406
 10
649.71642092
 20
172.31716619
 10
649.71642092
 20
172.31716619
 10
649.57768225
 20
172.18738541
 10
649.43477158
 20
172.06381792
 10
649.28769692
 20
171.94647104
 10
649.13646625
 20
171.83535206
 10
648.98108758
 20
171.73046827
 10
648.82156892
 20
171.63182699
 10
648.65791825
 20
171.53943551
 10
648.49014358
 20
171.45330112
 10
648.31825292
 20
171.37343114
 10
648.14225425
 20
171.29983286
 10
648.14225425
 20
171.29983286
 10
647.96320625
 20
171.23283472
 10
647.78169025
 20
171.17277779
 10
647.59774825
 20
171.11968826
 10
647.41142225
 20
171.07359232
 10
647.22275425
 20
171.03451619
 10
647.03178625
 20
171.00248606
 10
646.83856025
 20
170.97752812
 10
646.64311825
 20
170.95966859
 10
646.44550225
 20
170.94893366
 10
646.24575425
 20
170.94534952
 10
646.24575425
 20
170.94534952
 10
646.04383392
 20
170.94893366
 10
645.84439158
 20
170.95966859
 10
645.64745525
 20
170.97752812
 10
645.45305292
 20
171.00248606
 10
645.26121258
 20
171.03451619
 10
645.07196225
 20
171.07359232
 10
644.88532992
 20
171.11968826
 10
644.70134358
 20
171.17277779
 10
644.52003125
 20
171.23283472
 10
644.34142092
 20
171.29983286
 10
644.34142092
 20
171.29983286
 10
644.16549442
 20
171.37354849
 10
643.99360892
 20
171.45377192
 10
643.82575542
 20
171.54049796
 10
643.66192492
 20
171.63372139
 10
643.50210842
 20
171.73343702
 10
643.34629692
 20
171.83963966
 10
643.19448142
 20
171.95232409
 10
643.04665292
 20
172.07148512
 10
642.90280242
 20
172.19711756
 10
642.76292092
 20
172.32921619
 10
642.76292092
 20
172.32921619
 10
642.63136208
 20
172.46299107
 10
642.50621025
 20
172.60073526
 10
642.38750242
 20
172.74243304
 10
642.27527558
 20
172.88806872
 10
642.16956675
 20
173.03762661
 10
642.07041292
 20
173.19109099
 10
641.97785108
 20
173.34844617
 10
641.89191825
 20
173.50967646
 10
641.81265142
 20
173.67476614
 10
641.74008758
 20
173.84369952
 10
641.74008758
 20
173.84369952
 10
641.67426975
 20
174.01682217
 10
641.61532492
 20
174.19302672
 10
641.56326608
 20
174.37230807
 10
641.51810625
 20
174.55466112
 10
641.47985842
 20
174.74008077
 10
641.44853558
 20
174.92856192
 10
641.42415075
 20
175.12009947
 10
641.40671692
 20
175.31468832
 10
641.39624708
 20
175.51232337
 10
641.39275425
 20
175.71299952
 10
641.39275425
 20
175.71299952
 10
641.39624708
 20
175.91367156
 10
641.40671692
 20
176.11139379
 10
641.42415075
 20
176.30617542
 10
641.44853558
 20
176.49802566
 10
641.47985842
 20
176.68695369
 10
641.51810625
 20
176.87296872
 10
641.56326608
 20
177.05607996
 10
641.61532492
 20
177.23629659
 10
641.67426975
 20
177.41362782
 10
641.74008758
 20
177.58808286
 10
641.74008758
 20
177.58808286
 10
641.81265142
 20
177.75814931
 10
641.89191825
 20
177.92432246
 10
641.97785108
 20
178.08656301
 10
642.07041292
 20
178.24483166
 10
642.16956675
 20
178.39908911
 10
642.27527558
 20
178.54929606
 10
642.38750242
 20
178.69541321
 10
642.50621025
 20
178.83740126
 10
642.63136208
 20
178.97522091
 10
642.76292092
 20
179.10883286
 10
642.76292092
 20
179.10883286
 10
642.90172475
 20
179.23922469
 10
643.04455158
 20
179.36334752
 10
643.19142442
 20
179.48118236
 10
643.34236625
 20
179.59271019
 10
643.49740008
 20
179.69791202
 10
643.65654892
 20
179.79676886
 10
643.81983575
 20
179.88926169
 10
643.98728358
 20
179.97537152
 10
644.15891542
 20
180.05507936
 10
644.33475425
 20
180.12836619
 10
644.33475425
 20
180.12836619
 10
644.51366825
 20
180.19539777
 10
644.69530625
 20
180.25529486
 10
644.87966225
 20
180.30807594
 10
645.06673025
 20
180.35375952
 10
645.25650425
 20
180.39236411
 10
645.44897825
 20
180.42390819
 10
645.64414625
 20
180.44841027
 10
645.84200225
 20
180.46588886
 10
646.04254025
 20
180.47636244
 10
646.24575425
 20
180.47984952
 10
646.24575425
 20
180.47984952
 10
646.44912592
 20
180.47636244
 10
646.64982758
 20
180.46588886
 10
646.84783925
 20
180.44841027
 10
647.04314092
 20
180.42390819
 10
647.23571258
 20
180.39236411
 10
647.42553425
 20
180.35375952
 10
647.61258592
 20
180.30807594
 10
647.79684758
 20
180.25529486
 10
647.97829925
 20
180.19539777
 10
648.15692092
 20
180.12836619
 10
648.15692092
 20
180.12836619
 10
648.33292358
 20
180.05507936
 10
648.50484225
 20
179.97537152
 10
648.67269292
 20
179.88926169
 10
648.83649158
 20
179.79676886
 10
648.99625425
 20
179.69791202
 10
649.15199692
 20
179.59271019
 10
649.30373558
 20
179.48118236
 10
649.45148625
 20
179.36334752
 10
649.59526492
 20
179.23922469
 10
649.73508758
 20
179.10883286
 10
649.73508758
 20
179.10883286
 10
649.86543242
 20
178.97405834
 10
649.98954625
 20
178.83523072
 10
650.10739808
 20
178.69237391
 10
650.21895692
 20
178.54551179
 10
650.32419175
 20
178.39466827
 10
650.42307158
 20
178.23986726
 10
650.51556542
 20
178.08113264
 10
650.60164225
 20
177.91848832
 10
650.68127108
 20
177.75195821
 10
650.75442092
 20
177.58156619
 10
650.75442092
 20
177.58156619
 10
650.82146292
 20
177.40727427
 10
650.88139692
 20
177.23019686
 10
650.93423492
 20
177.05033144
 10
650.97998892
 20
176.86767552
 10
651.01867092
 20
176.68222661
 10
651.05029292
 20
176.49398219
 10
651.07486692
 20
176.30293977
 10
651.09240492
 20
176.10909686
 10
651.10291892
 20
175.91245094
 10
651.10642092
 20
175.71299952
 10
651.10642092
 20
175.71299952
 10
651.10642092
 20
175.71299952
  0
HATCH
  5
183
100
AcDbEntity
  8
MST_1_1
 62
   190
100
AcDbHatch
 10
0.0
 20
0.0
 30
0.0
210
0.0
220
0.0
230
1.0
  2
SOLID
 70
     1
 71
     1
 91
        1
 92
        7
 72
     0
 73
     1
 93
      160
 10
651.10642092
 20
175.71299952
 10
651.10284892
 20
175.51483281
 10
651.09214492
 20
175.31936579
 10
651.07432692
 20
175.12661817
 10
651.04941292
 20
174.93660966
 10
651.01742092
 20
174.74935994
 10
650.97836892
 20
174.56488872
 10
650.93227492
 20
174.38321571
 10
650.87915692
 20
174.20436059
 10
650.81903292
 20
174.02834307
 10
650.75192092
 20
173.85518286
 10
650.67818792
 20
173.68470899
 10
650.59779692
 20
173.51796192
 10
650.51075992
 20
173.35493346
 10
650.41708892
 20
173.19561539
 10
650.31679592
 20
173.03999952
 10
650.20989292
 20
172.88807766
 10
650.09639192
 20
172.73984159
 10
649.97630492
 20
172.59528312
 10
649.84964392
 20
172.45439406
 10
649.71642092
 20
172.31716619
 10
649.57768225
 20
172.18738541
 10
649.43477158
 20
172.06381792
 10
649.28769692
 20
171.94647104
 10
649.13646625
 20
171.83535206
 10
648.98108758
 20
171.73046827
 10
648.82156892
 20
171.63182699
 10
648.65791825
 20
171.53943551
 10
648.49014358
 20
171.45330112
 10
648.31825292
 20
171.37343114
 10
648.14225425
 20
171.29983286
 10
647.96320625
 20
171.23283472
 10
647.78169025
 20
171.17277779
 10
647.59774825
 20
171.11968826
 10
647.41142225
 20
171.07359232
 10
647.22275425
 20
171.03451619
 10
647.03178625
 20
171.00248606
 10
646.83856025
 20
170.97752812
 10
646.64311825
 20
170.95966859
 10
646.44550225
 20
170.94893366
 10
646.24575425
 20
170.94534952
 10
646.04383392
 20
170.94893366
 10
645.84439158
 20
170.95966859
 10
645.64745525
 20
170.97752812
 10
645.45305292
 20
171.00248606
 10
645.26121258
 20
171.03451619
 10
645.07196225
 20
171.07359232
 10
644.88532992
 20
171.11968826
 10
644.70134358
 20
171.17277779
 10
644.52003125
 20
171.23283472
 10
644.34142092
 20
171.29983286
 10
644.16549442
 20
171.37354849
 10
643.99360892
 20
171.45377192
 10
643.82575542
 20
171.54049796
 10
643.66192492
 20
171.63372139
 10
643.50210842
 20
171.73343702
 10
643.34629692
 20
171.83963966
 10
643.19448142
 20
171.95232409
 10
643.04665292
 20
172.07148512
 10
642.90280242
 20
172.19711756
 10
642.76292092
 20
172.32921619
 10
642.63136208
 20
172.46299107
 10
642.50621025
 20
172.60073526
 10
642.38750242
 20
172.74243304
 10
642.27527558
 20
172.88806872
 10
642.16956675
 20
173.03762661
 10
642.07041292
 20
173.19109099
 10
641.97785108
 20
173.34844617
 10
641.89191825
 20
173.50967646
 10
641.81265142
 20
173.67476614
 10
641.74008758
 20
173.84369952
 10
641.67426975
 20
174.01682217
 10
641.61532492
 20
174.19302672
 10
641.56326608
 20
174.37230807
 10
641.51810625
 20
174.55466112
 10
641.47985842
 20
174.74008077
 10
641.44853558
 20
174.92856192
 10
641.42415075
 20
175.12009947
 10
641.40671692
 20
175.31468832
 10
641.39624708
 20
175.51232337
 10
641.39275425
 20
175.71299952
 10
641.39624708
 20
175.91367156
 10
641.40671692
 20
176.11139379
 10
641.42415075
 20
176.30617542
 10
641.44853558
 20
176.49802566
 10
641.47985842
 20
176.68695369
 10
641.51810625
 20
176.87296872
 10
641.56326608
 20
177.05607996
 10
641.61532492
 20
177.23629659
 10
641.67426975
 20
177.41362782
 10
641.74008758
 20
177.58808286
 10
641.81265142
 20
177.75814931
 10
641.89191825
 20
177.92432246
 10
641.97785108
 20
178.08656301
 10
642.07041292
 20
178.24483166
 10
642.16956675
 20
178.39908911
 10
642.27527558
 20
178.54929606
 10
642.38750242
 20
178.69541321
 10
642.50621025
 20
178.83740126
 10
642.63136208
 20
178.97522091
 10
642.76292092
 20
179.10883286
 10
642.90172475
 20
179.23922469
 10
643.04455158
 20
179.36334752
 10
643.19142442
 20
179.48118236
 10
643.34236625
 20
179.59271019
 10
643.49740008
 20
179.69791202
 10
643.65654892
 20
179.79676886
 10
643.81983575
 20
179.88926169
 10
643.98728358
 20
179.97537152
 10
644.15891542
 20
180.05507936
 10
644.33475425
 20
180.12836619
 10
644.51366825
 20
180.19539777
 10
644.69530625
 20
180.25529486
 10
644.87966225
 20
180.30807594
 10
645.06673025
 20
180.35375952
 10
645.25650425
 20
180.39236411
 10
645.44897825
 20
180.42390819
 10
645.64414625
 20
180.44841027
 10
645.84200225
 20
180.46588886
 10
646.04254025
 20
180.47636244
 10
646.24575425
 20
180.47984952
 10
646.44912592
 20
180.47636244
 10
646.64982758
 20
180.46588886
 10
646.84783925
 20
180.44841027
 10
647.04314092
 20
180.42390819
 10
647.23571258
 20
180.39236411
 10
647.42553425
 20
180.35375952
 10
647.61258592
 20
180.30807594
 10
647.79684758
 20
180.25529486
 10
647.97829925
 20
180.19539777
 10
648.15692092
 20
180.12836619
 10
648.33292358
 20
180.05507936
 10
648.50484225
 20
179.97537152
 10
648.67269292
 20
179.88926169
 10
648.83649158
 20
179.79676886
 10
648.99625425
 20
179.69791202
 10
649.15199692
 20
179.59271019
 10
649.30373558
 20
179.48118236
 10
649.45148625
 20
179.36334752
 10
649.59526492
 20
179.23922469
 10
649.73508758
 20
179.10883286
 10
649.86543242
 20
178.97405834
 10
649.98954625
 20
178.83523072
 10
650.10739808
 20
178.69237391
 10
650.21895692
 20
178.54551179
 10
650.32419175
 20
178.39466827
 10
650.42307158
 20
178.23986726
 10
650.51556542
 20
178.08113264
 10
650.60164225
 20
177.91848832
 10
650.68127108
 20
177.75195821
 10
650.75442092
 20
177.58156619
 10
650.82146292
 20
177.40727427
 10
650.88139692
 20
177.23019686
 10
650.93423492
 20
177.05033144
 10
650.97998892
 20
176.86767552
 10
651.01867092
 20
176.68222661
 10
651.05029292
 20
176.49398219
 10
651.07486692
 20
176.30293977
 10
651.09240492
 20
176.10909686
 10
651.10291892
 20
175.91245094
 97
        1
330
182
 75
     0
 76
     2
 47
0.775229
 98
        1
 10
0.0
 20
0.0
  0
LWPOLYLINE
  5
184
102
{ACAD_REACTORS
330
185
102
}
100
AcDbEntity
  8
MST_1_1
 62
    12
100
AcDbPolyline
 90
       90
 70
     1
 43
0.0
 10
646.24575425
 20
173.99881619
 10
646.38097142
 20
174.00355151
 10
646.51073158
 20
174.01773472
 10
646.63504775
 20
174.04133174
 10
646.75393292
 20
174.07430846
 10
646.86740008
 20
174.11663077
 10
646.97546225
 20
174.16826459
 10
647.07813242
 20
174.22917581
 10
647.17542358
 20
174.29933032
 10
647.26734875
 20
174.37869404
 10
647.35392092
 20
174.46723286
 10
647.35392092
 20
174.46723286
 10
647.43361342
 20
174.56435787
 10
647.50498092
 20
174.66747899
 10
647.56800842
 20
174.77663531
 10
647.62268092
 20
174.89186592
 10
647.66898342
 20
175.01320994
 10
647.70690092
 20
175.14070646
 10
647.73641842
 20
175.27439457
 10
647.75752092
 20
175.41431339
 10
647.77019342
 20
175.56050201
 10
647.77442092
 20
175.71299952
 10
647.77442092
 20
175.71299952
 10
647.77019342
 20
175.86624506
 10
647.75752092
 20
176.01325379
 10
647.73641842
 20
176.15405892
 10
647.70690092
 20
176.28869366
 10
647.66898342
 20
176.41719119
 10
647.62268092
 20
176.53958472
 10
647.56800842
 20
176.65590746
 10
647.50498092
 20
176.76619259
 10
647.43361342
 20
176.87047332
 10
647.35392092
 20
176.96878286
 10
647.35392092
 20
176.96878286
 10
647.26734875
 20
177.05880824
 10
647.17542358
 20
177.13942392
 10
647.07813242
 20
177.21061421
 10
646.97546225
 20
177.27236339
 10
646.86740008
 20
177.32465577
 10
646.75393292
 20
177.36747566
 10
646.63504775
 20
177.40080734
 10
646.51073158
 20
177.42463512
 10
646.38097142
 20
177.43894331
 10
646.24575425
 20
177.44371619
 10
646.24575425
 20
177.44371619
 10
646.11060125
 20
177.43893924
 10
645.98075025
 20
177.42460259
 10
645.85621325
 20
177.40069754
 10
645.73700225
 20
177.36721539
 10
645.62312925
 20
177.32414744
 10
645.51460625
 20
177.27148499
 10
645.41144525
 20
177.20921934
 10
645.31365825
 20
177.13734179
 10
645.22125725
 20
177.05584364
 10
645.13425425
 20
176.96471619
 10
645.13425425
 20
176.96471619
 10
645.05390758
 20
176.86635222
 10
644.98206092
 20
176.76203046
 10
644.91870425
 20
176.65175109
 10
644.86382758
 20
176.53551432
 10
644.81742092
 20
176.41332036
 10
644.77947425
 20
176.28516939
 10
644.74997758
 20
176.15106162
 10
644.72892092
 20
176.01099726
 10
644.71629425
 20
175.86497649
 10
644.71208758
 20
175.71299952
 10
644.71208758
 20
175.71299952
 10
644.71629425
 20
175.56050201
 10
644.72892092
 20
175.41431339
 10
644.74997758
 20
175.27439457
 10
644.77947425
 20
175.14070646
 10
644.81742092
 20
175.01320994
 10
644.86382758
 20
174.89186592
 10
644.91870425
 20
174.77663531
 10
644.98206092
 20
174.66747899
 10
645.05390758
 20
174.56435787
 10
645.13425425
 20
174.46723286
 10
645.13425425
 20
174.46723286
 10
645.22125725
 20
174.37869404
 10
645.31365825
 20
174.29933032
 10
645.41144525
 20
174.22917581
 10
645.51460625
 20
174.16826459
 10
645.62312925
 20
174.11663077
 10
645.73700225
 20
174.07430846
 10
645.85621325
 20
174.04133174
 10
645.98075025
 20
174.01773472
 10
646.11060125
 20
174.00355151
 10
646.24575425
 20
173.99881619
 10
646.24575425
 20
173.99881619
 10
646.24575425
 20
173.99881619
  0
HATCH
  5
185
100
AcDbEntity
  8
MST_1_1
 62
    12
100
AcDbHatch
 10
0.0
 20
0.0
 30
0.0
210
0.0
220
0.0
230
1.0
  2
SOLID
 70
     1
 71
     1
 91
        1
 92
        7
 72
     0
 73
     1
 93
       80
 10
646.24575425
 20
173.99881619
 10
646.38097142
 20
174.00355151
 10
646.51073158
 20
174.01773472
 10
646.63504775
 20
174.04133174
 10
646.75393292
 20
174.07430846
 10
646.86740008
 20
174.11663077
 10
646.97546225
 20
174.16826459
 10
647.07813242
 20
174.22917581
 10
647.17542358
 20
174.29933032
 10
647.26734875
 20
174.37869404
 10
647.35392092
 20
174.46723286
 10
647.43361342
 20
174.56435787
 10
647.50498092
 20
174.66747899
 10
647.56800842
 20
174.77663531
 10
647.62268092
 20
174.89186592
 10
647.66898342
 20
175.01320994
 10
647.70690092
 20
175.14070646
 10
647.73641842
 20
175.27439457
 10
647.75752092
 20
175.41431339
 10
647.77019342
 20
175.56050201
 10
647.77442092
 20
175.71299952
 10
647.77019342
 20
175.86624506
 10
647.75752092
 20
176.01325379
 10
647.73641842
 20
176.15405892
 10
647.70690092
 20
176.28869366
 10
647.66898342
 20
176.41719119
 10
647.62268092
 20
176.53958472
 10
647.56800842
 20
176.65590746
 10
647.50498092
 20
176.76619259
 10
647.43361342
 20
176.87047332
 10
647.35392092
 20
176.96878286
 10
647.26734875
 20
177.05880824
 10
647.17542358
 20
177.13942392
 10
647.07813242
 20
177.21061421
 10
646.97546225
 20
177.27236339
 10
646.86740008
 20
177.32465577
 10
646.75393292
 20
177.36747566
 10
646.63504775
 20
177.40080734
 10
646.51073158
 20
177.42463512
 10
646.38097142
 20
177.43894331
 10
646.24575425
 20
177.44371619
 10
646.11060125
 20
177.43893924
 10
645.98075025
 20
177.42460259
 10
645.85621325
 20
177.40069754
 10
645.73700225
 20
177.36721539
 10
645.62312925
 20
177.32414744
 10
645.51460625
 20
177.27148499
 10
645.41144525
 20
177.20921934
 10
645.31365825
 20
177.13734179
 10
645.22125725
 20
177.05584364
 10
645.13425425
 20
176.96471619
 10
645.05390758
 20
176.86635222
 10
644.98206092
 20
176.76203046
 10
644.91870425
 20
176.65175109
 10
644.86382758
 20
176.53551432
 10
644.81742092
 20
176.41332036
 10
644.77947425
 20
176.28516939
 10
644.74997758
 20
176.15106162
 10
644.72892092
 20
176.01099726
 10
644.71629425
 20
175.86497649
 10
644.71208758
 20
175.71299952
 10
644.71629425
 20
175.56050201
 10
644.72892092
 20
175.41431339
 10
644.74997758
 20
175.27439457
 10
644.77947425
 20
175.14070646
 10
644.81742092
 20
175.01320994
 10
644.86382758
 20
174.89186592
 10
644.91870425
 20
174.77663531
 10
644.98206092
 20
174.66747899
 10
645.05390758
 20
174.56435787
 10
645.13425425
 20
174.46723286
 10
645.22125725
 20
174.37869404
 10
645.31365825
 20
174.29933032
 10
645.41144525
 20
174.22917581
 10
645.51460625
 20
174.16826459
 10
645.62312925
 20
174.11663077
 10
645.73700225
 20
174.07430846
 10
645.85621325
 20
174.04133174
 10
645.98075025
 20
174.01773472
 10
646.11060125
 20
174.00355151
 97
        1
330
184
 75
     0
 76
     2
 47
0.775229
 98
        1
 10
0.0
 20
0.0
  0
LWPOLYLINE
  5
186
102
{ACAD_REACTORS
330
187
102
}
100
AcDbEntity
  8
MST_1_1
 62
   190
100
AcDbPolyline
 90
       60
 70
     1
 43
0.0
 10
632.60672092
 20
171.18784952
 10
632.60672092
 20
180.27436619
 10
632.60672092
 20
180.27436619
 10
636.71698758
 20
180.27436619
 10
636.71698758
 20
180.27436619
 10
637.06572335
 20
180.26646556
 10
637.39766572
 20
180.24277312
 10
637.71280728
 20
180.20330309
 10
638.01114065
 20
180.14806966
 10
638.29265842
 20
180.07708702
 10
638.55735318
 20
179.99036939
 10
638.80521755
 20
179.88793096
 10
639.03624412
 20
179.76978592
 10
639.25042548
 20
179.63594849
 10
639.44775425
 20
179.48643286
 10
639.44775425
 20
179.48643286
 10
639.62696008
 20
179.32184381
 10
639.78728092
 20
179.14327846
 10
639.92872175
 20
178.95076951
 10
640.05128758
 20
178.74434966
 10
640.15498342
 20
178.52405161
 10
640.23981425
 20
178.28990806
 10
640.30578508
 20
178.04195171
 10
640.35290092
 20
177.78021526
 10
640.38116675
 20
177.50473141
 10
640.39058758
 20
177.21553286
 10
640.39058758
 20
177.21553286
 10
640.38580592
 20
177.02504829
 10
640.37147425
 20
176.84140232
 10
640.34761258
 20
176.66460656
 10
640.31424092
 20
176.49467259
 10
640.27137925
 20
176.33161202
 10
640.21904758
 20
176.17543646
 10
640.15726592
 20
176.02615749
 10
640.08605425
 20
175.88378672
 10
640.00543258
 20
175.74833576
 10
639.91542092
 20
175.61981619
 10
639.91542092
 20
175.61981619
 10
639.81697992
 20
175.49922394
 10
639.71203292
 20
175.38918819
 10
639.60054392
 20
175.28969544
 10
639.48247692
 20
175.20073219
 10
639.35779592
 20
175.12228494
 10
639.22646492
 20
175.05434019
 10
639.08844792
 20
174.99688444
 10
638.94370892
 20
174.94990419
 10
638.79221192
 20
174.91338594
 10
638.63392092
 20
174.88731619
 10
638.63392092
 20
174.88731619
 10
641.06025425
 20
171.18784952
 10
641.06025425
 20
171.18784952
 10
637.39975425
 20
171.18784952
 10
637.39975425
 20
171.18784952
 10
635.80977092
 20
174.18516619
 10
635.80977092
 20
174.18516619
 10
635.80977092
 20
171.18784952
 10
635.80977092
 20
171.18784952
 10
632.60672092
 20
171.18784952
 10
632.60672092
 20
171.18784952
 10
632.60672092
 20
171.18784952
  0
HATCH
  5
187
100
AcDbEntity
  8
MST_1_1
 62
   190
100
AcDbHatch
 10
0.0
 20
0.0
 30
0.0
210
0.0
220
0.0
230
1.0
  2
SOLID
 70
     1
 71
     1
 91
        1
 92
        7
 72
     0
 73
     1
 93
       47
 10
632.60672092
 20
171.18784952
 10
632.60672092
 20
180.27436619
 10
636.71698758
 20
180.27436619
 10
637.06572335
 20
180.26646556
 10
637.39766572
 20
180.24277312
 10
637.71280728
 20
180.20330309
 10
638.01114065
 20
180.14806966
 10
638.29265842
 20
180.07708702
 10
638.55735318
 20
179.99036939
 10
638.80521755
 20
179.88793096
 10
639.03624412
 20
179.76978592
 10
639.25042548
 20
179.63594849
 10
639.44775425
 20
179.48643286
 10
639.62696008
 20
179.32184381
 10
639.78728092
 20
179.14327846
 10
639.92872175
 20
178.95076951
 10
640.05128758
 20
178.74434966
 10
640.15498342
 20
178.52405161
 10
640.23981425
 20
178.28990806
 10
640.30578508
 20
178.04195171
 10
640.35290092
 20
177.78021526
 10
640.38116675
 20
177.50473141
 10
640.39058758
 20
177.21553286
 10
640.38580592
 20
177.02504829
 10
640.37147425
 20
176.84140232
 10
640.34761258
 20
176.66460656
 10
640.31424092
 20
176.49467259
 10
640.27137925
 20
176.33161202
 10
640.21904758
 20
176.17543646
 10
640.15726592
 20
176.02615749
 10
640.08605425
 20
175.88378672
 10
640.00543258
 20
175.74833576
 10
639.91542092
 20
175.61981619
 10
639.81697992
 20
175.49922394
 10
639.71203292
 20
175.38918819
 10
639.60054392
 20
175.28969544
 10
639.48247692
 20
175.20073219
 10
639.35779592
 20
175.12228494
 10
639.22646492
 20
175.05434019
 10
639.08844792
 20
174.99688444
 10
638.94370892
 20
174.94990419
 10
638.79221192
 20
174.91338594
 10
638.63392092
 20
174.88731619
 10
641.06025425
 20
171.18784952
 10
637.39975425
 20
171.18784952
 10
635.80977092
 20
174.18516619
 10
635.80977092
 20
171.18784952
 97
        1
330
186
 75
     0
 76
     2
 47
0.775229
 98
        1
 10
0.0
 20
0.0
  0
LWPOLYLINE
  5
188
102
{ACAD_REACTORS
330
189
102
}
100
AcDbEntity
  8
MST_1_1
 62
    12
100
AcDbPolyline
 90
       52
 70
     1
 43
0.0
 10
635.80977092
 20
177.93573286
 10
635.80977092
 20
176.16068286
 10
635.80977092
 20
176.16068286
 10
636.31888758
 20
176.16068286
 10
636.31888758
 20
176.16068286
 10
636.40993403
 20
176.16295426
 10
636.49661318
 20
176.16976406
 10
636.57893973
 20
176.18110566
 10
636.65692838
 20
176.19697246
 10
636.73059383
 20
176.21735786
 10
636.79995078
 20
176.24225526
 10
636.86501393
 20
176.27165806
 10
636.92579798
 20
176.30555966
 10
636.98231763
 20
176.34395346
 10
637.03458758
 20
176.38683286
 10
637.03458758
 20
176.38683286
 10
637.08243175
 20
176.43391634
 10
637.12526092
 20
176.48493872
 10
637.16307008
 20
176.53990291
 10
637.19585425
 20
176.59881179
 10
637.22360842
 20
176.66166827
 10
637.24632758
 20
176.72847526
 10
637.26400675
 20
176.79923564
 10
637.27664092
 20
176.87395232
 10
637.28422508
 20
176.95262821
 10
637.28675425
 20
177.03526619
 10
637.28675425
 20
177.03526619
 10
637.28422508
 20
177.12010499
 10
637.27664092
 20
177.20093459
 10
637.26400675
 20
177.27774479
 10
637.24632758
 20
177.35052539
 10
637.22360842
 20
177.41926619
 10
637.19585425
 20
177.48395699
 10
637.16307008
 20
177.54458759
 10
637.12526092
 20
177.60114779
 10
637.08243175
 20
177.65362739
 10
637.03458758
 20
177.70201619
 10
637.03458758
 20
177.70201619
 10
636.98231763
 20
177.74615236
 10
636.92579798
 20
177.78572752
 10
636.86501393
 20
177.82072169
 10
636.79995078
 20
177.85111486
 10
636.73059383
 20
177.87688702
 10
636.65692838
 20
177.89801819
 10
636.57893973
 20
177.91448836
 10
636.49661318
 20
177.92627752
 10
636.40993403
 20
177.93336569
 10
636.31888758
 20
177.93573286
 10
636.31888758
 20
177.93573286
 10
635.80977092
 20
177.93573286
 10
635.80977092
 20
177.93573286
 10
635.80977092
 20
177.93573286
  0
HATCH
  5
189
100
AcDbEntity
  8
MST_1_1
 62
    12
100
AcDbHatch
 10
0.0
 20
0.0
 30
0.0
210
0.0
220
0.0
230
1.0
  2
SOLID
 70
     1
 71
     1
 91
        1
 92
        7
 72
     0
 73
     1
 93
       43
 10
635.80977092
 20
177.93573286
 10
635.80977092
 20
176.16068286
 10
636.31888758
 20
176.16068286
 10
636.40993403
 20
176.16295426
 10
636.49661318
 20
176.16976406
 10
636.57893973
 20
176.18110566
 10
636.65692838
 20
176.19697246
 10
636.73059383
 20
176.21735786
 10
636.79995078
 20
176.24225526
 10
636.86501393
 20
176.27165806
 10
636.92579798
 20
176.30555966
 10
636.98231763
 20
176.34395346
 10
637.03458758
 20
176.38683286
 10
637.08243175
 20
176.43391634
 10
637.12526092
 20
176.48493872
 10
637.16307008
 20
176.53990291
 10
637.19585425
 20
176.59881179
 10
637.22360842
 20
176.66166827
 10
637.24632758
 20
176.72847526
 10
637.26400675
 20
176.79923564
 10
637.27664092
 20
176.87395232
 10
637.28422508
 20
176.95262821
 10
637.28675425
 20
177.03526619
 10
637.28422508
 20
177.12010499
 10
637.27664092
 20
177.20093459
 10
637.26400675
 20
177.27774479
 10
637.24632758
 20
177.35052539
 10
637.22360842
 20
177.41926619
 10
637.19585425
 20
177.48395699
 10
637.16307008
 20
177.54458759
 10
637.12526092
 20
177.60114779
 10
637.08243175
 20
177.65362739
 10
637.03458758
 20
177.70201619
 10
636.98231763
 20
177.74615236
 10
636.92579798
 20
177.78572752
 10
636.86501393
 20
177.82072169
 10
636.79995078
 20
177.85111486
 10
636.73059383
 20
177.87688702
 10
636.65692838
 20
177.89801819
 10
636.57893973
 20
177.91448836
 10
636.49661318
 20
177.92627752
 10
636.40993403
 20
177.93336569
 10
636.31888758
 20
177.93573286
 97
        1
330
188
 75
     0
 76
     2
 47
0.775229
 98
        1
 10
0.0
 20
0.0
  0
LWPOLYLINE
  5
18A
102
{ACAD_REACTORS
330
18B
102
}
100
AcDbEntity
  8
MST_1_1
 62
   190
100
AcDbPolyline
 90
       56
 70
     1
 43
0.0
 10
623.60712092
 20
171.18784952
 10
623.60712092
 20
180.27436619
 10
623.60712092
 20
180.27436619
 10
627.51183758
 20
180.27436619
 10
627.51183758
 20
180.27436619
 10
627.91261373
 20
180.26641752
 10
628.29126478
 20
180.24257486
 10
628.64779463
 20
180.20284319
 10
628.98220718
 20
180.14722752
 10
629.29450633
 20
180.07573286
 10
629.58469598
 20
179.98836419
 10
629.85278003
 20
179.88512652
 10
630.09876238
 20
179.76602486
 10
630.32264693
 20
179.63106419
 10
630.52443758
 20
179.48024952
 10
630.52443758
 20
179.48024952
 10
630.70549278
 20
179.31188819
 10
630.86749718
 20
179.12500086
 10
631.01044898
 20
178.91956752
 10
631.13434638
 20
178.69556819
 10
631.23918758
 20
178.45298286
 10
631.32497078
 20
178.19179152
 10
631.39169418
 20
177.91197419
 10
631.43935598
 20
177.61351086
 10
631.46795438
 20
177.29638152
 10
631.47748758
 20
176.96056619
 10
631.47748758
 20
176.96056619
 10
631.46891768
 20
176.64757417
 10
631.44321438
 20
176.35191206
 10
631.40038728
 20
176.07358574
 10
631.34044598
 20
175.81260112
 10
631.26340008
 20
175.56896411
 10
631.16925918
 20
175.34268059
 10
631.05803288
 20
175.13375647
 10
630.92973078
 20
174.94219766
 10
630.78436248
 20
174.76801004
 10
630.62193758
 20
174.61119952
 10
630.62193758
 20
174.61119952
 10
630.44018492
 20
174.47064207
 10
630.23838225
 20
174.34482792
 10
630.01652258
 20
174.23376937
 10
629.77459892
 20
174.13747872
 10
629.51260425
 20
174.05596827
 10
629.23053158
 20
173.98925032
 10
628.92837392
 20
173.93733717
 10
628.60612425
 20
173.90024112
 10
628.26377558
 20
173.87797447
 10
627.90132092
 20
173.87054952
 10
627.90132092
 20
173.87054952
 10
626.87837092
 20
173.87054952
 10
626.87837092
 20
173.87054952
 10
626.87837092
 20
171.18784952
 10
626.87837092
 20
171.18784952
 10
623.60712092
 20
171.18784952
 10
623.60712092
 20
171.18784952
 10
623.60712092
 20
171.18784952
  0
HATCH
  5
18B
100
AcDbEntity
  8
MST_1_1
 62
   190
100
AcDbHatch
 10
0.0
 20
0.0
 30
0.0
210
0.0
220
0.0
230
1.0
  2
SOLID
 70
     1
 71
     1
 91
        1
 92
        7
 72
     0
 73
     1
 93
       45
 10
623.60712092
 20
171.18784952
 10
623.60712092
 20
180.27436619
 10
627.51183758
 20
180.27436619
 10
627.91261373
 20
180.26641752
 10
628.29126478
 20
180.24257486
 10
628.64779463
 20
180.20284319
 10
628.98220718
 20
180.14722752
 10
629.29450633
 20
180.07573286
 10
629.58469598
 20
179.98836419
 10
629.85278003
 20
179.88512652
 10
630.09876238
 20
179.76602486
 10
630.32264693
 20
179.63106419
 10
630.52443758
 20
179.48024952
 10
630.70549278
 20
179.31188819
 10
630.86749718
 20
179.12500086
 10
631.01044898
 20
178.91956752
 10
631.13434638
 20
178.69556819
 10
631.23918758
 20
178.45298286
 10
631.32497078
 20
178.19179152
 10
631.39169418
 20
177.91197419
 10
631.43935598
 20
177.61351086
 10
631.46795438
 20
177.29638152
 10
631.47748758
 20
176.96056619
 10
631.46891768
 20
176.64757417
 10
631.44321438
 20
176.35191206
 10
631.40038728
 20
176.07358574
 10
631.34044598
 20
175.81260112
 10
631.26340008
 20
175.56896411
 10
631.16925918
 20
175.34268059
 10
631.05803288
 20
175.13375647
 10
630.92973078
 20
174.94219766
 10
630.78436248
 20
174.76801004
 10
630.62193758
 20
174.61119952
 10
630.44018492
 20
174.47064207
 10
630.23838225
 20
174.34482792
 10
630.01652258
 20
174.23376937
 10
629.77459892
 20
174.13747872
 10
629.51260425
 20
174.05596827
 10
629.23053158
 20
173.98925032
 10
628.92837392
 20
173.93733717
 10
628.60612425
 20
173.90024112
 10
628.26377558
 20
173.87797447
 10
627.90132092
 20
173.87054952
 10
626.87837092
 20
173.87054952
 10
626.87837092
 20
171.18784952
 97
        1
330
18A
 75
     0
 76
     2
 47
0.775229
 98
        1
 10
0.0
 20
0.0
  0
LWPOLYLINE
  5
18C
102
{ACAD_REACTORS
330
18D
102
}
100
AcDbEntity
  8
MST_1_1
 62
    12
100
AcDbPolyline
 90
       52
 70
     1
 43
0.0
 10
626.89113758
 20
177.74881619
 10
626.89113758
 20
176.23424952
 10
626.89113758
 20
176.23424952
 10
627.39878758
 20
176.23424952
 10
627.39878758
 20
176.23424952
 10
627.4896257
 20
176.23621782
 10
627.57623052
 20
176.24211592
 10
627.65857273
 20
176.25193362
 10
627.73662305
 20
176.26566072
 10
627.81035217
 20
176.28328702
 10
627.87973078
 20
176.30480232
 10
627.9447296
 20
176.33019642
 10
628.00531932
 20
176.35945912
 10
628.06147063
 20
176.39258022
 10
628.11315425
 20
176.42954952
 10
628.11315425
 20
176.42954952
 10
628.160223
 20
176.47036689
 10
628.20235625
 20
176.51445446
 10
628.2395495
 20
176.56182042
 10
628.27179825
 20
176.61247299
 10
628.299098
 20
176.66642036
 10
628.32144425
 20
176.72367072
 10
628.3388325
 20
176.78423229
 10
628.35125825
 20
176.84811326
 10
628.358717
 20
176.91532182
 10
628.36120425
 20
176.98586619
 10
628.36120425
 20
176.98586619
 10
628.35867048
 20
177.05612387
 10
628.35106212
 20
177.12323966
 10
628.33836855
 20
177.18721764
 10
628.32057918
 20
177.24806192
 10
628.29768342
 20
177.30577661
 10
628.26967065
 20
177.36036579
 10
628.23653028
 20
177.41183357
 10
628.19825172
 20
177.46018406
 10
628.15482435
 20
177.50542134
 10
628.10623758
 20
177.54754952
 10
628.10623758
 20
177.54754952
 10
628.05349168
 20
177.58558094
 10
627.99676838
 20
177.61967486
 10
627.93605928
 20
177.64981577
 10
627.87135598
 20
177.67598819
 10
627.80265008
 20
177.69817661
 10
627.72993318
 20
177.71636552
 10
627.65319688
 20
177.73053944
 10
627.57243278
 20
177.74068286
 10
627.48763248
 20
177.74678027
 10
627.39878758
 20
177.74881619
 10
627.39878758
 20
177.74881619
 10
626.89113758
 20
177.74881619
 10
626.89113758
 20
177.74881619
 10
626.89113758
 20
177.74881619
  0
HATCH
  5
18D
100
AcDbEntity
  8
MST_1_1
 62
    12
100
AcDbHatch
 10
0.0
 20
0.0
 30
0.0
210
0.0
220
0.0
230
1.0
  2
SOLID
 70
     1
 71
     1
 91
        1
 92
        7
 72
     0
 73
     1
 93
       43
 10
626.89113758
 20
177.74881619
 10
626.89113758
 20
176.23424952
 10
627.39878758
 20
176.23424952
 10
627.4896257
 20
176.23621782
 10
627.57623052
 20
176.24211592
 10
627.65857273
 20
176.25193362
 10
627.73662305
 20
176.26566072
 10
627.81035217
 20
176.28328702
 10
627.87973078
 20
176.30480232
 10
627.9447296
 20
176.33019642
 10
628.00531932
 20
176.35945912
 10
628.06147063
 20
176.39258022
 10
628.11315425
 20
176.42954952
 10
628.160223
 20
176.47036689
 10
628.20235625
 20
176.51445446
 10
628.2395495
 20
176.56182042
 10
628.27179825
 20
176.61247299
 10
628.299098
 20
176.66642036
 10
628.32144425
 20
176.72367072
 10
628.3388325
 20
176.78423229
 10
628.35125825
 20
176.84811326
 10
628.358717
 20
176.91532182
 10
628.36120425
 20
176.98586619
 10
628.35867048
 20
177.05612387
 10
628.35106212
 20
177.12323966
 10
628.33836855
 20
177.18721764
 10
628.32057918
 20
177.24806192
 10
628.29768342
 20
177.30577661
 10
628.26967065
 20
177.36036579
 10
628.23653028
 20
177.41183357
 10
628.19825172
 20
177.46018406
 10
628.15482435
 20
177.50542134
 10
628.10623758
 20
177.54754952
 10
628.05349168
 20
177.58558094
 10
627.99676838
 20
177.61967486
 10
627.93605928
 20
177.64981577
 10
627.87135598
 20
177.67598819
 10
627.80265008
 20
177.69817661
 10
627.72993318
 20
177.71636552
 10
627.65319688
 20
177.73053944
 10
627.57243278
 20
177.74068286
 10
627.48763248
 20
177.74678027
 10
627.39878758
 20
177.74881619
 97
        1
330
18C
 75
     0
 76
     2
 47
0.775229
 98
        1
 10
0.0
 20
0.0
  0
LWPOLYLINE
  5
18E
102
{ACAD_REACTORS
330
18F
102
}
100
AcDbEntity
  8
MST_1_1
 62
    12
100
AcDbPolyline
 90
       10
 70
     1
 43
0.0
 10
664.65358758
 20
171.18784952
 10
664.65358758
 20
180.27436619
 10
664.65358758
 20
180.27436619
 10
669.12142092
 20
180.27436619
 10
669.12142092
 20
180.27436619
 10
669.12142092
 20
171.18784952
 10
669.12142092
 20
171.18784952
 10
664.65358758
 20
171.18784952
 10
664.65358758
 20
171.18784952
 10
664.65358758
 20
171.18784952
  0
HATCH
  5
18F
100
AcDbEntity
  8
MST_1_1
 62
    12
100
AcDbHatch
 10
0.0
 20
0.0
 30
0.0
210
0.0
220
0.0
230
1.0
  2
SOLID
 70
     1
 71
     1
 91
        1
 92
        7
 72
     0
 73
     1
 93
        4
 10
664.65358758
 20
171.18784952
 10
664.65358758
 20
180.27436619
 10
669.12142092
 20
180.27436619
 10
669.12142092
 20
171.18784952
 97
        1
330
18E
 75
     0
 76
     2
 47
0.775229
 98
        1
 10
0.0
 20
0.0
  0
LWPOLYLINE
  5
190
102
{ACAD_REACTORS
330
191
102
}
100
AcDbEntity
  8
MST_1_1
 62
    12
100
AcDbPolyline
 90
      114
 70
     1
 43
0.0
 10
676.87075425
 20
173.24896619
 10
676.83640025
 20
173.30378454
 10
676.80384225
 20
173.35633499
 10
676.77308625
 20
173.40664064
 10
676.74413825
 20
173.45472459
 10
676.71700425
 20
173.50060994
 10
676.69169025
 20
173.54431979
 10
676.66820225
 20
173.58587724
 10
676.64654625
 20
173.62530539
 10
676.62672825
 20
173.66262734
 10
676.60875425
 20
173.69786619
 10
676.60875425
 20
173.69786619
 10
676.59145158
 20
173.73181736
 10
676.57513292
 20
173.76502752
 10
676.55978225
 20
173.79750669
 10
676.54538358
 20
173.82926486
 10
676.53192092
 20
173.86031202
 10
676.51937825
 20
173.89065819
 10
676.50773958
 20
173.92031336
 10
676.49698892
 20
173.94928752
 10
676.48711025
 20
173.97759069
 10
676.47808758
 20
174.00523286
 10
676.47808758
 20
174.00523286
 10
676.47042325
 20
173.97902887
 10
676.46199292
 20
173.95226499
 10
676.45274058
 20
173.92493831
 10
676.44261025
 20
173.89704592
 10
676.43154592
 20
173.86858494
 10
676.41949158
 20
173.83955246
 10
676.40639125
 20
173.80994557
 10
676.39218892
 20
173.77976139
 10
676.37682858
 20
173.74899701
 10
676.36025425
 20
173.71764952
 10
676.36025425
 20
173.71764952
 10
676.34291792
 20
173.68424354
 10
676.32292358
 20
173.64780566
 10
676.30029325
 20
173.60835097
 10
676.27504892
 20
173.56589459
 10
676.24721258
 20
173.52045161
 10
676.21680625
 20
173.47203712
 10
676.18385192
 20
173.42066624
 10
676.14837158
 20
173.36635406
 10
676.11038725
 20
173.30911567
 10
676.06992092
 20
173.24896619
 10
676.06992092
 20
173.24896619
 10
674.68025425
 20
171.18784952
 10
674.68025425
 20
171.18784952
 10
669.65258758
 20
171.18784952
 10
669.65258758
 20
171.18784952
 10
673.99542092
 20
176.02786619
 10
673.99542092
 20
176.02786619
 10
670.16342092
 20
180.27436619
 10
670.16342092
 20
180.27436619
 10
675.18292092
 20
180.27436619
 10
675.18292092
 20
180.27436619
 10
676.08625425
 20
178.79128286
 10
676.08625425
 20
178.79128286
 10
676.08908025
 20
178.78576977
 10
676.09244225
 20
178.77967219
 10
676.09631625
 20
178.77299261
 10
676.10067825
 20
178.76573352
 10
676.10550425
 20
178.75789744
 10
676.11077025
 20
178.74948686
 10
676.11645225
 20
178.74050427
 10
676.12252625
 20
178.73095219
 10
676.12896825
 20
178.72083311
 10
676.13575425
 20
178.71014952
 10
676.13575425
 20
178.71014952
 10
676.18448958
 20
178.62749661
 10
676.22999692
 20
178.54824819
 10
676.27227825
 20
178.47241977
 10
676.31133558
 20
178.40002686
 10
676.34717092
 20
178.33108494
 10
676.37978625
 20
178.26560952
 10
676.40918358
 20
178.20361611
 10
676.43536492
 20
178.14512019
 10
676.45833225
 20
178.09013727
 10
676.47808758
 20
178.03868286
 10
676.47808758
 20
178.03868286
 10
676.49020125
 20
178.07132616
 10
676.50285692
 20
178.10407526
 10
676.51607658
 20
178.13694396
 10
676.52988225
 20
178.16994606
 10
676.54429592
 20
178.20309536
 10
676.55933958
 20
178.23640566
 10
676.57503525
 20
178.26989076
 10
676.59140492
 20
178.30356446
 10
676.60847058
 20
178.33744056
 10
676.62625425
 20
178.37153286
 10
676.62625425
 20
178.37153286
 10
676.64354058
 20
178.40661521
 10
676.66216492
 20
178.44325566
 10
676.68207525
 20
178.48144431
 10
676.70321958
 20
178.52117126
 10
676.72554592
 20
178.56242661
 10
676.74900225
 20
178.60520046
 10
676.77353658
 20
178.64948291
 10
676.79909692
 20
178.69526406
 10
676.82563125
 20
178.74253401
 10
676.85308758
 20
178.79128286
 10
676.85308758
 20
178.79128286
 10
677.78058758
 20
180.27436619
 10
677.78058758
 20
180.27436619
 10
682.77725425
 20
180.27436619
 10
682.77725425
 20
180.27436619
 10
678.95792092
 20
176.02786619
 10
678.95792092
 20
176.02786619
 10
683.30558758
 20
171.18784952
 10
683.30558758
 20
171.18784952
 10
678.27342092
 20
171.18784952
 10
678.27342092
 20
171.18784952
 10
676.87075425
 20
173.24896619
 10
676.87075425
 20
173.24896619
 10
676.87075425
 20
173.24896619
  0
HATCH
  5
191
100
AcDbEntity
  8
MST_1_1
 62
    12
100
AcDbHatch
 10
0.0
 20
0.0
 30
0.0
210
0.0
220
0.0
230
1.0
  2
SOLID
 70
     1
 71
     1
 91
        1
 92
        7
 72
     0
 73
     1
 93
       92
 10
676.87075425
 20
173.24896619
 10
676.83640025
 20
173.30378454
 10
676.80384225
 20
173.35633499
 10
676.77308625
 20
173.40664064
 10
676.74413825
 20
173.45472459
 10
676.71700425
 20
173.50060994
 10
676.69169025
 20
173.54431979
 10
676.66820225
 20
173.58587724
 10
676.64654625
 20
173.62530539
 10
676.62672825
 20
173.66262734
 10
676.60875425
 20
173.69786619
 10
676.59145158
 20
173.73181736
 10
676.57513292
 20
173.76502752
 10
676.55978225
 20
173.79750669
 10
676.54538358
 20
173.82926486
 10
676.53192092
 20
173.86031202
 10
676.51937825
 20
173.89065819
 10
676.50773958
 20
173.92031336
 10
676.49698892
 20
173.94928752
 10
676.48711025
 20
173.97759069
 10
676.47808758
 20
174.00523286
 10
676.47042325
 20
173.97902887
 10
676.46199292
 20
173.95226499
 10
676.45274058
 20
173.92493831
 10
676.44261025
 20
173.89704592
 10
676.43154592
 20
173.86858494
 10
676.41949158
 20
173.83955246
 10
676.40639125
 20
173.80994557
 10
676.39218892
 20
173.77976139
 10
676.37682858
 20
173.74899701
 10
676.36025425
 20
173.71764952
 10
676.34291792
 20
173.68424354
 10
676.32292358
 20
173.64780566
 10
676.30029325
 20
173.60835097
 10
676.27504892
 20
173.56589459
 10
676.24721258
 20
173.52045161
 10
676.21680625
 20
173.47203712
 10
676.18385192
 20
173.42066624
 10
676.14837158
 20
173.36635406
 10
676.11038725
 20
173.30911567
 10
676.06992092
 20
173.24896619
 10
674.68025425
 20
171.18784952
 10
669.65258758
 20
171.18784952
 10
673.99542092
 20
176.02786619
 10
670.16342092
 20
180.27436619
 10
675.18292092
 20
180.27436619
 10
676.08625425
 20
178.79128286
 10
676.08908025
 20
178.78576977
 10
676.09244225
 20
178.77967219
 10
676.09631625
 20
178.77299261
 10
676.10067825
 20
178.76573352
 10
676.10550425
 20
178.75789744
 10
676.11077025
 20
178.74948686
 10
676.11645225
 20
178.74050427
 10
676.12252625
 20
178.73095219
 10
676.12896825
 20
178.72083311
 10
676.13575425
 20
178.71014952
 10
676.18448958
 20
178.62749661
 10
676.22999692
 20
178.54824819
 10
676.27227825
 20
178.47241977
 10
676.31133558
 20
178.40002686
 10
676.34717092
 20
178.33108494
 10
676.37978625
 20
178.26560952
 10
676.40918358
 20
178.20361611
 10
676.43536492
 20
178.14512019
 10
676.45833225
 20
178.09013727
 10
676.47808758
 20
178.03868286
 10
676.49020125
 20
178.07132616
 10
676.50285692
 20
178.10407526
 10
676.51607658
 20
178.13694396
 10
676.52988225
 20
178.16994606
 10
676.54429592
 20
178.20309536
 10
676.55933958
 20
178.23640566
 10
676.57503525
 20
178.26989076
 10
676.59140492
 20
178.30356446
 10
676.60847058
 20
178.33744056
 10
676.62625425
 20
178.37153286
 10
676.64354058
 20
178.40661521
 10
676.66216492
 20
178.44325566
 10
676.68207525
 20
178.48144431
 10
676.70321958
 20
178.52117126
 10
676.72554592
 20
178.56242661
 10
676.74900225
 20
178.60520046
 10
676.77353658
 20
178.64948291
 10
676.79909692
 20
178.69526406
 10
676.82563125
 20
178.74253401
 10
676.85308758
 20
178.79128286
 10
677.78058758
 20
180.27436619
 10
682.77725425
 20
180.27436619
 10
678.95792092
 20
176.02786619
 10
683.30558758
 20
171.18784952
 10
678.27342092
 20
171.18784952
 97
        1
330
190
 75
     0
 76
     2
 47
0.775229
 98
        1
 10
0.0
 20
0.0
  0
LWPOLYLINE
  5
192
102
{ACAD_REACTORS
330
193
102
}
100
AcDbEntity
  8
MST_1_1
 62
     7
100
AcDbPolyline
 90
       46
 70
     1
 43
0.0
 10
687.62075425
 20
186.40041619
 10
687.73328475
 20
186.39130269
 10
687.84019825
 20
186.36492819
 10
687.94002775
 20
186.32274169
 10
688.03130625
 20
186.26619219
 10
688.11256675
 20
186.19672869
 10
688.18234225
 20
186.11580019
 10
688.23916575
 20
186.02485569
 10
688.28157025
 20
185.92534419
 10
688.30808875
 20
185.81871469
 10
688.31725425
 20
185.70641619
 10
688.31725425
 20
185.70641619
 10
688.30808875
 20
185.59426252
 10
688.28157025
 20
185.48776686
 10
688.23916575
 20
185.38837719
 10
688.18234225
 20
185.29754152
 10
688.11256675
 20
185.21670786
 10
688.03130625
 20
185.14732419
 10
687.94002775
 20
185.09083852
 10
687.84019825
 20
185.04869886
 10
687.73328475
 20
185.02235319
 10
687.62075425
 20
185.01324952
 10
687.62075425
 20
185.01324952
 10
687.50763342
 20
185.02235319
 10
687.40032758
 20
185.04869886
 10
687.30027175
 20
185.09083852
 10
687.20890092
 20
185.14732419
 10
687.12765008
 20
185.21670786
 10
687.05795425
 20
185.29754152
 10
687.00124842
 20
185.38837719
 10
686.95896758
 20
185.48776686
 10
686.93254675
 20
185.59426252
 10
686.92342092
 20
185.70641619
 10
686.92342092
 20
185.70641619
 10
686.93254675
 20
185.81871469
 10
686.95896758
 20
185.92534419
 10
687.00124842
 20
186.02485569
 10
687.05795425
 20
186.11580019
 10
687.12765008
 20
186.19672869
 10
687.20890092
 20
186.26619219
 10
687.30027175
 20
186.32274169
 10
687.40032758
 20
186.36492819
 10
687.50763342
 20
186.39130269
 10
687.62075425
 20
186.40041619
 10
687.62075425
 20
186.40041619
 10
687.62075425
 20
186.40041619
  0
HATCH
  5
193
100
AcDbEntity
  8
MST_1_1
 62
     7
100
AcDbHatch
 10
0.0
 20
0.0
 30
0.0
210
0.0
220
0.0
230
1.0
  2
SOLID
 70
     1
 71
     1
 91
        1
 92
        7
 72
     0
 73
     1
 93
       40
 10
687.62075425
 20
186.40041619
 10
687.73328475
 20
186.39130269
 10
687.84019825
 20
186.36492819
 10
687.94002775
 20
186.32274169
 10
688.03130625
 20
186.26619219
 10
688.11256675
 20
186.19672869
 10
688.18234225
 20
186.11580019
 10
688.23916575
 20
186.02485569
 10
688.28157025
 20
185.92534419
 10
688.30808875
 20
185.81871469
 10
688.31725425
 20
185.70641619
 10
688.30808875
 20
185.59426252
 10
688.28157025
 20
185.48776686
 10
688.23916575
 20
185.38837719
 10
688.18234225
 20
185.29754152
 10
688.11256675
 20
185.21670786
 10
688.03130625
 20
185.14732419
 10
687.94002775
 20
185.09083852
 10
687.84019825
 20
185.04869886
 10
687.73328475
 20
185.02235319
 10
687.62075425
 20
185.01324952
 10
687.50763342
 20
185.02235319
 10
687.40032758
 20
185.04869886
 10
687.30027175
 20
185.09083852
 10
687.20890092
 20
185.14732419
 10
687.12765008
 20
185.21670786
 10
687.05795425
 20
185.29754152
 10
687.00124842
 20
185.38837719
 10
686.95896758
 20
185.48776686
 10
686.93254675
 20
185.59426252
 10
686.92342092
 20
185.70641619
 10
686.93254675
 20
185.81871469
 10
686.95896758
 20
185.92534419
 10
687.00124842
 20
186.02485569
 10
687.05795425
 20
186.11580019
 10
687.12765008
 20
186.19672869
 10
687.20890092
 20
186.26619219
 10
687.30027175
 20
186.32274169
 10
687.40032758
 20
186.36492819
 10
687.50763342
 20
186.39130269
 97
        1
330
192
 75
     0
 76
     2
 47
0.775229
 98
        1
 10
0.0
 20
0.0
  0
LWPOLYLINE
  5
194
102
{ACAD_REACTORS
330
195
102
}
100
AcDbEntity
  8
MST_1_1
 62
    12
100
AcDbPolyline
 90
       29
 70
     1
 43
0.0
 10
687.30108758
 20
186.18841619
 10
687.30108758
 20
185.28174952
 10
687.30108758
 20
185.28174952
 10
687.43525425
 20
185.28174952
 10
687.43525425
 20
185.28174952
 10
687.43525425
 20
185.68874952
 10
687.43525425
 20
185.68874952
 10
687.61358758
 20
185.68874952
 10
687.61358758
 20
185.68874952
 10
687.87292092
 20
185.28774952
 10
687.87292092
 20
185.28774952
 10
688.00908758
 20
185.28774952
 10
688.00908758
 20
185.28774952
 10
687.75025425
 20
185.69608286
 10
687.75025425
 20
185.69608286
 10
687.83884125
 20
185.71450452
 10
687.90851025
 20
185.75465619
 10
687.95897325
 20
185.81096786
 10
687.98994225
 20
185.87786952
 10
688.00112925
 20
185.94979119
 10
687.99224625
 20
186.02116286
 10
687.96300525
 20
186.08641452
 10
687.91311825
 20
186.13997619
 10
687.84229725
 20
186.17627786
 10
687.75025425
 20
186.18974952
 10
687.75025425
 20
186.18974952
 10
687.30108758
 20
186.18841619
 10
687.30108758
 20
186.18841619
 10
687.30108758
 20
186.18841619
  0
HATCH
  5
195
100
AcDbEntity
  8
MST_1_1
 62
    12
100
AcDbHatch
 10
0.0
 20
0.0
 30
0.0
210
0.0
220
0.0
230
1.0
  2
SOLID
 70
     1
 71
     1
 91
        1
 92
        7
 72
     0
 73
     1
 93
       18
 10
687.30108758
 20
186.18841619
 10
687.30108758
 20
185.28174952
 10
687.43525425
 20
185.28174952
 10
687.43525425
 20
185.68874952
 10
687.61358758
 20
185.68874952
 10
687.87292092
 20
185.28774952
 10
688.00908758
 20
185.28774952
 10
687.75025425
 20
185.69608286
 10
687.83884125
 20
185.71450452
 10
687.90851025
 20
185.75465619
 10
687.95897325
 20
185.81096786
 10
687.98994225
 20
185.87786952
 10
688.00112925
 20
185.94979119
 10
687.99224625
 20
186.02116286
 10
687.96300525
 20
186.08641452
 10
687.91311825
 20
186.13997619
 10
687.84229725
 20
186.17627786
 10
687.75025425
 20
186.18974952
 97
        1
330
194
 75
     0
 76
     2
 47
0.775229
 98
        1
 10
0.0
 20
0.0
  0
LWPOLYLINE
  5
196
102
{ACAD_REACTORS
330
197
102
}
100
AcDbEntity
  8
MST_1_1
 62
     7
100
AcDbPolyline
 90
       19
 70
     1
 43
0.0
 10
687.43525425
 20
186.08524952
 10
687.43525425
 20
185.79458286
 10
687.43525425
 20
185.79458286
 10
687.73658758
 20
185.79541619
 10
687.73658758
 20
185.79541619
 10
687.78956608
 20
185.80726652
 10
687.83103558
 20
185.83163886
 10
687.86089708
 20
185.86526519
 10
687.87905158
 20
185.90487752
 10
687.88540008
 20
185.94720786
 10
687.87984358
 20
185.98898819
 10
687.86228308
 20
186.02695052
 10
687.83261958
 20
186.05782686
 10
687.79075408
 20
186.07834919
 10
687.73658758
 20
186.08524952
 10
687.73658758
 20
186.08524952
 10
687.43525425
 20
186.08524952
 10
687.43525425
 20
186.08524952
 10
687.43525425
 20
186.08524952
  0
HATCH
  5
197
100
AcDbEntity
  8
MST_1_1
 62
     7
100
AcDbHatch
 10
0.0
 20
0.0
 30
0.0
210
0.0
220
0.0
230
1.0
  2
SOLID
 70
     1
 71
     1
 91
        1
 92
        7
 72
     0
 73
     1
 93
       13
 10
687.43525425
 20
186.08524952
 10
687.43525425
 20
185.79458286
 10
687.73658758
 20
185.79541619
 10
687.78956608
 20
185.80726652
 10
687.83103558
 20
185.83163886
 10
687.86089708
 20
185.86526519
 10
687.87905158
 20
185.90487752
 10
687.88540008
 20
185.94720786
 10
687.87984358
 20
185.98898819
 10
687.86228308
 20
186.02695052
 10
687.83261958
 20
186.05782686
 10
687.79075408
 20
186.07834919
 10
687.73658758
 20
186.08524952
 97
        1
330
196
 75
     0
 76
     2
 47
0.775229
 98
        1
 10
0.0
 20
0.0
  0
LINE
  5
198
100
AcDbEntity
  8
MST_1_1
 62
   137
  6
CONTINUOUS
100
AcDbLine
 10
58.40270541
 20
11.54545025
 30
2500.0
 11
59.68376741
 21
11.54545025
 31
2500.0
  0
LINE
  5
199
100
AcDbEntity
  8
MST_1_1
 62
   137
  6
CONTINUOUS
100
AcDbLine
 10
82.51105994
 20
6.69402168
 30
2500.0
 11
84.227285
 21
6.70160358
 31
2500.0
  0
LINE
  5
19A
100
AcDbEntity
  8
MST_1_1
 62
   137
  6
CONTINUOUS
100
AcDbLine
 10
83.42563831
 20
10.39687882
 30
2500.0
 11
80.79520021
 21
10.39687882
 31
2500.0
  0
ARC
  5
19B
100
AcDbEntity
  8
MST_1_1
 62
   137
  6
CONTINUOUS
100
AcDbCircle
 10
83.71536163
 20
-17.33708881
 30
2500.0
 40
27.73111126
100
AcDbArc
 50
83.52438041
 51
88.94224525
  0
LWPOLYLINE
  5
19C
100
AcDbEntity
  8
MST_1_1
 62
   137
  6
CONTINUOUS
100
AcDbPolyline
 90
        3
 70
     0
 43
0.0
 38
2500.0
 10
96.0389121
 20
8.54545025
 10
89.73880471
 20
9.79372537
 42
0.01723995
 10
87.53687247
 20
10.14671712
  0
ARC
  5
19D
100
AcDbEntity
  8
MST_1_1
 62
   137
  6
CONTINUOUS
100
AcDbCircle
 10
83.52055492
 20
39.04185545
 30
2500.0
 40
32.34797303
100
AcDbArc
 50
271.25189288
 51
272.83975061
  0
LWPOLYLINE
  5
19E
100
AcDbEntity
  8
MST_1_1
 62
   137
  6
CONTINUOUS
100
AcDbPolyline
 90
        3
 70
     0
 43
0.0
 38
2500.0
 10
96.0389121
 20
8.54545025
 10
89.73880471
 20
7.29717513
 42
-0.0063851
 10
88.92610351
 20
7.14873075
  0
ARC
  5
19F
100
AcDbEntity
  8
MST_1_1
 62
   137
  6
CONTINUOUS
100
AcDbCircle
 10
83.52055492
 20
39.04185545
 30
2500.0
 40
32.34797303
100
AcDbArc
 50
274.21680449
 51
278.51502477
  0
LINE
  5
1A0
100
AcDbEntity
  8
MST_1_1
 62
   137
  6
CONTINUOUS
100
AcDbLine
 10
79.08248851
 20
6.69402168
 30
2500.0
 11
81.7129266
 21
6.69402168
 31
2500.0
  0
LINE
  5
1A1
100
AcDbEntity
  8
MST_1_1
 62
   137
  6
CONTINUOUS
100
AcDbLine
 10
79.99706688
 20
10.39687882
 30
2500.0
 11
77.36662878
 21
10.39687882
 31
2500.0
  0
LINE
  5
1A2
100
AcDbEntity
  8
MST_1_1
 62
   137
  6
CONTINUOUS
100
AcDbLine
 10
75.65391708
 20
6.69402168
 30
2500.0
 11
78.28435518
 21
6.69402168
 31
2500.0
  0
LINE
  5
1A3
100
AcDbEntity
  8
MST_1_1
 62
   137
  6
CONTINUOUS
100
AcDbLine
 10
76.56849545
 20
10.39687882
 30
2500.0
 11
73.93805735
 21
10.39687882
 31
2500.0
  0
LINE
  5
1A4
100
AcDbEntity
  8
MST_1_1
 62
   137
  6
CONTINUOUS
100
AcDbLine
 10
72.22534565
 20
6.69402168
 30
2500.0
 11
74.85578375
 21
6.69402168
 31
2500.0
  0
LINE
  5
1A5
100
AcDbEntity
  8
MST_1_1
 62
   137
  6
CONTINUOUS
100
AcDbLine
 10
73.13992402
 20
10.39687882
 30
2500.0
 11
70.50948592
 21
10.39687882
 31
2500.0
  0
LINE
  5
1A6
100
AcDbEntity
  8
MST_1_1
 62
   137
  6
CONTINUOUS
100
AcDbLine
 10
68.79677422
 20
6.69402168
 30
2500.0
 11
71.42721232
 21
6.69402168
 31
2500.0
  0
LINE
  5
1A7
100
AcDbEntity
  8
MST_1_1
 62
   137
  6
CONTINUOUS
100
AcDbLine
 10
69.71135259
 20
10.39687882
 30
2500.0
 11
67.0809145
 21
10.39687882
 31
2500.0
  0
LINE
  5
1A8
100
AcDbEntity
  8
MST_1_1
 62
   137
  6
CONTINUOUS
100
AcDbLine
 10
65.36820279
 20
6.69402168
 30
2500.0
 11
67.99864089
 21
6.69402168
 31
2500.0
  0
LINE
  5
1A9
100
AcDbEntity
  8
MST_1_1
 62
   137
  6
CONTINUOUS
100
AcDbLine
 10
66.28278116
 20
10.39687882
 30
2500.0
 11
63.65234307
 21
10.39687882
 31
2500.0
  0
LINE
  5
1AA
100
AcDbEntity
  8
MST_1_1
 62
   137
  6
CONTINUOUS
100
AcDbLine
 10
61.93963137
 20
6.69402168
 30
2500.0
 11
64.57006946
 21
6.69402168
 31
2500.0
  0
LINE
  5
1AB
100
AcDbEntity
  8
MST_1_1
 62
   137
  6
CONTINUOUS
100
AcDbLine
 10
62.85420974
 20
10.39687882
 30
2500.0
 11
60.0389121
 21
10.39687882
 31
2500.0
  0
LWPOLYLINE
  5
1AC
100
AcDbEntity
  8
MST_1_1
 62
   137
  6
CONTINUOUS
100
AcDbPolyline
 90
        4
 70
     0
 43
0.0
 38
2500.0
 10
61.14149803
 20
6.69402168
 10
61.6737323
 20
5.54545025
 10
61.93963137
 20
6.69402168
 10
61.39088265
 20
7.87823159
  0
LINE
  5
1AD
100
AcDbEntity
  8
MST_1_1
 62
   137
  6
CONTINUOUS
100
AcDbLine
 10
60.0389121
 20
6.69402168
 30
2500.0
 11
61.14149803
 21
6.69402168
 31
2500.0
  0
LINE
  5
1AE
100
AcDbEntity
  8
MST_1_1
 62
   137
  6
CONTINUOUS
100
AcDbLine
 10
61.39088265
 20
7.87823159
 30
2500.0
 11
61.14149803
 21
6.69402168
 31
2500.0
  0
LINE
  5
1AF
100
AcDbEntity
  8
MST_1_1
 62
   137
  6
CONTINUOUS
100
AcDbLine
 10
60.0389121
 20
10.39687882
 30
2500.0
 11
59.68376741
 21
11.54545025
 31
2500.0
  0
LINE
  5
1B0
100
AcDbEntity
  8
MST_1_1
 62
   137
  6
CONTINUOUS
100
AcDbLine
 10
60.0389121
 20
6.69402168
 30
2500.0
 11
59.68376741
 21
5.54545025
 31
2500.0
  0
LINE
  5
1B1
100
AcDbEntity
  8
MST_1_1
 62
   137
  6
CONTINUOUS
100
AcDbLine
 10
36.0389121
 20
12.49281867
 30
2500.0
 11
36.8533415
 21
12.49281867
 31
2500.0
  0
3DFACE
  5
1B2
100
AcDbEntity
  8
MST_1_1
 62
   137
  6
CONTINUOUS
100
AcDbFace
 70
     0
 10
36.8533415
 20
12.49281867
 30
2500.0
 11
39.65771812
 21
3.54545025
 31
2500.0
 12
40.21224083
 22
4.59808183
 32
2500.0
 13
37.40786421
 23
13.54545025
 33
2500.0
  0
LINE
  5
1B3
100
AcDbEntity
  8
MST_1_1
 62
   137
  6
CONTINUOUS
100
AcDbLine
 10
37.40786421
 20
13.54545025
 30
2500.0
 11
39.65771812
 21
3.54545025
 31
2500.0
  0
3DFACE
  5
1B4
100
AcDbEntity
  8
MST_1_1
 62
   137
  6
CONTINUOUS
100
AcDbFace
 70
     0
 10
40.8533415
 20
12.49281867
 30
2500.0
 11
43.65771812
 21
3.54545025
 31
2500.0
 12
44.21224083
 22
4.59808183
 32
2500.0
 13
41.40786421
 23
13.54545025
 33
2500.0
  0
LINE
  5
1B5
100
AcDbEntity
  8
MST_1_1
 62
   137
  6
CONTINUOUS
100
AcDbLine
 10
41.40786421
 20
13.54545025
 30
2500.0
 11
43.65771812
 21
3.54545025
 31
2500.0
  0
3DFACE
  5
1B6
100
AcDbEntity
  8
MST_1_1
 62
   137
  6
CONTINUOUS
100
AcDbFace
 70
     0
 10
44.8533415
 20
12.49281867
 30
2500.0
 11
47.65771812
 21
3.54545025
 31
2500.0
 12
48.21224083
 22
4.59808183
 32
2500.0
 13
45.40786421
 23
13.54545025
 33
2500.0
  0
LINE
  5
1B7
100
AcDbEntity
  8
MST_1_1
 62
   137
  6
CONTINUOUS
100
AcDbLine
 10
45.40786421
 20
13.54545025
 30
2500.0
 11
47.65771812
 21
3.54545025
 31
2500.0
  0
3DFACE
  5
1B8
100
AcDbEntity
  8
MST_1_1
 62
   137
  6
CONTINUOUS
100
AcDbFace
 70
     0
 10
48.8533415
 20
12.49281867
 30
2500.0
 11
51.65771812
 21
3.54545025
 31
2500.0
 12
52.21224083
 22
4.59808183
 32
2500.0
 13
49.40786421
 23
13.54545025
 33
2500.0
  0
LINE
  5
1B9
100
AcDbEntity
  8
MST_1_1
 62
   137
  6
CONTINUOUS
100
AcDbLine
 10
49.40786421
 20
13.54545025
 30
2500.0
 11
51.65771812
 21
3.54545025
 31
2500.0
  0
3DFACE
  5
1BA
100
AcDbEntity
  8
MST_1_1
 62
   137
  6
CONTINUOUS
100
AcDbFace
 70
     0
 10
52.8533415
 20
12.49281867
 30
2500.0
 11
55.65771812
 21
3.54545025
 31
2500.0
 12
56.21224083
 22
4.59808183
 32
2500.0
 13
53.40786421
 23
13.54545025
 33
2500.0
  0
LINE
  5
1BB
100
AcDbEntity
  8
MST_1_1
 62
   137
  6
CONTINUOUS
100
AcDbLine
 10
53.40786421
 20
13.54545025
 30
2500.0
 11
55.65771812
 21
3.54545025
 31
2500.0
  0
3DFACE
  5
1BC
100
AcDbEntity
  8
MST_1_1
 62
   137
  6
CONTINUOUS
100
AcDbFace
 70
     0
 10
57.40786421
 20
13.54545025
 30
2500.0
 11
56.8533415
 21
12.49281867
 31
2500.0
 12
57.19907055
 22
11.38976952
 32
2500.0
 13
57.73779087
 23
12.49281867
 33
2500.0
  0
LINE
  5
1BD
100
AcDbEntity
  8
MST_1_1
 62
   137
  6
CONTINUOUS
100
AcDbLine
 10
57.40786421
 20
13.54545025
 30
2500.0
 11
57.67405285
 21
12.3623128
 31
2500.0
  0
LINE
  5
1BE
100
AcDbEntity
  8
MST_1_1
 62
   137
  6
CONTINUOUS
100
AcDbLine
 10
40.8533415
 20
12.49281867
 30
2500.0
 11
37.73779087
 21
12.49281867
 31
2500.0
  0
LINE
  5
1BF
100
AcDbEntity
  8
MST_1_1
 62
   137
  6
CONTINUOUS
100
AcDbLine
 10
44.8533415
 20
12.49281867
 30
2500.0
 11
41.73779087
 21
12.49281867
 31
2500.0
  0
LINE
  5
1C0
100
AcDbEntity
  8
MST_1_1
 62
   137
  6
CONTINUOUS
100
AcDbLine
 10
48.8533415
 20
12.49281867
 30
2500.0
 11
45.73779087
 21
12.49281867
 31
2500.0
  0
LINE
  5
1C1
100
AcDbEntity
  8
MST_1_1
 62
   137
  6
CONTINUOUS
100
AcDbLine
 10
52.8533415
 20
12.49281867
 30
2500.0
 11
49.73779087
 21
12.49281867
 31
2500.0
  0
LINE
  5
1C2
100
AcDbEntity
  8
MST_1_1
 62
   137
  6
CONTINUOUS
100
AcDbLine
 10
56.8533415
 20
12.49281867
 30
2500.0
 11
53.73779087
 21
12.49281867
 31
2500.0
  0
LINE
  5
1C3
100
AcDbEntity
  8
MST_1_1
 62
   137
  6
CONTINUOUS
100
AcDbLine
 10
58.0389121
 20
12.49281867
 30
2500.0
 11
57.73779087
 21
12.49281867
 31
2500.0
  0
LINE
  5
1C4
100
AcDbEntity
  8
MST_1_1
 62
   137
  6
CONTINUOUS
100
AcDbLine
 10
36.0389121
 20
4.59808183
 30
2500.0
 11
36.0389121
 21
12.49281867
 31
2500.0
  0
LINE
  5
1C5
100
AcDbEntity
  8
MST_1_1
 62
   137
  6
CONTINUOUS
100
AcDbLine
 10
58.40270541
 20
5.54545025
 30
2500.0
 11
58.40270541
 21
11.54545025
 31
2500.0
  0
LINE
  5
1C6
100
AcDbEntity
  8
MST_1_1
 62
   137
  6
CONTINUOUS
100
AcDbLine
 10
60.0389121
 20
6.69402168
 30
2500.0
 11
60.0389121
 21
10.39687882
 31
2500.0
  0
LINE
  5
1C7
100
AcDbEntity
  8
MST_1_1
 62
   137
  6
CONTINUOUS
100
AcDbLine
 10
59.68376741
 20
11.54545025
 30
2500.0
 11
59.68376741
 21
5.54545025
 31
2500.0
  0
LINE
  5
1C8
100
AcDbEntity
  8
MST_1_1
 62
   137
  6
CONTINUOUS
100
AcDbLine
 10
58.0389121
 20
4.59808183
 30
2500.0
 11
58.0389121
 21
12.49281867
 31
2500.0
  0
LINE
  5
1C9
100
AcDbEntity
  8
MST_1_1
 62
   137
  6
CONTINUOUS
100
AcDbLine
 10
59.68376741
 20
5.54545025
 30
2500.0
 11
58.40270541
 21
5.54545025
 31
2500.0
  0
LINE
  5
1CA
100
AcDbEntity
  8
MST_1_1
 62
   137
  6
CONTINUOUS
100
AcDbLine
 10
58.40270541
 20
5.54545025
 30
2500.0
 11
58.0389121
 21
4.59808183
 31
2500.0
  0
LINE
  5
1CB
100
AcDbEntity
  8
MST_1_1
 62
   137
  6
CONTINUOUS
100
AcDbLine
 10
56.21224083
 20
4.59808183
 30
2500.0
 11
58.0389121
 21
4.59808183
 31
2500.0
  0
LINE
  5
1CC
100
AcDbEntity
  8
MST_1_1
 62
   137
  6
CONTINUOUS
100
AcDbLine
 10
52.21224083
 20
4.59808183
 30
2500.0
 11
55.32779145
 21
4.59808183
 31
2500.0
  0
LINE
  5
1CD
100
AcDbEntity
  8
MST_1_1
 62
   137
  6
CONTINUOUS
100
AcDbLine
 10
48.21224083
 20
4.59808183
 30
2500.0
 11
51.32779145
 21
4.59808183
 31
2500.0
  0
LINE
  5
1CE
100
AcDbEntity
  8
MST_1_1
 62
   137
  6
CONTINUOUS
100
AcDbLine
 10
44.21224083
 20
4.59808183
 30
2500.0
 11
47.32779145
 21
4.59808183
 31
2500.0
  0
LINE
  5
1CF
100
AcDbEntity
  8
MST_1_1
 62
   137
  6
CONTINUOUS
100
AcDbLine
 10
40.21224083
 20
4.59808183
 30
2500.0
 11
43.32779145
 21
4.59808183
 31
2500.0
  0
LINE
  5
1D0
100
AcDbEntity
  8
MST_1_1
 62
   137
  6
CONTINUOUS
100
AcDbLine
 10
36.0389121
 20
4.59808183
 30
2500.0
 11
39.32779145
 21
4.59808183
 31
2500.0
  0
LINE
  5
1D1
100
AcDbEntity
  8
MST_1_1
 62
   137
  6
CONTINUOUS
100
AcDbLine
 10
58.0389121
 20
12.49281867
 30
2500.0
 11
58.40270541
 21
11.54545025
 31
2500.0
  0
LWPOLYLINE
  5
1D2
100
AcDbEntity
  8
MST_1_1
 62
   137
  6
CONTINUOUS
100
AcDbPolyline
 90
        5
 70
     0
 43
0.0
 38
2500.0
 10
62.85420974
 20
10.39687882
 10
63.1201087
 20
11.54545046
 10
65.36820279
 20
6.69402168
 10
65.10230373
 20
5.54545025
 10
62.85420974
 20
10.39687882
  0
LWPOLYLINE
  5
1D3
100
AcDbEntity
  8
MST_1_1
 62
   137
  6
CONTINUOUS
100
AcDbPolyline
 90
        5
 70
     0
 43
0.0
 38
2500.0
 10
66.28278116
 20
10.39687882
 10
66.54868013
 20
11.54545046
 10
68.79677422
 20
6.69402168
 10
68.53087516
 20
5.54545025
 10
66.28278116
 20
10.39687882
  0
LWPOLYLINE
  5
1D4
100
AcDbEntity
  8
MST_1_1
 62
   137
  6
CONTINUOUS
100
AcDbPolyline
 90
        5
 70
     0
 43
0.0
 38
2500.0
 10
69.71135259
 20
10.39687882
 10
69.97725156
 20
11.54545046
 10
72.22534565
 20
6.69402168
 10
71.95944659
 20
5.54545025
 10
69.71135259
 20
10.39687882
  0
LWPOLYLINE
  5
1D5
100
AcDbEntity
  8
MST_1_1
 62
   137
  6
CONTINUOUS
100
AcDbPolyline
 90
        5
 70
     0
 43
0.0
 38
2500.0
 10
73.13992402
 20
10.39687882
 10
73.40582299
 20
11.54545046
 10
75.65391708
 20
6.69402168
 10
75.38801801
 20
5.54545025
 10
73.13992402
 20
10.39687882
  0
LWPOLYLINE
  5
1D6
100
AcDbEntity
  8
MST_1_1
 62
   137
  6
CONTINUOUS
100
AcDbPolyline
 90
        5
 70
     0
 43
0.0
 38
2500.0
 10
76.56849545
 20
10.39687882
 10
76.83439442
 20
11.54545046
 10
79.08248851
 20
6.69402168
 10
78.81658944
 20
5.54545025
 10
76.56849545
 20
10.39687882
  0
LWPOLYLINE
  5
1D7
100
AcDbEntity
  8
MST_1_1
 62
   137
  6
CONTINUOUS
100
AcDbPolyline
 90
        5
 70
     0
 43
0.0
 38
2500.0
 10
79.99706688
 20
10.39687882
 10
80.26296585
 20
11.54545046
 10
82.51105994
 20
6.69402168
 10
82.24516087
 20
5.54545025
 10
79.99706688
 20
10.39687882
  0
LWPOLYLINE
  5
1D8
100
AcDbEntity
  8
MST_1_1
 62
   137
  6
CONTINUOUS
100
AcDbPolyline
 90
        5
 70
     0
 43
0.0
 38
2500.0
 10
83.42563831
 20
10.39687882
 10
83.69153728
 20
11.54545046
 10
85.89911838
 20
6.78144946
 10
85.63321931
 20
5.63287803
 10
83.42563831
 20
10.39687882
  0
LWPOLYLINE
  5
1D9
100
AcDbEntity
  8
MST_1_1
 62
   137
  6
CONTINUOUS
100
AcDbPolyline
 90
        5
 70
     0
 43
0.0
 38
2500.0
 10
86.84288801
 20
10.21709618
 10
87.06322468
 20
11.16885785
 10
88.92610351
 20
7.14873075
 10
88.70576676
 20
6.19696925
 10
86.84288801
 20
10.21709618
  0
LINE
  5
1DA
100
AcDbEntity
  8
MST_1_1
 62
   137
  6
CONTINUOUS
100
AcDbLine
 10
58.40270541
 20
-18.45454975
 30
2500.0
 11
79.68376741
 21
-18.45454975
 31
2500.0
  0
LINE
  5
1DB
100
AcDbEntity
  8
MST_1_1
 62
   137
  6
CONTINUOUS
100
AcDbLine
 10
102.51105994
 20
-23.30597832
 30
2500.0
 11
104.227285
 21
-23.29839642
 31
2500.0
  0
LINE
  5
1DC
100
AcDbEntity
  8
MST_1_1
 62
   137
  6
CONTINUOUS
100
AcDbLine
 10
103.42563831
 20
-19.60312118
 30
2500.0
 11
100.79520021
 21
-19.60312118
 31
2500.0
  0
ARC
  5
1DD
100
AcDbEntity
  8
MST_1_1
 62
   137
  6
CONTINUOUS
100
AcDbCircle
 10
103.71536163
 20
-47.33708881
 30
2500.0
 40
27.73111126
100
AcDbArc
 50
83.52438041
 51
88.94224525
  0
LWPOLYLINE
  5
1DE
100
AcDbEntity
  8
MST_1_1
 62
   137
  6
CONTINUOUS
100
AcDbPolyline
 90
        3
 70
     0
 43
0.0
 38
2500.0
 10
116.0389121
 20
-21.45454975
 10
109.73880471
 20
-20.20627463
 42
0.01723995
 10
107.53687247
 20
-19.85328288
  0
ARC
  5
1DF
100
AcDbEntity
  8
MST_1_1
 62
   137
  6
CONTINUOUS
100
AcDbCircle
 10
103.52055492
 20
9.04185545
 30
2500.0
 40
32.34797303
100
AcDbArc
 50
271.25189288
 51
272.83975061
  0
LWPOLYLINE
  5
1E0
100
AcDbEntity
  8
MST_1_1
 62
   137
  6
CONTINUOUS
100
AcDbPolyline
 90
        3
 70
     0
 43
0.0
 38
2500.0
 10
116.0389121
 20
-21.45454975
 10
109.73880471
 20
-22.70282487
 42
-0.0063851
 10
108.92610351
 20
-22.85126925
  0
ARC
  5
1E1
100
AcDbEntity
  8
MST_1_1
 62
   137
  6
CONTINUOUS
100
AcDbCircle
 10
103.52055492
 20
9.04185545
 30
2500.0
 40
32.34797303
100
AcDbArc
 50
274.21680449
 51
278.51502477
  0
LINE
  5
1E2
100
AcDbEntity
  8
MST_1_1
 62
   137
  6
CONTINUOUS
100
AcDbLine
 10
99.08248851
 20
-23.30597832
 30
2500.0
 11
101.7129266
 21
-23.30597832
 31
2500.0
  0
LINE
  5
1E3
100
AcDbEntity
  8
MST_1_1
 62
   137
  6
CONTINUOUS
100
AcDbLine
 10
99.99706688
 20
-19.60312118
 30
2500.0
 11
97.36662878
 21
-19.60312118
 31
2500.0
  0
LINE
  5
1E4
100
AcDbEntity
  8
MST_1_1
 62
   137
  6
CONTINUOUS
100
AcDbLine
 10
95.65391708
 20
-23.30597832
 30
2500.0
 11
98.28435518
 21
-23.30597832
 31
2500.0
  0
LINE
  5
1E5
100
AcDbEntity
  8
MST_1_1
 62
   137
  6
CONTINUOUS
100
AcDbLine
 10
96.56849545
 20
-19.60312118
 30
2500.0
 11
93.93805735
 21
-19.60312118
 31
2500.0
  0
LINE
  5
1E6
100
AcDbEntity
  8
MST_1_1
 62
   137
  6
CONTINUOUS
100
AcDbLine
 10
92.22534565
 20
-23.30597832
 30
2500.0
 11
94.85578375
 21
-23.30597832
 31
2500.0
  0
LINE
  5
1E7
100
AcDbEntity
  8
MST_1_1
 62
   137
  6
CONTINUOUS
100
AcDbLine
 10
93.13992402
 20
-19.60312118
 30
2500.0
 11
90.50948592
 21
-19.60312118
 31
2500.0
  0
LINE
  5
1E8
100
AcDbEntity
  8
MST_1_1
 62
   137
  6
CONTINUOUS
100
AcDbLine
 10
88.79677422
 20
-23.30597832
 30
2500.0
 11
91.42721232
 21
-23.30597832
 31
2500.0
  0
LINE
  5
1E9
100
AcDbEntity
  8
MST_1_1
 62
   137
  6
CONTINUOUS
100
AcDbLine
 10
89.71135259
 20
-19.60312118
 30
2500.0
 11
87.0809145
 21
-19.60312118
 31
2500.0
  0
LINE
  5
1EA
100
AcDbEntity
  8
MST_1_1
 62
   137
  6
CONTINUOUS
100
AcDbLine
 10
85.36820279
 20
-23.30597832
 30
2500.0
 11
87.99864089
 21
-23.30597832
 31
2500.0
  0
LINE
  5
1EB
100
AcDbEntity
  8
MST_1_1
 62
   137
  6
CONTINUOUS
100
AcDbLine
 10
86.28278116
 20
-19.60312118
 30
2500.0
 11
83.65234307
 21
-19.60312118
 31
2500.0
  0
LINE
  5
1EC
100
AcDbEntity
  8
MST_1_1
 62
   137
  6
CONTINUOUS
100
AcDbLine
 10
81.93963137
 20
-23.30597832
 30
2500.0
 11
84.57006946
 21
-23.30597832
 31
2500.0
  0
LINE
  5
1ED
100
AcDbEntity
  8
MST_1_1
 62
   137
  6
CONTINUOUS
100
AcDbLine
 10
82.85420974
 20
-19.60312118
 30
2500.0
 11
80.0389121
 21
-19.60312118
 31
2500.0
  0
LWPOLYLINE
  5
1EE
100
AcDbEntity
  8
MST_1_1
 62
   137
  6
CONTINUOUS
100
AcDbPolyline
 90
        4
 70
     0
 43
0.0
 38
2500.0
 10
81.14149803
 20
-23.30597832
 10
81.6737323
 20
-24.45454975
 10
81.93963137
 20
-23.30597832
 10
81.39088265
 20
-22.12176841
  0
LINE
  5
1EF
100
AcDbEntity
  8
MST_1_1
 62
   137
  6
CONTINUOUS
100
AcDbLine
 10
80.0389121
 20
-23.30597832
 30
2500.0
 11
81.14149803
 21
-23.30597832
 31
2500.0
  0
LINE
  5
1F0
100
AcDbEntity
  8
MST_1_1
 62
   137
  6
CONTINUOUS
100
AcDbLine
 10
81.39088265
 20
-22.12176841
 30
2500.0
 11
81.14149803
 21
-23.30597832
 31
2500.0
  0
LINE
  5
1F1
100
AcDbEntity
  8
MST_1_1
 62
   137
  6
CONTINUOUS
100
AcDbLine
 10
80.0389121
 20
-19.60312118
 30
2500.0
 11
79.68376741
 21
-18.45454975
 31
2500.0
  0
LINE
  5
1F2
100
AcDbEntity
  8
MST_1_1
 62
   137
  6
CONTINUOUS
100
AcDbLine
 10
80.0389121
 20
-23.30597832
 30
2500.0
 11
79.68376741
 21
-24.45454975
 31
2500.0
  0
LINE
  5
1F3
100
AcDbEntity
  8
MST_1_1
 62
   137
  6
CONTINUOUS
100
AcDbLine
 10
36.0389121
 20
-17.50718133
 30
2500.0
 11
36.8533415
 21
-17.50718133
 31
2500.0
  0
3DFACE
  5
1F4
100
AcDbEntity
  8
MST_1_1
 62
   137
  6
CONTINUOUS
100
AcDbFace
 70
     0
 10
36.8533415
 20
-17.50718133
 30
2500.0
 11
39.65771812
 21
-26.45454975
 31
2500.0
 12
40.21224083
 22
-25.40191817
 32
2500.0
 13
37.40786421
 23
-16.45454975
 33
2500.0
  0
LINE
  5
1F5
100
AcDbEntity
  8
MST_1_1
 62
   137
  6
CONTINUOUS
100
AcDbLine
 10
37.40786421
 20
-16.45454975
 30
2500.0
 11
39.65771812
 21
-26.45454975
 31
2500.0
  0
3DFACE
  5
1F6
100
AcDbEntity
  8
MST_1_1
 62
   137
  6
CONTINUOUS
100
AcDbFace
 70
     0
 10
40.8533415
 20
-17.50718133
 30
2500.0
 11
43.65771812
 21
-26.45454975
 31
2500.0
 12
44.21224083
 22
-25.40191817
 32
2500.0
 13
41.40786421
 23
-16.45454975
 33
2500.0
  0
LINE
  5
1F7
100
AcDbEntity
  8
MST_1_1
 62
   137
  6
CONTINUOUS
100
AcDbLine
 10
41.40786421
 20
-16.45454975
 30
2500.0
 11
43.65771812
 21
-26.45454975
 31
2500.0
  0
3DFACE
  5
1F8
100
AcDbEntity
  8
MST_1_1
 62
   137
  6
CONTINUOUS
100
AcDbFace
 70
     0
 10
44.8533415
 20
-17.50718133
 30
2500.0
 11
47.65771812
 21
-26.45454975
 31
2500.0
 12
48.21224083
 22
-25.40191817
 32
2500.0
 13
45.40786421
 23
-16.45454975
 33
2500.0
  0
LINE
  5
1F9
100
AcDbEntity
  8
MST_1_1
 62
   137
  6
CONTINUOUS
100
AcDbLine
 10
45.40786421
 20
-16.45454975
 30
2500.0
 11
47.65771812
 21
-26.45454975
 31
2500.0
  0
3DFACE
  5
1FA
100
AcDbEntity
  8
MST_1_1
 62
   137
  6
CONTINUOUS
100
AcDbFace
 70
     0
 10
48.8533415
 20
-17.50718133
 30
2500.0
 11
51.65771812
 21
-26.45454975
 31
2500.0
 12
52.21224083
 22
-25.40191817
 32
2500.0
 13
49.40786421
 23
-16.45454975
 33
2500.0
  0
LINE
  5
1FB
100
AcDbEntity
  8
MST_1_1
 62
   137
  6
CONTINUOUS
100
AcDbLine
 10
49.40786421
 20
-16.45454975
 30
2500.0
 11
51.65771812
 21
-26.45454975
 31
2500.0
  0
3DFACE
  5
1FC
100
AcDbEntity
  8
MST_1_1
 62
   137
  6
CONTINUOUS
100
AcDbFace
 70
     0
 10
52.8533415
 20
-17.50718133
 30
2500.0
 11
55.65771812
 21
-26.45454975
 31
2500.0
 12
56.21224083
 22
-25.40191817
 32
2500.0
 13
53.40786421
 23
-16.45454975
 33
2500.0
  0
LINE
  5
1FD
100
AcDbEntity
  8
MST_1_1
 62
   137
  6
CONTINUOUS
100
AcDbLine
 10
53.40786421
 20
-16.45454975
 30
2500.0
 11
55.65771812
 21
-26.45454975
 31
2500.0
  0
3DFACE
  5
1FE
100
AcDbEntity
  8
MST_1_1
 62
   137
  6
CONTINUOUS
100
AcDbFace
 70
     0
 10
57.40786421
 20
-16.45454975
 30
2500.0
 11
56.8533415
 21
-17.50718133
 31
2500.0
 12
57.19907055
 22
-18.61023048
 32
2500.0
 13
57.73779087
 23
-17.50718133
 33
2500.0
  0
LINE
  5
1FF
100
AcDbEntity
  8
MST_1_1
 62
   137
  6
CONTINUOUS
100
AcDbLine
 10
57.40786421
 20
-16.45454975
 30
2500.0
 11
57.67405285
 21
-17.6376872
 31
2500.0
  0
LINE
  5
200
100
AcDbEntity
  8
MST_1_1
 62
   137
  6
CONTINUOUS
100
AcDbLine
 10
40.8533415
 20
-17.50718133
 30
2500.0
 11
37.73779087
 21
-17.50718133
 31
2500.0
  0
LINE
  5
201
100
AcDbEntity
  8
MST_1_1
 62
   137
  6
CONTINUOUS
100
AcDbLine
 10
44.8533415
 20
-17.50718133
 30
2500.0
 11
41.73779087
 21
-17.50718133
 31
2500.0
  0
LINE
  5
202
100
AcDbEntity
  8
MST_1_1
 62
   137
  6
CONTINUOUS
100
AcDbLine
 10
48.8533415
 20
-17.50718133
 30
2500.0
 11
45.73779087
 21
-17.50718133
 31
2500.0
  0
LINE
  5
203
100
AcDbEntity
  8
MST_1_1
 62
   137
  6
CONTINUOUS
100
AcDbLine
 10
52.8533415
 20
-17.50718133
 30
2500.0
 11
49.73779087
 21
-17.50718133
 31
2500.0
  0
LINE
  5
204
100
AcDbEntity
  8
MST_1_1
 62
   137
  6
CONTINUOUS
100
AcDbLine
 10
56.8533415
 20
-17.50718133
 30
2500.0
 11
53.73779087
 21
-17.50718133
 31
2500.0
  0
LINE
  5
205
100
AcDbEntity
  8
MST_1_1
 62
   137
  6
CONTINUOUS
100
AcDbLine
 10
58.0389121
 20
-17.50718133
 30
2500.0
 11
57.73779087
 21
-17.50718133
 31
2500.0
  0
LINE
  5
206
100
AcDbEntity
  8
MST_1_1
 62
   137
  6
CONTINUOUS
100
AcDbLine
 10
36.0389121
 20
-25.40191817
 30
2500.0
 11
36.0389121
 21
-17.50718133
 31
2500.0
  0
LINE
  5
207
100
AcDbEntity
  8
MST_1_1
 62
   137
  6
CONTINUOUS
100
AcDbLine
 10
58.40270541
 20
-24.45454975
 30
2500.0
 11
58.40270541
 21
-18.45454975
 31
2500.0
  0
LINE
  5
208
100
AcDbEntity
  8
MST_1_1
 62
   137
  6
CONTINUOUS
100
AcDbLine
 10
80.0389121
 20
-23.30597832
 30
2500.0
 11
80.0389121
 21
-19.60312118
 31
2500.0
  0
LINE
  5
209
100
AcDbEntity
  8
MST_1_1
 62
   137
  6
CONTINUOUS
100
AcDbLine
 10
79.68376741
 20
-18.45454975
 30
2500.0
 11
79.68376741
 21
-24.45454975
 31
2500.0
  0
LINE
  5
20A
100
AcDbEntity
  8
MST_1_1
 62
   137
  6
CONTINUOUS
100
AcDbLine
 10
58.0389121
 20
-25.40191817
 30
2500.0
 11
58.0389121
 21
-17.50718133
 31
2500.0
  0
LINE
  5
20B
100
AcDbEntity
  8
MST_1_1
 62
   137
  6
CONTINUOUS
100
AcDbLine
 10
79.68376741
 20
-24.45454975
 30
2500.0
 11
58.40270541
 21
-24.45454975
 31
2500.0
  0
LINE
  5
20C
100
AcDbEntity
  8
MST_1_1
 62
   137
  6
CONTINUOUS
100
AcDbLine
 10
58.40270541
 20
-24.45454975
 30
2500.0
 11
58.0389121
 21
-25.40191817
 31
2500.0
  0
LINE
  5
20D
100
AcDbEntity
  8
MST_1_1
 62
   137
  6
CONTINUOUS
100
AcDbLine
 10
56.21224083
 20
-25.40191817
 30
2500.0
 11
58.0389121
 21
-25.40191817
 31
2500.0
  0
LINE
  5
20E
100
AcDbEntity
  8
MST_1_1
 62
   137
  6
CONTINUOUS
100
AcDbLine
 10
52.21224083
 20
-25.40191817
 30
2500.0
 11
55.32779145
 21
-25.40191817
 31
2500.0
  0
LINE
  5
20F
100
AcDbEntity
  8
MST_1_1
 62
   137
  6
CONTINUOUS
100
AcDbLine
 10
48.21224083
 20
-25.40191817
 30
2500.0
 11
51.32779145
 21
-25.40191817
 31
2500.0
  0
LINE
  5
210
100
AcDbEntity
  8
MST_1_1
 62
   137
  6
CONTINUOUS
100
AcDbLine
 10
44.21224083
 20
-25.40191817
 30
2500.0
 11
47.32779145
 21
-25.40191817
 31
2500.0
  0
LINE
  5
211
100
AcDbEntity
  8
MST_1_1
 62
   137
  6
CONTINUOUS
100
AcDbLine
 10
40.21224083
 20
-25.40191817
 30
2500.0
 11
43.32779145
 21
-25.40191817
 31
2500.0
  0
LINE
  5
212
100
AcDbEntity
  8
MST_1_1
 62
   137
  6
CONTINUOUS
100
AcDbLine
 10
36.0389121
 20
-25.40191817
 30
2500.0
 11
39.32779145
 21
-25.40191817
 31
2500.0
  0
LINE
  5
213
100
AcDbEntity
  8
MST_1_1
 62
   137
  6
CONTINUOUS
100
AcDbLine
 10
58.0389121
 20
-17.50718133
 30
2500.0
 11
58.40270541
 21
-18.45454975
 31
2500.0
  0
LWPOLYLINE
  5
214
100
AcDbEntity
  8
MST_1_1
 62
   137
  6
CONTINUOUS
100
AcDbPolyline
 90
        5
 70
     0
 43
0.0
 38
2500.0
 10
82.85420974
 20
-19.60312118
 10
83.1201087
 20
-18.45454954
 10
85.36820279
 20
-23.30597832
 10
85.10230373
 20
-24.45454975
 10
82.85420974
 20
-19.60312118
  0
LWPOLYLINE
  5
215
100
AcDbEntity
  8
MST_1_1
 62
   137
  6
CONTINUOUS
100
AcDbPolyline
 90
        5
 70
     0
 43
0.0
 38
2500.0
 10
86.28278116
 20
-19.60312118
 10
86.54868013
 20
-18.45454954
 10
88.79677422
 20
-23.30597832
 10
88.53087516
 20
-24.45454975
 10
86.28278116
 20
-19.60312118
  0
LWPOLYLINE
  5
216
100
AcDbEntity
  8
MST_1_1
 62
   137
  6
CONTINUOUS
100
AcDbPolyline
 90
        5
 70
     0
 43
0.0
 38
2500.0
 10
89.71135259
 20
-19.60312118
 10
89.97725156
 20
-18.45454954
 10
92.22534565
 20
-23.30597832
 10
91.95944659
 20
-24.45454975
 10
89.71135259
 20
-19.60312118
  0
LWPOLYLINE
  5
217
100
AcDbEntity
  8
MST_1_1
 62
   137
  6
CONTINUOUS
100
AcDbPolyline
 90
        5
 70
     0
 43
0.0
 38
2500.0
 10
93.13992402
 20
-19.60312118
 10
93.40582299
 20
-18.45454954
 10
95.65391708
 20
-23.30597832
 10
95.38801801
 20
-24.45454975
 10
93.13992402
 20
-19.60312118
  0
LWPOLYLINE
  5
218
100
AcDbEntity
  8
MST_1_1
 62
   137
  6
CONTINUOUS
100
AcDbPolyline
 90
        5
 70
     0
 43
0.0
 38
2500.0
 10
96.56849545
 20
-19.60312118
 10
96.83439442
 20
-18.45454954
 10
99.08248851
 20
-23.30597832
 10
98.81658944
 20
-24.45454975
 10
96.56849545
 20
-19.60312118
  0
LWPOLYLINE
  5
219
100
AcDbEntity
  8
MST_1_1
 62
   137
  6
CONTINUOUS
100
AcDbPolyline
 90
        5
 70
     0
 43
0.0
 38
2500.0
 10
99.99706688
 20
-19.60312118
 10
100.26296585
 20
-18.45454954
 10
102.51105994
 20
-23.30597832
 10
102.24516087
 20
-24.45454975
 10
99.99706688
 20
-19.60312118
  0
LWPOLYLINE
  5
21A
100
AcDbEntity
  8
MST_1_1
 62
   137
  6
CONTINUOUS
100
AcDbPolyline
 90
        5
 70
     0
 43
0.0
 38
2500.0
 10
103.42563831
 20
-19.60312118
 10
103.69153728
 20
-18.45454954
 10
105.89911838
 20
-23.21855054
 10
105.63321931
 20
-24.36712197
 10
103.42563831
 20
-19.60312118
  0
LWPOLYLINE
  5
21B
100
AcDbEntity
  8
MST_1_1
 62
   137
  6
CONTINUOUS
100
AcDbPolyline
 90
        5
 70
     0
 43
0.0
 38
2500.0
 10
106.84288801
 20
-19.78290382
 10
107.06322468
 20
-18.83114215
 10
108.92610351
 20
-22.85126925
 10
108.70576676
 20
-23.80303075
 10
106.84288801
 20
-19.78290382
  0
LWPOLYLINE
  5
21C
100
AcDbEntity
  8
MST_1_1
 62
     1
  6
BORDER
100
AcDbPolyline
 90
        3
 70
     0
 43
0.0
 10
96.0389121
 20
8.54545025
 10
36.0389121
 20
8.54545025
 10
31.0389121
 20
8.54545025
  0
LINE
  5
21D
100
AcDbEntity
  8
MST_1_1
 62
     7
  6
DASHED
100
AcDbLine
 10
336.0389121
 20
28.54545025
 30
0.0
 11
336.0389121
 21
-276.45454975
 31
0.0
  0
LINE
  5
21E
100
AcDbEntity
  8
MST_1_1
 62
     7
  6
DASHED
100
AcDbLine
 10
386.0389121
 20
28.54545025
 30
0.0
 11
386.0389121
 21
-306.45454975
 31
0.0
  0
LINE
  5
21F
100
AcDbEntity
  8
MST_1_1
 62
     7
  6
DASHED
100
AcDbLine
 10
436.0389121
 20
28.54545025
 30
0.0
 11
436.0389121
 21
-336.45454975
 31
0.0
  0
LINE
  5
220
100
AcDbEntity
  8
MST_1_1
 62
     7
  6
DASHED
100
AcDbLine
 10
486.0389121
 20
28.54545025
 30
0.0
 11
486.0389121
 21
-366.45454975
 31
0.0
  0
LINE
  5
221
100
AcDbEntity
  8
MST_1_1
 62
     7
  6
DASHED
100
AcDbLine
 10
536.0389121
 20
28.54545025
 30
0.0
 11
536.0389121
 21
-396.45454975
 31
0.0
  0
LINE
  5
222
100
AcDbEntity
  8
MST_1_1
 62
     7
  6
DASHED
100
AcDbLine
 10
636.0389121
 20
28.54545025
 30
0.0
 11
636.0389121
 21
-426.45454975
 31
0.0
  0
LINE
  5
223
100
AcDbEntity
  8
MST_1_1
 62
   137
  6
CONTINUOUS
100
AcDbLine
 10
58.40270541
 20
-48.45454975
 30
2500.0
 11
93.68376741
 21
-48.45454975
 31
2500.0
  0
LINE
  5
224
100
AcDbEntity
  8
MST_1_1
 62
   137
  6
CONTINUOUS
100
AcDbLine
 10
122.51105994
 20
-53.30597832
 30
2500.0
 11
124.227285
 21
-53.29839642
 31
2500.0
  0
LINE
  5
225
100
AcDbEntity
  8
MST_1_1
 62
   137
  6
CONTINUOUS
100
AcDbLine
 10
123.42563831
 20
-49.60312118
 30
2500.0
 11
120.79520021
 21
-49.60312118
 31
2500.0
  0
ARC
  5
226
100
AcDbEntity
  8
MST_1_1
 62
   137
  6
CONTINUOUS
100
AcDbCircle
 10
123.71536163
 20
-77.33708881
 30
2500.0
 40
27.73111126
100
AcDbArc
 50
83.52438041
 51
88.94224525
  0
LWPOLYLINE
  5
227
100
AcDbEntity
  8
MST_1_1
 62
   137
  6
CONTINUOUS
100
AcDbPolyline
 90
        3
 70
     0
 43
0.0
 38
2500.0
 10
136.0389121
 20
-51.45454975
 10
129.73880471
 20
-50.20627463
 42
0.01723995
 10
127.53687247
 20
-49.85328288
  0
ARC
  5
228
100
AcDbEntity
  8
MST_1_1
 62
   137
  6
CONTINUOUS
100
AcDbCircle
 10
123.52055492
 20
-20.95814455
 30
2500.0
 40
32.34797303
100
AcDbArc
 50
271.25189288
 51
272.83975061
  0
LWPOLYLINE
  5
229
100
AcDbEntity
  8
MST_1_1
 62
   137
  6
CONTINUOUS
100
AcDbPolyline
 90
        3
 70
     0
 43
0.0
 38
2500.0
 10
136.0389121
 20
-51.45454975
 10
129.73880471
 20
-52.70282487
 42
-0.0063851
 10
128.92610351
 20
-52.85126925
  0
ARC
  5
22A
100
AcDbEntity
  8
MST_1_1
 62
   137
  6
CONTINUOUS
100
AcDbCircle
 10
123.52055492
 20
-20.95814455
 30
2500.0
 40
32.34797303
100
AcDbArc
 50
274.21680449
 51
278.51502477
  0
LINE
  5
22B
100
AcDbEntity
  8
MST_1_1
 62
   137
  6
CONTINUOUS
100
AcDbLine
 10
119.08248851
 20
-53.30597832
 30
2500.0
 11
121.7129266
 21
-53.30597832
 31
2500.0
  0
LINE
  5
22C
100
AcDbEntity
  8
MST_1_1
 62
   137
  6
CONTINUOUS
100
AcDbLine
 10
119.99706688
 20
-49.60312118
 30
2500.0
 11
117.36662878
 21
-49.60312118
 31
2500.0
  0
LINE
  5
22D
100
AcDbEntity
  8
MST_1_1
 62
   137
  6
CONTINUOUS
100
AcDbLine
 10
115.65391708
 20
-53.30597832
 30
2500.0
 11
118.28435518
 21
-53.30597832
 31
2500.0
  0
LINE
  5
22E
100
AcDbEntity
  8
MST_1_1
 62
   137
  6
CONTINUOUS
100
AcDbLine
 10
116.56849545
 20
-49.60312118
 30
2500.0
 11
113.93805735
 21
-49.60312118
 31
2500.0
  0
LINE
  5
22F
100
AcDbEntity
  8
MST_1_1
 62
   137
  6
CONTINUOUS
100
AcDbLine
 10
112.22534565
 20
-53.30597832
 30
2500.0
 11
114.85578375
 21
-53.30597832
 31
2500.0
  0
LINE
  5
230
100
AcDbEntity
  8
MST_1_1
 62
   137
  6
CONTINUOUS
100
AcDbLine
 10
113.13992402
 20
-49.60312118
 30
2500.0
 11
110.50948592
 21
-49.60312118
 31
2500.0
  0
LINE
  5
231
100
AcDbEntity
  8
MST_1_1
 62
   137
  6
CONTINUOUS
100
AcDbLine
 10
108.79677422
 20
-53.30597832
 30
2500.0
 11
111.42721232
 21
-53.30597832
 31
2500.0
  0
LINE
  5
232
100
AcDbEntity
  8
MST_1_1
 62
   137
  6
CONTINUOUS
100
AcDbLine
 10
109.71135259
 20
-49.60312118
 30
2500.0
 11
107.0809145
 21
-49.60312118
 31
2500.0
  0
LINE
  5
233
100
AcDbEntity
  8
MST_1_1
 62
   137
  6
CONTINUOUS
100
AcDbLine
 10
105.36820279
 20
-53.30597832
 30
2500.0
 11
107.99864089
 21
-53.30597832
 31
2500.0
  0
LINE
  5
234
100
AcDbEntity
  8
MST_1_1
 62
   137
  6
CONTINUOUS
100
AcDbLine
 10
106.28278116
 20
-49.60312118
 30
2500.0
 11
103.65234307
 21
-49.60312118
 31
2500.0
  0
LINE
  5
235
100
AcDbEntity
  8
MST_1_1
 62
   137
  6
CONTINUOUS
100
AcDbLine
 10
94.0389121
 20
-49.60312118
 30
2500.0
 11
93.68376741
 21
-48.45454975
 31
2500.0
  0
LINE
  5
236
100
AcDbEntity
  8
MST_1_1
 62
   137
  6
CONTINUOUS
100
AcDbLine
 10
94.0389121
 20
-53.30597832
 30
2500.0
 11
93.68376741
 21
-54.45454975
 31
2500.0
  0
LINE
  5
237
100
AcDbEntity
  8
MST_1_1
 62
   137
  6
CONTINUOUS
100
AcDbLine
 10
36.0389121
 20
-47.50718133
 30
2500.0
 11
36.8533415
 21
-47.50718133
 31
2500.0
  0
3DFACE
  5
238
100
AcDbEntity
  8
MST_1_1
 62
   137
  6
CONTINUOUS
100
AcDbFace
 70
     0
 10
36.8533415
 20
-47.50718133
 30
2500.0
 11
39.65771812
 21
-56.45454975
 31
2500.0
 12
40.21224083
 22
-55.40191817
 32
2500.0
 13
37.40786421
 23
-46.45454975
 33
2500.0
  0
LINE
  5
239
100
AcDbEntity
  8
MST_1_1
 62
   137
  6
CONTINUOUS
100
AcDbLine
 10
37.40786421
 20
-46.45454975
 30
2500.0
 11
39.65771812
 21
-56.45454975
 31
2500.0
  0
3DFACE
  5
23A
100
AcDbEntity
  8
MST_1_1
 62
   137
  6
CONTINUOUS
100
AcDbFace
 70
     0
 10
40.8533415
 20
-47.50718133
 30
2500.0
 11
43.65771812
 21
-56.45454975
 31
2500.0
 12
44.21224083
 22
-55.40191817
 32
2500.0
 13
41.40786421
 23
-46.45454975
 33
2500.0
  0
LINE
  5
23B
100
AcDbEntity
  8
MST_1_1
 62
   137
  6
CONTINUOUS
100
AcDbLine
 10
41.40786421
 20
-46.45454975
 30
2500.0
 11
43.65771812
 21
-56.45454975
 31
2500.0
  0
3DFACE
  5
23C
100
AcDbEntity
  8
MST_1_1
 62
   137
  6
CONTINUOUS
100
AcDbFace
 70
     0
 10
44.8533415
 20
-47.50718133
 30
2500.0
 11
47.65771812
 21
-56.45454975
 31
2500.0
 12
48.21224083
 22
-55.40191817
 32
2500.0
 13
45.40786421
 23
-46.45454975
 33
2500.0
  0
LINE
  5
23D
100
AcDbEntity
  8
MST_1_1
 62
   137
  6
CONTINUOUS
100
AcDbLine
 10
45.40786421
 20
-46.45454975
 30
2500.0
 11
47.65771812
 21
-56.45454975
 31
2500.0
  0
3DFACE
  5
23E
100
AcDbEntity
  8
MST_1_1
 62
   137
  6
CONTINUOUS
100
AcDbFace
 70
     0
 10
48.8533415
 20
-47.50718133
 30
2500.0
 11
51.65771812
 21
-56.45454975
 31
2500.0
 12
52.21224083
 22
-55.40191817
 32
2500.0
 13
49.40786421
 23
-46.45454975
 33
2500.0
  0
LINE
  5
23F
100
AcDbEntity
  8
MST_1_1
 62
   137
  6
CONTINUOUS
100
AcDbLine
 10
49.40786421
 20
-46.45454975
 30
2500.0
 11
51.65771812
 21
-56.45454975
 31
2500.0
  0
3DFACE
  5
240
100
AcDbEntity
  8
MST_1_1
 62
   137
  6
CONTINUOUS
100
AcDbFace
 70
     0
 10
52.8533415
 20
-47.50718133
 30
2500.0
 11
55.65771812
 21
-56.45454975
 31
2500.0
 12
56.21224083
 22
-55.40191817
 32
2500.0
 13
53.40786421
 23
-46.45454975
 33
2500.0
  0
LINE
  5
241
100
AcDbEntity
  8
MST_1_1
 62
   137
  6
CONTINUOUS
100
AcDbLine
 10
53.40786421
 20
-46.45454975
 30
2500.0
 11
55.65771812
 21
-56.45454975
 31
2500.0
  0
3DFACE
  5
242
100
AcDbEntity
  8
MST_1_1
 62
   137
  6
CONTINUOUS
100
AcDbFace
 70
     0
 10
57.40786421
 20
-46.45454975
 30
2500.0
 11
56.8533415
 21
-47.50718133
 31
2500.0
 12
57.19907055
 22
-48.61023048
 32
2500.0
 13
57.73779087
 23
-47.50718133
 33
2500.0
  0
LINE
  5
243
100
AcDbEntity
  8
MST_1_1
 62
   137
  6
CONTINUOUS
100
AcDbLine
 10
57.40786421
 20
-46.45454975
 30
2500.0
 11
57.67405285
 21
-47.6376872
 31
2500.0
  0
LINE
  5
244
100
AcDbEntity
  8
MST_1_1
 62
   137
  6
CONTINUOUS
100
AcDbLine
 10
40.8533415
 20
-47.50718133
 30
2500.0
 11
37.73779087
 21
-47.50718133
 31
2500.0
  0
LINE
  5
245
100
AcDbEntity
  8
MST_1_1
 62
   137
  6
CONTINUOUS
100
AcDbLine
 10
44.8533415
 20
-47.50718133
 30
2500.0
 11
41.73779087
 21
-47.50718133
 31
2500.0
  0
LINE
  5
246
100
AcDbEntity
  8
MST_1_1
 62
   137
  6
CONTINUOUS
100
AcDbLine
 10
48.8533415
 20
-47.50718133
 30
2500.0
 11
45.73779087
 21
-47.50718133
 31
2500.0
  0
LINE
  5
247
100
AcDbEntity
  8
MST_1_1
 62
   137
  6
CONTINUOUS
100
AcDbLine
 10
52.8533415
 20
-47.50718133
 30
2500.0
 11
49.73779087
 21
-47.50718133
 31
2500.0
  0
LINE
  5
248
100
AcDbEntity
  8
MST_1_1
 62
   137
  6
CONTINUOUS
100
AcDbLine
 10
56.8533415
 20
-47.50718133
 30
2500.0
 11
53.73779087
 21
-47.50718133
 31
2500.0
  0
LINE
  5
249
100
AcDbEntity
  8
MST_1_1
 62
   137
  6
CONTINUOUS
100
AcDbLine
 10
58.0389121
 20
-47.50718133
 30
2500.0
 11
57.73779087
 21
-47.50718133
 31
2500.0
  0
LINE
  5
24A
100
AcDbEntity
  8
MST_1_1
 62
   137
  6
CONTINUOUS
100
AcDbLine
 10
36.0389121
 20
-55.40191817
 30
2500.0
 11
36.0389121
 21
-47.50718133
 31
2500.0
  0
LINE
  5
24B
100
AcDbEntity
  8
MST_1_1
 62
   137
  6
CONTINUOUS
100
AcDbLine
 10
58.40270541
 20
-54.45454975
 30
2500.0
 11
58.40270541
 21
-48.45454975
 31
2500.0
  0
LINE
  5
24C
100
AcDbEntity
  8
MST_1_1
 62
   137
  6
CONTINUOUS
100
AcDbLine
 10
94.0389121
 20
-53.30597832
 30
2500.0
 11
94.0389121
 21
-49.60312118
 31
2500.0
  0
LINE
  5
24D
100
AcDbEntity
  8
MST_1_1
 62
   137
  6
CONTINUOUS
100
AcDbLine
 10
93.68376741
 20
-48.45454975
 30
2500.0
 11
93.68376741
 21
-54.45454975
 31
2500.0
  0
LINE
  5
24E
100
AcDbEntity
  8
MST_1_1
 62
   137
  6
CONTINUOUS
100
AcDbLine
 10
58.0389121
 20
-55.40191817
 30
2500.0
 11
58.0389121
 21
-47.50718133
 31
2500.0
  0
LINE
  5
24F
100
AcDbEntity
  8
MST_1_1
 62
   137
  6
CONTINUOUS
100
AcDbLine
 10
93.68376741
 20
-54.45454975
 30
2500.0
 11
58.40270541
 21
-54.45454975
 31
2500.0
  0
LINE
  5
250
100
AcDbEntity
  8
MST_1_1
 62
   137
  6
CONTINUOUS
100
AcDbLine
 10
58.40270541
 20
-54.45454975
 30
2500.0
 11
58.0389121
 21
-55.40191817
 31
2500.0
  0
LINE
  5
251
100
AcDbEntity
  8
MST_1_1
 62
   137
  6
CONTINUOUS
100
AcDbLine
 10
56.21224083
 20
-55.40191817
 30
2500.0
 11
58.0389121
 21
-55.40191817
 31
2500.0
  0
LINE
  5
252
100
AcDbEntity
  8
MST_1_1
 62
   137
  6
CONTINUOUS
100
AcDbLine
 10
52.21224083
 20
-55.40191817
 30
2500.0
 11
55.32779145
 21
-55.40191817
 31
2500.0
  0
LINE
  5
253
100
AcDbEntity
  8
MST_1_1
 62
   137
  6
CONTINUOUS
100
AcDbLine
 10
48.21224083
 20
-55.40191817
 30
2500.0
 11
51.32779145
 21
-55.40191817
 31
2500.0
  0
LINE
  5
254
100
AcDbEntity
  8
MST_1_1
 62
   137
  6
CONTINUOUS
100
AcDbLine
 10
44.21224083
 20
-55.40191817
 30
2500.0
 11
47.32779145
 21
-55.40191817
 31
2500.0
  0
LINE
  5
255
100
AcDbEntity
  8
MST_1_1
 62
   137
  6
CONTINUOUS
100
AcDbLine
 10
40.21224083
 20
-55.40191817
 30
2500.0
 11
43.32779145
 21
-55.40191817
 31
2500.0
  0
LINE
  5
256
100
AcDbEntity
  8
MST_1_1
 62
   137
  6
CONTINUOUS
100
AcDbLine
 10
36.0389121
 20
-55.40191817
 30
2500.0
 11
39.32779145
 21
-55.40191817
 31
2500.0
  0
LINE
  5
257
100
AcDbEntity
  8
MST_1_1
 62
   137
  6
CONTINUOUS
100
AcDbLine
 10
58.0389121
 20
-47.50718133
 30
2500.0
 11
58.40270541
 21
-48.45454975
 31
2500.0
  0
LWPOLYLINE
  5
258
100
AcDbEntity
  8
MST_1_1
 62
   137
  6
CONTINUOUS
100
AcDbPolyline
 90
        5
 70
     0
 43
0.0
 38
2500.0
 10
102.85420974
 20
-49.60312118
 10
103.1201087
 20
-48.45454954
 10
105.36820279
 20
-53.30597832
 10
105.10230373
 20
-54.45454975
 10
102.85420974
 20
-49.60312118
  0
LWPOLYLINE
  5
259
100
AcDbEntity
  8
MST_1_1
 62
   137
  6
CONTINUOUS
100
AcDbPolyline
 90
        5
 70
     0
 43
0.0
 38
2500.0
 10
106.28278116
 20
-49.60312118
 10
106.54868013
 20
-48.45454954
 10
108.79677422
 20
-53.30597832
 10
108.53087516
 20
-54.45454975
 10
106.28278116
 20
-49.60312118
  0
LWPOLYLINE
  5
25A
100
AcDbEntity
  8
MST_1_1
 62
   137
  6
CONTINUOUS
100
AcDbPolyline
 90
        5
 70
     0
 43
0.0
 38
2500.0
 10
109.71135259
 20
-49.60312118
 10
109.97725156
 20
-48.45454954
 10
112.22534565
 20
-53.30597832
 10
111.95944659
 20
-54.45454975
 10
109.71135259
 20
-49.60312118
  0
LWPOLYLINE
  5
25B
100
AcDbEntity
  8
MST_1_1
 62
   137
  6
CONTINUOUS
100
AcDbPolyline
 90
        5
 70
     0
 43
0.0
 38
2500.0
 10
113.13992402
 20
-49.60312118
 10
113.40582299
 20
-48.45454954
 10
115.65391708
 20
-53.30597832
 10
115.38801801
 20
-54.45454975
 10
113.13992402
 20
-49.60312118
  0
LWPOLYLINE
  5
25C
100
AcDbEntity
  8
MST_1_1
 62
   137
  6
CONTINUOUS
100
AcDbPolyline
 90
        5
 70
     0
 43
0.0
 38
2500.0
 10
116.56849545
 20
-49.60312118
 10
116.83439442
 20
-48.45454954
 10
119.08248851
 20
-53.30597832
 10
118.81658944
 20
-54.45454975
 10
116.56849545
 20
-49.60312118
  0
LWPOLYLINE
  5
25D
100
AcDbEntity
  8
MST_1_1
 62
   137
  6
CONTINUOUS
100
AcDbPolyline
 90
        5
 70
     0
 43
0.0
 38
2500.0
 10
119.99706688
 20
-49.60312118
 10
120.26296585
 20
-48.45454954
 10
122.51105994
 20
-53.30597832
 10
122.24516087
 20
-54.45454975
 10
119.99706688
 20
-49.60312118
  0
LWPOLYLINE
  5
25E
100
AcDbEntity
  8
MST_1_1
 62
   137
  6
CONTINUOUS
100
AcDbPolyline
 90
        5
 70
     0
 43
0.0
 38
2500.0
 10
123.42563831
 20
-49.60312118
 10
123.69153728
 20
-48.45454954
 10
125.89911838
 20
-53.21855054
 10
125.63321931
 20
-54.36712197
 10
123.42563831
 20
-49.60312118
  0
LWPOLYLINE
  5
25F
100
AcDbEntity
  8
MST_1_1
 62
   137
  6
CONTINUOUS
100
AcDbPolyline
 90
        5
 70
     0
 43
0.0
 38
2500.0
 10
126.84288801
 20
-49.78290382
 10
127.06322468
 20
-48.83114215
 10
128.92610351
 20
-52.85126925
 10
128.70576676
 20
-53.80303075
 10
126.84288801
 20
-49.78290382
  0
LINE
  5
260
100
AcDbEntity
  8
MST_1_1
 62
   137
  6
CONTINUOUS
100
AcDbLine
 10
94.0389121
 20
-53.30597832
 30
2500.0
 11
97.7129266
 21
-53.30597832
 31
2500.0
  0
LINE
  5
261
100
AcDbEntity
  8
MST_1_1
 62
   137
  6
CONTINUOUS
100
AcDbLine
 10
101.93963137
 20
-53.30597832
 30
2500.0
 11
104.57006946
 21
-53.30597832
 31
2500.0
  0
LINE
  5
262
100
AcDbEntity
  8
MST_1_1
 62
   137
  6
CONTINUOUS
100
AcDbLine
 10
102.85420974
 20
-49.60312118
 30
2500.0
 11
100.22377164
 21
-49.60312118
 31
2500.0
  0
LWPOLYLINE
  5
263
100
AcDbEntity
  8
MST_1_1
 62
   137
  6
CONTINUOUS
100
AcDbPolyline
 90
        5
 70
     0
 43
0.0
 38
2500.0
 10
99.42563831
 20
-49.60312118
 10
99.69153728
 20
-48.45454954
 10
101.93963137
 20
-53.30597832
 10
101.6737323
 20
-54.45454975
 10
99.42563831
 20
-49.60312118
  0
LINE
  5
264
100
AcDbEntity
  8
MST_1_1
 62
   137
  6
CONTINUOUS
100
AcDbLine
 10
98.51105994
 20
-53.30597832
 30
2500.0
 11
101.14149803
 21
-53.30597832
 31
2500.0
  0
LINE
  5
265
100
AcDbEntity
  8
MST_1_1
 62
   137
  6
CONTINUOUS
100
AcDbLine
 10
99.42563831
 20
-49.60312118
 30
2500.0
 11
96.79520021
 21
-49.60312118
 31
2500.0
  0
LWPOLYLINE
  5
266
100
AcDbEntity
  8
MST_1_1
 62
   137
  6
CONTINUOUS
100
AcDbPolyline
 90
        5
 70
     0
 43
0.0
 38
2500.0
 10
95.99706688
 20
-49.60312118
 10
96.26296585
 20
-48.45454954
 10
98.51105994
 20
-53.30597832
 10
98.24516087
 20
-54.45454975
 10
95.99706688
 20
-49.60312118
  0
LINE
  5
267
100
AcDbEntity
  8
MST_1_1
 62
   137
  6
CONTINUOUS
100
AcDbLine
 10
95.99706688
 20
-49.60312118
 30
2500.0
 11
94.0389121
 21
-49.60312118
 31
2500.0
  0
LWPOLYLINE
  5
268
100
AcDbEntity
  8
MST_1_1
 62
     1
  6
BORDER
100
AcDbPolyline
 90
        3
 70
     0
 43
0.0
 10
116.0389121
 20
-21.45454975
 10
36.0389121
 20
-21.45454975
 10
31.0389121
 20
-21.45454975
  0
LWPOLYLINE
  5
269
100
AcDbEntity
  8
MST_1_1
 62
     1
  6
BORDER
100
AcDbPolyline
 90
        3
 70
     0
 43
0.0
 10
136.0389121
 20
-51.45454975
 10
36.0389121
 20
-51.45454975
 10
31.0389121
 20
-51.45454975
  0
LWPOLYLINE
  5
26A
100
AcDbEntity
  8
MST_1_1
 62
     1
  6
BORDER
100
AcDbPolyline
 90
        3
 70
     0
 43
0.0
 10
156.0389121
 20
-81.45454975
 10
36.0389121
 20
-81.45454975
 10
31.0389121
 20
-81.45454975
  0
LWPOLYLINE
  5
26B
100
AcDbEntity
  8
MST_1_1
 62
     1
  6
BORDER
100
AcDbPolyline
 90
        3
 70
     0
 43
0.0
 10
186.0389121
 20
-111.45454975
 10
36.0389121
 20
-111.45454975
 10
31.0389121
 20
-111.45454975
  0
LWPOLYLINE
  5
26C
100
AcDbEntity
  8
MST_1_1
 62
     1
  6
BORDER
100
AcDbPolyline
 90
        3
 70
     0
 43
0.0
 10
216.0389121
 20
-141.45454975
 10
36.0389121
 20
-141.45454975
 10
31.0389121
 20
-141.45454975
  0
LWPOLYLINE
  5
26D
100
AcDbEntity
  8
MST_1_1
 62
     1
  6
BORDER
100
AcDbPolyline
 90
        3
 70
     0
 43
0.0
 10
236.0389121
 20
-171.45454975
 10
36.0389121
 20
-171.45454975
 10
31.0389121
 20
-171.45454975
  0
LWPOLYLINE
  5
26E
100
AcDbEntity
  8
MST_1_1
 62
     1
  6
BORDER
100
AcDbPolyline
 90
        3
 70
     0
 43
0.0
 10
266.0389121
 20
-201.45454975
 10
36.0389121
 20
-201.45454975
 10
31.0389121
 20
-201.45454975
  0
LINE
  5
26F
100
AcDbEntity
  8
MST_1_1
 62
   137
  6
CONTINUOUS
100
AcDbLine
 10
58.40270541
 20
-78.45454975
 30
2500.0
 11
113.68376741
 21
-78.45454975
 31
2500.0
  0
LINE
  5
270
100
AcDbEntity
  8
MST_1_1
 62
   137
  6
CONTINUOUS
100
AcDbLine
 10
142.51105994
 20
-83.30597832
 30
2500.0
 11
144.227285
 21
-83.29839642
 31
2500.0
  0
LINE
  5
271
100
AcDbEntity
  8
MST_1_1
 62
   137
  6
CONTINUOUS
100
AcDbLine
 10
143.42563831
 20
-79.60312118
 30
2500.0
 11
140.79520021
 21
-79.60312118
 31
2500.0
  0
ARC
  5
272
100
AcDbEntity
  8
MST_1_1
 62
   137
  6
CONTINUOUS
100
AcDbCircle
 10
143.71536163
 20
-107.33708881
 30
2500.0
 40
27.73111126
100
AcDbArc
 50
83.52438041
 51
88.94224525
  0
LWPOLYLINE
  5
273
100
AcDbEntity
  8
MST_1_1
 62
   137
  6
CONTINUOUS
100
AcDbPolyline
 90
        3
 70
     0
 43
0.0
 38
2500.0
 10
156.0389121
 20
-81.45454975
 10
149.73880471
 20
-80.20627463
 42
0.01723995
 10
147.53687247
 20
-79.85328288
  0
ARC
  5
274
100
AcDbEntity
  8
MST_1_1
 62
   137
  6
CONTINUOUS
100
AcDbCircle
 10
143.52055492
 20
-50.95814455
 30
2500.0
 40
32.34797303
100
AcDbArc
 50
271.25189288
 51
272.83975061
  0
LWPOLYLINE
  5
275
100
AcDbEntity
  8
MST_1_1
 62
   137
  6
CONTINUOUS
100
AcDbPolyline
 90
        3
 70
     0
 43
0.0
 38
2500.0
 10
156.0389121
 20
-81.45454975
 10
149.73880471
 20
-82.70282487
 42
-0.0063851
 10
148.92610351
 20
-82.85126925
  0
ARC
  5
276
100
AcDbEntity
  8
MST_1_1
 62
   137
  6
CONTINUOUS
100
AcDbCircle
 10
143.52055492
 20
-50.95814455
 30
2500.0
 40
32.34797303
100
AcDbArc
 50
274.21680449
 51
278.51502477
  0
LINE
  5
277
100
AcDbEntity
  8
MST_1_1
 62
   137
  6
CONTINUOUS
100
AcDbLine
 10
139.08248851
 20
-83.30597832
 30
2500.0
 11
141.7129266
 21
-83.30597832
 31
2500.0
  0
LINE
  5
278
100
AcDbEntity
  8
MST_1_1
 62
   137
  6
CONTINUOUS
100
AcDbLine
 10
139.99706688
 20
-79.60312118
 30
2500.0
 11
137.36662878
 21
-79.60312118
 31
2500.0
  0
LINE
  5
279
100
AcDbEntity
  8
MST_1_1
 62
   137
  6
CONTINUOUS
100
AcDbLine
 10
135.65391708
 20
-83.30597832
 30
2500.0
 11
138.28435518
 21
-83.30597832
 31
2500.0
  0
LINE
  5
27A
100
AcDbEntity
  8
MST_1_1
 62
   137
  6
CONTINUOUS
100
AcDbLine
 10
136.56849545
 20
-79.60312118
 30
2500.0
 11
133.93805735
 21
-79.60312118
 31
2500.0
  0
LINE
  5
27B
100
AcDbEntity
  8
MST_1_1
 62
   137
  6
CONTINUOUS
100
AcDbLine
 10
132.22534565
 20
-83.30597832
 30
2500.0
 11
134.85578375
 21
-83.30597832
 31
2500.0
  0
LINE
  5
27C
100
AcDbEntity
  8
MST_1_1
 62
   137
  6
CONTINUOUS
100
AcDbLine
 10
133.13992402
 20
-79.60312118
 30
2500.0
 11
130.50948592
 21
-79.60312118
 31
2500.0
  0
LINE
  5
27D
100
AcDbEntity
  8
MST_1_1
 62
   137
  6
CONTINUOUS
100
AcDbLine
 10
128.79677422
 20
-83.30597832
 30
2500.0
 11
131.42721232
 21
-83.30597832
 31
2500.0
  0
LINE
  5
27E
100
AcDbEntity
  8
MST_1_1
 62
   137
  6
CONTINUOUS
100
AcDbLine
 10
129.71135259
 20
-79.60312118
 30
2500.0
 11
127.0809145
 21
-79.60312118
 31
2500.0
  0
LINE
  5
27F
100
AcDbEntity
  8
MST_1_1
 62
   137
  6
CONTINUOUS
100
AcDbLine
 10
125.36820279
 20
-83.30597832
 30
2500.0
 11
127.99864089
 21
-83.30597832
 31
2500.0
  0
LINE
  5
280
100
AcDbEntity
  8
MST_1_1
 62
   137
  6
CONTINUOUS
100
AcDbLine
 10
126.28278116
 20
-79.60312118
 30
2500.0
 11
123.65234307
 21
-79.60312118
 31
2500.0
  0
LINE
  5
281
100
AcDbEntity
  8
MST_1_1
 62
   137
  6
CONTINUOUS
100
AcDbLine
 10
114.0389121
 20
-79.60312118
 30
2500.0
 11
113.68376741
 21
-78.45454975
 31
2500.0
  0
LINE
  5
282
100
AcDbEntity
  8
MST_1_1
 62
   137
  6
CONTINUOUS
100
AcDbLine
 10
114.0389121
 20
-83.30597832
 30
2500.0
 11
113.68376741
 21
-84.45454975
 31
2500.0
  0
LINE
  5
283
100
AcDbEntity
  8
MST_1_1
 62
   137
  6
CONTINUOUS
100
AcDbLine
 10
36.0389121
 20
-77.50718133
 30
2500.0
 11
36.8533415
 21
-77.50718133
 31
2500.0
  0
3DFACE
  5
284
100
AcDbEntity
  8
MST_1_1
 62
   137
  6
CONTINUOUS
100
AcDbFace
 70
     0
 10
36.8533415
 20
-77.50718133
 30
2500.0
 11
39.65771812
 21
-86.45454975
 31
2500.0
 12
40.21224083
 22
-85.40191817
 32
2500.0
 13
37.40786421
 23
-76.45454975
 33
2500.0
  0
LINE
  5
285
100
AcDbEntity
  8
MST_1_1
 62
   137
  6
CONTINUOUS
100
AcDbLine
 10
37.40786421
 20
-76.45454975
 30
2500.0
 11
39.65771812
 21
-86.45454975
 31
2500.0
  0
3DFACE
  5
286
100
AcDbEntity
  8
MST_1_1
 62
   137
  6
CONTINUOUS
100
AcDbFace
 70
     0
 10
40.8533415
 20
-77.50718133
 30
2500.0
 11
43.65771812
 21
-86.45454975
 31
2500.0
 12
44.21224083
 22
-85.40191817
 32
2500.0
 13
41.40786421
 23
-76.45454975
 33
2500.0
  0
LINE
  5
287
100
AcDbEntity
  8
MST_1_1
 62
   137
  6
CONTINUOUS
100
AcDbLine
 10
41.40786421
 20
-76.45454975
 30
2500.0
 11
43.65771812
 21
-86.45454975
 31
2500.0
  0
3DFACE
  5
288
100
AcDbEntity
  8
MST_1_1
 62
   137
  6
CONTINUOUS
100
AcDbFace
 70
     0
 10
44.8533415
 20
-77.50718133
 30
2500.0
 11
47.65771812
 21
-86.45454975
 31
2500.0
 12
48.21224083
 22
-85.40191817
 32
2500.0
 13
45.40786421
 23
-76.45454975
 33
2500.0
  0
LINE
  5
289
100
AcDbEntity
  8
MST_1_1
 62
   137
  6
CONTINUOUS
100
AcDbLine
 10
45.40786421
 20
-76.45454975
 30
2500.0
 11
47.65771812
 21
-86.45454975
 31
2500.0
  0
3DFACE
  5
28A
100
AcDbEntity
  8
MST_1_1
 62
   137
  6
CONTINUOUS
100
AcDbFace
 70
     0
 10
48.8533415
 20
-77.50718133
 30
2500.0
 11
51.65771812
 21
-86.45454975
 31
2500.0
 12
52.21224083
 22
-85.40191817
 32
2500.0
 13
49.40786421
 23
-76.45454975
 33
2500.0
  0
LINE
  5
28B
100
AcDbEntity
  8
MST_1_1
 62
   137
  6
CONTINUOUS
100
AcDbLine
 10
49.40786421
 20
-76.45454975
 30
2500.0
 11
51.65771812
 21
-86.45454975
 31
2500.0
  0
3DFACE
  5
28C
100
AcDbEntity
  8
MST_1_1
 62
   137
  6
CONTINUOUS
100
AcDbFace
 70
     0
 10
52.8533415
 20
-77.50718133
 30
2500.0
 11
55.65771812
 21
-86.45454975
 31
2500.0
 12
56.21224083
 22
-85.40191817
 32
2500.0
 13
53.40786421
 23
-76.45454975
 33
2500.0
  0
LINE
  5
28D
100
AcDbEntity
  8
MST_1_1
 62
   137
  6
CONTINUOUS
100
AcDbLine
 10
53.40786421
 20
-76.45454975
 30
2500.0
 11
55.65771812
 21
-86.45454975
 31
2500.0
  0
3DFACE
  5
28E
100
AcDbEntity
  8
MST_1_1
 62
   137
  6
CONTINUOUS
100
AcDbFace
 70
     0
 10
57.40786421
 20
-76.45454975
 30
2500.0
 11
56.8533415
 21
-77.50718133
 31
2500.0
 12
57.19907055
 22
-78.61023048
 32
2500.0
 13
57.73779087
 23
-77.50718133
 33
2500.0
  0
LINE
  5
28F
100
AcDbEntity
  8
MST_1_1
 62
   137
  6
CONTINUOUS
100
AcDbLine
 10
57.40786421
 20
-76.45454975
 30
2500.0
 11
57.67405285
 21
-77.6376872
 31
2500.0
  0
LINE
  5
290
100
AcDbEntity
  8
MST_1_1
 62
   137
  6
CONTINUOUS
100
AcDbLine
 10
40.8533415
 20
-77.50718133
 30
2500.0
 11
37.73779087
 21
-77.50718133
 31
2500.0
  0
LINE
  5
291
100
AcDbEntity
  8
MST_1_1
 62
   137
  6
CONTINUOUS
100
AcDbLine
 10
44.8533415
 20
-77.50718133
 30
2500.0
 11
41.73779087
 21
-77.50718133
 31
2500.0
  0
LINE
  5
292
100
AcDbEntity
  8
MST_1_1
 62
   137
  6
CONTINUOUS
100
AcDbLine
 10
48.8533415
 20
-77.50718133
 30
2500.0
 11
45.73779087
 21
-77.50718133
 31
2500.0
  0
LINE
  5
293
100
AcDbEntity
  8
MST_1_1
 62
   137
  6
CONTINUOUS
100
AcDbLine
 10
52.8533415
 20
-77.50718133
 30
2500.0
 11
49.73779087
 21
-77.50718133
 31
2500.0
  0
LINE
  5
294
100
AcDbEntity
  8
MST_1_1
 62
   137
  6
CONTINUOUS
100
AcDbLine
 10
56.8533415
 20
-77.50718133
 30
2500.0
 11
53.73779087
 21
-77.50718133
 31
2500.0
  0
LINE
  5
295
100
AcDbEntity
  8
MST_1_1
 62
   137
  6
CONTINUOUS
100
AcDbLine
 10
58.0389121
 20
-77.50718133
 30
2500.0
 11
57.73779087
 21
-77.50718133
 31
2500.0
  0
LINE
  5
296
100
AcDbEntity
  8
MST_1_1
 62
   137
  6
CONTINUOUS
100
AcDbLine
 10
36.0389121
 20
-85.40191817
 30
2500.0
 11
36.0389121
 21
-77.50718133
 31
2500.0
  0
LINE
  5
297
100
AcDbEntity
  8
MST_1_1
 62
   137
  6
CONTINUOUS
100
AcDbLine
 10
58.40270541
 20
-84.45454975
 30
2500.0
 11
58.40270541
 21
-78.45454975
 31
2500.0
  0
LINE
  5
298
100
AcDbEntity
  8
MST_1_1
 62
   137
  6
CONTINUOUS
100
AcDbLine
 10
114.0389121
 20
-83.30597832
 30
2500.0
 11
114.0389121
 21
-79.60312118
 31
2500.0
  0
LINE
  5
299
100
AcDbEntity
  8
MST_1_1
 62
   137
  6
CONTINUOUS
100
AcDbLine
 10
113.68376741
 20
-78.45454975
 30
2500.0
 11
113.68376741
 21
-84.45454975
 31
2500.0
  0
LINE
  5
29A
100
AcDbEntity
  8
MST_1_1
 62
   137
  6
CONTINUOUS
100
AcDbLine
 10
58.0389121
 20
-85.40191817
 30
2500.0
 11
58.0389121
 21
-77.50718133
 31
2500.0
  0
LINE
  5
29B
100
AcDbEntity
  8
MST_1_1
 62
   137
  6
CONTINUOUS
100
AcDbLine
 10
113.68376741
 20
-84.45454975
 30
2500.0
 11
58.40270541
 21
-84.45454975
 31
2500.0
  0
LINE
  5
29C
100
AcDbEntity
  8
MST_1_1
 62
   137
  6
CONTINUOUS
100
AcDbLine
 10
58.40270541
 20
-84.45454975
 30
2500.0
 11
58.0389121
 21
-85.40191817
 31
2500.0
  0
LINE
  5
29D
100
AcDbEntity
  8
MST_1_1
 62
   137
  6
CONTINUOUS
100
AcDbLine
 10
56.21224083
 20
-85.40191817
 30
2500.0
 11
58.0389121
 21
-85.40191817
 31
2500.0
  0
LINE
  5
29E
100
AcDbEntity
  8
MST_1_1
 62
   137
  6
CONTINUOUS
100
AcDbLine
 10
52.21224083
 20
-85.40191817
 30
2500.0
 11
55.32779145
 21
-85.40191817
 31
2500.0
  0
LINE
  5
29F
100
AcDbEntity
  8
MST_1_1
 62
   137
  6
CONTINUOUS
100
AcDbLine
 10
48.21224083
 20
-85.40191817
 30
2500.0
 11
51.32779145
 21
-85.40191817
 31
2500.0
  0
LINE
  5
2A0
100
AcDbEntity
  8
MST_1_1
 62
   137
  6
CONTINUOUS
100
AcDbLine
 10
44.21224083
 20
-85.40191817
 30
2500.0
 11
47.32779145
 21
-85.40191817
 31
2500.0
  0
LINE
  5
2A1
100
AcDbEntity
  8
MST_1_1
 62
   137
  6
CONTINUOUS
100
AcDbLine
 10
40.21224083
 20
-85.40191817
 30
2500.0
 11
43.32779145
 21
-85.40191817
 31
2500.0
  0
LINE
  5
2A2
100
AcDbEntity
  8
MST_1_1
 62
   137
  6
CONTINUOUS
100
AcDbLine
 10
36.0389121
 20
-85.40191817
 30
2500.0
 11
39.32779145
 21
-85.40191817
 31
2500.0
  0
LINE
  5
2A3
100
AcDbEntity
  8
MST_1_1
 62
   137
  6
CONTINUOUS
100
AcDbLine
 10
58.0389121
 20
-77.50718133
 30
2500.0
 11
58.40270541
 21
-78.45454975
 31
2500.0
  0
LWPOLYLINE
  5
2A4
100
AcDbEntity
  8
MST_1_1
 62
   137
  6
CONTINUOUS
100
AcDbPolyline
 90
        5
 70
     0
 43
0.0
 38
2500.0
 10
122.85420974
 20
-79.60312118
 10
123.1201087
 20
-78.45454954
 10
125.36820279
 20
-83.30597832
 10
125.10230373
 20
-84.45454975
 10
122.85420974
 20
-79.60312118
  0
LWPOLYLINE
  5
2A5
100
AcDbEntity
  8
MST_1_1
 62
   137
  6
CONTINUOUS
100
AcDbPolyline
 90
        5
 70
     0
 43
0.0
 38
2500.0
 10
126.28278116
 20
-79.60312118
 10
126.54868013
 20
-78.45454954
 10
128.79677422
 20
-83.30597832
 10
128.53087516
 20
-84.45454975
 10
126.28278116
 20
-79.60312118
  0
LWPOLYLINE
  5
2A6
100
AcDbEntity
  8
MST_1_1
 62
   137
  6
CONTINUOUS
100
AcDbPolyline
 90
        5
 70
     0
 43
0.0
 38
2500.0
 10
129.71135259
 20
-79.60312118
 10
129.97725156
 20
-78.45454954
 10
132.22534565
 20
-83.30597832
 10
131.95944659
 20
-84.45454975
 10
129.71135259
 20
-79.60312118
  0
LWPOLYLINE
  5
2A7
100
AcDbEntity
  8
MST_1_1
 62
   137
  6
CONTINUOUS
100
AcDbPolyline
 90
        5
 70
     0
 43
0.0
 38
2500.0
 10
133.13992402
 20
-79.60312118
 10
133.40582299
 20
-78.45454954
 10
135.65391708
 20
-83.30597832
 10
135.38801801
 20
-84.45454975
 10
133.13992402
 20
-79.60312118
  0
LWPOLYLINE
  5
2A8
100
AcDbEntity
  8
MST_1_1
 62
   137
  6
CONTINUOUS
100
AcDbPolyline
 90
        5
 70
     0
 43
0.0
 38
2500.0
 10
136.56849545
 20
-79.60312118
 10
136.83439442
 20
-78.45454954
 10
139.08248851
 20
-83.30597832
 10
138.81658944
 20
-84.45454975
 10
136.56849545
 20
-79.60312118
  0
LWPOLYLINE
  5
2A9
100
AcDbEntity
  8
MST_1_1
 62
   137
  6
CONTINUOUS
100
AcDbPolyline
 90
        5
 70
     0
 43
0.0
 38
2500.0
 10
139.99706688
 20
-79.60312118
 10
140.26296585
 20
-78.45454954
 10
142.51105994
 20
-83.30597832
 10
142.24516087
 20
-84.45454975
 10
139.99706688
 20
-79.60312118
  0
LWPOLYLINE
  5
2AA
100
AcDbEntity
  8
MST_1_1
 62
   137
  6
CONTINUOUS
100
AcDbPolyline
 90
        5
 70
     0
 43
0.0
 38
2500.0
 10
143.42563831
 20
-79.60312118
 10
143.69153728
 20
-78.45454954
 10
145.89911838
 20
-83.21855054
 10
145.63321931
 20
-84.36712197
 10
143.42563831
 20
-79.60312118
  0
LWPOLYLINE
  5
2AB
100
AcDbEntity
  8
MST_1_1
 62
   137
  6
CONTINUOUS
100
AcDbPolyline
 90
        5
 70
     0
 43
0.0
 38
2500.0
 10
146.84288801
 20
-79.78290382
 10
147.06322468
 20
-78.83114215
 10
148.92610351
 20
-82.85126925
 10
148.70576676
 20
-83.80303075
 10
146.84288801
 20
-79.78290382
  0
LINE
  5
2AC
100
AcDbEntity
  8
MST_1_1
 62
   137
  6
CONTINUOUS
100
AcDbLine
 10
114.0389121
 20
-83.30597832
 30
2500.0
 11
117.7129266
 21
-83.30597832
 31
2500.0
  0
LINE
  5
2AD
100
AcDbEntity
  8
MST_1_1
 62
   137
  6
CONTINUOUS
100
AcDbLine
 10
121.93963137
 20
-83.30597832
 30
2500.0
 11
124.57006946
 21
-83.30597832
 31
2500.0
  0
LINE
  5
2AE
100
AcDbEntity
  8
MST_1_1
 62
   137
  6
CONTINUOUS
100
AcDbLine
 10
122.85420974
 20
-79.60312118
 30
2500.0
 11
120.22377164
 21
-79.60312118
 31
2500.0
  0
LWPOLYLINE
  5
2AF
100
AcDbEntity
  8
MST_1_1
 62
   137
  6
CONTINUOUS
100
AcDbPolyline
 90
        5
 70
     0
 43
0.0
 38
2500.0
 10
119.42563831
 20
-79.60312118
 10
119.69153728
 20
-78.45454954
 10
121.93963137
 20
-83.30597832
 10
121.6737323
 20
-84.45454975
 10
119.42563831
 20
-79.60312118
  0
LINE
  5
2B0
100
AcDbEntity
  8
MST_1_1
 62
   137
  6
CONTINUOUS
100
AcDbLine
 10
118.51105994
 20
-83.30597832
 30
2500.0
 11
121.14149803
 21
-83.30597832
 31
2500.0
  0
LINE
  5
2B1
100
AcDbEntity
  8
MST_1_1
 62
   137
  6
CONTINUOUS
100
AcDbLine
 10
119.42563831
 20
-79.60312118
 30
2500.0
 11
116.79520021
 21
-79.60312118
 31
2500.0
  0
LWPOLYLINE
  5
2B2
100
AcDbEntity
  8
MST_1_1
 62
   137
  6
CONTINUOUS
100
AcDbPolyline
 90
        5
 70
     0
 43
0.0
 38
2500.0
 10
115.99706688
 20
-79.60312118
 10
116.26296585
 20
-78.45454954
 10
118.51105994
 20
-83.30597832
 10
118.24516087
 20
-84.45454975
 10
115.99706688
 20
-79.60312118
  0
LINE
  5
2B3
100
AcDbEntity
  8
MST_1_1
 62
   137
  6
CONTINUOUS
100
AcDbLine
 10
115.99706688
 20
-79.60312118
 30
2500.0
 11
114.0389121
 21
-79.60312118
 31
2500.0
  0
LINE
  5
2B4
100
AcDbEntity
  8
MST_1_1
 62
   137
  6
CONTINUOUS
100
AcDbLine
 10
58.40270541
 20
-108.45454975
 30
2500.0
 11
143.68376741
 21
-108.45454975
 31
2500.0
  0
LINE
  5
2B5
100
AcDbEntity
  8
MST_1_1
 62
   137
  6
CONTINUOUS
100
AcDbLine
 10
172.51105994
 20
-113.30597832
 30
2500.0
 11
174.227285
 21
-113.29839642
 31
2500.0
  0
LINE
  5
2B6
100
AcDbEntity
  8
MST_1_1
 62
   137
  6
CONTINUOUS
100
AcDbLine
 10
173.42563831
 20
-109.60312118
 30
2500.0
 11
170.79520021
 21
-109.60312118
 31
2500.0
  0
ARC
  5
2B7
100
AcDbEntity
  8
MST_1_1
 62
   137
  6
CONTINUOUS
100
AcDbCircle
 10
173.71536163
 20
-137.33708881
 30
2500.0
 40
27.73111126
100
AcDbArc
 50
83.52438041
 51
88.94224525
  0
LWPOLYLINE
  5
2B8
100
AcDbEntity
  8
MST_1_1
 62
   137
  6
CONTINUOUS
100
AcDbPolyline
 90
        3
 70
     0
 43
0.0
 38
2500.0
 10
186.0389121
 20
-111.45454975
 10
179.73880471
 20
-110.20627463
 42
0.01723995
 10
177.53687247
 20
-109.85328288
  0
ARC
  5
2B9
100
AcDbEntity
  8
MST_1_1
 62
   137
  6
CONTINUOUS
100
AcDbCircle
 10
173.52055492
 20
-80.95814455
 30
2500.0
 40
32.34797303
100
AcDbArc
 50
271.25189288
 51
272.83975061
  0
LWPOLYLINE
  5
2BA
100
AcDbEntity
  8
MST_1_1
 62
   137
  6
CONTINUOUS
100
AcDbPolyline
 90
        3
 70
     0
 43
0.0
 38
2500.0
 10
186.0389121
 20
-111.45454975
 10
179.73880471
 20
-112.70282487
 42
-0.0063851
 10
178.92610351
 20
-112.85126925
  0
ARC
  5
2BB
100
AcDbEntity
  8
MST_1_1
 62
   137
  6
CONTINUOUS
100
AcDbCircle
 10
173.52055492
 20
-80.95814455
 30
2500.0
 40
32.34797303
100
AcDbArc
 50
274.21680449
 51
278.51502477
  0
LINE
  5
2BC
100
AcDbEntity
  8
MST_1_1
 62
   137
  6
CONTINUOUS
100
AcDbLine
 10
169.08248851
 20
-113.30597832
 30
2500.0
 11
171.7129266
 21
-113.30597832
 31
2500.0
  0
LINE
  5
2BD
100
AcDbEntity
  8
MST_1_1
 62
   137
  6
CONTINUOUS
100
AcDbLine
 10
169.99706688
 20
-109.60312118
 30
2500.0
 11
167.36662878
 21
-109.60312118
 31
2500.0
  0
LINE
  5
2BE
100
AcDbEntity
  8
MST_1_1
 62
   137
  6
CONTINUOUS
100
AcDbLine
 10
165.65391708
 20
-113.30597832
 30
2500.0
 11
168.28435518
 21
-113.30597832
 31
2500.0
  0
LINE
  5
2BF
100
AcDbEntity
  8
MST_1_1
 62
   137
  6
CONTINUOUS
100
AcDbLine
 10
166.56849545
 20
-109.60312118
 30
2500.0
 11
163.93805735
 21
-109.60312118
 31
2500.0
  0
LINE
  5
2C0
100
AcDbEntity
  8
MST_1_1
 62
   137
  6
CONTINUOUS
100
AcDbLine
 10
162.22534565
 20
-113.30597832
 30
2500.0
 11
164.85578375
 21
-113.30597832
 31
2500.0
  0
LINE
  5
2C1
100
AcDbEntity
  8
MST_1_1
 62
   137
  6
CONTINUOUS
100
AcDbLine
 10
163.13992402
 20
-109.60312118
 30
2500.0
 11
160.50948592
 21
-109.60312118
 31
2500.0
  0
LINE
  5
2C2
100
AcDbEntity
  8
MST_1_1
 62
   137
  6
CONTINUOUS
100
AcDbLine
 10
158.79677422
 20
-113.30597832
 30
2500.0
 11
161.42721232
 21
-113.30597832
 31
2500.0
  0
LINE
  5
2C3
100
AcDbEntity
  8
MST_1_1
 62
   137
  6
CONTINUOUS
100
AcDbLine
 10
159.71135259
 20
-109.60312118
 30
2500.0
 11
157.0809145
 21
-109.60312118
 31
2500.0
  0
LINE
  5
2C4
100
AcDbEntity
  8
MST_1_1
 62
   137
  6
CONTINUOUS
100
AcDbLine
 10
155.36820279
 20
-113.30597832
 30
2500.0
 11
157.99864089
 21
-113.30597832
 31
2500.0
  0
LINE
  5
2C5
100
AcDbEntity
  8
MST_1_1
 62
   137
  6
CONTINUOUS
100
AcDbLine
 10
156.28278116
 20
-109.60312118
 30
2500.0
 11
153.65234307
 21
-109.60312118
 31
2500.0
  0
LINE
  5
2C6
100
AcDbEntity
  8
MST_1_1
 62
   137
  6
CONTINUOUS
100
AcDbLine
 10
144.0389121
 20
-109.60312118
 30
2500.0
 11
143.68376741
 21
-108.45454975
 31
2500.0
  0
LINE
  5
2C7
100
AcDbEntity
  8
MST_1_1
 62
   137
  6
CONTINUOUS
100
AcDbLine
 10
144.0389121
 20
-113.30597832
 30
2500.0
 11
143.68376741
 21
-114.45454975
 31
2500.0
  0
LINE
  5
2C8
100
AcDbEntity
  8
MST_1_1
 62
   137
  6
CONTINUOUS
100
AcDbLine
 10
36.0389121
 20
-107.50718133
 30
2500.0
 11
36.8533415
 21
-107.50718133
 31
2500.0
  0
3DFACE
  5
2C9
100
AcDbEntity
  8
MST_1_1
 62
   137
  6
CONTINUOUS
100
AcDbFace
 70
     0
 10
36.8533415
 20
-107.50718133
 30
2500.0
 11
39.65771812
 21
-116.45454975
 31
2500.0
 12
40.21224083
 22
-115.40191817
 32
2500.0
 13
37.40786421
 23
-106.45454975
 33
2500.0
  0
LINE
  5
2CA
100
AcDbEntity
  8
MST_1_1
 62
   137
  6
CONTINUOUS
100
AcDbLine
 10
37.40786421
 20
-106.45454975
 30
2500.0
 11
39.65771812
 21
-116.45454975
 31
2500.0
  0
3DFACE
  5
2CB
100
AcDbEntity
  8
MST_1_1
 62
   137
  6
CONTINUOUS
100
AcDbFace
 70
     0
 10
40.8533415
 20
-107.50718133
 30
2500.0
 11
43.65771812
 21
-116.45454975
 31
2500.0
 12
44.21224083
 22
-115.40191817
 32
2500.0
 13
41.40786421
 23
-106.45454975
 33
2500.0
  0
LINE
  5
2CC
100
AcDbEntity
  8
MST_1_1
 62
   137
  6
CONTINUOUS
100
AcDbLine
 10
41.40786421
 20
-106.45454975
 30
2500.0
 11
43.65771812
 21
-116.45454975
 31
2500.0
  0
3DFACE
  5
2CD
100
AcDbEntity
  8
MST_1_1
 62
   137
  6
CONTINUOUS
100
AcDbFace
 70
     0
 10
44.8533415
 20
-107.50718133
 30
2500.0
 11
47.65771812
 21
-116.45454975
 31
2500.0
 12
48.21224083
 22
-115.40191817
 32
2500.0
 13
45.40786421
 23
-106.45454975
 33
2500.0
  0
LINE
  5
2CE
100
AcDbEntity
  8
MST_1_1
 62
   137
  6
CONTINUOUS
100
AcDbLine
 10
45.40786421
 20
-106.45454975
 30
2500.0
 11
47.65771812
 21
-116.45454975
 31
2500.0
  0
3DFACE
  5
2CF
100
AcDbEntity
  8
MST_1_1
 62
   137
  6
CONTINUOUS
100
AcDbFace
 70
     0
 10
48.8533415
 20
-107.50718133
 30
2500.0
 11
51.65771812
 21
-116.45454975
 31
2500.0
 12
52.21224083
 22
-115.40191817
 32
2500.0
 13
49.40786421
 23
-106.45454975
 33
2500.0
  0
LINE
  5
2D0
100
AcDbEntity
  8
MST_1_1
 62
   137
  6
CONTINUOUS
100
AcDbLine
 10
49.40786421
 20
-106.45454975
 30
2500.0
 11
51.65771812
 21
-116.45454975
 31
2500.0
  0
3DFACE
  5
2D1
100
AcDbEntity
  8
MST_1_1
 62
   137
  6
CONTINUOUS
100
AcDbFace
 70
     0
 10
52.8533415
 20
-107.50718133
 30
2500.0
 11
55.65771812
 21
-116.45454975
 31
2500.0
 12
56.21224083
 22
-115.40191817
 32
2500.0
 13
53.40786421
 23
-106.45454975
 33
2500.0
  0
LINE
  5
2D2
100
AcDbEntity
  8
MST_1_1
 62
   137
  6
CONTINUOUS
100
AcDbLine
 10
53.40786421
 20
-106.45454975
 30
2500.0
 11
55.65771812
 21
-116.45454975
 31
2500.0
  0
3DFACE
  5
2D3
100
AcDbEntity
  8
MST_1_1
 62
   137
  6
CONTINUOUS
100
AcDbFace
 70
     0
 10
57.40786421
 20
-106.45454975
 30
2500.0
 11
56.8533415
 21
-107.50718133
 31
2500.0
 12
57.19907055
 22
-108.61023048
 32
2500.0
 13
57.73779087
 23
-107.50718133
 33
2500.0
  0
LINE
  5
2D4
100
AcDbEntity
  8
MST_1_1
 62
   137
  6
CONTINUOUS
100
AcDbLine
 10
57.40786421
 20
-106.45454975
 30
2500.0
 11
57.67405285
 21
-107.6376872
 31
2500.0
  0
LINE
  5
2D5
100
AcDbEntity
  8
MST_1_1
 62
   137
  6
CONTINUOUS
100
AcDbLine
 10
40.8533415
 20
-107.50718133
 30
2500.0
 11
37.73779087
 21
-107.50718133
 31
2500.0
  0
LINE
  5
2D6
100
AcDbEntity
  8
MST_1_1
 62
   137
  6
CONTINUOUS
100
AcDbLine
 10
44.8533415
 20
-107.50718133
 30
2500.0
 11
41.73779087
 21
-107.50718133
 31
2500.0
  0
LINE
  5
2D7
100
AcDbEntity
  8
MST_1_1
 62
   137
  6
CONTINUOUS
100
AcDbLine
 10
48.8533415
 20
-107.50718133
 30
2500.0
 11
45.73779087
 21
-107.50718133
 31
2500.0
  0
LINE
  5
2D8
100
AcDbEntity
  8
MST_1_1
 62
   137
  6
CONTINUOUS
100
AcDbLine
 10
52.8533415
 20
-107.50718133
 30
2500.0
 11
49.73779087
 21
-107.50718133
 31
2500.0
  0
LINE
  5
2D9
100
AcDbEntity
  8
MST_1_1
 62
   137
  6
CONTINUOUS
100
AcDbLine
 10
56.8533415
 20
-107.50718133
 30
2500.0
 11
53.73779087
 21
-107.50718133
 31
2500.0
  0
LINE
  5
2DA
100
AcDbEntity
  8
MST_1_1
 62
   137
  6
CONTINUOUS
100
AcDbLine
 10
58.0389121
 20
-107.50718133
 30
2500.0
 11
57.73779087
 21
-107.50718133
 31
2500.0
  0
LINE
  5
2DB
100
AcDbEntity
  8
MST_1_1
 62
   137
  6
CONTINUOUS
100
AcDbLine
 10
36.0389121
 20
-115.40191817
 30
2500.0
 11
36.0389121
 21
-107.50718133
 31
2500.0
  0
LINE
  5
2DC
100
AcDbEntity
  8
MST_1_1
 62
   137
  6
CONTINUOUS
100
AcDbLine
 10
58.40270541
 20
-114.45454975
 30
2500.0
 11
58.40270541
 21
-108.45454975
 31
2500.0
  0
LINE
  5
2DD
100
AcDbEntity
  8
MST_1_1
 62
   137
  6
CONTINUOUS
100
AcDbLine
 10
144.0389121
 20
-113.30597832
 30
2500.0
 11
144.0389121
 21
-109.60312118
 31
2500.0
  0
LINE
  5
2DE
100
AcDbEntity
  8
MST_1_1
 62
   137
  6
CONTINUOUS
100
AcDbLine
 10
143.68376741
 20
-108.45454975
 30
2500.0
 11
143.68376741
 21
-114.45454975
 31
2500.0
  0
LINE
  5
2DF
100
AcDbEntity
  8
MST_1_1
 62
   137
  6
CONTINUOUS
100
AcDbLine
 10
58.0389121
 20
-115.40191817
 30
2500.0
 11
58.0389121
 21
-107.50718133
 31
2500.0
  0
LINE
  5
2E0
100
AcDbEntity
  8
MST_1_1
 62
   137
  6
CONTINUOUS
100
AcDbLine
 10
143.68376741
 20
-114.45454975
 30
2500.0
 11
58.40270541
 21
-114.45454975
 31
2500.0
  0
LINE
  5
2E1
100
AcDbEntity
  8
MST_1_1
 62
   137
  6
CONTINUOUS
100
AcDbLine
 10
58.40270541
 20
-114.45454975
 30
2500.0
 11
58.0389121
 21
-115.40191817
 31
2500.0
  0
LINE
  5
2E2
100
AcDbEntity
  8
MST_1_1
 62
   137
  6
CONTINUOUS
100
AcDbLine
 10
56.21224083
 20
-115.40191817
 30
2500.0
 11
58.0389121
 21
-115.40191817
 31
2500.0
  0
LINE
  5
2E3
100
AcDbEntity
  8
MST_1_1
 62
   137
  6
CONTINUOUS
100
AcDbLine
 10
52.21224083
 20
-115.40191817
 30
2500.0
 11
55.32779145
 21
-115.40191817
 31
2500.0
  0
LINE
  5
2E4
100
AcDbEntity
  8
MST_1_1
 62
   137
  6
CONTINUOUS
100
AcDbLine
 10
48.21224083
 20
-115.40191817
 30
2500.0
 11
51.32779145
 21
-115.40191817
 31
2500.0
  0
LINE
  5
2E5
100
AcDbEntity
  8
MST_1_1
 62
   137
  6
CONTINUOUS
100
AcDbLine
 10
44.21224083
 20
-115.40191817
 30
2500.0
 11
47.32779145
 21
-115.40191817
 31
2500.0
  0
LINE
  5
2E6
100
AcDbEntity
  8
MST_1_1
 62
   137
  6
CONTINUOUS
100
AcDbLine
 10
40.21224083
 20
-115.40191817
 30
2500.0
 11
43.32779145
 21
-115.40191817
 31
2500.0
  0
LINE
  5
2E7
100
AcDbEntity
  8
MST_1_1
 62
   137
  6
CONTINUOUS
100
AcDbLine
 10
36.0389121
 20
-115.40191817
 30
2500.0
 11
39.32779145
 21
-115.40191817
 31
2500.0
  0
LINE
  5
2E8
100
AcDbEntity
  8
MST_1_1
 62
   137
  6
CONTINUOUS
100
AcDbLine
 10
58.0389121
 20
-107.50718133
 30
2500.0
 11
58.40270541
 21
-108.45454975
 31
2500.0
  0
LWPOLYLINE
  5
2E9
100
AcDbEntity
  8
MST_1_1
 62
   137
  6
CONTINUOUS
100
AcDbPolyline
 90
        5
 70
     0
 43
0.0
 38
2500.0
 10
152.85420974
 20
-109.60312118
 10
153.1201087
 20
-108.45454954
 10
155.36820279
 20
-113.30597832
 10
155.10230373
 20
-114.45454975
 10
152.85420974
 20
-109.60312118
  0
LWPOLYLINE
  5
2EA
100
AcDbEntity
  8
MST_1_1
 62
   137
  6
CONTINUOUS
100
AcDbPolyline
 90
        5
 70
     0
 43
0.0
 38
2500.0
 10
156.28278116
 20
-109.60312118
 10
156.54868013
 20
-108.45454954
 10
158.79677422
 20
-113.30597832
 10
158.53087516
 20
-114.45454975
 10
156.28278116
 20
-109.60312118
  0
LWPOLYLINE
  5
2EB
100
AcDbEntity
  8
MST_1_1
 62
   137
  6
CONTINUOUS
100
AcDbPolyline
 90
        5
 70
     0
 43
0.0
 38
2500.0
 10
159.71135259
 20
-109.60312118
 10
159.97725156
 20
-108.45454954
 10
162.22534565
 20
-113.30597832
 10
161.95944659
 20
-114.45454975
 10
159.71135259
 20
-109.60312118
  0
LWPOLYLINE
  5
2EC
100
AcDbEntity
  8
MST_1_1
 62
   137
  6
CONTINUOUS
100
AcDbPolyline
 90
        5
 70
     0
 43
0.0
 38
2500.0
 10
163.13992402
 20
-109.60312118
 10
163.40582299
 20
-108.45454954
 10
165.65391708
 20
-113.30597832
 10
165.38801801
 20
-114.45454975
 10
163.13992402
 20
-109.60312118
  0
LWPOLYLINE
  5
2ED
100
AcDbEntity
  8
MST_1_1
 62
   137
  6
CONTINUOUS
100
AcDbPolyline
 90
        5
 70
     0
 43
0.0
 38
2500.0
 10
166.56849545
 20
-109.60312118
 10
166.83439442
 20
-108.45454954
 10
169.08248851
 20
-113.30597832
 10
168.81658944
 20
-114.45454975
 10
166.56849545
 20
-109.60312118
  0
LWPOLYLINE
  5
2EE
100
AcDbEntity
  8
MST_1_1
 62
   137
  6
CONTINUOUS
100
AcDbPolyline
 90
        5
 70
     0
 43
0.0
 38
2500.0
 10
169.99706688
 20
-109.60312118
 10
170.26296585
 20
-108.45454954
 10
172.51105994
 20
-113.30597832
 10
172.24516087
 20
-114.45454975
 10
169.99706688
 20
-109.60312118
  0
LWPOLYLINE
  5
2EF
100
AcDbEntity
  8
MST_1_1
 62
   137
  6
CONTINUOUS
100
AcDbPolyline
 90
        5
 70
     0
 43
0.0
 38
2500.0
 10
173.42563831
 20
-109.60312118
 10
173.69153728
 20
-108.45454954
 10
175.89911838
 20
-113.21855054
 10
175.63321931
 20
-114.36712197
 10
173.42563831
 20
-109.60312118
  0
LWPOLYLINE
  5
2F0
100
AcDbEntity
  8
MST_1_1
 62
   137
  6
CONTINUOUS
100
AcDbPolyline
 90
        5
 70
     0
 43
0.0
 38
2500.0
 10
176.84288801
 20
-109.78290382
 10
177.06322468
 20
-108.83114215
 10
178.92610351
 20
-112.85126925
 10
178.70576676
 20
-113.80303075
 10
176.84288801
 20
-109.78290382
  0
LINE
  5
2F1
100
AcDbEntity
  8
MST_1_1
 62
   137
  6
CONTINUOUS
100
AcDbLine
 10
144.0389121
 20
-113.30597832
 30
2500.0
 11
147.7129266
 21
-113.30597832
 31
2500.0
  0
LINE
  5
2F2
100
AcDbEntity
  8
MST_1_1
 62
   137
  6
CONTINUOUS
100
AcDbLine
 10
151.93963137
 20
-113.30597832
 30
2500.0
 11
154.57006946
 21
-113.30597832
 31
2500.0
  0
LINE
  5
2F3
100
AcDbEntity
  8
MST_1_1
 62
   137
  6
CONTINUOUS
100
AcDbLine
 10
152.85420974
 20
-109.60312118
 30
2500.0
 11
150.22377164
 21
-109.60312118
 31
2500.0
  0
LWPOLYLINE
  5
2F4
100
AcDbEntity
  8
MST_1_1
 62
   137
  6
CONTINUOUS
100
AcDbPolyline
 90
        5
 70
     0
 43
0.0
 38
2500.0
 10
149.42563831
 20
-109.60312118
 10
149.69153728
 20
-108.45454954
 10
151.93963137
 20
-113.30597832
 10
151.6737323
 20
-114.45454975
 10
149.42563831
 20
-109.60312118
  0
LINE
  5
2F5
100
AcDbEntity
  8
MST_1_1
 62
   137
  6
CONTINUOUS
100
AcDbLine
 10
148.51105994
 20
-113.30597832
 30
2500.0
 11
151.14149803
 21
-113.30597832
 31
2500.0
  0
LINE
  5
2F6
100
AcDbEntity
  8
MST_1_1
 62
   137
  6
CONTINUOUS
100
AcDbLine
 10
149.42563831
 20
-109.60312118
 30
2500.0
 11
146.79520021
 21
-109.60312118
 31
2500.0
  0
LWPOLYLINE
  5
2F7
100
AcDbEntity
  8
MST_1_1
 62
   137
  6
CONTINUOUS
100
AcDbPolyline
 90
        5
 70
     0
 43
0.0
 38
2500.0
 10
145.99706688
 20
-109.60312118
 10
146.26296585
 20
-108.45454954
 10
148.51105994
 20
-113.30597832
 10
148.24516087
 20
-114.45454975
 10
145.99706688
 20
-109.60312118
  0
LINE
  5
2F8
100
AcDbEntity
  8
MST_1_1
 62
   137
  6
CONTINUOUS
100
AcDbLine
 10
145.99706688
 20
-109.60312118
 30
2500.0
 11
144.0389121
 21
-109.60312118
 31
2500.0
  0
LINE
  5
2F9
100
AcDbEntity
  8
MST_1_1
 62
   137
  6
CONTINUOUS
100
AcDbLine
 10
58.40270541
 20
-138.45454975
 30
2500.0
 11
173.68376741
 21
-138.45454975
 31
2500.0
  0
LINE
  5
2FA
100
AcDbEntity
  8
MST_1_1
 62
   137
  6
CONTINUOUS
100
AcDbLine
 10
202.51105994
 20
-143.30597832
 30
2500.0
 11
204.227285
 21
-143.29839642
 31
2500.0
  0
LINE
  5
2FB
100
AcDbEntity
  8
MST_1_1
 62
   137
  6
CONTINUOUS
100
AcDbLine
 10
203.42563831
 20
-139.60312118
 30
2500.0
 11
200.79520021
 21
-139.60312118
 31
2500.0
  0
ARC
  5
2FC
100
AcDbEntity
  8
MST_1_1
 62
   137
  6
CONTINUOUS
100
AcDbCircle
 10
203.71536163
 20
-167.33708881
 30
2500.0
 40
27.73111126
100
AcDbArc
 50
83.52438041
 51
88.94224525
  0
LWPOLYLINE
  5
2FD
100
AcDbEntity
  8
MST_1_1
 62
   137
  6
CONTINUOUS
100
AcDbPolyline
 90
        3
 70
     0
 43
0.0
 38
2500.0
 10
216.0389121
 20
-141.45454975
 10
209.73880471
 20
-140.20627463
 42
0.01723995
 10
207.53687247
 20
-139.85328288
  0
ARC
  5
2FE
100
AcDbEntity
  8
MST_1_1
 62
   137
  6
CONTINUOUS
100
AcDbCircle
 10
203.52055492
 20
-110.95814455
 30
2500.0
 40
32.34797303
100
AcDbArc
 50
271.25189288
 51
272.83975061
  0
LWPOLYLINE
  5
2FF
100
AcDbEntity
  8
MST_1_1
 62
   137
  6
CONTINUOUS
100
AcDbPolyline
 90
        3
 70
     0
 43
0.0
 38
2500.0
 10
216.0389121
 20
-141.45454975
 10
209.73880471
 20
-142.70282487
 42
-0.0063851
 10
208.92610351
 20
-142.85126925
  0
ARC
  5
300
100
AcDbEntity
  8
MST_1_1
 62
   137
  6
CONTINUOUS
100
AcDbCircle
 10
203.52055492
 20
-110.95814455
 30
2500.0
 40
32.34797303
100
AcDbArc
 50
274.21680449
 51
278.51502477
  0
LINE
  5
301
100
AcDbEntity
  8
MST_1_1
 62
   137
  6
CONTINUOUS
100
AcDbLine
 10
199.08248851
 20
-143.30597832
 30
2500.0
 11
201.7129266
 21
-143.30597832
 31
2500.0
  0
LINE
  5
302
100
AcDbEntity
  8
MST_1_1
 62
   137
  6
CONTINUOUS
100
AcDbLine
 10
199.99706688
 20
-139.60312118
 30
2500.0
 11
197.36662878
 21
-139.60312118
 31
2500.0
  0
LINE
  5
303
100
AcDbEntity
  8
MST_1_1
 62
   137
  6
CONTINUOUS
100
AcDbLine
 10
195.65391708
 20
-143.30597832
 30
2500.0
 11
198.28435518
 21
-143.30597832
 31
2500.0
  0
LINE
  5
304
100
AcDbEntity
  8
MST_1_1
 62
   137
  6
CONTINUOUS
100
AcDbLine
 10
196.56849545
 20
-139.60312118
 30
2500.0
 11
193.93805735
 21
-139.60312118
 31
2500.0
  0
LINE
  5
305
100
AcDbEntity
  8
MST_1_1
 62
   137
  6
CONTINUOUS
100
AcDbLine
 10
192.22534565
 20
-143.30597832
 30
2500.0
 11
194.85578375
 21
-143.30597832
 31
2500.0
  0
LINE
  5
306
100
AcDbEntity
  8
MST_1_1
 62
   137
  6
CONTINUOUS
100
AcDbLine
 10
193.13992402
 20
-139.60312118
 30
2500.0
 11
190.50948592
 21
-139.60312118
 31
2500.0
  0
LINE
  5
307
100
AcDbEntity
  8
MST_1_1
 62
   137
  6
CONTINUOUS
100
AcDbLine
 10
188.79677422
 20
-143.30597832
 30
2500.0
 11
191.42721232
 21
-143.30597832
 31
2500.0
  0
LINE
  5
308
100
AcDbEntity
  8
MST_1_1
 62
   137
  6
CONTINUOUS
100
AcDbLine
 10
189.71135259
 20
-139.60312118
 30
2500.0
 11
187.0809145
 21
-139.60312118
 31
2500.0
  0
LINE
  5
309
100
AcDbEntity
  8
MST_1_1
 62
   137
  6
CONTINUOUS
100
AcDbLine
 10
185.36820279
 20
-143.30597832
 30
2500.0
 11
187.99864089
 21
-143.30597832
 31
2500.0
  0
LINE
  5
30A
100
AcDbEntity
  8
MST_1_1
 62
   137
  6
CONTINUOUS
100
AcDbLine
 10
186.28278116
 20
-139.60312118
 30
2500.0
 11
183.65234307
 21
-139.60312118
 31
2500.0
  0
LINE
  5
30B
100
AcDbEntity
  8
MST_1_1
 62
   137
  6
CONTINUOUS
100
AcDbLine
 10
174.0389121
 20
-139.60312118
 30
2500.0
 11
173.68376741
 21
-138.45454975
 31
2500.0
  0
LINE
  5
30C
100
AcDbEntity
  8
MST_1_1
 62
   137
  6
CONTINUOUS
100
AcDbLine
 10
174.0389121
 20
-143.30597832
 30
2500.0
 11
173.68376741
 21
-144.45454975
 31
2500.0
  0
LINE
  5
30D
100
AcDbEntity
  8
MST_1_1
 62
   137
  6
CONTINUOUS
100
AcDbLine
 10
36.0389121
 20
-137.50718133
 30
2500.0
 11
36.8533415
 21
-137.50718133
 31
2500.0
  0
3DFACE
  5
30E
100
AcDbEntity
  8
MST_1_1
 62
   137
  6
CONTINUOUS
100
AcDbFace
 70
     0
 10
36.8533415
 20
-137.50718133
 30
2500.0
 11
39.65771812
 21
-146.45454975
 31
2500.0
 12
40.21224083
 22
-145.40191817
 32
2500.0
 13
37.40786421
 23
-136.45454975
 33
2500.0
  0
LINE
  5
30F
100
AcDbEntity
  8
MST_1_1
 62
   137
  6
CONTINUOUS
100
AcDbLine
 10
37.40786421
 20
-136.45454975
 30
2500.0
 11
39.65771812
 21
-146.45454975
 31
2500.0
  0
3DFACE
  5
310
100
AcDbEntity
  8
MST_1_1
 62
   137
  6
CONTINUOUS
100
AcDbFace
 70
     0
 10
40.8533415
 20
-137.50718133
 30
2500.0
 11
43.65771812
 21
-146.45454975
 31
2500.0
 12
44.21224083
 22
-145.40191817
 32
2500.0
 13
41.40786421
 23
-136.45454975
 33
2500.0
  0
LINE
  5
311
100
AcDbEntity
  8
MST_1_1
 62
   137
  6
CONTINUOUS
100
AcDbLine
 10
41.40786421
 20
-136.45454975
 30
2500.0
 11
43.65771812
 21
-146.45454975
 31
2500.0
  0
3DFACE
  5
312
100
AcDbEntity
  8
MST_1_1
 62
   137
  6
CONTINUOUS
100
AcDbFace
 70
     0
 10
44.8533415
 20
-137.50718133
 30
2500.0
 11
47.65771812
 21
-146.45454975
 31
2500.0
 12
48.21224083
 22
-145.40191817
 32
2500.0
 13
45.40786421
 23
-136.45454975
 33
2500.0
  0
LINE
  5
313
100
AcDbEntity
  8
MST_1_1
 62
   137
  6
CONTINUOUS
100
AcDbLine
 10
45.40786421
 20
-136.45454975
 30
2500.0
 11
47.65771812
 21
-146.45454975
 31
2500.0
  0
3DFACE
  5
314
100
AcDbEntity
  8
MST_1_1
 62
   137
  6
CONTINUOUS
100
AcDbFace
 70
     0
 10
48.8533415
 20
-137.50718133
 30
2500.0
 11
51.65771812
 21
-146.45454975
 31
2500.0
 12
52.21224083
 22
-145.40191817
 32
2500.0
 13
49.40786421
 23
-136.45454975
 33
2500.0
  0
LINE
  5
315
100
AcDbEntity
  8
MST_1_1
 62
   137
  6
CONTINUOUS
100
AcDbLine
 10
49.40786421
 20
-136.45454975
 30
2500.0
 11
51.65771812
 21
-146.45454975
 31
2500.0
  0
3DFACE
  5
316
100
AcDbEntity
  8
MST_1_1
 62
   137
  6
CONTINUOUS
100
AcDbFace
 70
     0
 10
52.8533415
 20
-137.50718133
 30
2500.0
 11
55.65771812
 21
-146.45454975
 31
2500.0
 12
56.21224083
 22
-145.40191817
 32
2500.0
 13
53.40786421
 23
-136.45454975
 33
2500.0
  0
LINE
  5
317
100
AcDbEntity
  8
MST_1_1
 62
   137
  6
CONTINUOUS
100
AcDbLine
 10
53.40786421
 20
-136.45454975
 30
2500.0
 11
55.65771812
 21
-146.45454975
 31
2500.0
  0
3DFACE
  5
318
100
AcDbEntity
  8
MST_1_1
 62
   137
  6
CONTINUOUS
100
AcDbFace
 70
     0
 10
57.40786421
 20
-136.45454975
 30
2500.0
 11
56.8533415
 21
-137.50718133
 31
2500.0
 12
57.19907055
 22
-138.61023048
 32
2500.0
 13
57.73779087
 23
-137.50718133
 33
2500.0
  0
LINE
  5
319
100
AcDbEntity
  8
MST_1_1
 62
   137
  6
CONTINUOUS
100
AcDbLine
 10
57.40786421
 20
-136.45454975
 30
2500.0
 11
57.67405285
 21
-137.6376872
 31
2500.0
  0
LINE
  5
31A
100
AcDbEntity
  8
MST_1_1
 62
   137
  6
CONTINUOUS
100
AcDbLine
 10
40.8533415
 20
-137.50718133
 30
2500.0
 11
37.73779087
 21
-137.50718133
 31
2500.0
  0
LINE
  5
31B
100
AcDbEntity
  8
MST_1_1
 62
   137
  6
CONTINUOUS
100
AcDbLine
 10
44.8533415
 20
-137.50718133
 30
2500.0
 11
41.73779087
 21
-137.50718133
 31
2500.0
  0
LINE
  5
31C
100
AcDbEntity
  8
MST_1_1
 62
   137
  6
CONTINUOUS
100
AcDbLine
 10
48.8533415
 20
-137.50718133
 30
2500.0
 11
45.73779087
 21
-137.50718133
 31
2500.0
  0
LINE
  5
31D
100
AcDbEntity
  8
MST_1_1
 62
   137
  6
CONTINUOUS
100
AcDbLine
 10
52.8533415
 20
-137.50718133
 30
2500.0
 11
49.73779087
 21
-137.50718133
 31
2500.0
  0
LINE
  5
31E
100
AcDbEntity
  8
MST_1_1
 62
   137
  6
CONTINUOUS
100
AcDbLine
 10
56.8533415
 20
-137.50718133
 30
2500.0
 11
53.73779087
 21
-137.50718133
 31
2500.0
  0
LINE
  5
31F
100
AcDbEntity
  8
MST_1_1
 62
   137
  6
CONTINUOUS
100
AcDbLine
 10
58.0389121
 20
-137.50718133
 30
2500.0
 11
57.73779087
 21
-137.50718133
 31
2500.0
  0
LINE
  5
320
100
AcDbEntity
  8
MST_1_1
 62
   137
  6
CONTINUOUS
100
AcDbLine
 10
36.0389121
 20
-145.40191817
 30
2500.0
 11
36.0389121
 21
-137.50718133
 31
2500.0
  0
LINE
  5
321
100
AcDbEntity
  8
MST_1_1
 62
   137
  6
CONTINUOUS
100
AcDbLine
 10
58.40270541
 20
-144.45454975
 30
2500.0
 11
58.40270541
 21
-138.45454975
 31
2500.0
  0
LINE
  5
322
100
AcDbEntity
  8
MST_1_1
 62
   137
  6
CONTINUOUS
100
AcDbLine
 10
174.0389121
 20
-143.30597832
 30
2500.0
 11
174.0389121
 21
-139.60312118
 31
2500.0
  0
LINE
  5
323
100
AcDbEntity
  8
MST_1_1
 62
   137
  6
CONTINUOUS
100
AcDbLine
 10
173.68376741
 20
-138.45454975
 30
2500.0
 11
173.68376741
 21
-144.45454975
 31
2500.0
  0
LINE
  5
324
100
AcDbEntity
  8
MST_1_1
 62
   137
  6
CONTINUOUS
100
AcDbLine
 10
58.0389121
 20
-145.40191817
 30
2500.0
 11
58.0389121
 21
-137.50718133
 31
2500.0
  0
LINE
  5
325
100
AcDbEntity
  8
MST_1_1
 62
   137
  6
CONTINUOUS
100
AcDbLine
 10
173.68376741
 20
-144.45454975
 30
2500.0
 11
58.40270541
 21
-144.45454975
 31
2500.0
  0
LINE
  5
326
100
AcDbEntity
  8
MST_1_1
 62
   137
  6
CONTINUOUS
100
AcDbLine
 10
58.40270541
 20
-144.45454975
 30
2500.0
 11
58.0389121
 21
-145.40191817
 31
2500.0
  0
LINE
  5
327
100
AcDbEntity
  8
MST_1_1
 62
   137
  6
CONTINUOUS
100
AcDbLine
 10
56.21224083
 20
-145.40191817
 30
2500.0
 11
58.0389121
 21
-145.40191817
 31
2500.0
  0
LINE
  5
328
100
AcDbEntity
  8
MST_1_1
 62
   137
  6
CONTINUOUS
100
AcDbLine
 10
52.21224083
 20
-145.40191817
 30
2500.0
 11
55.32779145
 21
-145.40191817
 31
2500.0
  0
LINE
  5
329
100
AcDbEntity
  8
MST_1_1
 62
   137
  6
CONTINUOUS
100
AcDbLine
 10
48.21224083
 20
-145.40191817
 30
2500.0
 11
51.32779145
 21
-145.40191817
 31
2500.0
  0
LINE
  5
32A
100
AcDbEntity
  8
MST_1_1
 62
   137
  6
CONTINUOUS
100
AcDbLine
 10
44.21224083
 20
-145.40191817
 30
2500.0
 11
47.32779145
 21
-145.40191817
 31
2500.0
  0
LINE
  5
32B
100
AcDbEntity
  8
MST_1_1
 62
   137
  6
CONTINUOUS
100
AcDbLine
 10
40.21224083
 20
-145.40191817
 30
2500.0
 11
43.32779145
 21
-145.40191817
 31
2500.0
  0
LINE
  5
32C
100
AcDbEntity
  8
MST_1_1
 62
   137
  6
CONTINUOUS
100
AcDbLine
 10
36.0389121
 20
-145.40191817
 30
2500.0
 11
39.32779145
 21
-145.40191817
 31
2500.0
  0
LINE
  5
32D
100
AcDbEntity
  8
MST_1_1
 62
   137
  6
CONTINUOUS
100
AcDbLine
 10
58.0389121
 20
-137.50718133
 30
2500.0
 11
58.40270541
 21
-138.45454975
 31
2500.0
  0
LWPOLYLINE
  5
32E
100
AcDbEntity
  8
MST_1_1
 62
   137
  6
CONTINUOUS
100
AcDbPolyline
 90
        5
 70
     0
 43
0.0
 38
2500.0
 10
182.85420974
 20
-139.60312118
 10
183.1201087
 20
-138.45454954
 10
185.36820279
 20
-143.30597832
 10
185.10230373
 20
-144.45454975
 10
182.85420974
 20
-139.60312118
  0
LWPOLYLINE
  5
32F
100
AcDbEntity
  8
MST_1_1
 62
   137
  6
CONTINUOUS
100
AcDbPolyline
 90
        5
 70
     0
 43
0.0
 38
2500.0
 10
186.28278116
 20
-139.60312118
 10
186.54868013
 20
-138.45454954
 10
188.79677422
 20
-143.30597832
 10
188.53087516
 20
-144.45454975
 10
186.28278116
 20
-139.60312118
  0
LWPOLYLINE
  5
330
100
AcDbEntity
  8
MST_1_1
 62
   137
  6
CONTINUOUS
100
AcDbPolyline
 90
        5
 70
     0
 43
0.0
 38
2500.0
 10
189.71135259
 20
-139.60312118
 10
189.97725156
 20
-138.45454954
 10
192.22534565
 20
-143.30597832
 10
191.95944659
 20
-144.45454975
 10
189.71135259
 20
-139.60312118
  0
LWPOLYLINE
  5
331
100
AcDbEntity
  8
MST_1_1
 62
   137
  6
CONTINUOUS
100
AcDbPolyline
 90
        5
 70
     0
 43
0.0
 38
2500.0
 10
193.13992402
 20
-139.60312118
 10
193.40582299
 20
-138.45454954
 10
195.65391708
 20
-143.30597832
 10
195.38801801
 20
-144.45454975
 10
193.13992402
 20
-139.60312118
  0
LWPOLYLINE
  5
332
100
AcDbEntity
  8
MST_1_1
 62
   137
  6
CONTINUOUS
100
AcDbPolyline
 90
        5
 70
     0
 43
0.0
 38
2500.0
 10
196.56849545
 20
-139.60312118
 10
196.83439442
 20
-138.45454954
 10
199.08248851
 20
-143.30597832
 10
198.81658944
 20
-144.45454975
 10
196.56849545
 20
-139.60312118
  0
LWPOLYLINE
  5
333
100
AcDbEntity
  8
MST_1_1
 62
   137
  6
CONTINUOUS
100
AcDbPolyline
 90
        5
 70
     0
 43
0.0
 38
2500.0
 10
199.99706688
 20
-139.60312118
 10
200.26296585
 20
-138.45454954
 10
202.51105994
 20
-143.30597832
 10
202.24516087
 20
-144.45454975
 10
199.99706688
 20
-139.60312118
  0
LWPOLYLINE
  5
334
100
AcDbEntity
  8
MST_1_1
 62
   137
  6
CONTINUOUS
100
AcDbPolyline
 90
        5
 70
     0
 43
0.0
 38
2500.0
 10
203.42563831
 20
-139.60312118
 10
203.69153728
 20
-138.45454954
 10
205.89911838
 20
-143.21855054
 10
205.63321931
 20
-144.36712197
 10
203.42563831
 20
-139.60312118
  0
LWPOLYLINE
  5
335
100
AcDbEntity
  8
MST_1_1
 62
   137
  6
CONTINUOUS
100
AcDbPolyline
 90
        5
 70
     0
 43
0.0
 38
2500.0
 10
206.84288801
 20
-139.78290382
 10
207.06322468
 20
-138.83114215
 10
208.92610351
 20
-142.85126925
 10
208.70576676
 20
-143.80303075
 10
206.84288801
 20
-139.78290382
  0
LINE
  5
336
100
AcDbEntity
  8
MST_1_1
 62
   137
  6
CONTINUOUS
100
AcDbLine
 10
174.0389121
 20
-143.30597832
 30
2500.0
 11
177.7129266
 21
-143.30597832
 31
2500.0
  0
LINE
  5
337
100
AcDbEntity
  8
MST_1_1
 62
   137
  6
CONTINUOUS
100
AcDbLine
 10
181.93963137
 20
-143.30597832
 30
2500.0
 11
184.57006946
 21
-143.30597832
 31
2500.0
  0
LINE
  5
338
100
AcDbEntity
  8
MST_1_1
 62
   137
  6
CONTINUOUS
100
AcDbLine
 10
182.85420974
 20
-139.60312118
 30
2500.0
 11
180.22377164
 21
-139.60312118
 31
2500.0
  0
LWPOLYLINE
  5
339
100
AcDbEntity
  8
MST_1_1
 62
   137
  6
CONTINUOUS
100
AcDbPolyline
 90
        5
 70
     0
 43
0.0
 38
2500.0
 10
179.42563831
 20
-139.60312118
 10
179.69153728
 20
-138.45454954
 10
181.93963137
 20
-143.30597832
 10
181.6737323
 20
-144.45454975
 10
179.42563831
 20
-139.60312118
  0
LINE
  5
33A
100
AcDbEntity
  8
MST_1_1
 62
   137
  6
CONTINUOUS
100
AcDbLine
 10
178.51105994
 20
-143.30597832
 30
2500.0
 11
181.14149803
 21
-143.30597832
 31
2500.0
  0
LINE
  5
33B
100
AcDbEntity
  8
MST_1_1
 62
   137
  6
CONTINUOUS
100
AcDbLine
 10
179.42563831
 20
-139.60312118
 30
2500.0
 11
176.79520021
 21
-139.60312118
 31
2500.0
  0
LWPOLYLINE
  5
33C
100
AcDbEntity
  8
MST_1_1
 62
   137
  6
CONTINUOUS
100
AcDbPolyline
 90
        5
 70
     0
 43
0.0
 38
2500.0
 10
175.99706688
 20
-139.60312118
 10
176.26296585
 20
-138.45454954
 10
178.51105994
 20
-143.30597832
 10
178.24516087
 20
-144.45454975
 10
175.99706688
 20
-139.60312118
  0
LINE
  5
33D
100
AcDbEntity
  8
MST_1_1
 62
   137
  6
CONTINUOUS
100
AcDbLine
 10
175.99706688
 20
-139.60312118
 30
2500.0
 11
174.0389121
 21
-139.60312118
 31
2500.0
  0
LINE
  5
33E
100
AcDbEntity
  8
MST_1_1
 62
   137
  6
CONTINUOUS
100
AcDbLine
 10
58.40270541
 20
-168.45454975
 30
2500.0
 11
193.68376741
 21
-168.45454975
 31
2500.0
  0
LINE
  5
33F
100
AcDbEntity
  8
MST_1_1
 62
   137
  6
CONTINUOUS
100
AcDbLine
 10
222.51105994
 20
-173.30597832
 30
2500.0
 11
224.227285
 21
-173.29839642
 31
2500.0
  0
LINE
  5
340
100
AcDbEntity
  8
MST_1_1
 62
   137
  6
CONTINUOUS
100
AcDbLine
 10
223.42563831
 20
-169.60312118
 30
2500.0
 11
220.79520021
 21
-169.60312118
 31
2500.0
  0
ARC
  5
341
100
AcDbEntity
  8
MST_1_1
 62
   137
  6
CONTINUOUS
100
AcDbCircle
 10
223.71536163
 20
-197.33708881
 30
2500.0
 40
27.73111126
100
AcDbArc
 50
83.52438041
 51
88.94224525
  0
LWPOLYLINE
  5
342
100
AcDbEntity
  8
MST_1_1
 62
   137
  6
CONTINUOUS
100
AcDbPolyline
 90
        3
 70
     0
 43
0.0
 38
2500.0
 10
236.0389121
 20
-171.45454975
 10
229.73880471
 20
-170.20627463
 42
0.01723995
 10
227.53687247
 20
-169.85328288
  0
ARC
  5
343
100
AcDbEntity
  8
MST_1_1
 62
   137
  6
CONTINUOUS
100
AcDbCircle
 10
223.52055492
 20
-140.95814455
 30
2500.0
 40
32.34797303
100
AcDbArc
 50
271.25189288
 51
272.83975061
  0
LWPOLYLINE
  5
344
100
AcDbEntity
  8
MST_1_1
 62
   137
  6
CONTINUOUS
100
AcDbPolyline
 90
        3
 70
     0
 43
0.0
 38
2500.0
 10
236.0389121
 20
-171.45454975
 10
229.73880471
 20
-172.70282487
 42
-0.0063851
 10
228.92610351
 20
-172.85126925
  0
ARC
  5
345
100
AcDbEntity
  8
MST_1_1
 62
   137
  6
CONTINUOUS
100
AcDbCircle
 10
223.52055492
 20
-140.95814455
 30
2500.0
 40
32.34797303
100
AcDbArc
 50
274.21680449
 51
278.51502477
  0
LINE
  5
346
100
AcDbEntity
  8
MST_1_1
 62
   137
  6
CONTINUOUS
100
AcDbLine
 10
219.08248851
 20
-173.30597832
 30
2500.0
 11
221.7129266
 21
-173.30597832
 31
2500.0
  0
LINE
  5
347
100
AcDbEntity
  8
MST_1_1
 62
   137
  6
CONTINUOUS
100
AcDbLine
 10
219.99706688
 20
-169.60312118
 30
2500.0
 11
217.36662878
 21
-169.60312118
 31
2500.0
  0
LINE
  5
348
100
AcDbEntity
  8
MST_1_1
 62
   137
  6
CONTINUOUS
100
AcDbLine
 10
215.65391708
 20
-173.30597832
 30
2500.0
 11
218.28435518
 21
-173.30597832
 31
2500.0
  0
LINE
  5
349
100
AcDbEntity
  8
MST_1_1
 62
   137
  6
CONTINUOUS
100
AcDbLine
 10
216.56849545
 20
-169.60312118
 30
2500.0
 11
213.93805735
 21
-169.60312118
 31
2500.0
  0
LINE
  5
34A
100
AcDbEntity
  8
MST_1_1
 62
   137
  6
CONTINUOUS
100
AcDbLine
 10
212.22534565
 20
-173.30597832
 30
2500.0
 11
214.85578375
 21
-173.30597832
 31
2500.0
  0
LINE
  5
34B
100
AcDbEntity
  8
MST_1_1
 62
   137
  6
CONTINUOUS
100
AcDbLine
 10
213.13992402
 20
-169.60312118
 30
2500.0
 11
210.50948592
 21
-169.60312118
 31
2500.0
  0
LINE
  5
34C
100
AcDbEntity
  8
MST_1_1
 62
   137
  6
CONTINUOUS
100
AcDbLine
 10
208.79677422
 20
-173.30597832
 30
2500.0
 11
211.42721232
 21
-173.30597832
 31
2500.0
  0
LINE
  5
34D
100
AcDbEntity
  8
MST_1_1
 62
   137
  6
CONTINUOUS
100
AcDbLine
 10
209.71135259
 20
-169.60312118
 30
2500.0
 11
207.0809145
 21
-169.60312118
 31
2500.0
  0
LINE
  5
34E
100
AcDbEntity
  8
MST_1_1
 62
   137
  6
CONTINUOUS
100
AcDbLine
 10
205.36820279
 20
-173.30597832
 30
2500.0
 11
207.99864089
 21
-173.30597832
 31
2500.0
  0
LINE
  5
34F
100
AcDbEntity
  8
MST_1_1
 62
   137
  6
CONTINUOUS
100
AcDbLine
 10
206.28278116
 20
-169.60312118
 30
2500.0
 11
203.65234307
 21
-169.60312118
 31
2500.0
  0
LINE
  5
350
100
AcDbEntity
  8
MST_1_1
 62
   137
  6
CONTINUOUS
100
AcDbLine
 10
194.0389121
 20
-169.60312118
 30
2500.0
 11
193.68376741
 21
-168.45454975
 31
2500.0
  0
LINE
  5
351
100
AcDbEntity
  8
MST_1_1
 62
   137
  6
CONTINUOUS
100
AcDbLine
 10
194.0389121
 20
-173.30597832
 30
2500.0
 11
193.68376741
 21
-174.45454975
 31
2500.0
  0
LINE
  5
352
100
AcDbEntity
  8
MST_1_1
 62
   137
  6
CONTINUOUS
100
AcDbLine
 10
36.0389121
 20
-167.50718133
 30
2500.0
 11
36.8533415
 21
-167.50718133
 31
2500.0
  0
3DFACE
  5
353
100
AcDbEntity
  8
MST_1_1
 62
   137
  6
CONTINUOUS
100
AcDbFace
 70
     0
 10
36.8533415
 20
-167.50718133
 30
2500.0
 11
39.65771812
 21
-176.45454975
 31
2500.0
 12
40.21224083
 22
-175.40191817
 32
2500.0
 13
37.40786421
 23
-166.45454975
 33
2500.0
  0
LINE
  5
354
100
AcDbEntity
  8
MST_1_1
 62
   137
  6
CONTINUOUS
100
AcDbLine
 10
37.40786421
 20
-166.45454975
 30
2500.0
 11
39.65771812
 21
-176.45454975
 31
2500.0
  0
3DFACE
  5
355
100
AcDbEntity
  8
MST_1_1
 62
   137
  6
CONTINUOUS
100
AcDbFace
 70
     0
 10
40.8533415
 20
-167.50718133
 30
2500.0
 11
43.65771812
 21
-176.45454975
 31
2500.0
 12
44.21224083
 22
-175.40191817
 32
2500.0
 13
41.40786421
 23
-166.45454975
 33
2500.0
  0
LINE
  5
356
100
AcDbEntity
  8
MST_1_1
 62
   137
  6
CONTINUOUS
100
AcDbLine
 10
41.40786421
 20
-166.45454975
 30
2500.0
 11
43.65771812
 21
-176.45454975
 31
2500.0
  0
3DFACE
  5
357
100
AcDbEntity
  8
MST_1_1
 62
   137
  6
CONTINUOUS
100
AcDbFace
 70
     0
 10
44.8533415
 20
-167.50718133
 30
2500.0
 11
47.65771812
 21
-176.45454975
 31
2500.0
 12
48.21224083
 22
-175.40191817
 32
2500.0
 13
45.40786421
 23
-166.45454975
 33
2500.0
  0
LINE
  5
358
100
AcDbEntity
  8
MST_1_1
 62
   137
  6
CONTINUOUS
100
AcDbLine
 10
45.40786421
 20
-166.45454975
 30
2500.0
 11
47.65771812
 21
-176.45454975
 31
2500.0
  0
3DFACE
  5
359
100
AcDbEntity
  8
MST_1_1
 62
   137
  6
CONTINUOUS
100
AcDbFace
 70
     0
 10
48.8533415
 20
-167.50718133
 30
2500.0
 11
51.65771812
 21
-176.45454975
 31
2500.0
 12
52.21224083
 22
-175.40191817
 32
2500.0
 13
49.40786421
 23
-166.45454975
 33
2500.0
  0
LINE
  5
35A
100
AcDbEntity
  8
MST_1_1
 62
   137
  6
CONTINUOUS
100
AcDbLine
 10
49.40786421
 20
-166.45454975
 30
2500.0
 11
51.65771812
 21
-176.45454975
 31
2500.0
  0
3DFACE
  5
35B
100
AcDbEntity
  8
MST_1_1
 62
   137
  6
CONTINUOUS
100
AcDbFace
 70
     0
 10
52.8533415
 20
-167.50718133
 30
2500.0
 11
55.65771812
 21
-176.45454975
 31
2500.0
 12
56.21224083
 22
-175.40191817
 32
2500.0
 13
53.40786421
 23
-166.45454975
 33
2500.0
  0
LINE
  5
35C
100
AcDbEntity
  8
MST_1_1
 62
   137
  6
CONTINUOUS
100
AcDbLine
 10
53.40786421
 20
-166.45454975
 30
2500.0
 11
55.65771812
 21
-176.45454975
 31
2500.0
  0
3DFACE
  5
35D
100
AcDbEntity
  8
MST_1_1
 62
   137
  6
CONTINUOUS
100
AcDbFace
 70
     0
 10
57.40786421
 20
-166.45454975
 30
2500.0
 11
56.8533415
 21
-167.50718133
 31
2500.0
 12
57.19907055
 22
-168.61023048
 32
2500.0
 13
57.73779087
 23
-167.50718133
 33
2500.0
  0
LINE
  5
35E
100
AcDbEntity
  8
MST_1_1
 62
   137
  6
CONTINUOUS
100
AcDbLine
 10
57.40786421
 20
-166.45454975
 30
2500.0
 11
57.67405285
 21
-167.6376872
 31
2500.0
  0
LINE
  5
35F
100
AcDbEntity
  8
MST_1_1
 62
   137
  6
CONTINUOUS
100
AcDbLine
 10
40.8533415
 20
-167.50718133
 30
2500.0
 11
37.73779087
 21
-167.50718133
 31
2500.0
  0
LINE
  5
360
100
AcDbEntity
  8
MST_1_1
 62
   137
  6
CONTINUOUS
100
AcDbLine
 10
44.8533415
 20
-167.50718133
 30
2500.0
 11
41.73779087
 21
-167.50718133
 31
2500.0
  0
LINE
  5
361
100
AcDbEntity
  8
MST_1_1
 62
   137
  6
CONTINUOUS
100
AcDbLine
 10
48.8533415
 20
-167.50718133
 30
2500.0
 11
45.73779087
 21
-167.50718133
 31
2500.0
  0
LINE
  5
362
100
AcDbEntity
  8
MST_1_1
 62
   137
  6
CONTINUOUS
100
AcDbLine
 10
52.8533415
 20
-167.50718133
 30
2500.0
 11
49.73779087
 21
-167.50718133
 31
2500.0
  0
LINE
  5
363
100
AcDbEntity
  8
MST_1_1
 62
   137
  6
CONTINUOUS
100
AcDbLine
 10
56.8533415
 20
-167.50718133
 30
2500.0
 11
53.73779087
 21
-167.50718133
 31
2500.0
  0
LINE
  5
364
100
AcDbEntity
  8
MST_1_1
 62
   137
  6
CONTINUOUS
100
AcDbLine
 10
58.0389121
 20
-167.50718133
 30
2500.0
 11
57.73779087
 21
-167.50718133
 31
2500.0
  0
LINE
  5
365
100
AcDbEntity
  8
MST_1_1
 62
   137
  6
CONTINUOUS
100
AcDbLine
 10
36.0389121
 20
-175.40191817
 30
2500.0
 11
36.0389121
 21
-167.50718133
 31
2500.0
  0
LINE
  5
366
100
AcDbEntity
  8
MST_1_1
 62
   137
  6
CONTINUOUS
100
AcDbLine
 10
58.40270541
 20
-174.45454975
 30
2500.0
 11
58.40270541
 21
-168.45454975
 31
2500.0
  0
LINE
  5
367
100
AcDbEntity
  8
MST_1_1
 62
   137
  6
CONTINUOUS
100
AcDbLine
 10
194.0389121
 20
-173.30597832
 30
2500.0
 11
194.0389121
 21
-169.60312118
 31
2500.0
  0
LINE
  5
368
100
AcDbEntity
  8
MST_1_1
 62
   137
  6
CONTINUOUS
100
AcDbLine
 10
193.68376741
 20
-168.45454975
 30
2500.0
 11
193.68376741
 21
-174.45454975
 31
2500.0
  0
LINE
  5
369
100
AcDbEntity
  8
MST_1_1
 62
   137
  6
CONTINUOUS
100
AcDbLine
 10
58.0389121
 20
-175.40191817
 30
2500.0
 11
58.0389121
 21
-167.50718133
 31
2500.0
  0
LINE
  5
36A
100
AcDbEntity
  8
MST_1_1
 62
   137
  6
CONTINUOUS
100
AcDbLine
 10
193.68376741
 20
-174.45454975
 30
2500.0
 11
58.40270541
 21
-174.45454975
 31
2500.0
  0
LINE
  5
36B
100
AcDbEntity
  8
MST_1_1
 62
   137
  6
CONTINUOUS
100
AcDbLine
 10
58.40270541
 20
-174.45454975
 30
2500.0
 11
58.0389121
 21
-175.40191817
 31
2500.0
  0
LINE
  5
36C
100
AcDbEntity
  8
MST_1_1
 62
   137
  6
CONTINUOUS
100
AcDbLine
 10
56.21224083
 20
-175.40191817
 30
2500.0
 11
58.0389121
 21
-175.40191817
 31
2500.0
  0
LINE
  5
36D
100
AcDbEntity
  8
MST_1_1
 62
   137
  6
CONTINUOUS
100
AcDbLine
 10
52.21224083
 20
-175.40191817
 30
2500.0
 11
55.32779145
 21
-175.40191817
 31
2500.0
  0
LINE
  5
36E
100
AcDbEntity
  8
MST_1_1
 62
   137
  6
CONTINUOUS
100
AcDbLine
 10
48.21224083
 20
-175.40191817
 30
2500.0
 11
51.32779145
 21
-175.40191817
 31
2500.0
  0
LINE
  5
36F
100
AcDbEntity
  8
MST_1_1
 62
   137
  6
CONTINUOUS
100
AcDbLine
 10
44.21224083
 20
-175.40191817
 30
2500.0
 11
47.32779145
 21
-175.40191817
 31
2500.0
  0
LINE
  5
370
100
AcDbEntity
  8
MST_1_1
 62
   137
  6
CONTINUOUS
100
AcDbLine
 10
40.21224083
 20
-175.40191817
 30
2500.0
 11
43.32779145
 21
-175.40191817
 31
2500.0
  0
LINE
  5
371
100
AcDbEntity
  8
MST_1_1
 62
   137
  6
CONTINUOUS
100
AcDbLine
 10
36.0389121
 20
-175.40191817
 30
2500.0
 11
39.32779145
 21
-175.40191817
 31
2500.0
  0
LINE
  5
372
100
AcDbEntity
  8
MST_1_1
 62
   137
  6
CONTINUOUS
100
AcDbLine
 10
58.0389121
 20
-167.50718133
 30
2500.0
 11
58.40270541
 21
-168.45454975
 31
2500.0
  0
LWPOLYLINE
  5
373
100
AcDbEntity
  8
MST_1_1
 62
   137
  6
CONTINUOUS
100
AcDbPolyline
 90
        5
 70
     0
 43
0.0
 38
2500.0
 10
202.85420974
 20
-169.60312118
 10
203.1201087
 20
-168.45454954
 10
205.36820279
 20
-173.30597832
 10
205.10230373
 20
-174.45454975
 10
202.85420974
 20
-169.60312118
  0
LWPOLYLINE
  5
374
100
AcDbEntity
  8
MST_1_1
 62
   137
  6
CONTINUOUS
100
AcDbPolyline
 90
        5
 70
     0
 43
0.0
 38
2500.0
 10
206.28278116
 20
-169.60312118
 10
206.54868013
 20
-168.45454954
 10
208.79677422
 20
-173.30597832
 10
208.53087516
 20
-174.45454975
 10
206.28278116
 20
-169.60312118
  0
LWPOLYLINE
  5
375
100
AcDbEntity
  8
MST_1_1
 62
   137
  6
CONTINUOUS
100
AcDbPolyline
 90
        5
 70
     0
 43
0.0
 38
2500.0
 10
209.71135259
 20
-169.60312118
 10
209.97725156
 20
-168.45454954
 10
212.22534565
 20
-173.30597832
 10
211.95944659
 20
-174.45454975
 10
209.71135259
 20
-169.60312118
  0
LWPOLYLINE
  5
376
100
AcDbEntity
  8
MST_1_1
 62
   137
  6
CONTINUOUS
100
AcDbPolyline
 90
        5
 70
     0
 43
0.0
 38
2500.0
 10
213.13992402
 20
-169.60312118
 10
213.40582299
 20
-168.45454954
 10
215.65391708
 20
-173.30597832
 10
215.38801801
 20
-174.45454975
 10
213.13992402
 20
-169.60312118
  0
LWPOLYLINE
  5
377
100
AcDbEntity
  8
MST_1_1
 62
   137
  6
CONTINUOUS
100
AcDbPolyline
 90
        5
 70
     0
 43
0.0
 38
2500.0
 10
216.56849545
 20
-169.60312118
 10
216.83439442
 20
-168.45454954
 10
219.08248851
 20
-173.30597832
 10
218.81658944
 20
-174.45454975
 10
216.56849545
 20
-169.60312118
  0
LWPOLYLINE
  5
378
100
AcDbEntity
  8
MST_1_1
 62
   137
  6
CONTINUOUS
100
AcDbPolyline
 90
        5
 70
     0
 43
0.0
 38
2500.0
 10
219.99706688
 20
-169.60312118
 10
220.26296585
 20
-168.45454954
 10
222.51105994
 20
-173.30597832
 10
222.24516087
 20
-174.45454975
 10
219.99706688
 20
-169.60312118
  0
LWPOLYLINE
  5
379
100
AcDbEntity
  8
MST_1_1
 62
   137
  6
CONTINUOUS
100
AcDbPolyline
 90
        5
 70
     0
 43
0.0
 38
2500.0
 10
223.42563831
 20
-169.60312118
 10
223.69153728
 20
-168.45454954
 10
225.89911838
 20
-173.21855054
 10
225.63321931
 20
-174.36712197
 10
223.42563831
 20
-169.60312118
  0
LWPOLYLINE
  5
37A
100
AcDbEntity
  8
MST_1_1
 62
   137
  6
CONTINUOUS
100
AcDbPolyline
 90
        5
 70
     0
 43
0.0
 38
2500.0
 10
226.84288801
 20
-169.78290382
 10
227.06322468
 20
-168.83114215
 10
228.92610351
 20
-172.85126925
 10
228.70576676
 20
-173.80303075
 10
226.84288801
 20
-169.78290382
  0
LINE
  5
37B
100
AcDbEntity
  8
MST_1_1
 62
   137
  6
CONTINUOUS
100
AcDbLine
 10
194.0389121
 20
-173.30597832
 30
2500.0
 11
197.7129266
 21
-173.30597832
 31
2500.0
  0
LINE
  5
37C
100
AcDbEntity
  8
MST_1_1
 62
   137
  6
CONTINUOUS
100
AcDbLine
 10
201.93963137
 20
-173.30597832
 30
2500.0
 11
204.57006946
 21
-173.30597832
 31
2500.0
  0
LINE
  5
37D
100
AcDbEntity
  8
MST_1_1
 62
   137
  6
CONTINUOUS
100
AcDbLine
 10
202.85420974
 20
-169.60312118
 30
2500.0
 11
200.22377164
 21
-169.60312118
 31
2500.0
  0
LWPOLYLINE
  5
37E
100
AcDbEntity
  8
MST_1_1
 62
   137
  6
CONTINUOUS
100
AcDbPolyline
 90
        5
 70
     0
 43
0.0
 38
2500.0
 10
199.42563831
 20
-169.60312118
 10
199.69153728
 20
-168.45454954
 10
201.93963137
 20
-173.30597832
 10
201.6737323
 20
-174.45454975
 10
199.42563831
 20
-169.60312118
  0
LINE
  5
37F
100
AcDbEntity
  8
MST_1_1
 62
   137
  6
CONTINUOUS
100
AcDbLine
 10
198.51105994
 20
-173.30597832
 30
2500.0
 11
201.14149803
 21
-173.30597832
 31
2500.0
  0
LINE
  5
380
100
AcDbEntity
  8
MST_1_1
 62
   137
  6
CONTINUOUS
100
AcDbLine
 10
199.42563831
 20
-169.60312118
 30
2500.0
 11
196.79520021
 21
-169.60312118
 31
2500.0
  0
LWPOLYLINE
  5
381
100
AcDbEntity
  8
MST_1_1
 62
   137
  6
CONTINUOUS
100
AcDbPolyline
 90
        5
 70
     0
 43
0.0
 38
2500.0
 10
195.99706688
 20
-169.60312118
 10
196.26296585
 20
-168.45454954
 10
198.51105994
 20
-173.30597832
 10
198.24516087
 20
-174.45454975
 10
195.99706688
 20
-169.60312118
  0
LINE
  5
382
100
AcDbEntity
  8
MST_1_1
 62
   137
  6
CONTINUOUS
100
AcDbLine
 10
195.99706688
 20
-169.60312118
 30
2500.0
 11
194.0389121
 21
-169.60312118
 31
2500.0
  0
LINE
  5
383
100
AcDbEntity
  8
MST_1_1
 62
   137
  6
CONTINUOUS
100
AcDbLine
 10
58.40270541
 20
-198.45454975
 30
2500.0
 11
223.68376741
 21
-198.45454975
 31
2500.0
  0
LINE
  5
384
100
AcDbEntity
  8
MST_1_1
 62
   137
  6
CONTINUOUS
100
AcDbLine
 10
252.51105994
 20
-203.30597832
 30
2500.0
 11
254.227285
 21
-203.29839642
 31
2500.0
  0
LINE
  5
385
100
AcDbEntity
  8
MST_1_1
 62
   137
  6
CONTINUOUS
100
AcDbLine
 10
253.42563831
 20
-199.60312118
 30
2500.0
 11
250.79520021
 21
-199.60312118
 31
2500.0
  0
ARC
  5
386
100
AcDbEntity
  8
MST_1_1
 62
   137
  6
CONTINUOUS
100
AcDbCircle
 10
253.71536163
 20
-227.33708881
 30
2500.0
 40
27.73111126
100
AcDbArc
 50
83.52438041
 51
88.94224525
  0
LWPOLYLINE
  5
387
100
AcDbEntity
  8
MST_1_1
 62
   137
  6
CONTINUOUS
100
AcDbPolyline
 90
        3
 70
     0
 43
0.0
 38
2500.0
 10
266.0389121
 20
-201.45454975
 10
259.73880471
 20
-200.20627463
 42
0.01723995
 10
257.53687247
 20
-199.85328288
  0
ARC
  5
388
100
AcDbEntity
  8
MST_1_1
 62
   137
  6
CONTINUOUS
100
AcDbCircle
 10
253.52055492
 20
-170.95814455
 30
2500.0
 40
32.34797303
100
AcDbArc
 50
271.25189288
 51
272.83975061
  0
LWPOLYLINE
  5
389
100
AcDbEntity
  8
MST_1_1
 62
   137
  6
CONTINUOUS
100
AcDbPolyline
 90
        3
 70
     0
 43
0.0
 38
2500.0
 10
266.0389121
 20
-201.45454975
 10
259.73880471
 20
-202.70282487
 42
-0.0063851
 10
258.92610351
 20
-202.85126925
  0
ARC
  5
38A
100
AcDbEntity
  8
MST_1_1
 62
   137
  6
CONTINUOUS
100
AcDbCircle
 10
253.52055492
 20
-170.95814455
 30
2500.0
 40
32.34797303
100
AcDbArc
 50
274.21680449
 51
278.51502477
  0
LINE
  5
38B
100
AcDbEntity
  8
MST_1_1
 62
   137
  6
CONTINUOUS
100
AcDbLine
 10
249.08248851
 20
-203.30597832
 30
2500.0
 11
251.7129266
 21
-203.30597832
 31
2500.0
  0
LINE
  5
38C
100
AcDbEntity
  8
MST_1_1
 62
   137
  6
CONTINUOUS
100
AcDbLine
 10
249.99706688
 20
-199.60312118
 30
2500.0
 11
247.36662878
 21
-199.60312118
 31
2500.0
  0
LINE
  5
38D
100
AcDbEntity
  8
MST_1_1
 62
   137
  6
CONTINUOUS
100
AcDbLine
 10
245.65391708
 20
-203.30597832
 30
2500.0
 11
248.28435518
 21
-203.30597832
 31
2500.0
  0
LINE
  5
38E
100
AcDbEntity
  8
MST_1_1
 62
   137
  6
CONTINUOUS
100
AcDbLine
 10
246.56849545
 20
-199.60312118
 30
2500.0
 11
243.93805735
 21
-199.60312118
 31
2500.0
  0
LINE
  5
38F
100
AcDbEntity
  8
MST_1_1
 62
   137
  6
CONTINUOUS
100
AcDbLine
 10
242.22534565
 20
-203.30597832
 30
2500.0
 11
244.85578375
 21
-203.30597832
 31
2500.0
  0
LINE
  5
390
100
AcDbEntity
  8
MST_1_1
 62
   137
  6
CONTINUOUS
100
AcDbLine
 10
243.13992402
 20
-199.60312118
 30
2500.0
 11
240.50948592
 21
-199.60312118
 31
2500.0
  0
LINE
  5
391
100
AcDbEntity
  8
MST_1_1
 62
   137
  6
CONTINUOUS
100
AcDbLine
 10
238.79677422
 20
-203.30597832
 30
2500.0
 11
241.42721232
 21
-203.30597832
 31
2500.0
  0
LINE
  5
392
100
AcDbEntity
  8
MST_1_1
 62
   137
  6
CONTINUOUS
100
AcDbLine
 10
239.71135259
 20
-199.60312118
 30
2500.0
 11
237.0809145
 21
-199.60312118
 31
2500.0
  0
LINE
  5
393
100
AcDbEntity
  8
MST_1_1
 62
   137
  6
CONTINUOUS
100
AcDbLine
 10
235.36820279
 20
-203.30597832
 30
2500.0
 11
237.99864089
 21
-203.30597832
 31
2500.0
  0
LINE
  5
394
100
AcDbEntity
  8
MST_1_1
 62
   137
  6
CONTINUOUS
100
AcDbLine
 10
236.28278116
 20
-199.60312118
 30
2500.0
 11
233.65234307
 21
-199.60312118
 31
2500.0
  0
LINE
  5
395
100
AcDbEntity
  8
MST_1_1
 62
   137
  6
CONTINUOUS
100
AcDbLine
 10
224.0389121
 20
-199.60312118
 30
2500.0
 11
223.68376741
 21
-198.45454975
 31
2500.0
  0
LINE
  5
396
100
AcDbEntity
  8
MST_1_1
 62
   137
  6
CONTINUOUS
100
AcDbLine
 10
224.0389121
 20
-203.30597832
 30
2500.0
 11
223.68376741
 21
-204.45454975
 31
2500.0
  0
LINE
  5
397
100
AcDbEntity
  8
MST_1_1
 62
   137
  6
CONTINUOUS
100
AcDbLine
 10
36.0389121
 20
-197.50718133
 30
2500.0
 11
36.8533415
 21
-197.50718133
 31
2500.0
  0
3DFACE
  5
398
100
AcDbEntity
  8
MST_1_1
 62
   137
  6
CONTINUOUS
100
AcDbFace
 70
     0
 10
36.8533415
 20
-197.50718133
 30
2500.0
 11
39.65771812
 21
-206.45454975
 31
2500.0
 12
40.21224083
 22
-205.40191817
 32
2500.0
 13
37.40786421
 23
-196.45454975
 33
2500.0
  0
LINE
  5
399
100
AcDbEntity
  8
MST_1_1
 62
   137
  6
CONTINUOUS
100
AcDbLine
 10
37.40786421
 20
-196.45454975
 30
2500.0
 11
39.65771812
 21
-206.45454975
 31
2500.0
  0
3DFACE
  5
39A
100
AcDbEntity
  8
MST_1_1
 62
   137
  6
CONTINUOUS
100
AcDbFace
 70
     0
 10
40.8533415
 20
-197.50718133
 30
2500.0
 11
43.65771812
 21
-206.45454975
 31
2500.0
 12
44.21224083
 22
-205.40191817
 32
2500.0
 13
41.40786421
 23
-196.45454975
 33
2500.0
  0
LINE
  5
39B
100
AcDbEntity
  8
MST_1_1
 62
   137
  6
CONTINUOUS
100
AcDbLine
 10
41.40786421
 20
-196.45454975
 30
2500.0
 11
43.65771812
 21
-206.45454975
 31
2500.0
  0
3DFACE
  5
39C
100
AcDbEntity
  8
MST_1_1
 62
   137
  6
CONTINUOUS
100
AcDbFace
 70
     0
 10
44.8533415
 20
-197.50718133
 30
2500.0
 11
47.65771812
 21
-206.45454975
 31
2500.0
 12
48.21224083
 22
-205.40191817
 32
2500.0
 13
45.40786421
 23
-196.45454975
 33
2500.0
  0
LINE
  5
39D
100
AcDbEntity
  8
MST_1_1
 62
   137
  6
CONTINUOUS
100
AcDbLine
 10
45.40786421
 20
-196.45454975
 30
2500.0
 11
47.65771812
 21
-206.45454975
 31
2500.0
  0
3DFACE
  5
39E
100
AcDbEntity
  8
MST_1_1
 62
   137
  6
CONTINUOUS
100
AcDbFace
 70
     0
 10
48.8533415
 20
-197.50718133
 30
2500.0
 11
51.65771812
 21
-206.45454975
 31
2500.0
 12
52.21224083
 22
-205.40191817
 32
2500.0
 13
49.40786421
 23
-196.45454975
 33
2500.0
  0
LINE
  5
39F
100
AcDbEntity
  8
MST_1_1
 62
   137
  6
CONTINUOUS
100
AcDbLine
 10
49.40786421
 20
-196.45454975
 30
2500.0
 11
51.65771812
 21
-206.45454975
 31
2500.0
  0
3DFACE
  5
3A0
100
AcDbEntity
  8
MST_1_1
 62
   137
  6
CONTINUOUS
100
AcDbFace
 70
     0
 10
52.8533415
 20
-197.50718133
 30
2500.0
 11
55.65771812
 21
-206.45454975
 31
2500.0
 12
56.21224083
 22
-205.40191817
 32
2500.0
 13
53.40786421
 23
-196.45454975
 33
2500.0
  0
LINE
  5
3A1
100
AcDbEntity
  8
MST_1_1
 62
   137
  6
CONTINUOUS
100
AcDbLine
 10
53.40786421
 20
-196.45454975
 30
2500.0
 11
55.65771812
 21
-206.45454975
 31
2500.0
  0
3DFACE
  5
3A2
100
AcDbEntity
  8
MST_1_1
 62
   137
  6
CONTINUOUS
100
AcDbFace
 70
     0
 10
57.40786421
 20
-196.45454975
 30
2500.0
 11
56.8533415
 21
-197.50718133
 31
2500.0
 12
57.19907055
 22
-198.61023048
 32
2500.0
 13
57.73779087
 23
-197.50718133
 33
2500.0
  0
LINE
  5
3A3
100
AcDbEntity
  8
MST_1_1
 62
   137
  6
CONTINUOUS
100
AcDbLine
 10
57.40786421
 20
-196.45454975
 30
2500.0
 11
57.67405285
 21
-197.6376872
 31
2500.0
  0
LINE
  5
3A4
100
AcDbEntity
  8
MST_1_1
 62
   137
  6
CONTINUOUS
100
AcDbLine
 10
40.8533415
 20
-197.50718133
 30
2500.0
 11
37.73779087
 21
-197.50718133
 31
2500.0
  0
LINE
  5
3A5
100
AcDbEntity
  8
MST_1_1
 62
   137
  6
CONTINUOUS
100
AcDbLine
 10
44.8533415
 20
-197.50718133
 30
2500.0
 11
41.73779087
 21
-197.50718133
 31
2500.0
  0
LINE
  5
3A6
100
AcDbEntity
  8
MST_1_1
 62
   137
  6
CONTINUOUS
100
AcDbLine
 10
48.8533415
 20
-197.50718133
 30
2500.0
 11
45.73779087
 21
-197.50718133
 31
2500.0
  0
LINE
  5
3A7
100
AcDbEntity
  8
MST_1_1
 62
   137
  6
CONTINUOUS
100
AcDbLine
 10
52.8533415
 20
-197.50718133
 30
2500.0
 11
49.73779087
 21
-197.50718133
 31
2500.0
  0
LINE
  5
3A8
100
AcDbEntity
  8
MST_1_1
 62
   137
  6
CONTINUOUS
100
AcDbLine
 10
56.8533415
 20
-197.50718133
 30
2500.0
 11
53.73779087
 21
-197.50718133
 31
2500.0
  0
LINE
  5
3A9
100
AcDbEntity
  8
MST_1_1
 62
   137
  6
CONTINUOUS
100
AcDbLine
 10
58.0389121
 20
-197.50718133
 30
2500.0
 11
57.73779087
 21
-197.50718133
 31
2500.0
  0
LINE
  5
3AA
100
AcDbEntity
  8
MST_1_1
 62
   137
  6
CONTINUOUS
100
AcDbLine
 10
36.0389121
 20
-205.40191817
 30
2500.0
 11
36.0389121
 21
-197.50718133
 31
2500.0
  0
LINE
  5
3AB
100
AcDbEntity
  8
MST_1_1
 62
   137
  6
CONTINUOUS
100
AcDbLine
 10
58.40270541
 20
-204.45454975
 30
2500.0
 11
58.40270541
 21
-198.45454975
 31
2500.0
  0
LINE
  5
3AC
100
AcDbEntity
  8
MST_1_1
 62
   137
  6
CONTINUOUS
100
AcDbLine
 10
224.0389121
 20
-203.30597832
 30
2500.0
 11
224.0389121
 21
-199.60312118
 31
2500.0
  0
LINE
  5
3AD
100
AcDbEntity
  8
MST_1_1
 62
   137
  6
CONTINUOUS
100
AcDbLine
 10
223.68376741
 20
-198.45454975
 30
2500.0
 11
223.68376741
 21
-204.45454975
 31
2500.0
  0
LINE
  5
3AE
100
AcDbEntity
  8
MST_1_1
 62
   137
  6
CONTINUOUS
100
AcDbLine
 10
58.0389121
 20
-205.40191817
 30
2500.0
 11
58.0389121
 21
-197.50718133
 31
2500.0
  0
LINE
  5
3AF
100
AcDbEntity
  8
MST_1_1
 62
   137
  6
CONTINUOUS
100
AcDbLine
 10
223.68376741
 20
-204.45454975
 30
2500.0
 11
58.40270541
 21
-204.45454975
 31
2500.0
  0
LINE
  5
3B0
100
AcDbEntity
  8
MST_1_1
 62
   137
  6
CONTINUOUS
100
AcDbLine
 10
58.40270541
 20
-204.45454975
 30
2500.0
 11
58.0389121
 21
-205.40191817
 31
2500.0
  0
LINE
  5
3B1
100
AcDbEntity
  8
MST_1_1
 62
   137
  6
CONTINUOUS
100
AcDbLine
 10
56.21224083
 20
-205.40191817
 30
2500.0
 11
58.0389121
 21
-205.40191817
 31
2500.0
  0
LINE
  5
3B2
100
AcDbEntity
  8
MST_1_1
 62
   137
  6
CONTINUOUS
100
AcDbLine
 10
52.21224083
 20
-205.40191817
 30
2500.0
 11
55.32779145
 21
-205.40191817
 31
2500.0
  0
LINE
  5
3B3
100
AcDbEntity
  8
MST_1_1
 62
   137
  6
CONTINUOUS
100
AcDbLine
 10
48.21224083
 20
-205.40191817
 30
2500.0
 11
51.32779145
 21
-205.40191817
 31
2500.0
  0
LINE
  5
3B4
100
AcDbEntity
  8
MST_1_1
 62
   137
  6
CONTINUOUS
100
AcDbLine
 10
44.21224083
 20
-205.40191817
 30
2500.0
 11
47.32779145
 21
-205.40191817
 31
2500.0
  0
LINE
  5
3B5
100
AcDbEntity
  8
MST_1_1
 62
   137
  6
CONTINUOUS
100
AcDbLine
 10
40.21224083
 20
-205.40191817
 30
2500.0
 11
43.32779145
 21
-205.40191817
 31
2500.0
  0
LINE
  5
3B6
100
AcDbEntity
  8
MST_1_1
 62
   137
  6
CONTINUOUS
100
AcDbLine
 10
36.0389121
 20
-205.40191817
 30
2500.0
 11
39.32779145
 21
-205.40191817
 31
2500.0
  0
LINE
  5
3B7
100
AcDbEntity
  8
MST_1_1
 62
   137
  6
CONTINUOUS
100
AcDbLine
 10
58.0389121
 20
-197.50718133
 30
2500.0
 11
58.40270541
 21
-198.45454975
 31
2500.0
  0
LWPOLYLINE
  5
3B8
100
AcDbEntity
  8
MST_1_1
 62
   137
  6
CONTINUOUS
100
AcDbPolyline
 90
        5
 70
     0
 43
0.0
 38
2500.0
 10
232.85420974
 20
-199.60312118
 10
233.1201087
 20
-198.45454954
 10
235.36820279
 20
-203.30597832
 10
235.10230373
 20
-204.45454975
 10
232.85420974
 20
-199.60312118
  0
LWPOLYLINE
  5
3B9
100
AcDbEntity
  8
MST_1_1
 62
   137
  6
CONTINUOUS
100
AcDbPolyline
 90
        5
 70
     0
 43
0.0
 38
2500.0
 10
236.28278116
 20
-199.60312118
 10
236.54868013
 20
-198.45454954
 10
238.79677422
 20
-203.30597832
 10
238.53087516
 20
-204.45454975
 10
236.28278116
 20
-199.60312118
  0
LWPOLYLINE
  5
3BA
100
AcDbEntity
  8
MST_1_1
 62
   137
  6
CONTINUOUS
100
AcDbPolyline
 90
        5
 70
     0
 43
0.0
 38
2500.0
 10
239.71135259
 20
-199.60312118
 10
239.97725156
 20
-198.45454954
 10
242.22534565
 20
-203.30597832
 10
241.95944659
 20
-204.45454975
 10
239.71135259
 20
-199.60312118
  0
LWPOLYLINE
  5
3BB
100
AcDbEntity
  8
MST_1_1
 62
   137
  6
CONTINUOUS
100
AcDbPolyline
 90
        5
 70
     0
 43
0.0
 38
2500.0
 10
243.13992402
 20
-199.60312118
 10
243.40582299
 20
-198.45454954
 10
245.65391708
 20
-203.30597832
 10
245.38801801
 20
-204.45454975
 10
243.13992402
 20
-199.60312118
  0
LWPOLYLINE
  5
3BC
100
AcDbEntity
  8
MST_1_1
 62
   137
  6
CONTINUOUS
100
AcDbPolyline
 90
        5
 70
     0
 43
0.0
 38
2500.0
 10
246.56849545
 20
-199.60312118
 10
246.83439442
 20
-198.45454954
 10
249.08248851
 20
-203.30597832
 10
248.81658944
 20
-204.45454975
 10
246.56849545
 20
-199.60312118
  0
LWPOLYLINE
  5
3BD
100
AcDbEntity
  8
MST_1_1
 62
   137
  6
CONTINUOUS
100
AcDbPolyline
 90
        5
 70
     0
 43
0.0
 38
2500.0
 10
249.99706688
 20
-199.60312118
 10
250.26296585
 20
-198.45454954
 10
252.51105994
 20
-203.30597832
 10
252.24516087
 20
-204.45454975
 10
249.99706688
 20
-199.60312118
  0
LWPOLYLINE
  5
3BE
100
AcDbEntity
  8
MST_1_1
 62
   137
  6
CONTINUOUS
100
AcDbPolyline
 90
        5
 70
     0
 43
0.0
 38
2500.0
 10
253.42563831
 20
-199.60312118
 10
253.69153728
 20
-198.45454954
 10
255.89911838
 20
-203.21855054
 10
255.63321931
 20
-204.36712197
 10
253.42563831
 20
-199.60312118
  0
LWPOLYLINE
  5
3BF
100
AcDbEntity
  8
MST_1_1
 62
   137
  6
CONTINUOUS
100
AcDbPolyline
 90
        5
 70
     0
 43
0.0
 38
2500.0
 10
256.84288801
 20
-199.78290382
 10
257.06322468
 20
-198.83114215
 10
258.92610351
 20
-202.85126925
 10
258.70576676
 20
-203.80303075
 10
256.84288801
 20
-199.78290382
  0
LINE
  5
3C0
100
AcDbEntity
  8
MST_1_1
 62
   137
  6
CONTINUOUS
100
AcDbLine
 10
224.0389121
 20
-203.30597832
 30
2500.0
 11
227.7129266
 21
-203.30597832
 31
2500.0
  0
LINE
  5
3C1
100
AcDbEntity
  8
MST_1_1
 62
   137
  6
CONTINUOUS
100
AcDbLine
 10
231.93963137
 20
-203.30597832
 30
2500.0
 11
234.57006946
 21
-203.30597832
 31
2500.0
  0
LINE
  5
3C2
100
AcDbEntity
  8
MST_1_1
 62
   137
  6
CONTINUOUS
100
AcDbLine
 10
232.85420974
 20
-199.60312118
 30
2500.0
 11
230.22377164
 21
-199.60312118
 31
2500.0
  0
LWPOLYLINE
  5
3C3
100
AcDbEntity
  8
MST_1_1
 62
   137
  6
CONTINUOUS
100
AcDbPolyline
 90
        5
 70
     0
 43
0.0
 38
2500.0
 10
229.42563831
 20
-199.60312118
 10
229.69153728
 20
-198.45454954
 10
231.93963137
 20
-203.30597832
 10
231.6737323
 20
-204.45454975
 10
229.42563831
 20
-199.60312118
  0
LINE
  5
3C4
100
AcDbEntity
  8
MST_1_1
 62
   137
  6
CONTINUOUS
100
AcDbLine
 10
228.51105994
 20
-203.30597832
 30
2500.0
 11
231.14149803
 21
-203.30597832
 31
2500.0
  0
LINE
  5
3C5
100
AcDbEntity
  8
MST_1_1
 62
   137
  6
CONTINUOUS
100
AcDbLine
 10
229.42563831
 20
-199.60312118
 30
2500.0
 11
226.79520021
 21
-199.60312118
 31
2500.0
  0
LWPOLYLINE
  5
3C6
100
AcDbEntity
  8
MST_1_1
 62
   137
  6
CONTINUOUS
100
AcDbPolyline
 90
        5
 70
     0
 43
0.0
 38
2500.0
 10
225.99706688
 20
-199.60312118
 10
226.26296585
 20
-198.45454954
 10
228.51105994
 20
-203.30597832
 10
228.24516087
 20
-204.45454975
 10
225.99706688
 20
-199.60312118
  0
LINE
  5
3C7
100
AcDbEntity
  8
MST_1_1
 62
   137
  6
CONTINUOUS
100
AcDbLine
 10
225.99706688
 20
-199.60312118
 30
2500.0
 11
224.0389121
 21
-199.60312118
 31
2500.0
  0
LWPOLYLINE
  5
3C8
100
AcDbEntity
  8
MST_1_1
 62
     1
  6
BORDER
100
AcDbPolyline
 90
        3
 70
     0
 43
0.0
 10
286.0389121
 20
-231.45454975
 10
36.0389121
 20
-231.45454975
 10
31.0389121
 20
-231.45454975
  0
LINE
  5
3C9
100
AcDbEntity
  8
MST_1_1
 62
   137
  6
CONTINUOUS
100
AcDbLine
 10
58.40270541
 20
-228.45454975
 30
2500.0
 11
243.68376741
 21
-228.45454975
 31
2500.0
  0
LINE
  5
3CA
100
AcDbEntity
  8
MST_1_1
 62
   137
  6
CONTINUOUS
100
AcDbLine
 10
272.51105994
 20
-233.30597832
 30
2500.0
 11
274.227285
 21
-233.29839642
 31
2500.0
  0
LINE
  5
3CB
100
AcDbEntity
  8
MST_1_1
 62
   137
  6
CONTINUOUS
100
AcDbLine
 10
273.42563831
 20
-229.60312118
 30
2500.0
 11
270.79520021
 21
-229.60312118
 31
2500.0
  0
ARC
  5
3CC
100
AcDbEntity
  8
MST_1_1
 62
   137
  6
CONTINUOUS
100
AcDbCircle
 10
273.71536163
 20
-257.33708881
 30
2500.0
 40
27.73111126
100
AcDbArc
 50
83.52438041
 51
88.94224525
  0
LWPOLYLINE
  5
3CD
100
AcDbEntity
  8
MST_1_1
 62
   137
  6
CONTINUOUS
100
AcDbPolyline
 90
        3
 70
     0
 43
0.0
 38
2500.0
 10
286.0389121
 20
-231.45454975
 10
279.73880471
 20
-230.20627463
 42
0.01723995
 10
277.53687247
 20
-229.85328288
  0
ARC
  5
3CE
100
AcDbEntity
  8
MST_1_1
 62
   137
  6
CONTINUOUS
100
AcDbCircle
 10
273.52055492
 20
-200.95814455
 30
2500.0
 40
32.34797303
100
AcDbArc
 50
271.25189288
 51
272.83975061
  0
LWPOLYLINE
  5
3CF
100
AcDbEntity
  8
MST_1_1
 62
   137
  6
CONTINUOUS
100
AcDbPolyline
 90
        3
 70
     0
 43
0.0
 38
2500.0
 10
286.0389121
 20
-231.45454975
 10
279.73880471
 20
-232.70282487
 42
-0.0063851
 10
278.92610351
 20
-232.85126925
  0
ARC
  5
3D0
100
AcDbEntity
  8
MST_1_1
 62
   137
  6
CONTINUOUS
100
AcDbCircle
 10
273.52055492
 20
-200.95814455
 30
2500.0
 40
32.34797303
100
AcDbArc
 50
274.21680449
 51
278.51502477
  0
LINE
  5
3D1
100
AcDbEntity
  8
MST_1_1
 62
   137
  6
CONTINUOUS
100
AcDbLine
 10
269.08248851
 20
-233.30597832
 30
2500.0
 11
271.7129266
 21
-233.30597832
 31
2500.0
  0
LINE
  5
3D2
100
AcDbEntity
  8
MST_1_1
 62
   137
  6
CONTINUOUS
100
AcDbLine
 10
269.99706688
 20
-229.60312118
 30
2500.0
 11
267.36662878
 21
-229.60312118
 31
2500.0
  0
LINE
  5
3D3
100
AcDbEntity
  8
MST_1_1
 62
   137
  6
CONTINUOUS
100
AcDbLine
 10
265.65391708
 20
-233.30597832
 30
2500.0
 11
268.28435518
 21
-233.30597832
 31
2500.0
  0
LINE
  5
3D4
100
AcDbEntity
  8
MST_1_1
 62
   137
  6
CONTINUOUS
100
AcDbLine
 10
266.56849545
 20
-229.60312118
 30
2500.0
 11
263.93805735
 21
-229.60312118
 31
2500.0
  0
LINE
  5
3D5
100
AcDbEntity
  8
MST_1_1
 62
   137
  6
CONTINUOUS
100
AcDbLine
 10
262.22534565
 20
-233.30597832
 30
2500.0
 11
264.85578375
 21
-233.30597832
 31
2500.0
  0
LINE
  5
3D6
100
AcDbEntity
  8
MST_1_1
 62
   137
  6
CONTINUOUS
100
AcDbLine
 10
263.13992402
 20
-229.60312118
 30
2500.0
 11
260.50948592
 21
-229.60312118
 31
2500.0
  0
LINE
  5
3D7
100
AcDbEntity
  8
MST_1_1
 62
   137
  6
CONTINUOUS
100
AcDbLine
 10
258.79677422
 20
-233.30597832
 30
2500.0
 11
261.42721232
 21
-233.30597832
 31
2500.0
  0
LINE
  5
3D8
100
AcDbEntity
  8
MST_1_1
 62
   137
  6
CONTINUOUS
100
AcDbLine
 10
259.71135259
 20
-229.60312118
 30
2500.0
 11
257.0809145
 21
-229.60312118
 31
2500.0
  0
LINE
  5
3D9
100
AcDbEntity
  8
MST_1_1
 62
   137
  6
CONTINUOUS
100
AcDbLine
 10
255.36820279
 20
-233.30597832
 30
2500.0
 11
257.99864089
 21
-233.30597832
 31
2500.0
  0
LINE
  5
3DA
100
AcDbEntity
  8
MST_1_1
 62
   137
  6
CONTINUOUS
100
AcDbLine
 10
256.28278116
 20
-229.60312118
 30
2500.0
 11
253.65234307
 21
-229.60312118
 31
2500.0
  0
LINE
  5
3DB
100
AcDbEntity
  8
MST_1_1
 62
   137
  6
CONTINUOUS
100
AcDbLine
 10
244.0389121
 20
-229.60312118
 30
2500.0
 11
243.68376741
 21
-228.45454975
 31
2500.0
  0
LINE
  5
3DC
100
AcDbEntity
  8
MST_1_1
 62
   137
  6
CONTINUOUS
100
AcDbLine
 10
244.0389121
 20
-233.30597832
 30
2500.0
 11
243.68376741
 21
-234.45454975
 31
2500.0
  0
LINE
  5
3DD
100
AcDbEntity
  8
MST_1_1
 62
   137
  6
CONTINUOUS
100
AcDbLine
 10
36.0389121
 20
-227.50718133
 30
2500.0
 11
36.8533415
 21
-227.50718133
 31
2500.0
  0
3DFACE
  5
3DE
100
AcDbEntity
  8
MST_1_1
 62
   137
  6
CONTINUOUS
100
AcDbFace
 70
     0
 10
36.8533415
 20
-227.50718133
 30
2500.0
 11
39.65771812
 21
-236.45454975
 31
2500.0
 12
40.21224083
 22
-235.40191817
 32
2500.0
 13
37.40786421
 23
-226.45454975
 33
2500.0
  0
LINE
  5
3DF
100
AcDbEntity
  8
MST_1_1
 62
   137
  6
CONTINUOUS
100
AcDbLine
 10
37.40786421
 20
-226.45454975
 30
2500.0
 11
39.65771812
 21
-236.45454975
 31
2500.0
  0
3DFACE
  5
3E0
100
AcDbEntity
  8
MST_1_1
 62
   137
  6
CONTINUOUS
100
AcDbFace
 70
     0
 10
40.8533415
 20
-227.50718133
 30
2500.0
 11
43.65771812
 21
-236.45454975
 31
2500.0
 12
44.21224083
 22
-235.40191817
 32
2500.0
 13
41.40786421
 23
-226.45454975
 33
2500.0
  0
LINE
  5
3E1
100
AcDbEntity
  8
MST_1_1
 62
   137
  6
CONTINUOUS
100
AcDbLine
 10
41.40786421
 20
-226.45454975
 30
2500.0
 11
43.65771812
 21
-236.45454975
 31
2500.0
  0
3DFACE
  5
3E2
100
AcDbEntity
  8
MST_1_1
 62
   137
  6
CONTINUOUS
100
AcDbFace
 70
     0
 10
44.8533415
 20
-227.50718133
 30
2500.0
 11
47.65771812
 21
-236.45454975
 31
2500.0
 12
48.21224083
 22
-235.40191817
 32
2500.0
 13
45.40786421
 23
-226.45454975
 33
2500.0
  0
LINE
  5
3E3
100
AcDbEntity
  8
MST_1_1
 62
   137
  6
CONTINUOUS
100
AcDbLine
 10
45.40786421
 20
-226.45454975
 30
2500.0
 11
47.65771812
 21
-236.45454975
 31
2500.0
  0
3DFACE
  5
3E4
100
AcDbEntity
  8
MST_1_1
 62
   137
  6
CONTINUOUS
100
AcDbFace
 70
     0
 10
48.8533415
 20
-227.50718133
 30
2500.0
 11
51.65771812
 21
-236.45454975
 31
2500.0
 12
52.21224083
 22
-235.40191817
 32
2500.0
 13
49.40786421
 23
-226.45454975
 33
2500.0
  0
LINE
  5
3E5
100
AcDbEntity
  8
MST_1_1
 62
   137
  6
CONTINUOUS
100
AcDbLine
 10
49.40786421
 20
-226.45454975
 30
2500.0
 11
51.65771812
 21
-236.45454975
 31
2500.0
  0
3DFACE
  5
3E6
100
AcDbEntity
  8
MST_1_1
 62
   137
  6
CONTINUOUS
100
AcDbFace
 70
     0
 10
52.8533415
 20
-227.50718133
 30
2500.0
 11
55.65771812
 21
-236.45454975
 31
2500.0
 12
56.21224083
 22
-235.40191817
 32
2500.0
 13
53.40786421
 23
-226.45454975
 33
2500.0
  0
LINE
  5
3E7
100
AcDbEntity
  8
MST_1_1
 62
   137
  6
CONTINUOUS
100
AcDbLine
 10
53.40786421
 20
-226.45454975
 30
2500.0
 11
55.65771812
 21
-236.45454975
 31
2500.0
  0
3DFACE
  5
3E8
100
AcDbEntity
  8
MST_1_1
 62
   137
  6
CONTINUOUS
100
AcDbFace
 70
     0
 10
57.40786421
 20
-226.45454975
 30
2500.0
 11
56.8533415
 21
-227.50718133
 31
2500.0
 12
57.19907055
 22
-228.61023048
 32
2500.0
 13
57.73779087
 23
-227.50718133
 33
2500.0
  0
LINE
  5
3E9
100
AcDbEntity
  8
MST_1_1
 62
   137
  6
CONTINUOUS
100
AcDbLine
 10
57.40786421
 20
-226.45454975
 30
2500.0
 11
57.67405285
 21
-227.6376872
 31
2500.0
  0
LINE
  5
3EA
100
AcDbEntity
  8
MST_1_1
 62
   137
  6
CONTINUOUS
100
AcDbLine
 10
40.8533415
 20
-227.50718133
 30
2500.0
 11
37.73779087
 21
-227.50718133
 31
2500.0
  0
LINE
  5
3EB
100
AcDbEntity
  8
MST_1_1
 62
   137
  6
CONTINUOUS
100
AcDbLine
 10
44.8533415
 20
-227.50718133
 30
2500.0
 11
41.73779087
 21
-227.50718133
 31
2500.0
  0
LINE
  5
3EC
100
AcDbEntity
  8
MST_1_1
 62
   137
  6
CONTINUOUS
100
AcDbLine
 10
48.8533415
 20
-227.50718133
 30
2500.0
 11
45.73779087
 21
-227.50718133
 31
2500.0
  0
LINE
  5
3ED
100
AcDbEntity
  8
MST_1_1
 62
   137
  6
CONTINUOUS
100
AcDbLine
 10
52.8533415
 20
-227.50718133
 30
2500.0
 11
49.73779087
 21
-227.50718133
 31
2500.0
  0
LINE
  5
3EE
100
AcDbEntity
  8
MST_1_1
 62
   137
  6
CONTINUOUS
100
AcDbLine
 10
56.8533415
 20
-227.50718133
 30
2500.0
 11
53.73779087
 21
-227.50718133
 31
2500.0
  0
LINE
  5
3EF
100
AcDbEntity
  8
MST_1_1
 62
   137
  6
CONTINUOUS
100
AcDbLine
 10
58.0389121
 20
-227.50718133
 30
2500.0
 11
57.73779087
 21
-227.50718133
 31
2500.0
  0
LINE
  5
3F0
100
AcDbEntity
  8
MST_1_1
 62
   137
  6
CONTINUOUS
100
AcDbLine
 10
36.0389121
 20
-235.40191817
 30
2500.0
 11
36.0389121
 21
-227.50718133
 31
2500.0
  0
LINE
  5
3F1
100
AcDbEntity
  8
MST_1_1
 62
   137
  6
CONTINUOUS
100
AcDbLine
 10
58.40270541
 20
-234.45454975
 30
2500.0
 11
58.40270541
 21
-228.45454975
 31
2500.0
  0
LINE
  5
3F2
100
AcDbEntity
  8
MST_1_1
 62
   137
  6
CONTINUOUS
100
AcDbLine
 10
244.0389121
 20
-233.30597832
 30
2500.0
 11
244.0389121
 21
-229.60312118
 31
2500.0
  0
LINE
  5
3F3
100
AcDbEntity
  8
MST_1_1
 62
   137
  6
CONTINUOUS
100
AcDbLine
 10
243.68376741
 20
-228.45454975
 30
2500.0
 11
243.68376741
 21
-234.45454975
 31
2500.0
  0
LINE
  5
3F4
100
AcDbEntity
  8
MST_1_1
 62
   137
  6
CONTINUOUS
100
AcDbLine
 10
58.0389121
 20
-235.40191817
 30
2500.0
 11
58.0389121
 21
-227.50718133
 31
2500.0
  0
LINE
  5
3F5
100
AcDbEntity
  8
MST_1_1
 62
   137
  6
CONTINUOUS
100
AcDbLine
 10
243.68376741
 20
-234.45454975
 30
2500.0
 11
58.40270541
 21
-234.45454975
 31
2500.0
  0
LINE
  5
3F6
100
AcDbEntity
  8
MST_1_1
 62
   137
  6
CONTINUOUS
100
AcDbLine
 10
58.40270541
 20
-234.45454975
 30
2500.0
 11
58.0389121
 21
-235.40191817
 31
2500.0
  0
LINE
  5
3F7
100
AcDbEntity
  8
MST_1_1
 62
   137
  6
CONTINUOUS
100
AcDbLine
 10
56.21224083
 20
-235.40191817
 30
2500.0
 11
58.0389121
 21
-235.40191817
 31
2500.0
  0
LINE
  5
3F8
100
AcDbEntity
  8
MST_1_1
 62
   137
  6
CONTINUOUS
100
AcDbLine
 10
52.21224083
 20
-235.40191817
 30
2500.0
 11
55.32779145
 21
-235.40191817
 31
2500.0
  0
LINE
  5
3F9
100
AcDbEntity
  8
MST_1_1
 62
   137
  6
CONTINUOUS
100
AcDbLine
 10
48.21224083
 20
-235.40191817
 30
2500.0
 11
51.32779145
 21
-235.40191817
 31
2500.0
  0
LINE
  5
3FA
100
AcDbEntity
  8
MST_1_1
 62
   137
  6
CONTINUOUS
100
AcDbLine
 10
44.21224083
 20
-235.40191817
 30
2500.0
 11
47.32779145
 21
-235.40191817
 31
2500.0
  0
LINE
  5
3FB
100
AcDbEntity
  8
MST_1_1
 62
   137
  6
CONTINUOUS
100
AcDbLine
 10
40.21224083
 20
-235.40191817
 30
2500.0
 11
43.32779145
 21
-235.40191817
 31
2500.0
  0
LINE
  5
3FC
100
AcDbEntity
  8
MST_1_1
 62
   137
  6
CONTINUOUS
100
AcDbLine
 10
36.0389121
 20
-235.40191817
 30
2500.0
 11
39.32779145
 21
-235.40191817
 31
2500.0
  0
LINE
  5
3FD
100
AcDbEntity
  8
MST_1_1
 62
   137
  6
CONTINUOUS
100
AcDbLine
 10
58.0389121
 20
-227.50718133
 30
2500.0
 11
58.40270541
 21
-228.45454975
 31
2500.0
  0
LWPOLYLINE
  5
3FE
100
AcDbEntity
  8
MST_1_1
 62
   137
  6
CONTINUOUS
100
AcDbPolyline
 90
        5
 70
     0
 43
0.0
 38
2500.0
 10
252.85420974
 20
-229.60312118
 10
253.1201087
 20
-228.45454954
 10
255.36820279
 20
-233.30597832
 10
255.10230373
 20
-234.45454975
 10
252.85420974
 20
-229.60312118
  0
LWPOLYLINE
  5
3FF
100
AcDbEntity
  8
MST_1_1
 62
   137
  6
CONTINUOUS
100
AcDbPolyline
 90
        5
 70
     0
 43
0.0
 38
2500.0
 10
256.28278116
 20
-229.60312118
 10
256.54868013
 20
-228.45454954
 10
258.79677422
 20
-233.30597832
 10
258.53087516
 20
-234.45454975
 10
256.28278116
 20
-229.60312118
  0
LWPOLYLINE
  5
400
100
AcDbEntity
  8
MST_1_1
 62
   137
  6
CONTINUOUS
100
AcDbPolyline
 90
        5
 70
     0
 43
0.0
 38
2500.0
 10
259.71135259
 20
-229.60312118
 10
259.97725156
 20
-228.45454954
 10
262.22534565
 20
-233.30597832
 10
261.95944659
 20
-234.45454975
 10
259.71135259
 20
-229.60312118
  0
LWPOLYLINE
  5
401
100
AcDbEntity
  8
MST_1_1
 62
   137
  6
CONTINUOUS
100
AcDbPolyline
 90
        5
 70
     0
 43
0.0
 38
2500.0
 10
263.13992402
 20
-229.60312118
 10
263.40582299
 20
-228.45454954
 10
265.65391708
 20
-233.30597832
 10
265.38801801
 20
-234.45454975
 10
263.13992402
 20
-229.60312118
  0
LWPOLYLINE
  5
402
100
AcDbEntity
  8
MST_1_1
 62
   137
  6
CONTINUOUS
100
AcDbPolyline
 90
        5
 70
     0
 43
0.0
 38
2500.0
 10
266.56849545
 20
-229.60312118
 10
266.83439442
 20
-228.45454954
 10
269.08248851
 20
-233.30597832
 10
268.81658944
 20
-234.45454975
 10
266.56849545
 20
-229.60312118
  0
LWPOLYLINE
  5
403
100
AcDbEntity
  8
MST_1_1
 62
   137
  6
CONTINUOUS
100
AcDbPolyline
 90
        5
 70
     0
 43
0.0
 38
2500.0
 10
269.99706688
 20
-229.60312118
 10
270.26296585
 20
-228.45454954
 10
272.51105994
 20
-233.30597832
 10
272.24516087
 20
-234.45454975
 10
269.99706688
 20
-229.60312118
  0
LWPOLYLINE
  5
404
100
AcDbEntity
  8
MST_1_1
 62
   137
  6
CONTINUOUS
100
AcDbPolyline
 90
        5
 70
     0
 43
0.0
 38
2500.0
 10
273.42563831
 20
-229.60312118
 10
273.69153728
 20
-228.45454954
 10
275.89911838
 20
-233.21855054
 10
275.63321931
 20
-234.36712197
 10
273.42563831
 20
-229.60312118
  0
LWPOLYLINE
  5
405
100
AcDbEntity
  8
MST_1_1
 62
   137
  6
CONTINUOUS
100
AcDbPolyline
 90
        5
 70
     0
 43
0.0
 38
2500.0
 10
276.84288801
 20
-229.78290382
 10
277.06322468
 20
-228.83114215
 10
278.92610351
 20
-232.85126925
 10
278.70576676
 20
-233.80303075
 10
276.84288801
 20
-229.78290382
  0
LINE
  5
406
100
AcDbEntity
  8
MST_1_1
 62
   137
  6
CONTINUOUS
100
AcDbLine
 10
244.0389121
 20
-233.30597832
 30
2500.0
 11
247.7129266
 21
-233.30597832
 31
2500.0
  0
LINE
  5
407
100
AcDbEntity
  8
MST_1_1
 62
   137
  6
CONTINUOUS
100
AcDbLine
 10
251.93963137
 20
-233.30597832
 30
2500.0
 11
254.57006946
 21
-233.30597832
 31
2500.0
  0
LINE
  5
408
100
AcDbEntity
  8
MST_1_1
 62
   137
  6
CONTINUOUS
100
AcDbLine
 10
252.85420974
 20
-229.60312118
 30
2500.0
 11
250.22377164
 21
-229.60312118
 31
2500.0
  0
LWPOLYLINE
  5
409
100
AcDbEntity
  8
MST_1_1
 62
   137
  6
CONTINUOUS
100
AcDbPolyline
 90
        5
 70
     0
 43
0.0
 38
2500.0
 10
249.42563831
 20
-229.60312118
 10
249.69153728
 20
-228.45454954
 10
251.93963137
 20
-233.30597832
 10
251.6737323
 20
-234.45454975
 10
249.42563831
 20
-229.60312118
  0
LINE
  5
40A
100
AcDbEntity
  8
MST_1_1
 62
   137
  6
CONTINUOUS
100
AcDbLine
 10
248.51105994
 20
-233.30597832
 30
2500.0
 11
251.14149803
 21
-233.30597832
 31
2500.0
  0
LINE
  5
40B
100
AcDbEntity
  8
MST_1_1
 62
   137
  6
CONTINUOUS
100
AcDbLine
 10
249.42563831
 20
-229.60312118
 30
2500.0
 11
246.79520021
 21
-229.60312118
 31
2500.0
  0
LWPOLYLINE
  5
40C
100
AcDbEntity
  8
MST_1_1
 62
   137
  6
CONTINUOUS
100
AcDbPolyline
 90
        5
 70
     0
 43
0.0
 38
2500.0
 10
245.99706688
 20
-229.60312118
 10
246.26296585
 20
-228.45454954
 10
248.51105994
 20
-233.30597832
 10
248.24516087
 20
-234.45454975
 10
245.99706688
 20
-229.60312118
  0
LINE
  5
40D
100
AcDbEntity
  8
MST_1_1
 62
   137
  6
CONTINUOUS
100
AcDbLine
 10
245.99706688
 20
-229.60312118
 30
2500.0
 11
244.0389121
 21
-229.60312118
 31
2500.0
  0
LWPOLYLINE
  5
40E
100
AcDbEntity
  8
MST_1_1
 62
     1
  6
BORDER
100
AcDbPolyline
 90
        3
 70
     0
 43
0.0
 10
336.0389121
 20
-261.45454975
 10
36.0389121
 20
-261.45454975
 10
31.0389121
 20
-261.45454975
  0
LINE
  5
40F
100
AcDbEntity
  8
MST_1_1
 62
   137
  6
CONTINUOUS
100
AcDbLine
 10
58.40270541
 20
-258.45454975
 30
2500.0
 11
293.68376741
 21
-258.45454975
 31
2500.0
  0
LINE
  5
410
100
AcDbEntity
  8
MST_1_1
 62
   137
  6
CONTINUOUS
100
AcDbLine
 10
322.51105994
 20
-263.30597832
 30
2500.0
 11
324.227285
 21
-263.29839642
 31
2500.0
  0
LINE
  5
411
100
AcDbEntity
  8
MST_1_1
 62
   137
  6
CONTINUOUS
100
AcDbLine
 10
323.42563831
 20
-259.60312118
 30
2500.0
 11
320.79520021
 21
-259.60312118
 31
2500.0
  0
ARC
  5
412
100
AcDbEntity
  8
MST_1_1
 62
   137
  6
CONTINUOUS
100
AcDbCircle
 10
323.71536163
 20
-287.33708881
 30
2500.0
 40
27.73111126
100
AcDbArc
 50
83.52438041
 51
88.94224525
  0
LWPOLYLINE
  5
413
100
AcDbEntity
  8
MST_1_1
 62
   137
  6
CONTINUOUS
100
AcDbPolyline
 90
        3
 70
     0
 43
0.0
 38
2500.0
 10
336.0389121
 20
-261.45454975
 10
329.73880471
 20
-260.20627463
 42
0.01723995
 10
327.53687247
 20
-259.85328288
  0
ARC
  5
414
100
AcDbEntity
  8
MST_1_1
 62
   137
  6
CONTINUOUS
100
AcDbCircle
 10
323.52055492
 20
-230.95814455
 30
2500.0
 40
32.34797303
100
AcDbArc
 50
271.25189288
 51
272.83975061
  0
LWPOLYLINE
  5
415
100
AcDbEntity
  8
MST_1_1
 62
   137
  6
CONTINUOUS
100
AcDbPolyline
 90
        3
 70
     0
 43
0.0
 38
2500.0
 10
336.0389121
 20
-261.45454975
 10
329.73880471
 20
-262.70282487
 42
-0.0063851
 10
328.92610351
 20
-262.85126925
  0
ARC
  5
416
100
AcDbEntity
  8
MST_1_1
 62
   137
  6
CONTINUOUS
100
AcDbCircle
 10
323.52055492
 20
-230.95814455
 30
2500.0
 40
32.34797303
100
AcDbArc
 50
274.21680449
 51
278.51502477
  0
LINE
  5
417
100
AcDbEntity
  8
MST_1_1
 62
   137
  6
CONTINUOUS
100
AcDbLine
 10
319.08248851
 20
-263.30597832
 30
2500.0
 11
321.7129266
 21
-263.30597832
 31
2500.0
  0
LINE
  5
418
100
AcDbEntity
  8
MST_1_1
 62
   137
  6
CONTINUOUS
100
AcDbLine
 10
319.99706688
 20
-259.60312118
 30
2500.0
 11
317.36662878
 21
-259.60312118
 31
2500.0
  0
LINE
  5
419
100
AcDbEntity
  8
MST_1_1
 62
   137
  6
CONTINUOUS
100
AcDbLine
 10
315.65391708
 20
-263.30597832
 30
2500.0
 11
318.28435518
 21
-263.30597832
 31
2500.0
  0
LINE
  5
41A
100
AcDbEntity
  8
MST_1_1
 62
   137
  6
CONTINUOUS
100
AcDbLine
 10
316.56849545
 20
-259.60312118
 30
2500.0
 11
313.93805735
 21
-259.60312118
 31
2500.0
  0
LINE
  5
41B
100
AcDbEntity
  8
MST_1_1
 62
   137
  6
CONTINUOUS
100
AcDbLine
 10
312.22534565
 20
-263.30597832
 30
2500.0
 11
314.85578375
 21
-263.30597832
 31
2500.0
  0
LINE
  5
41C
100
AcDbEntity
  8
MST_1_1
 62
   137
  6
CONTINUOUS
100
AcDbLine
 10
313.13992402
 20
-259.60312118
 30
2500.0
 11
310.50948592
 21
-259.60312118
 31
2500.0
  0
LINE
  5
41D
100
AcDbEntity
  8
MST_1_1
 62
   137
  6
CONTINUOUS
100
AcDbLine
 10
308.79677422
 20
-263.30597832
 30
2500.0
 11
311.42721232
 21
-263.30597832
 31
2500.0
  0
LINE
  5
41E
100
AcDbEntity
  8
MST_1_1
 62
   137
  6
CONTINUOUS
100
AcDbLine
 10
309.71135259
 20
-259.60312118
 30
2500.0
 11
307.0809145
 21
-259.60312118
 31
2500.0
  0
LINE
  5
41F
100
AcDbEntity
  8
MST_1_1
 62
   137
  6
CONTINUOUS
100
AcDbLine
 10
305.36820279
 20
-263.30597832
 30
2500.0
 11
307.99864089
 21
-263.30597832
 31
2500.0
  0
LINE
  5
420
100
AcDbEntity
  8
MST_1_1
 62
   137
  6
CONTINUOUS
100
AcDbLine
 10
306.28278116
 20
-259.60312118
 30
2500.0
 11
303.65234307
 21
-259.60312118
 31
2500.0
  0
LINE
  5
421
100
AcDbEntity
  8
MST_1_1
 62
   137
  6
CONTINUOUS
100
AcDbLine
 10
294.0389121
 20
-259.60312118
 30
2500.0
 11
293.68376741
 21
-258.45454975
 31
2500.0
  0
LINE
  5
422
100
AcDbEntity
  8
MST_1_1
 62
   137
  6
CONTINUOUS
100
AcDbLine
 10
294.0389121
 20
-263.30597832
 30
2500.0
 11
293.68376741
 21
-264.45454975
 31
2500.0
  0
LINE
  5
423
100
AcDbEntity
  8
MST_1_1
 62
   137
  6
CONTINUOUS
100
AcDbLine
 10
36.0389121
 20
-257.50718133
 30
2500.0
 11
36.8533415
 21
-257.50718133
 31
2500.0
  0
3DFACE
  5
424
100
AcDbEntity
  8
MST_1_1
 62
   137
  6
CONTINUOUS
100
AcDbFace
 70
     0
 10
36.8533415
 20
-257.50718133
 30
2500.0
 11
39.65771812
 21
-266.45454975
 31
2500.0
 12
40.21224083
 22
-265.40191817
 32
2500.0
 13
37.40786421
 23
-256.45454975
 33
2500.0
  0
LINE
  5
425
100
AcDbEntity
  8
MST_1_1
 62
   137
  6
CONTINUOUS
100
AcDbLine
 10
37.40786421
 20
-256.45454975
 30
2500.0
 11
39.65771812
 21
-266.45454975
 31
2500.0
  0
3DFACE
  5
426
100
AcDbEntity
  8
MST_1_1
 62
   137
  6
CONTINUOUS
100
AcDbFace
 70
     0
 10
40.8533415
 20
-257.50718133
 30
2500.0
 11
43.65771812
 21
-266.45454975
 31
2500.0
 12
44.21224083
 22
-265.40191817
 32
2500.0
 13
41.40786421
 23
-256.45454975
 33
2500.0
  0
LINE
  5
427
100
AcDbEntity
  8
MST_1_1
 62
   137
  6
CONTINUOUS
100
AcDbLine
 10
41.40786421
 20
-256.45454975
 30
2500.0
 11
43.65771812
 21
-266.45454975
 31
2500.0
  0
3DFACE
  5
428
100
AcDbEntity
  8
MST_1_1
 62
   137
  6
CONTINUOUS
100
AcDbFace
 70
     0
 10
44.8533415
 20
-257.50718133
 30
2500.0
 11
47.65771812
 21
-266.45454975
 31
2500.0
 12
48.21224083
 22
-265.40191817
 32
2500.0
 13
45.40786421
 23
-256.45454975
 33
2500.0
  0
LINE
  5
429
100
AcDbEntity
  8
MST_1_1
 62
   137
  6
CONTINUOUS
100
AcDbLine
 10
45.40786421
 20
-256.45454975
 30
2500.0
 11
47.65771812
 21
-266.45454975
 31
2500.0
  0
3DFACE
  5
42A
100
AcDbEntity
  8
MST_1_1
 62
   137
  6
CONTINUOUS
100
AcDbFace
 70
     0
 10
48.8533415
 20
-257.50718133
 30
2500.0
 11
51.65771812
 21
-266.45454975
 31
2500.0
 12
52.21224083
 22
-265.40191817
 32
2500.0
 13
49.40786421
 23
-256.45454975
 33
2500.0
  0
LINE
  5
42B
100
AcDbEntity
  8
MST_1_1
 62
   137
  6
CONTINUOUS
100
AcDbLine
 10
49.40786421
 20
-256.45454975
 30
2500.0
 11
51.65771812
 21
-266.45454975
 31
2500.0
  0
3DFACE
  5
42C
100
AcDbEntity
  8
MST_1_1
 62
   137
  6
CONTINUOUS
100
AcDbFace
 70
     0
 10
52.8533415
 20
-257.50718133
 30
2500.0
 11
55.65771812
 21
-266.45454975
 31
2500.0
 12
56.21224083
 22
-265.40191817
 32
2500.0
 13
53.40786421
 23
-256.45454975
 33
2500.0
  0
LINE
  5
42D
100
AcDbEntity
  8
MST_1_1
 62
   137
  6
CONTINUOUS
100
AcDbLine
 10
53.40786421
 20
-256.45454975
 30
2500.0
 11
55.65771812
 21
-266.45454975
 31
2500.0
  0
3DFACE
  5
42E
100
AcDbEntity
  8
MST_1_1
 62
   137
  6
CONTINUOUS
100
AcDbFace
 70
     0
 10
57.40786421
 20
-256.45454975
 30
2500.0
 11
56.8533415
 21
-257.50718133
 31
2500.0
 12
57.19907055
 22
-258.61023048
 32
2500.0
 13
57.73779087
 23
-257.50718133
 33
2500.0
  0
LINE
  5
42F
100
AcDbEntity
  8
MST_1_1
 62
   137
  6
CONTINUOUS
100
AcDbLine
 10
57.40786421
 20
-256.45454975
 30
2500.0
 11
57.67405285
 21
-257.6376872
 31
2500.0
  0
LINE
  5
430
100
AcDbEntity
  8
MST_1_1
 62
   137
  6
CONTINUOUS
100
AcDbLine
 10
40.8533415
 20
-257.50718133
 30
2500.0
 11
37.73779087
 21
-257.50718133
 31
2500.0
  0
LINE
  5
431
100
AcDbEntity
  8
MST_1_1
 62
   137
  6
CONTINUOUS
100
AcDbLine
 10
44.8533415
 20
-257.50718133
 30
2500.0
 11
41.73779087
 21
-257.50718133
 31
2500.0
  0
LINE
  5
432
100
AcDbEntity
  8
MST_1_1
 62
   137
  6
CONTINUOUS
100
AcDbLine
 10
48.8533415
 20
-257.50718133
 30
2500.0
 11
45.73779087
 21
-257.50718133
 31
2500.0
  0
LINE
  5
433
100
AcDbEntity
  8
MST_1_1
 62
   137
  6
CONTINUOUS
100
AcDbLine
 10
52.8533415
 20
-257.50718133
 30
2500.0
 11
49.73779087
 21
-257.50718133
 31
2500.0
  0
LINE
  5
434
100
AcDbEntity
  8
MST_1_1
 62
   137
  6
CONTINUOUS
100
AcDbLine
 10
56.8533415
 20
-257.50718133
 30
2500.0
 11
53.73779087
 21
-257.50718133
 31
2500.0
  0
LINE
  5
435
100
AcDbEntity
  8
MST_1_1
 62
   137
  6
CONTINUOUS
100
AcDbLine
 10
58.0389121
 20
-257.50718133
 30
2500.0
 11
57.73779087
 21
-257.50718133
 31
2500.0
  0
LINE
  5
436
100
AcDbEntity
  8
MST_1_1
 62
   137
  6
CONTINUOUS
100
AcDbLine
 10
36.0389121
 20
-265.40191817
 30
2500.0
 11
36.0389121
 21
-257.50718133
 31
2500.0
  0
LINE
  5
437
100
AcDbEntity
  8
MST_1_1
 62
   137
  6
CONTINUOUS
100
AcDbLine
 10
58.40270541
 20
-264.45454975
 30
2500.0
 11
58.40270541
 21
-258.45454975
 31
2500.0
  0
LINE
  5
438
100
AcDbEntity
  8
MST_1_1
 62
   137
  6
CONTINUOUS
100
AcDbLine
 10
294.0389121
 20
-263.30597832
 30
2500.0
 11
294.0389121
 21
-259.60312118
 31
2500.0
  0
LINE
  5
439
100
AcDbEntity
  8
MST_1_1
 62
   137
  6
CONTINUOUS
100
AcDbLine
 10
293.68376741
 20
-258.45454975
 30
2500.0
 11
293.68376741
 21
-264.45454975
 31
2500.0
  0
LINE
  5
43A
100
AcDbEntity
  8
MST_1_1
 62
   137
  6
CONTINUOUS
100
AcDbLine
 10
58.0389121
 20
-265.40191817
 30
2500.0
 11
58.0389121
 21
-257.50718133
 31
2500.0
  0
LINE
  5
43B
100
AcDbEntity
  8
MST_1_1
 62
   137
  6
CONTINUOUS
100
AcDbLine
 10
293.68376741
 20
-264.45454975
 30
2500.0
 11
58.40270541
 21
-264.45454975
 31
2500.0
  0
LINE
  5
43C
100
AcDbEntity
  8
MST_1_1
 62
   137
  6
CONTINUOUS
100
AcDbLine
 10
58.40270541
 20
-264.45454975
 30
2500.0
 11
58.0389121
 21
-265.40191817
 31
2500.0
  0
LINE
  5
43D
100
AcDbEntity
  8
MST_1_1
 62
   137
  6
CONTINUOUS
100
AcDbLine
 10
56.21224083
 20
-265.40191817
 30
2500.0
 11
58.0389121
 21
-265.40191817
 31
2500.0
  0
LINE
  5
43E
100
AcDbEntity
  8
MST_1_1
 62
   137
  6
CONTINUOUS
100
AcDbLine
 10
52.21224083
 20
-265.40191817
 30
2500.0
 11
55.32779145
 21
-265.40191817
 31
2500.0
  0
LINE
  5
43F
100
AcDbEntity
  8
MST_1_1
 62
   137
  6
CONTINUOUS
100
AcDbLine
 10
48.21224083
 20
-265.40191817
 30
2500.0
 11
51.32779145
 21
-265.40191817
 31
2500.0
  0
LINE
  5
440
100
AcDbEntity
  8
MST_1_1
 62
   137
  6
CONTINUOUS
100
AcDbLine
 10
44.21224083
 20
-265.40191817
 30
2500.0
 11
47.32779145
 21
-265.40191817
 31
2500.0
  0
LINE
  5
441
100
AcDbEntity
  8
MST_1_1
 62
   137
  6
CONTINUOUS
100
AcDbLine
 10
40.21224083
 20
-265.40191817
 30
2500.0
 11
43.32779145
 21
-265.40191817
 31
2500.0
  0
LINE
  5
442
100
AcDbEntity
  8
MST_1_1
 62
   137
  6
CONTINUOUS
100
AcDbLine
 10
36.0389121
 20
-265.40191817
 30
2500.0
 11
39.32779145
 21
-265.40191817
 31
2500.0
  0
LINE
  5
443
100
AcDbEntity
  8
MST_1_1
 62
   137
  6
CONTINUOUS
100
AcDbLine
 10
58.0389121
 20
-257.50718133
 30
2500.0
 11
58.40270541
 21
-258.45454975
 31
2500.0
  0
LWPOLYLINE
  5
444
100
AcDbEntity
  8
MST_1_1
 62
   137
  6
CONTINUOUS
100
AcDbPolyline
 90
        5
 70
     0
 43
0.0
 38
2500.0
 10
302.85420974
 20
-259.60312118
 10
303.1201087
 20
-258.45454954
 10
305.36820279
 20
-263.30597832
 10
305.10230373
 20
-264.45454975
 10
302.85420974
 20
-259.60312118
  0
LWPOLYLINE
  5
445
100
AcDbEntity
  8
MST_1_1
 62
   137
  6
CONTINUOUS
100
AcDbPolyline
 90
        5
 70
     0
 43
0.0
 38
2500.0
 10
306.28278116
 20
-259.60312118
 10
306.54868013
 20
-258.45454954
 10
308.79677422
 20
-263.30597832
 10
308.53087516
 20
-264.45454975
 10
306.28278116
 20
-259.60312118
  0
LWPOLYLINE
  5
446
100
AcDbEntity
  8
MST_1_1
 62
   137
  6
CONTINUOUS
100
AcDbPolyline
 90
        5
 70
     0
 43
0.0
 38
2500.0
 10
309.71135259
 20
-259.60312118
 10
309.97725156
 20
-258.45454954
 10
312.22534565
 20
-263.30597832
 10
311.95944659
 20
-264.45454975
 10
309.71135259
 20
-259.60312118
  0
LWPOLYLINE
  5
447
100
AcDbEntity
  8
MST_1_1
 62
   137
  6
CONTINUOUS
100
AcDbPolyline
 90
        5
 70
     0
 43
0.0
 38
2500.0
 10
313.13992402
 20
-259.60312118
 10
313.40582299
 20
-258.45454954
 10
315.65391708
 20
-263.30597832
 10
315.38801801
 20
-264.45454975
 10
313.13992402
 20
-259.60312118
  0
LWPOLYLINE
  5
448
100
AcDbEntity
  8
MST_1_1
 62
   137
  6
CONTINUOUS
100
AcDbPolyline
 90
        5
 70
     0
 43
0.0
 38
2500.0
 10
316.56849545
 20
-259.60312118
 10
316.83439442
 20
-258.45454954
 10
319.08248851
 20
-263.30597832
 10
318.81658944
 20
-264.45454975
 10
316.56849545
 20
-259.60312118
  0
LWPOLYLINE
  5
449
100
AcDbEntity
  8
MST_1_1
 62
   137
  6
CONTINUOUS
100
AcDbPolyline
 90
        5
 70
     0
 43
0.0
 38
2500.0
 10
319.99706688
 20
-259.60312118
 10
320.26296585
 20
-258.45454954
 10
322.51105994
 20
-263.30597832
 10
322.24516087
 20
-264.45454975
 10
319.99706688
 20
-259.60312118
  0
LWPOLYLINE
  5
44A
100
AcDbEntity
  8
MST_1_1
 62
   137
  6
CONTINUOUS
100
AcDbPolyline
 90
        5
 70
     0
 43
0.0
 38
2500.0
 10
323.42563831
 20
-259.60312118
 10
323.69153728
 20
-258.45454954
 10
325.89911838
 20
-263.21855054
 10
325.63321931
 20
-264.36712197
 10
323.42563831
 20
-259.60312118
  0
LWPOLYLINE
  5
44B
100
AcDbEntity
  8
MST_1_1
 62
   137
  6
CONTINUOUS
100
AcDbPolyline
 90
        5
 70
     0
 43
0.0
 38
2500.0
 10
326.84288801
 20
-259.78290382
 10
327.06322468
 20
-258.83114215
 10
328.92610351
 20
-262.85126925
 10
328.70576676
 20
-263.80303075
 10
326.84288801
 20
-259.78290382
  0
LINE
  5
44C
100
AcDbEntity
  8
MST_1_1
 62
   137
  6
CONTINUOUS
100
AcDbLine
 10
294.0389121
 20
-263.30597832
 30
2500.0
 11
297.7129266
 21
-263.30597832
 31
2500.0
  0
LINE
  5
44D
100
AcDbEntity
  8
MST_1_1
 62
   137
  6
CONTINUOUS
100
AcDbLine
 10
301.93963137
 20
-263.30597832
 30
2500.0
 11
304.57006946
 21
-263.30597832
 31
2500.0
  0
LINE
  5
44E
100
AcDbEntity
  8
MST_1_1
 62
   137
  6
CONTINUOUS
100
AcDbLine
 10
302.85420974
 20
-259.60312118
 30
2500.0
 11
300.22377164
 21
-259.60312118
 31
2500.0
  0
LWPOLYLINE
  5
44F
100
AcDbEntity
  8
MST_1_1
 62
   137
  6
CONTINUOUS
100
AcDbPolyline
 90
        5
 70
     0
 43
0.0
 38
2500.0
 10
299.42563831
 20
-259.60312118
 10
299.69153728
 20
-258.45454954
 10
301.93963137
 20
-263.30597832
 10
301.6737323
 20
-264.45454975
 10
299.42563831
 20
-259.60312118
  0
LINE
  5
450
100
AcDbEntity
  8
MST_1_1
 62
   137
  6
CONTINUOUS
100
AcDbLine
 10
298.51105994
 20
-263.30597832
 30
2500.0
 11
301.14149803
 21
-263.30597832
 31
2500.0
  0
LINE
  5
451
100
AcDbEntity
  8
MST_1_1
 62
   137
  6
CONTINUOUS
100
AcDbLine
 10
299.42563831
 20
-259.60312118
 30
2500.0
 11
296.79520021
 21
-259.60312118
 31
2500.0
  0
LWPOLYLINE
  5
452
100
AcDbEntity
  8
MST_1_1
 62
   137
  6
CONTINUOUS
100
AcDbPolyline
 90
        5
 70
     0
 43
0.0
 38
2500.0
 10
295.99706688
 20
-259.60312118
 10
296.26296585
 20
-258.45454954
 10
298.51105994
 20
-263.30597832
 10
298.24516087
 20
-264.45454975
 10
295.99706688
 20
-259.60312118
  0
LINE
  5
453
100
AcDbEntity
  8
MST_1_1
 62
   137
  6
CONTINUOUS
100
AcDbLine
 10
295.99706688
 20
-259.60312118
 30
2500.0
 11
294.0389121
 21
-259.60312118
 31
2500.0
  0
LWPOLYLINE
  5
454
100
AcDbEntity
  8
MST_1_1
 62
     1
  6
BORDER
100
AcDbPolyline
 90
        3
 70
     0
 43
0.0
 10
386.0389121
 20
-291.45454975
 10
36.0389121
 20
-291.45454975
 10
31.0389121
 20
-291.45454975
  0
LINE
  5
455
100
AcDbEntity
  8
MST_1_1
 62
   137
  6
CONTINUOUS
100
AcDbLine
 10
58.40270541
 20
-288.45454975
 30
2500.0
 11
343.68376741
 21
-288.45454975
 31
2500.0
  0
LINE
  5
456
100
AcDbEntity
  8
MST_1_1
 62
   137
  6
CONTINUOUS
100
AcDbLine
 10
372.51105994
 20
-293.30597832
 30
2500.0
 11
374.227285
 21
-293.29839642
 31
2500.0
  0
LINE
  5
457
100
AcDbEntity
  8
MST_1_1
 62
   137
  6
CONTINUOUS
100
AcDbLine
 10
373.42563831
 20
-289.60312118
 30
2500.0
 11
370.79520021
 21
-289.60312118
 31
2500.0
  0
ARC
  5
458
100
AcDbEntity
  8
MST_1_1
 62
   137
  6
CONTINUOUS
100
AcDbCircle
 10
373.71536163
 20
-317.33708881
 30
2500.0
 40
27.73111126
100
AcDbArc
 50
83.52438041
 51
88.94224525
  0
LWPOLYLINE
  5
459
100
AcDbEntity
  8
MST_1_1
 62
   137
  6
CONTINUOUS
100
AcDbPolyline
 90
        3
 70
     0
 43
0.0
 38
2500.0
 10
386.0389121
 20
-291.45454975
 10
379.73880471
 20
-290.20627463
 42
0.01723995
 10
377.53687247
 20
-289.85328288
  0
ARC
  5
45A
100
AcDbEntity
  8
MST_1_1
 62
   137
  6
CONTINUOUS
100
AcDbCircle
 10
373.52055492
 20
-260.95814455
 30
2500.0
 40
32.34797303
100
AcDbArc
 50
271.25189288
 51
272.83975061
  0
LWPOLYLINE
  5
45B
100
AcDbEntity
  8
MST_1_1
 62
   137
  6
CONTINUOUS
100
AcDbPolyline
 90
        3
 70
     0
 43
0.0
 38
2500.0
 10
386.0389121
 20
-291.45454975
 10
379.73880471
 20
-292.70282487
 42
-0.0063851
 10
378.92610351
 20
-292.85126925
  0
ARC
  5
45C
100
AcDbEntity
  8
MST_1_1
 62
   137
  6
CONTINUOUS
100
AcDbCircle
 10
373.52055492
 20
-260.95814455
 30
2500.0
 40
32.34797303
100
AcDbArc
 50
274.21680449
 51
278.51502477
  0
LINE
  5
45D
100
AcDbEntity
  8
MST_1_1
 62
   137
  6
CONTINUOUS
100
AcDbLine
 10
369.08248851
 20
-293.30597832
 30
2500.0
 11
371.7129266
 21
-293.30597832
 31
2500.0
  0
LINE
  5
45E
100
AcDbEntity
  8
MST_1_1
 62
   137
  6
CONTINUOUS
100
AcDbLine
 10
369.99706688
 20
-289.60312118
 30
2500.0
 11
367.36662878
 21
-289.60312118
 31
2500.0
  0
LINE
  5
45F
100
AcDbEntity
  8
MST_1_1
 62
   137
  6
CONTINUOUS
100
AcDbLine
 10
365.65391708
 20
-293.30597832
 30
2500.0
 11
368.28435518
 21
-293.30597832
 31
2500.0
  0
LINE
  5
460
100
AcDbEntity
  8
MST_1_1
 62
   137
  6
CONTINUOUS
100
AcDbLine
 10
366.56849545
 20
-289.60312118
 30
2500.0
 11
363.93805735
 21
-289.60312118
 31
2500.0
  0
LINE
  5
461
100
AcDbEntity
  8
MST_1_1
 62
   137
  6
CONTINUOUS
100
AcDbLine
 10
362.22534565
 20
-293.30597832
 30
2500.0
 11
364.85578375
 21
-293.30597832
 31
2500.0
  0
LINE
  5
462
100
AcDbEntity
  8
MST_1_1
 62
   137
  6
CONTINUOUS
100
AcDbLine
 10
363.13992402
 20
-289.60312118
 30
2500.0
 11
360.50948592
 21
-289.60312118
 31
2500.0
  0
LINE
  5
463
100
AcDbEntity
  8
MST_1_1
 62
   137
  6
CONTINUOUS
100
AcDbLine
 10
358.79677422
 20
-293.30597832
 30
2500.0
 11
361.42721232
 21
-293.30597832
 31
2500.0
  0
LINE
  5
464
100
AcDbEntity
  8
MST_1_1
 62
   137
  6
CONTINUOUS
100
AcDbLine
 10
359.71135259
 20
-289.60312118
 30
2500.0
 11
357.0809145
 21
-289.60312118
 31
2500.0
  0
LINE
  5
465
100
AcDbEntity
  8
MST_1_1
 62
   137
  6
CONTINUOUS
100
AcDbLine
 10
355.36820279
 20
-293.30597832
 30
2500.0
 11
357.99864089
 21
-293.30597832
 31
2500.0
  0
LINE
  5
466
100
AcDbEntity
  8
MST_1_1
 62
   137
  6
CONTINUOUS
100
AcDbLine
 10
356.28278116
 20
-289.60312118
 30
2500.0
 11
353.65234307
 21
-289.60312118
 31
2500.0
  0
LINE
  5
467
100
AcDbEntity
  8
MST_1_1
 62
   137
  6
CONTINUOUS
100
AcDbLine
 10
344.0389121
 20
-289.60312118
 30
2500.0
 11
343.68376741
 21
-288.45454975
 31
2500.0
  0
LINE
  5
468
100
AcDbEntity
  8
MST_1_1
 62
   137
  6
CONTINUOUS
100
AcDbLine
 10
344.0389121
 20
-293.30597832
 30
2500.0
 11
343.68376741
 21
-294.45454975
 31
2500.0
  0
LINE
  5
469
100
AcDbEntity
  8
MST_1_1
 62
   137
  6
CONTINUOUS
100
AcDbLine
 10
36.0389121
 20
-287.50718133
 30
2500.0
 11
36.8533415
 21
-287.50718133
 31
2500.0
  0
3DFACE
  5
46A
100
AcDbEntity
  8
MST_1_1
 62
   137
  6
CONTINUOUS
100
AcDbFace
 70
     0
 10
36.8533415
 20
-287.50718133
 30
2500.0
 11
39.65771812
 21
-296.45454975
 31
2500.0
 12
40.21224083
 22
-295.40191817
 32
2500.0
 13
37.40786421
 23
-286.45454975
 33
2500.0
  0
LINE
  5
46B
100
AcDbEntity
  8
MST_1_1
 62
   137
  6
CONTINUOUS
100
AcDbLine
 10
37.40786421
 20
-286.45454975
 30
2500.0
 11
39.65771812
 21
-296.45454975
 31
2500.0
  0
3DFACE
  5
46C
100
AcDbEntity
  8
MST_1_1
 62
   137
  6
CONTINUOUS
100
AcDbFace
 70
     0
 10
40.8533415
 20
-287.50718133
 30
2500.0
 11
43.65771812
 21
-296.45454975
 31
2500.0
 12
44.21224083
 22
-295.40191817
 32
2500.0
 13
41.40786421
 23
-286.45454975
 33
2500.0
  0
LINE
  5
46D
100
AcDbEntity
  8
MST_1_1
 62
   137
  6
CONTINUOUS
100
AcDbLine
 10
41.40786421
 20
-286.45454975
 30
2500.0
 11
43.65771812
 21
-296.45454975
 31
2500.0
  0
3DFACE
  5
46E
100
AcDbEntity
  8
MST_1_1
 62
   137
  6
CONTINUOUS
100
AcDbFace
 70
     0
 10
44.8533415
 20
-287.50718133
 30
2500.0
 11
47.65771812
 21
-296.45454975
 31
2500.0
 12
48.21224083
 22
-295.40191817
 32
2500.0
 13
45.40786421
 23
-286.45454975
 33
2500.0
  0
LINE
  5
46F
100
AcDbEntity
  8
MST_1_1
 62
   137
  6
CONTINUOUS
100
AcDbLine
 10
45.40786421
 20
-286.45454975
 30
2500.0
 11
47.65771812
 21
-296.45454975
 31
2500.0
  0
3DFACE
  5
470
100
AcDbEntity
  8
MST_1_1
 62
   137
  6
CONTINUOUS
100
AcDbFace
 70
     0
 10
48.8533415
 20
-287.50718133
 30
2500.0
 11
51.65771812
 21
-296.45454975
 31
2500.0
 12
52.21224083
 22
-295.40191817
 32
2500.0
 13
49.40786421
 23
-286.45454975
 33
2500.0
  0
LINE
  5
471
100
AcDbEntity
  8
MST_1_1
 62
   137
  6
CONTINUOUS
100
AcDbLine
 10
49.40786421
 20
-286.45454975
 30
2500.0
 11
51.65771812
 21
-296.45454975
 31
2500.0
  0
3DFACE
  5
472
100
AcDbEntity
  8
MST_1_1
 62
   137
  6
CONTINUOUS
100
AcDbFace
 70
     0
 10
52.8533415
 20
-287.50718133
 30
2500.0
 11
55.65771812
 21
-296.45454975
 31
2500.0
 12
56.21224083
 22
-295.40191817
 32
2500.0
 13
53.40786421
 23
-286.45454975
 33
2500.0
  0
LINE
  5
473
100
AcDbEntity
  8
MST_1_1
 62
   137
  6
CONTINUOUS
100
AcDbLine
 10
53.40786421
 20
-286.45454975
 30
2500.0
 11
55.65771812
 21
-296.45454975
 31
2500.0
  0
3DFACE
  5
474
100
AcDbEntity
  8
MST_1_1
 62
   137
  6
CONTINUOUS
100
AcDbFace
 70
     0
 10
57.40786421
 20
-286.45454975
 30
2500.0
 11
56.8533415
 21
-287.50718133
 31
2500.0
 12
57.19907055
 22
-288.61023048
 32
2500.0
 13
57.73779087
 23
-287.50718133
 33
2500.0
  0
LINE
  5
475
100
AcDbEntity
  8
MST_1_1
 62
   137
  6
CONTINUOUS
100
AcDbLine
 10
57.40786421
 20
-286.45454975
 30
2500.0
 11
57.67405285
 21
-287.6376872
 31
2500.0
  0
LINE
  5
476
100
AcDbEntity
  8
MST_1_1
 62
   137
  6
CONTINUOUS
100
AcDbLine
 10
40.8533415
 20
-287.50718133
 30
2500.0
 11
37.73779087
 21
-287.50718133
 31
2500.0
  0
LINE
  5
477
100
AcDbEntity
  8
MST_1_1
 62
   137
  6
CONTINUOUS
100
AcDbLine
 10
44.8533415
 20
-287.50718133
 30
2500.0
 11
41.73779087
 21
-287.50718133
 31
2500.0
  0
LINE
  5
478
100
AcDbEntity
  8
MST_1_1
 62
   137
  6
CONTINUOUS
100
AcDbLine
 10
48.8533415
 20
-287.50718133
 30
2500.0
 11
45.73779087
 21
-287.50718133
 31
2500.0
  0
LINE
  5
479
100
AcDbEntity
  8
MST_1_1
 62
   137
  6
CONTINUOUS
100
AcDbLine
 10
52.8533415
 20
-287.50718133
 30
2500.0
 11
49.73779087
 21
-287.50718133
 31
2500.0
  0
LINE
  5
47A
100
AcDbEntity
  8
MST_1_1
 62
   137
  6
CONTINUOUS
100
AcDbLine
 10
56.8533415
 20
-287.50718133
 30
2500.0
 11
53.73779087
 21
-287.50718133
 31
2500.0
  0
LINE
  5
47B
100
AcDbEntity
  8
MST_1_1
 62
   137
  6
CONTINUOUS
100
AcDbLine
 10
58.0389121
 20
-287.50718133
 30
2500.0
 11
57.73779087
 21
-287.50718133
 31
2500.0
  0
LINE
  5
47C
100
AcDbEntity
  8
MST_1_1
 62
   137
  6
CONTINUOUS
100
AcDbLine
 10
36.0389121
 20
-295.40191817
 30
2500.0
 11
36.0389121
 21
-287.50718133
 31
2500.0
  0
LINE
  5
47D
100
AcDbEntity
  8
MST_1_1
 62
   137
  6
CONTINUOUS
100
AcDbLine
 10
58.40270541
 20
-294.45454975
 30
2500.0
 11
58.40270541
 21
-288.45454975
 31
2500.0
  0
LINE
  5
47E
100
AcDbEntity
  8
MST_1_1
 62
   137
  6
CONTINUOUS
100
AcDbLine
 10
344.0389121
 20
-293.30597832
 30
2500.0
 11
344.0389121
 21
-289.60312118
 31
2500.0
  0
LINE
  5
47F
100
AcDbEntity
  8
MST_1_1
 62
   137
  6
CONTINUOUS
100
AcDbLine
 10
343.68376741
 20
-288.45454975
 30
2500.0
 11
343.68376741
 21
-294.45454975
 31
2500.0
  0
LINE
  5
480
100
AcDbEntity
  8
MST_1_1
 62
   137
  6
CONTINUOUS
100
AcDbLine
 10
58.0389121
 20
-295.40191817
 30
2500.0
 11
58.0389121
 21
-287.50718133
 31
2500.0
  0
LINE
  5
481
100
AcDbEntity
  8
MST_1_1
 62
   137
  6
CONTINUOUS
100
AcDbLine
 10
343.68376741
 20
-294.45454975
 30
2500.0
 11
58.40270541
 21
-294.45454975
 31
2500.0
  0
LINE
  5
482
100
AcDbEntity
  8
MST_1_1
 62
   137
  6
CONTINUOUS
100
AcDbLine
 10
58.40270541
 20
-294.45454975
 30
2500.0
 11
58.0389121
 21
-295.40191817
 31
2500.0
  0
LINE
  5
483
100
AcDbEntity
  8
MST_1_1
 62
   137
  6
CONTINUOUS
100
AcDbLine
 10
56.21224083
 20
-295.40191817
 30
2500.0
 11
58.0389121
 21
-295.40191817
 31
2500.0
  0
LINE
  5
484
100
AcDbEntity
  8
MST_1_1
 62
   137
  6
CONTINUOUS
100
AcDbLine
 10
52.21224083
 20
-295.40191817
 30
2500.0
 11
55.32779145
 21
-295.40191817
 31
2500.0
  0
LINE
  5
485
100
AcDbEntity
  8
MST_1_1
 62
   137
  6
CONTINUOUS
100
AcDbLine
 10
48.21224083
 20
-295.40191817
 30
2500.0
 11
51.32779145
 21
-295.40191817
 31
2500.0
  0
LINE
  5
486
100
AcDbEntity
  8
MST_1_1
 62
   137
  6
CONTINUOUS
100
AcDbLine
 10
44.21224083
 20
-295.40191817
 30
2500.0
 11
47.32779145
 21
-295.40191817
 31
2500.0
  0
LINE
  5
487
100
AcDbEntity
  8
MST_1_1
 62
   137
  6
CONTINUOUS
100
AcDbLine
 10
40.21224083
 20
-295.40191817
 30
2500.0
 11
43.32779145
 21
-295.40191817
 31
2500.0
  0
LINE
  5
488
100
AcDbEntity
  8
MST_1_1
 62
   137
  6
CONTINUOUS
100
AcDbLine
 10
36.0389121
 20
-295.40191817
 30
2500.0
 11
39.32779145
 21
-295.40191817
 31
2500.0
  0
LINE
  5
489
100
AcDbEntity
  8
MST_1_1
 62
   137
  6
CONTINUOUS
100
AcDbLine
 10
58.0389121
 20
-287.50718133
 30
2500.0
 11
58.40270541
 21
-288.45454975
 31
2500.0
  0
LWPOLYLINE
  5
48A
100
AcDbEntity
  8
MST_1_1
 62
   137
  6
CONTINUOUS
100
AcDbPolyline
 90
        5
 70
     0
 43
0.0
 38
2500.0
 10
352.85420974
 20
-289.60312118
 10
353.1201087
 20
-288.45454954
 10
355.36820279
 20
-293.30597832
 10
355.10230373
 20
-294.45454975
 10
352.85420974
 20
-289.60312118
  0
LWPOLYLINE
  5
48B
100
AcDbEntity
  8
MST_1_1
 62
   137
  6
CONTINUOUS
100
AcDbPolyline
 90
        5
 70
     0
 43
0.0
 38
2500.0
 10
356.28278116
 20
-289.60312118
 10
356.54868013
 20
-288.45454954
 10
358.79677422
 20
-293.30597832
 10
358.53087516
 20
-294.45454975
 10
356.28278116
 20
-289.60312118
  0
LWPOLYLINE
  5
48C
100
AcDbEntity
  8
MST_1_1
 62
   137
  6
CONTINUOUS
100
AcDbPolyline
 90
        5
 70
     0
 43
0.0
 38
2500.0
 10
359.71135259
 20
-289.60312118
 10
359.97725156
 20
-288.45454954
 10
362.22534565
 20
-293.30597832
 10
361.95944659
 20
-294.45454975
 10
359.71135259
 20
-289.60312118
  0
LWPOLYLINE
  5
48D
100
AcDbEntity
  8
MST_1_1
 62
   137
  6
CONTINUOUS
100
AcDbPolyline
 90
        5
 70
     0
 43
0.0
 38
2500.0
 10
363.13992402
 20
-289.60312118
 10
363.40582299
 20
-288.45454954
 10
365.65391708
 20
-293.30597832
 10
365.38801801
 20
-294.45454975
 10
363.13992402
 20
-289.60312118
  0
LWPOLYLINE
  5
48E
100
AcDbEntity
  8
MST_1_1
 62
   137
  6
CONTINUOUS
100
AcDbPolyline
 90
        5
 70
     0
 43
0.0
 38
2500.0
 10
366.56849545
 20
-289.60312118
 10
366.83439442
 20
-288.45454954
 10
369.08248851
 20
-293.30597832
 10
368.81658944
 20
-294.45454975
 10
366.56849545
 20
-289.60312118
  0
LWPOLYLINE
  5
48F
100
AcDbEntity
  8
MST_1_1
 62
   137
  6
CONTINUOUS
100
AcDbPolyline
 90
        5
 70
     0
 43
0.0
 38
2500.0
 10
369.99706688
 20
-289.60312118
 10
370.26296585
 20
-288.45454954
 10
372.51105994
 20
-293.30597832
 10
372.24516087
 20
-294.45454975
 10
369.99706688
 20
-289.60312118
  0
LWPOLYLINE
  5
490
100
AcDbEntity
  8
MST_1_1
 62
   137
  6
CONTINUOUS
100
AcDbPolyline
 90
        5
 70
     0
 43
0.0
 38
2500.0
 10
373.42563831
 20
-289.60312118
 10
373.69153728
 20
-288.45454954
 10
375.89911838
 20
-293.21855054
 10
375.63321931
 20
-294.36712197
 10
373.42563831
 20
-289.60312118
  0
LWPOLYLINE
  5
491
100
AcDbEntity
  8
MST_1_1
 62
   137
  6
CONTINUOUS
100
AcDbPolyline
 90
        5
 70
     0
 43
0.0
 38
2500.0
 10
376.84288801
 20
-289.78290382
 10
377.06322468
 20
-288.83114215
 10
378.92610351
 20
-292.85126925
 10
378.70576676
 20
-293.80303075
 10
376.84288801
 20
-289.78290382
  0
LINE
  5
492
100
AcDbEntity
  8
MST_1_1
 62
   137
  6
CONTINUOUS
100
AcDbLine
 10
344.0389121
 20
-293.30597832
 30
2500.0
 11
347.7129266
 21
-293.30597832
 31
2500.0
  0
LINE
  5
493
100
AcDbEntity
  8
MST_1_1
 62
   137
  6
CONTINUOUS
100
AcDbLine
 10
351.93963137
 20
-293.30597832
 30
2500.0
 11
354.57006946
 21
-293.30597832
 31
2500.0
  0
LINE
  5
494
100
AcDbEntity
  8
MST_1_1
 62
   137
  6
CONTINUOUS
100
AcDbLine
 10
352.85420974
 20
-289.60312118
 30
2500.0
 11
350.22377164
 21
-289.60312118
 31
2500.0
  0
LWPOLYLINE
  5
495
100
AcDbEntity
  8
MST_1_1
 62
   137
  6
CONTINUOUS
100
AcDbPolyline
 90
        5
 70
     0
 43
0.0
 38
2500.0
 10
349.42563831
 20
-289.60312118
 10
349.69153728
 20
-288.45454954
 10
351.93963137
 20
-293.30597832
 10
351.6737323
 20
-294.45454975
 10
349.42563831
 20
-289.60312118
  0
LINE
  5
496
100
AcDbEntity
  8
MST_1_1
 62
   137
  6
CONTINUOUS
100
AcDbLine
 10
348.51105994
 20
-293.30597832
 30
2500.0
 11
351.14149803
 21
-293.30597832
 31
2500.0
  0
LINE
  5
497
100
AcDbEntity
  8
MST_1_1
 62
   137
  6
CONTINUOUS
100
AcDbLine
 10
349.42563831
 20
-289.60312118
 30
2500.0
 11
346.79520021
 21
-289.60312118
 31
2500.0
  0
LWPOLYLINE
  5
498
100
AcDbEntity
  8
MST_1_1
 62
   137
  6
CONTINUOUS
100
AcDbPolyline
 90
        5
 70
     0
 43
0.0
 38
2500.0
 10
345.99706688
 20
-289.60312118
 10
346.26296585
 20
-288.45454954
 10
348.51105994
 20
-293.30597832
 10
348.24516087
 20
-294.45454975
 10
345.99706688
 20
-289.60312118
  0
LINE
  5
499
100
AcDbEntity
  8
MST_1_1
 62
   137
  6
CONTINUOUS
100
AcDbLine
 10
345.99706688
 20
-289.60312118
 30
2500.0
 11
344.0389121
 21
-289.60312118
 31
2500.0
  0
LWPOLYLINE
  5
49A
100
AcDbEntity
  8
MST_1_1
 62
     1
  6
BORDER
100
AcDbPolyline
 90
        3
 70
     0
 43
0.0
 10
436.0389121
 20
-321.45454975
 10
36.0389121
 20
-321.45454975
 10
31.0389121
 20
-321.45454975
  0
LINE
  5
49B
100
AcDbEntity
  8
MST_1_1
 62
   137
  6
CONTINUOUS
100
AcDbLine
 10
58.40270541
 20
-318.45454975
 30
2500.0
 11
393.68376741
 21
-318.45454975
 31
2500.0
  0
LINE
  5
49C
100
AcDbEntity
  8
MST_1_1
 62
   137
  6
CONTINUOUS
100
AcDbLine
 10
422.51105994
 20
-323.30597832
 30
2500.0
 11
424.227285
 21
-323.29839642
 31
2500.0
  0
LINE
  5
49D
100
AcDbEntity
  8
MST_1_1
 62
   137
  6
CONTINUOUS
100
AcDbLine
 10
423.42563831
 20
-319.60312118
 30
2500.0
 11
420.79520021
 21
-319.60312118
 31
2500.0
  0
ARC
  5
49E
100
AcDbEntity
  8
MST_1_1
 62
   137
  6
CONTINUOUS
100
AcDbCircle
 10
423.71536163
 20
-347.33708881
 30
2500.0
 40
27.73111126
100
AcDbArc
 50
83.52438041
 51
88.94224525
  0
LWPOLYLINE
  5
49F
100
AcDbEntity
  8
MST_1_1
 62
   137
  6
CONTINUOUS
100
AcDbPolyline
 90
        3
 70
     0
 43
0.0
 38
2500.0
 10
436.0389121
 20
-321.45454975
 10
429.73880471
 20
-320.20627463
 42
0.01723995
 10
427.53687247
 20
-319.85328288
  0
ARC
  5
4A0
100
AcDbEntity
  8
MST_1_1
 62
   137
  6
CONTINUOUS
100
AcDbCircle
 10
423.52055492
 20
-290.95814455
 30
2500.0
 40
32.34797303
100
AcDbArc
 50
271.25189288
 51
272.83975061
  0
LWPOLYLINE
  5
4A1
100
AcDbEntity
  8
MST_1_1
 62
   137
  6
CONTINUOUS
100
AcDbPolyline
 90
        3
 70
     0
 43
0.0
 38
2500.0
 10
436.0389121
 20
-321.45454975
 10
429.73880471
 20
-322.70282487
 42
-0.0063851
 10
428.92610351
 20
-322.85126925
  0
ARC
  5
4A2
100
AcDbEntity
  8
MST_1_1
 62
   137
  6
CONTINUOUS
100
AcDbCircle
 10
423.52055492
 20
-290.95814455
 30
2500.0
 40
32.34797303
100
AcDbArc
 50
274.21680449
 51
278.51502477
  0
LINE
  5
4A3
100
AcDbEntity
  8
MST_1_1
 62
   137
  6
CONTINUOUS
100
AcDbLine
 10
419.08248851
 20
-323.30597832
 30
2500.0
 11
421.7129266
 21
-323.30597832
 31
2500.0
  0
LINE
  5
4A4
100
AcDbEntity
  8
MST_1_1
 62
   137
  6
CONTINUOUS
100
AcDbLine
 10
419.99706688
 20
-319.60312118
 30
2500.0
 11
417.36662878
 21
-319.60312118
 31
2500.0
  0
LINE
  5
4A5
100
AcDbEntity
  8
MST_1_1
 62
   137
  6
CONTINUOUS
100
AcDbLine
 10
415.65391708
 20
-323.30597832
 30
2500.0
 11
418.28435518
 21
-323.30597832
 31
2500.0
  0
LINE
  5
4A6
100
AcDbEntity
  8
MST_1_1
 62
   137
  6
CONTINUOUS
100
AcDbLine
 10
416.56849545
 20
-319.60312118
 30
2500.0
 11
413.93805735
 21
-319.60312118
 31
2500.0
  0
LINE
  5
4A7
100
AcDbEntity
  8
MST_1_1
 62
   137
  6
CONTINUOUS
100
AcDbLine
 10
412.22534565
 20
-323.30597832
 30
2500.0
 11
414.85578375
 21
-323.30597832
 31
2500.0
  0
LINE
  5
4A8
100
AcDbEntity
  8
MST_1_1
 62
   137
  6
CONTINUOUS
100
AcDbLine
 10
413.13992402
 20
-319.60312118
 30
2500.0
 11
410.50948592
 21
-319.60312118
 31
2500.0
  0
LINE
  5
4A9
100
AcDbEntity
  8
MST_1_1
 62
   137
  6
CONTINUOUS
100
AcDbLine
 10
408.79677422
 20
-323.30597832
 30
2500.0
 11
411.42721232
 21
-323.30597832
 31
2500.0
  0
LINE
  5
4AA
100
AcDbEntity
  8
MST_1_1
 62
   137
  6
CONTINUOUS
100
AcDbLine
 10
409.71135259
 20
-319.60312118
 30
2500.0
 11
407.0809145
 21
-319.60312118
 31
2500.0
  0
LINE
  5
4AB
100
AcDbEntity
  8
MST_1_1
 62
   137
  6
CONTINUOUS
100
AcDbLine
 10
405.36820279
 20
-323.30597832
 30
2500.0
 11
407.99864089
 21
-323.30597832
 31
2500.0
  0
LINE
  5
4AC
100
AcDbEntity
  8
MST_1_1
 62
   137
  6
CONTINUOUS
100
AcDbLine
 10
406.28278116
 20
-319.60312118
 30
2500.0
 11
403.65234307
 21
-319.60312118
 31
2500.0
  0
LINE
  5
4AD
100
AcDbEntity
  8
MST_1_1
 62
   137
  6
CONTINUOUS
100
AcDbLine
 10
394.0389121
 20
-319.60312118
 30
2500.0
 11
393.68376741
 21
-318.45454975
 31
2500.0
  0
LINE
  5
4AE
100
AcDbEntity
  8
MST_1_1
 62
   137
  6
CONTINUOUS
100
AcDbLine
 10
394.0389121
 20
-323.30597832
 30
2500.0
 11
393.68376741
 21
-324.45454975
 31
2500.0
  0
LINE
  5
4AF
100
AcDbEntity
  8
MST_1_1
 62
   137
  6
CONTINUOUS
100
AcDbLine
 10
36.0389121
 20
-317.50718133
 30
2500.0
 11
36.8533415
 21
-317.50718133
 31
2500.0
  0
3DFACE
  5
4B0
100
AcDbEntity
  8
MST_1_1
 62
   137
  6
CONTINUOUS
100
AcDbFace
 70
     0
 10
36.8533415
 20
-317.50718133
 30
2500.0
 11
39.65771812
 21
-326.45454975
 31
2500.0
 12
40.21224083
 22
-325.40191817
 32
2500.0
 13
37.40786421
 23
-316.45454975
 33
2500.0
  0
LINE
  5
4B1
100
AcDbEntity
  8
MST_1_1
 62
   137
  6
CONTINUOUS
100
AcDbLine
 10
37.40786421
 20
-316.45454975
 30
2500.0
 11
39.65771812
 21
-326.45454975
 31
2500.0
  0
3DFACE
  5
4B2
100
AcDbEntity
  8
MST_1_1
 62
   137
  6
CONTINUOUS
100
AcDbFace
 70
     0
 10
40.8533415
 20
-317.50718133
 30
2500.0
 11
43.65771812
 21
-326.45454975
 31
2500.0
 12
44.21224083
 22
-325.40191817
 32
2500.0
 13
41.40786421
 23
-316.45454975
 33
2500.0
  0
LINE
  5
4B3
100
AcDbEntity
  8
MST_1_1
 62
   137
  6
CONTINUOUS
100
AcDbLine
 10
41.40786421
 20
-316.45454975
 30
2500.0
 11
43.65771812
 21
-326.45454975
 31
2500.0
  0
3DFACE
  5
4B4
100
AcDbEntity
  8
MST_1_1
 62
   137
  6
CONTINUOUS
100
AcDbFace
 70
     0
 10
44.8533415
 20
-317.50718133
 30
2500.0
 11
47.65771812
 21
-326.45454975
 31
2500.0
 12
48.21224083
 22
-325.40191817
 32
2500.0
 13
45.40786421
 23
-316.45454975
 33
2500.0
  0
LINE
  5
4B5
100
AcDbEntity
  8
MST_1_1
 62
   137
  6
CONTINUOUS
100
AcDbLine
 10
45.40786421
 20
-316.45454975
 30
2500.0
 11
47.65771812
 21
-326.45454975
 31
2500.0
  0
3DFACE
  5
4B6
100
AcDbEntity
  8
MST_1_1
 62
   137
  6
CONTINUOUS
100
AcDbFace
 70
     0
 10
48.8533415
 20
-317.50718133
 30
2500.0
 11
51.65771812
 21
-326.45454975
 31
2500.0
 12
52.21224083
 22
-325.40191817
 32
2500.0
 13
49.40786421
 23
-316.45454975
 33
2500.0
  0
LINE
  5
4B7
100
AcDbEntity
  8
MST_1_1
 62
   137
  6
CONTINUOUS
100
AcDbLine
 10
49.40786421
 20
-316.45454975
 30
2500.0
 11
51.65771812
 21
-326.45454975
 31
2500.0
  0
3DFACE
  5
4B8
100
AcDbEntity
  8
MST_1_1
 62
   137
  6
CONTINUOUS
100
AcDbFace
 70
     0
 10
52.8533415
 20
-317.50718133
 30
2500.0
 11
55.65771812
 21
-326.45454975
 31
2500.0
 12
56.21224083
 22
-325.40191817
 32
2500.0
 13
53.40786421
 23
-316.45454975
 33
2500.0
  0
LINE
  5
4B9
100
AcDbEntity
  8
MST_1_1
 62
   137
  6
CONTINUOUS
100
AcDbLine
 10
53.40786421
 20
-316.45454975
 30
2500.0
 11
55.65771812
 21
-326.45454975
 31
2500.0
  0
3DFACE
  5
4BA
100
AcDbEntity
  8
MST_1_1
 62
   137
  6
CONTINUOUS
100
AcDbFace
 70
     0
 10
57.40786421
 20
-316.45454975
 30
2500.0
 11
56.8533415
 21
-317.50718133
 31
2500.0
 12
57.19907055
 22
-318.61023048
 32
2500.0
 13
57.73779087
 23
-317.50718133
 33
2500.0
  0
LINE
  5
4BB
100
AcDbEntity
  8
MST_1_1
 62
   137
  6
CONTINUOUS
100
AcDbLine
 10
57.40786421
 20
-316.45454975
 30
2500.0
 11
57.67405285
 21
-317.6376872
 31
2500.0
  0
LINE
  5
4BC
100
AcDbEntity
  8
MST_1_1
 62
   137
  6
CONTINUOUS
100
AcDbLine
 10
40.8533415
 20
-317.50718133
 30
2500.0
 11
37.73779087
 21
-317.50718133
 31
2500.0
  0
LINE
  5
4BD
100
AcDbEntity
  8
MST_1_1
 62
   137
  6
CONTINUOUS
100
AcDbLine
 10
44.8533415
 20
-317.50718133
 30
2500.0
 11
41.73779087
 21
-317.50718133
 31
2500.0
  0
LINE
  5
4BE
100
AcDbEntity
  8
MST_1_1
 62
   137
  6
CONTINUOUS
100
AcDbLine
 10
48.8533415
 20
-317.50718133
 30
2500.0
 11
45.73779087
 21
-317.50718133
 31
2500.0
  0
LINE
  5
4BF
100
AcDbEntity
  8
MST_1_1
 62
   137
  6
CONTINUOUS
100
AcDbLine
 10
52.8533415
 20
-317.50718133
 30
2500.0
 11
49.73779087
 21
-317.50718133
 31
2500.0
  0
LINE
  5
4C0
100
AcDbEntity
  8
MST_1_1
 62
   137
  6
CONTINUOUS
100
AcDbLine
 10
56.8533415
 20
-317.50718133
 30
2500.0
 11
53.73779087
 21
-317.50718133
 31
2500.0
  0
LINE
  5
4C1
100
AcDbEntity
  8
MST_1_1
 62
   137
  6
CONTINUOUS
100
AcDbLine
 10
58.0389121
 20
-317.50718133
 30
2500.0
 11
57.73779087
 21
-317.50718133
 31
2500.0
  0
LINE
  5
4C2
100
AcDbEntity
  8
MST_1_1
 62
   137
  6
CONTINUOUS
100
AcDbLine
 10
36.0389121
 20
-325.40191817
 30
2500.0
 11
36.0389121
 21
-317.50718133
 31
2500.0
  0
LINE
  5
4C3
100
AcDbEntity
  8
MST_1_1
 62
   137
  6
CONTINUOUS
100
AcDbLine
 10
58.40270541
 20
-324.45454975
 30
2500.0
 11
58.40270541
 21
-318.45454975
 31
2500.0
  0
LINE
  5
4C4
100
AcDbEntity
  8
MST_1_1
 62
   137
  6
CONTINUOUS
100
AcDbLine
 10
394.0389121
 20
-323.30597832
 30
2500.0
 11
394.0389121
 21
-319.60312118
 31
2500.0
  0
LINE
  5
4C5
100
AcDbEntity
  8
MST_1_1
 62
   137
  6
CONTINUOUS
100
AcDbLine
 10
393.68376741
 20
-318.45454975
 30
2500.0
 11
393.68376741
 21
-324.45454975
 31
2500.0
  0
LINE
  5
4C6
100
AcDbEntity
  8
MST_1_1
 62
   137
  6
CONTINUOUS
100
AcDbLine
 10
58.0389121
 20
-325.40191817
 30
2500.0
 11
58.0389121
 21
-317.50718133
 31
2500.0
  0
LINE
  5
4C7
100
AcDbEntity
  8
MST_1_1
 62
   137
  6
CONTINUOUS
100
AcDbLine
 10
393.68376741
 20
-324.45454975
 30
2500.0
 11
58.40270541
 21
-324.45454975
 31
2500.0
  0
LINE
  5
4C8
100
AcDbEntity
  8
MST_1_1
 62
   137
  6
CONTINUOUS
100
AcDbLine
 10
58.40270541
 20
-324.45454975
 30
2500.0
 11
58.0389121
 21
-325.40191817
 31
2500.0
  0
LINE
  5
4C9
100
AcDbEntity
  8
MST_1_1
 62
   137
  6
CONTINUOUS
100
AcDbLine
 10
56.21224083
 20
-325.40191817
 30
2500.0
 11
58.0389121
 21
-325.40191817
 31
2500.0
  0
LINE
  5
4CA
100
AcDbEntity
  8
MST_1_1
 62
   137
  6
CONTINUOUS
100
AcDbLine
 10
52.21224083
 20
-325.40191817
 30
2500.0
 11
55.32779145
 21
-325.40191817
 31
2500.0
  0
LINE
  5
4CB
100
AcDbEntity
  8
MST_1_1
 62
   137
  6
CONTINUOUS
100
AcDbLine
 10
48.21224083
 20
-325.40191817
 30
2500.0
 11
51.32779145
 21
-325.40191817
 31
2500.0
  0
LINE
  5
4CC
100
AcDbEntity
  8
MST_1_1
 62
   137
  6
CONTINUOUS
100
AcDbLine
 10
44.21224083
 20
-325.40191817
 30
2500.0
 11
47.32779145
 21
-325.40191817
 31
2500.0
  0
LINE
  5
4CD
100
AcDbEntity
  8
MST_1_1
 62
   137
  6
CONTINUOUS
100
AcDbLine
 10
40.21224083
 20
-325.40191817
 30
2500.0
 11
43.32779145
 21
-325.40191817
 31
2500.0
  0
LINE
  5
4CE
100
AcDbEntity
  8
MST_1_1
 62
   137
  6
CONTINUOUS
100
AcDbLine
 10
36.0389121
 20
-325.40191817
 30
2500.0
 11
39.32779145
 21
-325.40191817
 31
2500.0
  0
LINE
  5
4CF
100
AcDbEntity
  8
MST_1_1
 62
   137
  6
CONTINUOUS
100
AcDbLine
 10
58.0389121
 20
-317.50718133
 30
2500.0
 11
58.40270541
 21
-318.45454975
 31
2500.0
  0
LWPOLYLINE
  5
4D0
100
AcDbEntity
  8
MST_1_1
 62
   137
  6
CONTINUOUS
100
AcDbPolyline
 90
        5
 70
     0
 43
0.0
 38
2500.0
 10
402.85420974
 20
-319.60312118
 10
403.1201087
 20
-318.45454954
 10
405.36820279
 20
-323.30597832
 10
405.10230373
 20
-324.45454975
 10
402.85420974
 20
-319.60312118
  0
LWPOLYLINE
  5
4D1
100
AcDbEntity
  8
MST_1_1
 62
   137
  6
CONTINUOUS
100
AcDbPolyline
 90
        5
 70
     0
 43
0.0
 38
2500.0
 10
406.28278116
 20
-319.60312118
 10
406.54868013
 20
-318.45454954
 10
408.79677422
 20
-323.30597832
 10
408.53087516
 20
-324.45454975
 10
406.28278116
 20
-319.60312118
  0
LWPOLYLINE
  5
4D2
100
AcDbEntity
  8
MST_1_1
 62
   137
  6
CONTINUOUS
100
AcDbPolyline
 90
        5
 70
     0
 43
0.0
 38
2500.0
 10
409.71135259
 20
-319.60312118
 10
409.97725156
 20
-318.45454954
 10
412.22534565
 20
-323.30597832
 10
411.95944659
 20
-324.45454975
 10
409.71135259
 20
-319.60312118
  0
LWPOLYLINE
  5
4D3
100
AcDbEntity
  8
MST_1_1
 62
   137
  6
CONTINUOUS
100
AcDbPolyline
 90
        5
 70
     0
 43
0.0
 38
2500.0
 10
413.13992402
 20
-319.60312118
 10
413.40582299
 20
-318.45454954
 10
415.65391708
 20
-323.30597832
 10
415.38801801
 20
-324.45454975
 10
413.13992402
 20
-319.60312118
  0
LWPOLYLINE
  5
4D4
100
AcDbEntity
  8
MST_1_1
 62
   137
  6
CONTINUOUS
100
AcDbPolyline
 90
        5
 70
     0
 43
0.0
 38
2500.0
 10
416.56849545
 20
-319.60312118
 10
416.83439442
 20
-318.45454954
 10
419.08248851
 20
-323.30597832
 10
418.81658944
 20
-324.45454975
 10
416.56849545
 20
-319.60312118
  0
LWPOLYLINE
  5
4D5
100
AcDbEntity
  8
MST_1_1
 62
   137
  6
CONTINUOUS
100
AcDbPolyline
 90
        5
 70
     0
 43
0.0
 38
2500.0
 10
419.99706688
 20
-319.60312118
 10
420.26296585
 20
-318.45454954
 10
422.51105994
 20
-323.30597832
 10
422.24516087
 20
-324.45454975
 10
419.99706688
 20
-319.60312118
  0
LWPOLYLINE
  5
4D6
100
AcDbEntity
  8
MST_1_1
 62
   137
  6
CONTINUOUS
100
AcDbPolyline
 90
        5
 70
     0
 43
0.0
 38
2500.0
 10
423.42563831
 20
-319.60312118
 10
423.69153728
 20
-318.45454954
 10
425.89911838
 20
-323.21855054
 10
425.63321931
 20
-324.36712197
 10
423.42563831
 20
-319.60312118
  0
LWPOLYLINE
  5
4D7
100
AcDbEntity
  8
MST_1_1
 62
   137
  6
CONTINUOUS
100
AcDbPolyline
 90
        5
 70
     0
 43
0.0
 38
2500.0
 10
426.84288801
 20
-319.78290382
 10
427.06322468
 20
-318.83114215
 10
428.92610351
 20
-322.85126925
 10
428.70576676
 20
-323.80303075
 10
426.84288801
 20
-319.78290382
  0
LINE
  5
4D8
100
AcDbEntity
  8
MST_1_1
 62
   137
  6
CONTINUOUS
100
AcDbLine
 10
394.0389121
 20
-323.30597832
 30
2500.0
 11
397.7129266
 21
-323.30597832
 31
2500.0
  0
LINE
  5
4D9
100
AcDbEntity
  8
MST_1_1
 62
   137
  6
CONTINUOUS
100
AcDbLine
 10
401.93963137
 20
-323.30597832
 30
2500.0
 11
404.57006946
 21
-323.30597832
 31
2500.0
  0
LINE
  5
4DA
100
AcDbEntity
  8
MST_1_1
 62
   137
  6
CONTINUOUS
100
AcDbLine
 10
402.85420974
 20
-319.60312118
 30
2500.0
 11
400.22377164
 21
-319.60312118
 31
2500.0
  0
LWPOLYLINE
  5
4DB
100
AcDbEntity
  8
MST_1_1
 62
   137
  6
CONTINUOUS
100
AcDbPolyline
 90
        5
 70
     0
 43
0.0
 38
2500.0
 10
399.42563831
 20
-319.60312118
 10
399.69153728
 20
-318.45454954
 10
401.93963137
 20
-323.30597832
 10
401.6737323
 20
-324.45454975
 10
399.42563831
 20
-319.60312118
  0
LINE
  5
4DC
100
AcDbEntity
  8
MST_1_1
 62
   137
  6
CONTINUOUS
100
AcDbLine
 10
398.51105994
 20
-323.30597832
 30
2500.0
 11
401.14149803
 21
-323.30597832
 31
2500.0
  0
LINE
  5
4DD
100
AcDbEntity
  8
MST_1_1
 62
   137
  6
CONTINUOUS
100
AcDbLine
 10
399.42563831
 20
-319.60312118
 30
2500.0
 11
396.79520021
 21
-319.60312118
 31
2500.0
  0
LWPOLYLINE
  5
4DE
100
AcDbEntity
  8
MST_1_1
 62
   137
  6
CONTINUOUS
100
AcDbPolyline
 90
        5
 70
     0
 43
0.0
 38
2500.0
 10
395.99706688
 20
-319.60312118
 10
396.26296585
 20
-318.45454954
 10
398.51105994
 20
-323.30597832
 10
398.24516087
 20
-324.45454975
 10
395.99706688
 20
-319.60312118
  0
LINE
  5
4DF
100
AcDbEntity
  8
MST_1_1
 62
   137
  6
CONTINUOUS
100
AcDbLine
 10
395.99706688
 20
-319.60312118
 30
2500.0
 11
394.0389121
 21
-319.60312118
 31
2500.0
  0
LWPOLYLINE
  5
4E0
100
AcDbEntity
  8
MST_1_1
 62
     1
  6
BORDER
100
AcDbPolyline
 90
        3
 70
     0
 43
0.0
 10
486.0389121
 20
-351.45454975
 10
36.0389121
 20
-351.45454975
 10
31.0389121
 20
-351.45454975
  0
LINE
  5
4E1
100
AcDbEntity
  8
MST_1_1
 62
   137
  6
CONTINUOUS
100
AcDbLine
 10
58.40270541
 20
-348.45454975
 30
2500.0
 11
443.68376741
 21
-348.45454975
 31
2500.0
  0
LINE
  5
4E2
100
AcDbEntity
  8
MST_1_1
 62
   137
  6
CONTINUOUS
100
AcDbLine
 10
472.51105994
 20
-353.30597832
 30
2500.0
 11
474.227285
 21
-353.29839642
 31
2500.0
  0
LINE
  5
4E3
100
AcDbEntity
  8
MST_1_1
 62
   137
  6
CONTINUOUS
100
AcDbLine
 10
473.42563831
 20
-349.60312118
 30
2500.0
 11
470.79520021
 21
-349.60312118
 31
2500.0
  0
ARC
  5
4E4
100
AcDbEntity
  8
MST_1_1
 62
   137
  6
CONTINUOUS
100
AcDbCircle
 10
473.71536163
 20
-377.33708881
 30
2500.0
 40
27.73111126
100
AcDbArc
 50
83.52438041
 51
88.94224525
  0
LWPOLYLINE
  5
4E5
100
AcDbEntity
  8
MST_1_1
 62
   137
  6
CONTINUOUS
100
AcDbPolyline
 90
        3
 70
     0
 43
0.0
 38
2500.0
 10
486.0389121
 20
-351.45454975
 10
479.73880471
 20
-350.20627463
 42
0.01723995
 10
477.53687247
 20
-349.85328288
  0
ARC
  5
4E6
100
AcDbEntity
  8
MST_1_1
 62
   137
  6
CONTINUOUS
100
AcDbCircle
 10
473.52055492
 20
-320.95814455
 30
2500.0
 40
32.34797303
100
AcDbArc
 50
271.25189288
 51
272.83975061
  0
LWPOLYLINE
  5
4E7
100
AcDbEntity
  8
MST_1_1
 62
   137
  6
CONTINUOUS
100
AcDbPolyline
 90
        3
 70
     0
 43
0.0
 38
2500.0
 10
486.0389121
 20
-351.45454975
 10
479.73880471
 20
-352.70282487
 42
-0.0063851
 10
478.92610351
 20
-352.85126925
  0
ARC
  5
4E8
100
AcDbEntity
  8
MST_1_1
 62
   137
  6
CONTINUOUS
100
AcDbCircle
 10
473.52055492
 20
-320.95814455
 30
2500.0
 40
32.34797303
100
AcDbArc
 50
274.21680449
 51
278.51502477
  0
LINE
  5
4E9
100
AcDbEntity
  8
MST_1_1
 62
   137
  6
CONTINUOUS
100
AcDbLine
 10
469.08248851
 20
-353.30597832
 30
2500.0
 11
471.7129266
 21
-353.30597832
 31
2500.0
  0
LINE
  5
4EA
100
AcDbEntity
  8
MST_1_1
 62
   137
  6
CONTINUOUS
100
AcDbLine
 10
469.99706688
 20
-349.60312118
 30
2500.0
 11
467.36662878
 21
-349.60312118
 31
2500.0
  0
LINE
  5
4EB
100
AcDbEntity
  8
MST_1_1
 62
   137
  6
CONTINUOUS
100
AcDbLine
 10
465.65391708
 20
-353.30597832
 30
2500.0
 11
468.28435518
 21
-353.30597832
 31
2500.0
  0
LINE
  5
4EC
100
AcDbEntity
  8
MST_1_1
 62
   137
  6
CONTINUOUS
100
AcDbLine
 10
466.56849545
 20
-349.60312118
 30
2500.0
 11
463.93805735
 21
-349.60312118
 31
2500.0
  0
LINE
  5
4ED
100
AcDbEntity
  8
MST_1_1
 62
   137
  6
CONTINUOUS
100
AcDbLine
 10
462.22534565
 20
-353.30597832
 30
2500.0
 11
464.85578375
 21
-353.30597832
 31
2500.0
  0
LINE
  5
4EE
100
AcDbEntity
  8
MST_1_1
 62
   137
  6
CONTINUOUS
100
AcDbLine
 10
463.13992402
 20
-349.60312118
 30
2500.0
 11
460.50948592
 21
-349.60312118
 31
2500.0
  0
LINE
  5
4EF
100
AcDbEntity
  8
MST_1_1
 62
   137
  6
CONTINUOUS
100
AcDbLine
 10
458.79677422
 20
-353.30597832
 30
2500.0
 11
461.42721232
 21
-353.30597832
 31
2500.0
  0
LINE
  5
4F0
100
AcDbEntity
  8
MST_1_1
 62
   137
  6
CONTINUOUS
100
AcDbLine
 10
459.71135259
 20
-349.60312118
 30
2500.0
 11
457.0809145
 21
-349.60312118
 31
2500.0
  0
LINE
  5
4F1
100
AcDbEntity
  8
MST_1_1
 62
   137
  6
CONTINUOUS
100
AcDbLine
 10
455.36820279
 20
-353.30597832
 30
2500.0
 11
457.99864089
 21
-353.30597832
 31
2500.0
  0
LINE
  5
4F2
100
AcDbEntity
  8
MST_1_1
 62
   137
  6
CONTINUOUS
100
AcDbLine
 10
456.28278116
 20
-349.60312118
 30
2500.0
 11
453.65234307
 21
-349.60312118
 31
2500.0
  0
LINE
  5
4F3
100
AcDbEntity
  8
MST_1_1
 62
   137
  6
CONTINUOUS
100
AcDbLine
 10
444.0389121
 20
-349.60312118
 30
2500.0
 11
443.68376741
 21
-348.45454975
 31
2500.0
  0
LINE
  5
4F4
100
AcDbEntity
  8
MST_1_1
 62
   137
  6
CONTINUOUS
100
AcDbLine
 10
444.0389121
 20
-353.30597832
 30
2500.0
 11
443.68376741
 21
-354.45454975
 31
2500.0
  0
LINE
  5
4F5
100
AcDbEntity
  8
MST_1_1
 62
   137
  6
CONTINUOUS
100
AcDbLine
 10
36.0389121
 20
-347.50718133
 30
2500.0
 11
36.8533415
 21
-347.50718133
 31
2500.0
  0
3DFACE
  5
4F6
100
AcDbEntity
  8
MST_1_1
 62
   137
  6
CONTINUOUS
100
AcDbFace
 70
     0
 10
36.8533415
 20
-347.50718133
 30
2500.0
 11
39.65771812
 21
-356.45454975
 31
2500.0
 12
40.21224083
 22
-355.40191817
 32
2500.0
 13
37.40786421
 23
-346.45454975
 33
2500.0
  0
LINE
  5
4F7
100
AcDbEntity
  8
MST_1_1
 62
   137
  6
CONTINUOUS
100
AcDbLine
 10
37.40786421
 20
-346.45454975
 30
2500.0
 11
39.65771812
 21
-356.45454975
 31
2500.0
  0
3DFACE
  5
4F8
100
AcDbEntity
  8
MST_1_1
 62
   137
  6
CONTINUOUS
100
AcDbFace
 70
     0
 10
40.8533415
 20
-347.50718133
 30
2500.0
 11
43.65771812
 21
-356.45454975
 31
2500.0
 12
44.21224083
 22
-355.40191817
 32
2500.0
 13
41.40786421
 23
-346.45454975
 33
2500.0
  0
LINE
  5
4F9
100
AcDbEntity
  8
MST_1_1
 62
   137
  6
CONTINUOUS
100
AcDbLine
 10
41.40786421
 20
-346.45454975
 30
2500.0
 11
43.65771812
 21
-356.45454975
 31
2500.0
  0
3DFACE
  5
4FA
100
AcDbEntity
  8
MST_1_1
 62
   137
  6
CONTINUOUS
100
AcDbFace
 70
     0
 10
44.8533415
 20
-347.50718133
 30
2500.0
 11
47.65771812
 21
-356.45454975
 31
2500.0
 12
48.21224083
 22
-355.40191817
 32
2500.0
 13
45.40786421
 23
-346.45454975
 33
2500.0
  0
LINE
  5
4FB
100
AcDbEntity
  8
MST_1_1
 62
   137
  6
CONTINUOUS
100
AcDbLine
 10
45.40786421
 20
-346.45454975
 30
2500.0
 11
47.65771812
 21
-356.45454975
 31
2500.0
  0
3DFACE
  5
4FC
100
AcDbEntity
  8
MST_1_1
 62
   137
  6
CONTINUOUS
100
AcDbFace
 70
     0
 10
48.8533415
 20
-347.50718133
 30
2500.0
 11
51.65771812
 21
-356.45454975
 31
2500.0
 12
52.21224083
 22
-355.40191817
 32
2500.0
 13
49.40786421
 23
-346.45454975
 33
2500.0
  0
LINE
  5
4FD
100
AcDbEntity
  8
MST_1_1
 62
   137
  6
CONTINUOUS
100
AcDbLine
 10
49.40786421
 20
-346.45454975
 30
2500.0
 11
51.65771812
 21
-356.45454975
 31
2500.0
  0
3DFACE
  5
4FE
100
AcDbEntity
  8
MST_1_1
 62
   137
  6
CONTINUOUS
100
AcDbFace
 70
     0
 10
52.8533415
 20
-347.50718133
 30
2500.0
 11
55.65771812
 21
-356.45454975
 31
2500.0
 12
56.21224083
 22
-355.40191817
 32
2500.0
 13
53.40786421
 23
-346.45454975
 33
2500.0
  0
LINE
  5
4FF
100
AcDbEntity
  8
MST_1_1
 62
   137
  6
CONTINUOUS
100
AcDbLine
 10
53.40786421
 20
-346.45454975
 30
2500.0
 11
55.65771812
 21
-356.45454975
 31
2500.0
  0
3DFACE
  5
500
100
AcDbEntity
  8
MST_1_1
 62
   137
  6
CONTINUOUS
100
AcDbFace
 70
     0
 10
57.40786421
 20
-346.45454975
 30
2500.0
 11
56.8533415
 21
-347.50718133
 31
2500.0
 12
57.19907055
 22
-348.61023048
 32
2500.0
 13
57.73779087
 23
-347.50718133
 33
2500.0
  0
LINE
  5
501
100
AcDbEntity
  8
MST_1_1
 62
   137
  6
CONTINUOUS
100
AcDbLine
 10
57.40786421
 20
-346.45454975
 30
2500.0
 11
57.67405285
 21
-347.6376872
 31
2500.0
  0
LINE
  5
502
100
AcDbEntity
  8
MST_1_1
 62
   137
  6
CONTINUOUS
100
AcDbLine
 10
40.8533415
 20
-347.50718133
 30
2500.0
 11
37.73779087
 21
-347.50718133
 31
2500.0
  0
LINE
  5
503
100
AcDbEntity
  8
MST_1_1
 62
   137
  6
CONTINUOUS
100
AcDbLine
 10
44.8533415
 20
-347.50718133
 30
2500.0
 11
41.73779087
 21
-347.50718133
 31
2500.0
  0
LINE
  5
504
100
AcDbEntity
  8
MST_1_1
 62
   137
  6
CONTINUOUS
100
AcDbLine
 10
48.8533415
 20
-347.50718133
 30
2500.0
 11
45.73779087
 21
-347.50718133
 31
2500.0
  0
LINE
  5
505
100
AcDbEntity
  8
MST_1_1
 62
   137
  6
CONTINUOUS
100
AcDbLine
 10
52.8533415
 20
-347.50718133
 30
2500.0
 11
49.73779087
 21
-347.50718133
 31
2500.0
  0
LINE
  5
506
100
AcDbEntity
  8
MST_1_1
 62
   137
  6
CONTINUOUS
100
AcDbLine
 10
56.8533415
 20
-347.50718133
 30
2500.0
 11
53.73779087
 21
-347.50718133
 31
2500.0
  0
LINE
  5
507
100
AcDbEntity
  8
MST_1_1
 62
   137
  6
CONTINUOUS
100
AcDbLine
 10
58.0389121
 20
-347.50718133
 30
2500.0
 11
57.73779087
 21
-347.50718133
 31
2500.0
  0
LINE
  5
508
100
AcDbEntity
  8
MST_1_1
 62
   137
  6
CONTINUOUS
100
AcDbLine
 10
36.0389121
 20
-355.40191817
 30
2500.0
 11
36.0389121
 21
-347.50718133
 31
2500.0
  0
LINE
  5
509
100
AcDbEntity
  8
MST_1_1
 62
   137
  6
CONTINUOUS
100
AcDbLine
 10
58.40270541
 20
-354.45454975
 30
2500.0
 11
58.40270541
 21
-348.45454975
 31
2500.0
  0
LINE
  5
50A
100
AcDbEntity
  8
MST_1_1
 62
   137
  6
CONTINUOUS
100
AcDbLine
 10
444.0389121
 20
-353.30597832
 30
2500.0
 11
444.0389121
 21
-349.60312118
 31
2500.0
  0
LINE
  5
50B
100
AcDbEntity
  8
MST_1_1
 62
   137
  6
CONTINUOUS
100
AcDbLine
 10
443.68376741
 20
-348.45454975
 30
2500.0
 11
443.68376741
 21
-354.45454975
 31
2500.0
  0
LINE
  5
50C
100
AcDbEntity
  8
MST_1_1
 62
   137
  6
CONTINUOUS
100
AcDbLine
 10
58.0389121
 20
-355.40191817
 30
2500.0
 11
58.0389121
 21
-347.50718133
 31
2500.0
  0
LINE
  5
50D
100
AcDbEntity
  8
MST_1_1
 62
   137
  6
CONTINUOUS
100
AcDbLine
 10
443.68376741
 20
-354.45454975
 30
2500.0
 11
58.40270541
 21
-354.45454975
 31
2500.0
  0
LINE
  5
50E
100
AcDbEntity
  8
MST_1_1
 62
   137
  6
CONTINUOUS
100
AcDbLine
 10
58.40270541
 20
-354.45454975
 30
2500.0
 11
58.0389121
 21
-355.40191817
 31
2500.0
  0
LINE
  5
50F
100
AcDbEntity
  8
MST_1_1
 62
   137
  6
CONTINUOUS
100
AcDbLine
 10
56.21224083
 20
-355.40191817
 30
2500.0
 11
58.0389121
 21
-355.40191817
 31
2500.0
  0
LINE
  5
510
100
AcDbEntity
  8
MST_1_1
 62
   137
  6
CONTINUOUS
100
AcDbLine
 10
52.21224083
 20
-355.40191817
 30
2500.0
 11
55.32779145
 21
-355.40191817
 31
2500.0
  0
LINE
  5
511
100
AcDbEntity
  8
MST_1_1
 62
   137
  6
CONTINUOUS
100
AcDbLine
 10
48.21224083
 20
-355.40191817
 30
2500.0
 11
51.32779145
 21
-355.40191817
 31
2500.0
  0
LINE
  5
512
100
AcDbEntity
  8
MST_1_1
 62
   137
  6
CONTINUOUS
100
AcDbLine
 10
44.21224083
 20
-355.40191817
 30
2500.0
 11
47.32779145
 21
-355.40191817
 31
2500.0
  0
LINE
  5
513
100
AcDbEntity
  8
MST_1_1
 62
   137
  6
CONTINUOUS
100
AcDbLine
 10
40.21224083
 20
-355.40191817
 30
2500.0
 11
43.32779145
 21
-355.40191817
 31
2500.0
  0
LINE
  5
514
100
AcDbEntity
  8
MST_1_1
 62
   137
  6
CONTINUOUS
100
AcDbLine
 10
36.0389121
 20
-355.40191817
 30
2500.0
 11
39.32779145
 21
-355.40191817
 31
2500.0
  0
LINE
  5
515
100
AcDbEntity
  8
MST_1_1
 62
   137
  6
CONTINUOUS
100
AcDbLine
 10
58.0389121
 20
-347.50718133
 30
2500.0
 11
58.40270541
 21
-348.45454975
 31
2500.0
  0
LWPOLYLINE
  5
516
100
AcDbEntity
  8
MST_1_1
 62
   137
  6
CONTINUOUS
100
AcDbPolyline
 90
        5
 70
     0
 43
0.0
 38
2500.0
 10
452.85420974
 20
-349.60312118
 10
453.1201087
 20
-348.45454954
 10
455.36820279
 20
-353.30597832
 10
455.10230373
 20
-354.45454975
 10
452.85420974
 20
-349.60312118
  0
LWPOLYLINE
  5
517
100
AcDbEntity
  8
MST_1_1
 62
   137
  6
CONTINUOUS
100
AcDbPolyline
 90
        5
 70
     0
 43
0.0
 38
2500.0
 10
456.28278116
 20
-349.60312118
 10
456.54868013
 20
-348.45454954
 10
458.79677422
 20
-353.30597832
 10
458.53087516
 20
-354.45454975
 10
456.28278116
 20
-349.60312118
  0
LWPOLYLINE
  5
518
100
AcDbEntity
  8
MST_1_1
 62
   137
  6
CONTINUOUS
100
AcDbPolyline
 90
        5
 70
     0
 43
0.0
 38
2500.0
 10
459.71135259
 20
-349.60312118
 10
459.97725156
 20
-348.45454954
 10
462.22534565
 20
-353.30597832
 10
461.95944659
 20
-354.45454975
 10
459.71135259
 20
-349.60312118
  0
LWPOLYLINE
  5
519
100
AcDbEntity
  8
MST_1_1
 62
   137
  6
CONTINUOUS
100
AcDbPolyline
 90
        5
 70
     0
 43
0.0
 38
2500.0
 10
463.13992402
 20
-349.60312118
 10
463.40582299
 20
-348.45454954
 10
465.65391708
 20
-353.30597832
 10
465.38801801
 20
-354.45454975
 10
463.13992402
 20
-349.60312118
  0
LWPOLYLINE
  5
51A
100
AcDbEntity
  8
MST_1_1
 62
   137
  6
CONTINUOUS
100
AcDbPolyline
 90
        5
 70
     0
 43
0.0
 38
2500.0
 10
466.56849545
 20
-349.60312118
 10
466.83439442
 20
-348.45454954
 10
469.08248851
 20
-353.30597832
 10
468.81658944
 20
-354.45454975
 10
466.56849545
 20
-349.60312118
  0
LWPOLYLINE
  5
51B
100
AcDbEntity
  8
MST_1_1
 62
   137
  6
CONTINUOUS
100
AcDbPolyline
 90
        5
 70
     0
 43
0.0
 38
2500.0
 10
469.99706688
 20
-349.60312118
 10
470.26296585
 20
-348.45454954
 10
472.51105994
 20
-353.30597832
 10
472.24516087
 20
-354.45454975
 10
469.99706688
 20
-349.60312118
  0
LWPOLYLINE
  5
51C
100
AcDbEntity
  8
MST_1_1
 62
   137
  6
CONTINUOUS
100
AcDbPolyline
 90
        5
 70
     0
 43
0.0
 38
2500.0
 10
473.42563831
 20
-349.60312118
 10
473.69153728
 20
-348.45454954
 10
475.89911838
 20
-353.21855054
 10
475.63321931
 20
-354.36712197
 10
473.42563831
 20
-349.60312118
  0
LWPOLYLINE
  5
51D
100
AcDbEntity
  8
MST_1_1
 62
   137
  6
CONTINUOUS
100
AcDbPolyline
 90
        5
 70
     0
 43
0.0
 38
2500.0
 10
476.84288801
 20
-349.78290382
 10
477.06322468
 20
-348.83114215
 10
478.92610351
 20
-352.85126925
 10
478.70576676
 20
-353.80303075
 10
476.84288801
 20
-349.78290382
  0
LINE
  5
51E
100
AcDbEntity
  8
MST_1_1
 62
   137
  6
CONTINUOUS
100
AcDbLine
 10
444.0389121
 20
-353.30597832
 30
2500.0
 11
447.7129266
 21
-353.30597832
 31
2500.0
  0
LINE
  5
51F
100
AcDbEntity
  8
MST_1_1
 62
   137
  6
CONTINUOUS
100
AcDbLine
 10
451.93963137
 20
-353.30597832
 30
2500.0
 11
454.57006946
 21
-353.30597832
 31
2500.0
  0
LINE
  5
520
100
AcDbEntity
  8
MST_1_1
 62
   137
  6
CONTINUOUS
100
AcDbLine
 10
452.85420974
 20
-349.60312118
 30
2500.0
 11
450.22377164
 21
-349.60312118
 31
2500.0
  0
LWPOLYLINE
  5
521
100
AcDbEntity
  8
MST_1_1
 62
   137
  6
CONTINUOUS
100
AcDbPolyline
 90
        5
 70
     0
 43
0.0
 38
2500.0
 10
449.42563831
 20
-349.60312118
 10
449.69153728
 20
-348.45454954
 10
451.93963137
 20
-353.30597832
 10
451.6737323
 20
-354.45454975
 10
449.42563831
 20
-349.60312118
  0
LINE
  5
522
100
AcDbEntity
  8
MST_1_1
 62
   137
  6
CONTINUOUS
100
AcDbLine
 10
448.51105994
 20
-353.30597832
 30
2500.0
 11
451.14149803
 21
-353.30597832
 31
2500.0
  0
LINE
  5
523
100
AcDbEntity
  8
MST_1_1
 62
   137
  6
CONTINUOUS
100
AcDbLine
 10
449.42563831
 20
-349.60312118
 30
2500.0
 11
446.79520021
 21
-349.60312118
 31
2500.0
  0
LWPOLYLINE
  5
524
100
AcDbEntity
  8
MST_1_1
 62
   137
  6
CONTINUOUS
100
AcDbPolyline
 90
        5
 70
     0
 43
0.0
 38
2500.0
 10
445.99706688
 20
-349.60312118
 10
446.26296585
 20
-348.45454954
 10
448.51105994
 20
-353.30597832
 10
448.24516087
 20
-354.45454975
 10
445.99706688
 20
-349.60312118
  0
LINE
  5
525
100
AcDbEntity
  8
MST_1_1
 62
   137
  6
CONTINUOUS
100
AcDbLine
 10
445.99706688
 20
-349.60312118
 30
2500.0
 11
444.0389121
 21
-349.60312118
 31
2500.0
  0
LWPOLYLINE
  5
526
100
AcDbEntity
  8
MST_1_1
 62
     1
  6
BORDER
100
AcDbPolyline
 90
        3
 70
     0
 43
0.0
 10
536.0389121
 20
-381.45454975
 10
36.0389121
 20
-381.45454975
 10
31.0389121
 20
-381.45454975
  0
LINE
  5
527
100
AcDbEntity
  8
MST_1_1
 62
   137
  6
CONTINUOUS
100
AcDbLine
 10
58.40270541
 20
-378.45454975
 30
2500.0
 11
493.68376741
 21
-378.45454975
 31
2500.0
  0
LINE
  5
528
100
AcDbEntity
  8
MST_1_1
 62
   137
  6
CONTINUOUS
100
AcDbLine
 10
522.51105994
 20
-383.30597832
 30
2500.0
 11
524.227285
 21
-383.29839642
 31
2500.0
  0
LINE
  5
529
100
AcDbEntity
  8
MST_1_1
 62
   137
  6
CONTINUOUS
100
AcDbLine
 10
523.42563831
 20
-379.60312118
 30
2500.0
 11
520.79520021
 21
-379.60312118
 31
2500.0
  0
ARC
  5
52A
100
AcDbEntity
  8
MST_1_1
 62
   137
  6
CONTINUOUS
100
AcDbCircle
 10
523.71536163
 20
-407.33708881
 30
2500.0
 40
27.73111126
100
AcDbArc
 50
83.52438041
 51
88.94224525
  0
LWPOLYLINE
  5
52B
100
AcDbEntity
  8
MST_1_1
 62
   137
  6
CONTINUOUS
100
AcDbPolyline
 90
        3
 70
     0
 43
0.0
 38
2500.0
 10
536.0389121
 20
-381.45454975
 10
529.73880471
 20
-380.20627463
 42
0.01723995
 10
527.53687247
 20
-379.85328288
  0
ARC
  5
52C
100
AcDbEntity
  8
MST_1_1
 62
   137
  6
CONTINUOUS
100
AcDbCircle
 10
523.52055492
 20
-350.95814455
 30
2500.0
 40
32.34797303
100
AcDbArc
 50
271.25189288
 51
272.83975061
  0
LWPOLYLINE
  5
52D
100
AcDbEntity
  8
MST_1_1
 62
   137
  6
CONTINUOUS
100
AcDbPolyline
 90
        3
 70
     0
 43
0.0
 38
2500.0
 10
536.0389121
 20
-381.45454975
 10
529.73880471
 20
-382.70282487
 42
-0.0063851
 10
528.92610351
 20
-382.85126925
  0
ARC
  5
52E
100
AcDbEntity
  8
MST_1_1
 62
   137
  6
CONTINUOUS
100
AcDbCircle
 10
523.52055492
 20
-350.95814455
 30
2500.0
 40
32.34797303
100
AcDbArc
 50
274.21680449
 51
278.51502477
  0
LINE
  5
52F
100
AcDbEntity
  8
MST_1_1
 62
   137
  6
CONTINUOUS
100
AcDbLine
 10
519.08248851
 20
-383.30597832
 30
2500.0
 11
521.7129266
 21
-383.30597832
 31
2500.0
  0
LINE
  5
530
100
AcDbEntity
  8
MST_1_1
 62
   137
  6
CONTINUOUS
100
AcDbLine
 10
519.99706688
 20
-379.60312118
 30
2500.0
 11
517.36662878
 21
-379.60312118
 31
2500.0
  0
LINE
  5
531
100
AcDbEntity
  8
MST_1_1
 62
   137
  6
CONTINUOUS
100
AcDbLine
 10
515.65391708
 20
-383.30597832
 30
2500.0
 11
518.28435518
 21
-383.30597832
 31
2500.0
  0
LINE
  5
532
100
AcDbEntity
  8
MST_1_1
 62
   137
  6
CONTINUOUS
100
AcDbLine
 10
516.56849545
 20
-379.60312118
 30
2500.0
 11
513.93805735
 21
-379.60312118
 31
2500.0
  0
LINE
  5
533
100
AcDbEntity
  8
MST_1_1
 62
   137
  6
CONTINUOUS
100
AcDbLine
 10
512.22534565
 20
-383.30597832
 30
2500.0
 11
514.85578375
 21
-383.30597832
 31
2500.0
  0
LINE
  5
534
100
AcDbEntity
  8
MST_1_1
 62
   137
  6
CONTINUOUS
100
AcDbLine
 10
513.13992402
 20
-379.60312118
 30
2500.0
 11
510.50948592
 21
-379.60312118
 31
2500.0
  0
LINE
  5
535
100
AcDbEntity
  8
MST_1_1
 62
   137
  6
CONTINUOUS
100
AcDbLine
 10
508.79677422
 20
-383.30597832
 30
2500.0
 11
511.42721232
 21
-383.30597832
 31
2500.0
  0
LINE
  5
536
100
AcDbEntity
  8
MST_1_1
 62
   137
  6
CONTINUOUS
100
AcDbLine
 10
509.71135259
 20
-379.60312118
 30
2500.0
 11
507.0809145
 21
-379.60312118
 31
2500.0
  0
LINE
  5
537
100
AcDbEntity
  8
MST_1_1
 62
   137
  6
CONTINUOUS
100
AcDbLine
 10
505.36820279
 20
-383.30597832
 30
2500.0
 11
507.99864089
 21
-383.30597832
 31
2500.0
  0
LINE
  5
538
100
AcDbEntity
  8
MST_1_1
 62
   137
  6
CONTINUOUS
100
AcDbLine
 10
506.28278116
 20
-379.60312118
 30
2500.0
 11
503.65234307
 21
-379.60312118
 31
2500.0
  0
LINE
  5
539
100
AcDbEntity
  8
MST_1_1
 62
   137
  6
CONTINUOUS
100
AcDbLine
 10
494.0389121
 20
-379.60312118
 30
2500.0
 11
493.68376741
 21
-378.45454975
 31
2500.0
  0
LINE
  5
53A
100
AcDbEntity
  8
MST_1_1
 62
   137
  6
CONTINUOUS
100
AcDbLine
 10
494.0389121
 20
-383.30597832
 30
2500.0
 11
493.68376741
 21
-384.45454975
 31
2500.0
  0
LINE
  5
53B
100
AcDbEntity
  8
MST_1_1
 62
   137
  6
CONTINUOUS
100
AcDbLine
 10
36.0389121
 20
-377.50718133
 30
2500.0
 11
36.8533415
 21
-377.50718133
 31
2500.0
  0
3DFACE
  5
53C
100
AcDbEntity
  8
MST_1_1
 62
   137
  6
CONTINUOUS
100
AcDbFace
 70
     0
 10
36.8533415
 20
-377.50718133
 30
2500.0
 11
39.65771812
 21
-386.45454975
 31
2500.0
 12
40.21224083
 22
-385.40191817
 32
2500.0
 13
37.40786421
 23
-376.45454975
 33
2500.0
  0
LINE
  5
53D
100
AcDbEntity
  8
MST_1_1
 62
   137
  6
CONTINUOUS
100
AcDbLine
 10
37.40786421
 20
-376.45454975
 30
2500.0
 11
39.65771812
 21
-386.45454975
 31
2500.0
  0
3DFACE
  5
53E
100
AcDbEntity
  8
MST_1_1
 62
   137
  6
CONTINUOUS
100
AcDbFace
 70
     0
 10
40.8533415
 20
-377.50718133
 30
2500.0
 11
43.65771812
 21
-386.45454975
 31
2500.0
 12
44.21224083
 22
-385.40191817
 32
2500.0
 13
41.40786421
 23
-376.45454975
 33
2500.0
  0
LINE
  5
53F
100
AcDbEntity
  8
MST_1_1
 62
   137
  6
CONTINUOUS
100
AcDbLine
 10
41.40786421
 20
-376.45454975
 30
2500.0
 11
43.65771812
 21
-386.45454975
 31
2500.0
  0
3DFACE
  5
540
100
AcDbEntity
  8
MST_1_1
 62
   137
  6
CONTINUOUS
100
AcDbFace
 70
     0
 10
44.8533415
 20
-377.50718133
 30
2500.0
 11
47.65771812
 21
-386.45454975
 31
2500.0
 12
48.21224083
 22
-385.40191817
 32
2500.0
 13
45.40786421
 23
-376.45454975
 33
2500.0
  0
LINE
  5
541
100
AcDbEntity
  8
MST_1_1
 62
   137
  6
CONTINUOUS
100
AcDbLine
 10
45.40786421
 20
-376.45454975
 30
2500.0
 11
47.65771812
 21
-386.45454975
 31
2500.0
  0
3DFACE
  5
542
100
AcDbEntity
  8
MST_1_1
 62
   137
  6
CONTINUOUS
100
AcDbFace
 70
     0
 10
48.8533415
 20
-377.50718133
 30
2500.0
 11
51.65771812
 21
-386.45454975
 31
2500.0
 12
52.21224083
 22
-385.40191817
 32
2500.0
 13
49.40786421
 23
-376.45454975
 33
2500.0
  0
LINE
  5
543
100
AcDbEntity
  8
MST_1_1
 62
   137
  6
CONTINUOUS
100
AcDbLine
 10
49.40786421
 20
-376.45454975
 30
2500.0
 11
51.65771812
 21
-386.45454975
 31
2500.0
  0
3DFACE
  5
544
100
AcDbEntity
  8
MST_1_1
 62
   137
  6
CONTINUOUS
100
AcDbFace
 70
     0
 10
52.8533415
 20
-377.50718133
 30
2500.0
 11
55.65771812
 21
-386.45454975
 31
2500.0
 12
56.21224083
 22
-385.40191817
 32
2500.0
 13
53.40786421
 23
-376.45454975
 33
2500.0
  0
LINE
  5
545
100
AcDbEntity
  8
MST_1_1
 62
   137
  6
CONTINUOUS
100
AcDbLine
 10
53.40786421
 20
-376.45454975
 30
2500.0
 11
55.65771812
 21
-386.45454975
 31
2500.0
  0
3DFACE
  5
546
100
AcDbEntity
  8
MST_1_1
 62
   137
  6
CONTINUOUS
100
AcDbFace
 70
     0
 10
57.40786421
 20
-376.45454975
 30
2500.0
 11
56.8533415
 21
-377.50718133
 31
2500.0
 12
57.19907055
 22
-378.61023048
 32
2500.0
 13
57.73779087
 23
-377.50718133
 33
2500.0
  0
LINE
  5
547
100
AcDbEntity
  8
MST_1_1
 62
   137
  6
CONTINUOUS
100
AcDbLine
 10
57.40786421
 20
-376.45454975
 30
2500.0
 11
57.67405285
 21
-377.6376872
 31
2500.0
  0
LINE
  5
548
100
AcDbEntity
  8
MST_1_1
 62
   137
  6
CONTINUOUS
100
AcDbLine
 10
40.8533415
 20
-377.50718133
 30
2500.0
 11
37.73779087
 21
-377.50718133
 31
2500.0
  0
LINE
  5
549
100
AcDbEntity
  8
MST_1_1
 62
   137
  6
CONTINUOUS
100
AcDbLine
 10
44.8533415
 20
-377.50718133
 30
2500.0
 11
41.73779087
 21
-377.50718133
 31
2500.0
  0
LINE
  5
54A
100
AcDbEntity
  8
MST_1_1
 62
   137
  6
CONTINUOUS
100
AcDbLine
 10
48.8533415
 20
-377.50718133
 30
2500.0
 11
45.73779087
 21
-377.50718133
 31
2500.0
  0
LINE
  5
54B
100
AcDbEntity
  8
MST_1_1
 62
   137
  6
CONTINUOUS
100
AcDbLine
 10
52.8533415
 20
-377.50718133
 30
2500.0
 11
49.73779087
 21
-377.50718133
 31
2500.0
  0
LINE
  5
54C
100
AcDbEntity
  8
MST_1_1
 62
   137
  6
CONTINUOUS
100
AcDbLine
 10
56.8533415
 20
-377.50718133
 30
2500.0
 11
53.73779087
 21
-377.50718133
 31
2500.0
  0
LINE
  5
54D
100
AcDbEntity
  8
MST_1_1
 62
   137
  6
CONTINUOUS
100
AcDbLine
 10
58.0389121
 20
-377.50718133
 30
2500.0
 11
57.73779087
 21
-377.50718133
 31
2500.0
  0
LINE
  5
54E
100
AcDbEntity
  8
MST_1_1
 62
   137
  6
CONTINUOUS
100
AcDbLine
 10
36.0389121
 20
-385.40191817
 30
2500.0
 11
36.0389121
 21
-377.50718133
 31
2500.0
  0
LINE
  5
54F
100
AcDbEntity
  8
MST_1_1
 62
   137
  6
CONTINUOUS
100
AcDbLine
 10
58.40270541
 20
-384.45454975
 30
2500.0
 11
58.40270541
 21
-378.45454975
 31
2500.0
  0
LINE
  5
550
100
AcDbEntity
  8
MST_1_1
 62
   137
  6
CONTINUOUS
100
AcDbLine
 10
494.0389121
 20
-383.30597832
 30
2500.0
 11
494.0389121
 21
-379.60312118
 31
2500.0
  0
LINE
  5
551
100
AcDbEntity
  8
MST_1_1
 62
   137
  6
CONTINUOUS
100
AcDbLine
 10
493.68376741
 20
-378.45454975
 30
2500.0
 11
493.68376741
 21
-384.45454975
 31
2500.0
  0
LINE
  5
552
100
AcDbEntity
  8
MST_1_1
 62
   137
  6
CONTINUOUS
100
AcDbLine
 10
58.0389121
 20
-385.40191817
 30
2500.0
 11
58.0389121
 21
-377.50718133
 31
2500.0
  0
LINE
  5
553
100
AcDbEntity
  8
MST_1_1
 62
   137
  6
CONTINUOUS
100
AcDbLine
 10
493.68376741
 20
-384.45454975
 30
2500.0
 11
58.40270541
 21
-384.45454975
 31
2500.0
  0
LINE
  5
554
100
AcDbEntity
  8
MST_1_1
 62
   137
  6
CONTINUOUS
100
AcDbLine
 10
58.40270541
 20
-384.45454975
 30
2500.0
 11
58.0389121
 21
-385.40191817
 31
2500.0
  0
LINE
  5
555
100
AcDbEntity
  8
MST_1_1
 62
   137
  6
CONTINUOUS
100
AcDbLine
 10
56.21224083
 20
-385.40191817
 30
2500.0
 11
58.0389121
 21
-385.40191817
 31
2500.0
  0
LINE
  5
556
100
AcDbEntity
  8
MST_1_1
 62
   137
  6
CONTINUOUS
100
AcDbLine
 10
52.21224083
 20
-385.40191817
 30
2500.0
 11
55.32779145
 21
-385.40191817
 31
2500.0
  0
LINE
  5
557
100
AcDbEntity
  8
MST_1_1
 62
   137
  6
CONTINUOUS
100
AcDbLine
 10
48.21224083
 20
-385.40191817
 30
2500.0
 11
51.32779145
 21
-385.40191817
 31
2500.0
  0
LINE
  5
558
100
AcDbEntity
  8
MST_1_1
 62
   137
  6
CONTINUOUS
100
AcDbLine
 10
44.21224083
 20
-385.40191817
 30
2500.0
 11
47.32779145
 21
-385.40191817
 31
2500.0
  0
LINE
  5
559
100
AcDbEntity
  8
MST_1_1
 62
   137
  6
CONTINUOUS
100
AcDbLine
 10
40.21224083
 20
-385.40191817
 30
2500.0
 11
43.32779145
 21
-385.40191817
 31
2500.0
  0
LINE
  5
55A
100
AcDbEntity
  8
MST_1_1
 62
   137
  6
CONTINUOUS
100
AcDbLine
 10
36.0389121
 20
-385.40191817
 30
2500.0
 11
39.32779145
 21
-385.40191817
 31
2500.0
  0
LINE
  5
55B
100
AcDbEntity
  8
MST_1_1
 62
   137
  6
CONTINUOUS
100
AcDbLine
 10
58.0389121
 20
-377.50718133
 30
2500.0
 11
58.40270541
 21
-378.45454975
 31
2500.0
  0
LWPOLYLINE
  5
55C
100
AcDbEntity
  8
MST_1_1
 62
   137
  6
CONTINUOUS
100
AcDbPolyline
 90
        5
 70
     0
 43
0.0
 38
2500.0
 10
502.85420974
 20
-379.60312118
 10
503.1201087
 20
-378.45454954
 10
505.36820279
 20
-383.30597832
 10
505.10230373
 20
-384.45454975
 10
502.85420974
 20
-379.60312118
  0
LWPOLYLINE
  5
55D
100
AcDbEntity
  8
MST_1_1
 62
   137
  6
CONTINUOUS
100
AcDbPolyline
 90
        5
 70
     0
 43
0.0
 38
2500.0
 10
506.28278116
 20
-379.60312118
 10
506.54868013
 20
-378.45454954
 10
508.79677422
 20
-383.30597832
 10
508.53087516
 20
-384.45454975
 10
506.28278116
 20
-379.60312118
  0
LWPOLYLINE
  5
55E
100
AcDbEntity
  8
MST_1_1
 62
   137
  6
CONTINUOUS
100
AcDbPolyline
 90
        5
 70
     0
 43
0.0
 38
2500.0
 10
509.71135259
 20
-379.60312118
 10
509.97725156
 20
-378.45454954
 10
512.22534565
 20
-383.30597832
 10
511.95944659
 20
-384.45454975
 10
509.71135259
 20
-379.60312118
  0
LWPOLYLINE
  5
55F
100
AcDbEntity
  8
MST_1_1
 62
   137
  6
CONTINUOUS
100
AcDbPolyline
 90
        5
 70
     0
 43
0.0
 38
2500.0
 10
513.13992402
 20
-379.60312118
 10
513.40582299
 20
-378.45454954
 10
515.65391708
 20
-383.30597832
 10
515.38801801
 20
-384.45454975
 10
513.13992402
 20
-379.60312118
  0
LWPOLYLINE
  5
560
100
AcDbEntity
  8
MST_1_1
 62
   137
  6
CONTINUOUS
100
AcDbPolyline
 90
        5
 70
     0
 43
0.0
 38
2500.0
 10
516.56849545
 20
-379.60312118
 10
516.83439442
 20
-378.45454954
 10
519.08248851
 20
-383.30597832
 10
518.81658944
 20
-384.45454975
 10
516.56849545
 20
-379.60312118
  0
LWPOLYLINE
  5
561
100
AcDbEntity
  8
MST_1_1
 62
   137
  6
CONTINUOUS
100
AcDbPolyline
 90
        5
 70
     0
 43
0.0
 38
2500.0
 10
519.99706688
 20
-379.60312118
 10
520.26296585
 20
-378.45454954
 10
522.51105994
 20
-383.30597832
 10
522.24516087
 20
-384.45454975
 10
519.99706688
 20
-379.60312118
  0
LWPOLYLINE
  5
562
100
AcDbEntity
  8
MST_1_1
 62
   137
  6
CONTINUOUS
100
AcDbPolyline
 90
        5
 70
     0
 43
0.0
 38
2500.0
 10
523.42563831
 20
-379.60312118
 10
523.69153728
 20
-378.45454954
 10
525.89911838
 20
-383.21855054
 10
525.63321931
 20
-384.36712197
 10
523.42563831
 20
-379.60312118
  0
LWPOLYLINE
  5
563
100
AcDbEntity
  8
MST_1_1
 62
   137
  6
CONTINUOUS
100
AcDbPolyline
 90
        5
 70
     0
 43
0.0
 38
2500.0
 10
526.84288801
 20
-379.78290382
 10
527.06322468
 20
-378.83114215
 10
528.92610351
 20
-382.85126925
 10
528.70576676
 20
-383.80303075
 10
526.84288801
 20
-379.78290382
  0
LINE
  5
564
100
AcDbEntity
  8
MST_1_1
 62
   137
  6
CONTINUOUS
100
AcDbLine
 10
494.0389121
 20
-383.30597832
 30
2500.0
 11
497.7129266
 21
-383.30597832
 31
2500.0
  0
LINE
  5
565
100
AcDbEntity
  8
MST_1_1
 62
   137
  6
CONTINUOUS
100
AcDbLine
 10
501.93963137
 20
-383.30597832
 30
2500.0
 11
504.57006946
 21
-383.30597832
 31
2500.0
  0
LINE
  5
566
100
AcDbEntity
  8
MST_1_1
 62
   137
  6
CONTINUOUS
100
AcDbLine
 10
502.85420974
 20
-379.60312118
 30
2500.0
 11
500.22377164
 21
-379.60312118
 31
2500.0
  0
LWPOLYLINE
  5
567
100
AcDbEntity
  8
MST_1_1
 62
   137
  6
CONTINUOUS
100
AcDbPolyline
 90
        5
 70
     0
 43
0.0
 38
2500.0
 10
499.42563831
 20
-379.60312118
 10
499.69153728
 20
-378.45454954
 10
501.93963137
 20
-383.30597832
 10
501.6737323
 20
-384.45454975
 10
499.42563831
 20
-379.60312118
  0
LINE
  5
568
100
AcDbEntity
  8
MST_1_1
 62
   137
  6
CONTINUOUS
100
AcDbLine
 10
498.51105994
 20
-383.30597832
 30
2500.0
 11
501.14149803
 21
-383.30597832
 31
2500.0
  0
LINE
  5
569
100
AcDbEntity
  8
MST_1_1
 62
   137
  6
CONTINUOUS
100
AcDbLine
 10
499.42563831
 20
-379.60312118
 30
2500.0
 11
496.79520021
 21
-379.60312118
 31
2500.0
  0
LWPOLYLINE
  5
56A
100
AcDbEntity
  8
MST_1_1
 62
   137
  6
CONTINUOUS
100
AcDbPolyline
 90
        5
 70
     0
 43
0.0
 38
2500.0
 10
495.99706688
 20
-379.60312118
 10
496.26296585
 20
-378.45454954
 10
498.51105994
 20
-383.30597832
 10
498.24516087
 20
-384.45454975
 10
495.99706688
 20
-379.60312118
  0
LINE
  5
56B
100
AcDbEntity
  8
MST_1_1
 62
   137
  6
CONTINUOUS
100
AcDbLine
 10
495.99706688
 20
-379.60312118
 30
2500.0
 11
494.0389121
 21
-379.60312118
 31
2500.0
  0
LWPOLYLINE
  5
56C
100
AcDbEntity
  8
MST_1_1
 62
     1
  6
BORDER
100
AcDbPolyline
 90
        3
 70
     0
 43
0.0
 10
636.0389121
 20
-411.45454975
 10
36.0389121
 20
-411.45454975
 10
31.0389121
 20
-411.45454975
  0
LINE
  5
56D
100
AcDbEntity
  8
MST_1_1
 62
   137
  6
CONTINUOUS
100
AcDbLine
 10
58.40270541
 20
-408.45454975
 30
2500.0
 11
593.68376741
 21
-408.45454975
 31
2500.0
  0
LINE
  5
56E
100
AcDbEntity
  8
MST_1_1
 62
   137
  6
CONTINUOUS
100
AcDbLine
 10
622.51105994
 20
-413.30597832
 30
2500.0
 11
624.227285
 21
-413.29839642
 31
2500.0
  0
LINE
  5
56F
100
AcDbEntity
  8
MST_1_1
 62
   137
  6
CONTINUOUS
100
AcDbLine
 10
623.42563831
 20
-409.60312118
 30
2500.0
 11
620.79520021
 21
-409.60312118
 31
2500.0
  0
ARC
  5
570
100
AcDbEntity
  8
MST_1_1
 62
   137
  6
CONTINUOUS
100
AcDbCircle
 10
623.71536163
 20
-437.33708881
 30
2500.0
 40
27.73111126
100
AcDbArc
 50
83.52438041
 51
88.94224525
  0
LWPOLYLINE
  5
571
100
AcDbEntity
  8
MST_1_1
 62
   137
  6
CONTINUOUS
100
AcDbPolyline
 90
        3
 70
     0
 43
0.0
 38
2500.0
 10
636.0389121
 20
-411.45454975
 10
629.73880471
 20
-410.20627463
 42
0.01723995
 10
627.53687247
 20
-409.85328288
  0
ARC
  5
572
100
AcDbEntity
  8
MST_1_1
 62
   137
  6
CONTINUOUS
100
AcDbCircle
 10
623.52055492
 20
-380.95814455
 30
2500.0
 40
32.34797303
100
AcDbArc
 50
271.25189288
 51
272.83975061
  0
LWPOLYLINE
  5
573
100
AcDbEntity
  8
MST_1_1
 62
   137
  6
CONTINUOUS
100
AcDbPolyline
 90
        3
 70
     0
 43
0.0
 38
2500.0
 10
636.0389121
 20
-411.45454975
 10
629.73880471
 20
-412.70282487
 42
-0.0063851
 10
628.92610351
 20
-412.85126925
  0
ARC
  5
574
100
AcDbEntity
  8
MST_1_1
 62
   137
  6
CONTINUOUS
100
AcDbCircle
 10
623.52055492
 20
-380.95814455
 30
2500.0
 40
32.34797303
100
AcDbArc
 50
274.21680449
 51
278.51502477
  0
LINE
  5
575
100
AcDbEntity
  8
MST_1_1
 62
   137
  6
CONTINUOUS
100
AcDbLine
 10
619.08248851
 20
-413.30597832
 30
2500.0
 11
621.7129266
 21
-413.30597832
 31
2500.0
  0
LINE
  5
576
100
AcDbEntity
  8
MST_1_1
 62
   137
  6
CONTINUOUS
100
AcDbLine
 10
619.99706688
 20
-409.60312118
 30
2500.0
 11
617.36662878
 21
-409.60312118
 31
2500.0
  0
LINE
  5
577
100
AcDbEntity
  8
MST_1_1
 62
   137
  6
CONTINUOUS
100
AcDbLine
 10
615.65391708
 20
-413.30597832
 30
2500.0
 11
618.28435518
 21
-413.30597832
 31
2500.0
  0
LINE
  5
578
100
AcDbEntity
  8
MST_1_1
 62
   137
  6
CONTINUOUS
100
AcDbLine
 10
616.56849545
 20
-409.60312118
 30
2500.0
 11
613.93805735
 21
-409.60312118
 31
2500.0
  0
LINE
  5
579
100
AcDbEntity
  8
MST_1_1
 62
   137
  6
CONTINUOUS
100
AcDbLine
 10
612.22534565
 20
-413.30597832
 30
2500.0
 11
614.85578375
 21
-413.30597832
 31
2500.0
  0
LINE
  5
57A
100
AcDbEntity
  8
MST_1_1
 62
   137
  6
CONTINUOUS
100
AcDbLine
 10
613.13992402
 20
-409.60312118
 30
2500.0
 11
610.50948592
 21
-409.60312118
 31
2500.0
  0
LINE
  5
57B
100
AcDbEntity
  8
MST_1_1
 62
   137
  6
CONTINUOUS
100
AcDbLine
 10
608.79677422
 20
-413.30597832
 30
2500.0
 11
611.42721232
 21
-413.30597832
 31
2500.0
  0
LINE
  5
57C
100
AcDbEntity
  8
MST_1_1
 62
   137
  6
CONTINUOUS
100
AcDbLine
 10
609.71135259
 20
-409.60312118
 30
2500.0
 11
607.0809145
 21
-409.60312118
 31
2500.0
  0
LINE
  5
57D
100
AcDbEntity
  8
MST_1_1
 62
   137
  6
CONTINUOUS
100
AcDbLine
 10
605.36820279
 20
-413.30597832
 30
2500.0
 11
607.99864089
 21
-413.30597832
 31
2500.0
  0
LINE
  5
57E
100
AcDbEntity
  8
MST_1_1
 62
   137
  6
CONTINUOUS
100
AcDbLine
 10
606.28278116
 20
-409.60312118
 30
2500.0
 11
603.65234307
 21
-409.60312118
 31
2500.0
  0
LINE
  5
57F
100
AcDbEntity
  8
MST_1_1
 62
   137
  6
CONTINUOUS
100
AcDbLine
 10
594.0389121
 20
-409.60312118
 30
2500.0
 11
593.68376741
 21
-408.45454975
 31
2500.0
  0
LINE
  5
580
100
AcDbEntity
  8
MST_1_1
 62
   137
  6
CONTINUOUS
100
AcDbLine
 10
594.0389121
 20
-413.30597832
 30
2500.0
 11
593.68376741
 21
-414.45454975
 31
2500.0
  0
LINE
  5
581
100
AcDbEntity
  8
MST_1_1
 62
   137
  6
CONTINUOUS
100
AcDbLine
 10
36.0389121
 20
-407.50718133
 30
2500.0
 11
36.8533415
 21
-407.50718133
 31
2500.0
  0
3DFACE
  5
582
100
AcDbEntity
  8
MST_1_1
 62
   137
  6
CONTINUOUS
100
AcDbFace
 70
     0
 10
36.8533415
 20
-407.50718133
 30
2500.0
 11
39.65771812
 21
-416.45454975
 31
2500.0
 12
40.21224083
 22
-415.40191817
 32
2500.0
 13
37.40786421
 23
-406.45454975
 33
2500.0
  0
LINE
  5
583
100
AcDbEntity
  8
MST_1_1
 62
   137
  6
CONTINUOUS
100
AcDbLine
 10
37.40786421
 20
-406.45454975
 30
2500.0
 11
39.65771812
 21
-416.45454975
 31
2500.0
  0
3DFACE
  5
584
100
AcDbEntity
  8
MST_1_1
 62
   137
  6
CONTINUOUS
100
AcDbFace
 70
     0
 10
40.8533415
 20
-407.50718133
 30
2500.0
 11
43.65771812
 21
-416.45454975
 31
2500.0
 12
44.21224083
 22
-415.40191817
 32
2500.0
 13
41.40786421
 23
-406.45454975
 33
2500.0
  0
LINE
  5
585
100
AcDbEntity
  8
MST_1_1
 62
   137
  6
CONTINUOUS
100
AcDbLine
 10
41.40786421
 20
-406.45454975
 30
2500.0
 11
43.65771812
 21
-416.45454975
 31
2500.0
  0
3DFACE
  5
586
100
AcDbEntity
  8
MST_1_1
 62
   137
  6
CONTINUOUS
100
AcDbFace
 70
     0
 10
44.8533415
 20
-407.50718133
 30
2500.0
 11
47.65771812
 21
-416.45454975
 31
2500.0
 12
48.21224083
 22
-415.40191817
 32
2500.0
 13
45.40786421
 23
-406.45454975
 33
2500.0
  0
LINE
  5
587
100
AcDbEntity
  8
MST_1_1
 62
   137
  6
CONTINUOUS
100
AcDbLine
 10
45.40786421
 20
-406.45454975
 30
2500.0
 11
47.65771812
 21
-416.45454975
 31
2500.0
  0
3DFACE
  5
588
100
AcDbEntity
  8
MST_1_1
 62
   137
  6
CONTINUOUS
100
AcDbFace
 70
     0
 10
48.8533415
 20
-407.50718133
 30
2500.0
 11
51.65771812
 21
-416.45454975
 31
2500.0
 12
52.21224083
 22
-415.40191817
 32
2500.0
 13
49.40786421
 23
-406.45454975
 33
2500.0
  0
LINE
  5
589
100
AcDbEntity
  8
MST_1_1
 62
   137
  6
CONTINUOUS
100
AcDbLine
 10
49.40786421
 20
-406.45454975
 30
2500.0
 11
51.65771812
 21
-416.45454975
 31
2500.0
  0
3DFACE
  5
58A
100
AcDbEntity
  8
MST_1_1
 62
   137
  6
CONTINUOUS
100
AcDbFace
 70
     0
 10
52.8533415
 20
-407.50718133
 30
2500.0
 11
55.65771812
 21
-416.45454975
 31
2500.0
 12
56.21224083
 22
-415.40191817
 32
2500.0
 13
53.40786421
 23
-406.45454975
 33
2500.0
  0
LINE
  5
58B
100
AcDbEntity
  8
MST_1_1
 62
   137
  6
CONTINUOUS
100
AcDbLine
 10
53.40786421
 20
-406.45454975
 30
2500.0
 11
55.65771812
 21
-416.45454975
 31
2500.0
  0
3DFACE
  5
58C
100
AcDbEntity
  8
MST_1_1
 62
   137
  6
CONTINUOUS
100
AcDbFace
 70
     0
 10
57.40786421
 20
-406.45454975
 30
2500.0
 11
56.8533415
 21
-407.50718133
 31
2500.0
 12
57.19907055
 22
-408.61023048
 32
2500.0
 13
57.73779087
 23
-407.50718133
 33
2500.0
  0
LINE
  5
58D
100
AcDbEntity
  8
MST_1_1
 62
   137
  6
CONTINUOUS
100
AcDbLine
 10
57.40786421
 20
-406.45454975
 30
2500.0
 11
57.67405285
 21
-407.6376872
 31
2500.0
  0
LINE
  5
58E
100
AcDbEntity
  8
MST_1_1
 62
   137
  6
CONTINUOUS
100
AcDbLine
 10
40.8533415
 20
-407.50718133
 30
2500.0
 11
37.73779087
 21
-407.50718133
 31
2500.0
  0
LINE
  5
58F
100
AcDbEntity
  8
MST_1_1
 62
   137
  6
CONTINUOUS
100
AcDbLine
 10
44.8533415
 20
-407.50718133
 30
2500.0
 11
41.73779087
 21
-407.50718133
 31
2500.0
  0
LINE
  5
590
100
AcDbEntity
  8
MST_1_1
 62
   137
  6
CONTINUOUS
100
AcDbLine
 10
48.8533415
 20
-407.50718133
 30
2500.0
 11
45.73779087
 21
-407.50718133
 31
2500.0
  0
LINE
  5
591
100
AcDbEntity
  8
MST_1_1
 62
   137
  6
CONTINUOUS
100
AcDbLine
 10
52.8533415
 20
-407.50718133
 30
2500.0
 11
49.73779087
 21
-407.50718133
 31
2500.0
  0
LINE
  5
592
100
AcDbEntity
  8
MST_1_1
 62
   137
  6
CONTINUOUS
100
AcDbLine
 10
56.8533415
 20
-407.50718133
 30
2500.0
 11
53.73779087
 21
-407.50718133
 31
2500.0
  0
LINE
  5
593
100
AcDbEntity
  8
MST_1_1
 62
   137
  6
CONTINUOUS
100
AcDbLine
 10
58.0389121
 20
-407.50718133
 30
2500.0
 11
57.73779087
 21
-407.50718133
 31
2500.0
  0
LINE
  5
594
100
AcDbEntity
  8
MST_1_1
 62
   137
  6
CONTINUOUS
100
AcDbLine
 10
36.0389121
 20
-415.40191817
 30
2500.0
 11
36.0389121
 21
-407.50718133
 31
2500.0
  0
LINE
  5
595
100
AcDbEntity
  8
MST_1_1
 62
   137
  6
CONTINUOUS
100
AcDbLine
 10
58.40270541
 20
-414.45454975
 30
2500.0
 11
58.40270541
 21
-408.45454975
 31
2500.0
  0
LINE
  5
596
100
AcDbEntity
  8
MST_1_1
 62
   137
  6
CONTINUOUS
100
AcDbLine
 10
594.0389121
 20
-413.30597832
 30
2500.0
 11
594.0389121
 21
-409.60312118
 31
2500.0
  0
LINE
  5
597
100
AcDbEntity
  8
MST_1_1
 62
   137
  6
CONTINUOUS
100
AcDbLine
 10
593.68376741
 20
-408.45454975
 30
2500.0
 11
593.68376741
 21
-414.45454975
 31
2500.0
  0
LINE
  5
598
100
AcDbEntity
  8
MST_1_1
 62
   137
  6
CONTINUOUS
100
AcDbLine
 10
58.0389121
 20
-415.40191817
 30
2500.0
 11
58.0389121
 21
-407.50718133
 31
2500.0
  0
LINE
  5
599
100
AcDbEntity
  8
MST_1_1
 62
   137
  6
CONTINUOUS
100
AcDbLine
 10
593.68376741
 20
-414.45454975
 30
2500.0
 11
58.40270541
 21
-414.45454975
 31
2500.0
  0
LINE
  5
59A
100
AcDbEntity
  8
MST_1_1
 62
   137
  6
CONTINUOUS
100
AcDbLine
 10
58.40270541
 20
-414.45454975
 30
2500.0
 11
58.0389121
 21
-415.40191817
 31
2500.0
  0
LINE
  5
59B
100
AcDbEntity
  8
MST_1_1
 62
   137
  6
CONTINUOUS
100
AcDbLine
 10
56.21224083
 20
-415.40191817
 30
2500.0
 11
58.0389121
 21
-415.40191817
 31
2500.0
  0
LINE
  5
59C
100
AcDbEntity
  8
MST_1_1
 62
   137
  6
CONTINUOUS
100
AcDbLine
 10
52.21224083
 20
-415.40191817
 30
2500.0
 11
55.32779145
 21
-415.40191817
 31
2500.0
  0
LINE
  5
59D
100
AcDbEntity
  8
MST_1_1
 62
   137
  6
CONTINUOUS
100
AcDbLine
 10
48.21224083
 20
-415.40191817
 30
2500.0
 11
51.32779145
 21
-415.40191817
 31
2500.0
  0
LINE
  5
59E
100
AcDbEntity
  8
MST_1_1
 62
   137
  6
CONTINUOUS
100
AcDbLine
 10
44.21224083
 20
-415.40191817
 30
2500.0
 11
47.32779145
 21
-415.40191817
 31
2500.0
  0
LINE
  5
59F
100
AcDbEntity
  8
MST_1_1
 62
   137
  6
CONTINUOUS
100
AcDbLine
 10
40.21224083
 20
-415.40191817
 30
2500.0
 11
43.32779145
 21
-415.40191817
 31
2500.0
  0
LINE
  5
5A0
100
AcDbEntity
  8
MST_1_1
 62
   137
  6
CONTINUOUS
100
AcDbLine
 10
36.0389121
 20
-415.40191817
 30
2500.0
 11
39.32779145
 21
-415.40191817
 31
2500.0
  0
LINE
  5
5A1
100
AcDbEntity
  8
MST_1_1
 62
   137
  6
CONTINUOUS
100
AcDbLine
 10
58.0389121
 20
-407.50718133
 30
2500.0
 11
58.40270541
 21
-408.45454975
 31
2500.0
  0
LWPOLYLINE
  5
5A2
100
AcDbEntity
  8
MST_1_1
 62
   137
  6
CONTINUOUS
100
AcDbPolyline
 90
        5
 70
     0
 43
0.0
 38
2500.0
 10
602.85420974
 20
-409.60312118
 10
603.1201087
 20
-408.45454954
 10
605.36820279
 20
-413.30597832
 10
605.10230373
 20
-414.45454975
 10
602.85420974
 20
-409.60312118
  0
LWPOLYLINE
  5
5A3
100
AcDbEntity
  8
MST_1_1
 62
   137
  6
CONTINUOUS
100
AcDbPolyline
 90
        5
 70
     0
 43
0.0
 38
2500.0
 10
606.28278116
 20
-409.60312118
 10
606.54868013
 20
-408.45454954
 10
608.79677422
 20
-413.30597832
 10
608.53087516
 20
-414.45454975
 10
606.28278116
 20
-409.60312118
  0
LWPOLYLINE
  5
5A4
100
AcDbEntity
  8
MST_1_1
 62
   137
  6
CONTINUOUS
100
AcDbPolyline
 90
        5
 70
     0
 43
0.0
 38
2500.0
 10
609.71135259
 20
-409.60312118
 10
609.97725156
 20
-408.45454954
 10
612.22534565
 20
-413.30597832
 10
611.95944659
 20
-414.45454975
 10
609.71135259
 20
-409.60312118
  0
LWPOLYLINE
  5
5A5
100
AcDbEntity
  8
MST_1_1
 62
   137
  6
CONTINUOUS
100
AcDbPolyline
 90
        5
 70
     0
 43
0.0
 38
2500.0
 10
613.13992402
 20
-409.60312118
 10
613.40582299
 20
-408.45454954
 10
615.65391708
 20
-413.30597832
 10
615.38801801
 20
-414.45454975
 10
613.13992402
 20
-409.60312118
  0
LWPOLYLINE
  5
5A6
100
AcDbEntity
  8
MST_1_1
 62
   137
  6
CONTINUOUS
100
AcDbPolyline
 90
        5
 70
     0
 43
0.0
 38
2500.0
 10
616.56849545
 20
-409.60312118
 10
616.83439442
 20
-408.45454954
 10
619.08248851
 20
-413.30597832
 10
618.81658944
 20
-414.45454975
 10
616.56849545
 20
-409.60312118
  0
LWPOLYLINE
  5
5A7
100
AcDbEntity
  8
MST_1_1
 62
   137
  6
CONTINUOUS
100
AcDbPolyline
 90
        5
 70
     0
 43
0.0
 38
2500.0
 10
619.99706688
 20
-409.60312118
 10
620.26296585
 20
-408.45454954
 10
622.51105994
 20
-413.30597832
 10
622.24516087
 20
-414.45454975
 10
619.99706688
 20
-409.60312118
  0
LWPOLYLINE
  5
5A8
100
AcDbEntity
  8
MST_1_1
 62
   137
  6
CONTINUOUS
100
AcDbPolyline
 90
        5
 70
     0
 43
0.0
 38
2500.0
 10
623.42563831
 20
-409.60312118
 10
623.69153728
 20
-408.45454954
 10
625.89911838
 20
-413.21855054
 10
625.63321931
 20
-414.36712197
 10
623.42563831
 20
-409.60312118
  0
LWPOLYLINE
  5
5A9
100
AcDbEntity
  8
MST_1_1
 62
   137
  6
CONTINUOUS
100
AcDbPolyline
 90
        5
 70
     0
 43
0.0
 38
2500.0
 10
626.84288801
 20
-409.78290382
 10
627.06322468
 20
-408.83114215
 10
628.92610351
 20
-412.85126925
 10
628.70576676
 20
-413.80303075
 10
626.84288801
 20
-409.78290382
  0
LINE
  5
5AA
100
AcDbEntity
  8
MST_1_1
 62
   137
  6
CONTINUOUS
100
AcDbLine
 10
594.0389121
 20
-413.30597832
 30
2500.0
 11
597.7129266
 21
-413.30597832
 31
2500.0
  0
LINE
  5
5AB
100
AcDbEntity
  8
MST_1_1
 62
   137
  6
CONTINUOUS
100
AcDbLine
 10
601.93963137
 20
-413.30597832
 30
2500.0
 11
604.57006946
 21
-413.30597832
 31
2500.0
  0
LINE
  5
5AC
100
AcDbEntity
  8
MST_1_1
 62
   137
  6
CONTINUOUS
100
AcDbLine
 10
602.85420974
 20
-409.60312118
 30
2500.0
 11
600.22377164
 21
-409.60312118
 31
2500.0
  0
LWPOLYLINE
  5
5AD
100
AcDbEntity
  8
MST_1_1
 62
   137
  6
CONTINUOUS
100
AcDbPolyline
 90
        5
 70
     0
 43
0.0
 38
2500.0
 10
599.42563831
 20
-409.60312118
 10
599.69153728
 20
-408.45454954
 10
601.93963137
 20
-413.30597832
 10
601.6737323
 20
-414.45454975
 10
599.42563831
 20
-409.60312118
  0
LINE
  5
5AE
100
AcDbEntity
  8
MST_1_1
 62
   137
  6
CONTINUOUS
100
AcDbLine
 10
598.51105994
 20
-413.30597832
 30
2500.0
 11
601.14149803
 21
-413.30597832
 31
2500.0
  0
LINE
  5
5AF
100
AcDbEntity
  8
MST_1_1
 62
   137
  6
CONTINUOUS
100
AcDbLine
 10
599.42563831
 20
-409.60312118
 30
2500.0
 11
596.79520021
 21
-409.60312118
 31
2500.0
  0
LWPOLYLINE
  5
5B0
100
AcDbEntity
  8
MST_1_1
 62
   137
  6
CONTINUOUS
100
AcDbPolyline
 90
        5
 70
     0
 43
0.0
 38
2500.0
 10
595.99706688
 20
-409.60312118
 10
596.26296585
 20
-408.45454954
 10
598.51105994
 20
-413.30597832
 10
598.24516087
 20
-414.45454975
 10
595.99706688
 20
-409.60312118
  0
LINE
  5
5B1
100
AcDbEntity
  8
MST_1_1
 62
   137
  6
CONTINUOUS
100
AcDbLine
 10
595.99706688
 20
-409.60312118
 30
2500.0
 11
594.0389121
 21
-409.60312118
 31
2500.0
  0
CIRCLE
  5
5B2
100
AcDbEntity
  8
MST_1_1
 62
   137
  6
CONTINUOUS
100
AcDbCircle
 10
-88.99233871
 20
-21.45454975
 30
0.0
 40
3.94736842
  0
LWPOLYLINE
  5
5B3
100
AcDbEntity
  8
MST_1_1
 62
   137
  6
CONTINUOUS
100
AcDbPolyline
 90
        6
 70
     1
 43
0.0
 38
2500.0
 39
-2500.0
 10
-88.99233871
 20
-19.14514852
 10
-86.99233858
 20
-20.29984913
 10
-86.99233858
 20
-22.60925036
 10
-88.99233871
 20
-23.76395098
 10
-90.99233885
 20
-22.60925036
 10
-90.99233885
 20
-20.29984913
  0
CIRCLE
  5
5B4
100
AcDbEntity
  8
MST_1_1
 62
   137
  6
CONTINUOUS
100
AcDbCircle
 10
-88.99233871
 20
-51.45454975
 30
0.0
 40
3.94736842
  0
LWPOLYLINE
  5
5B5
100
AcDbEntity
  8
MST_1_1
 62
   137
  6
CONTINUOUS
100
AcDbPolyline
 90
        6
 70
     1
 43
0.0
 38
2500.0
 39
-2500.0
 10
-88.99233871
 20
-49.14514852
 10
-86.99233858
 20
-50.29984913
 10
-86.99233858
 20
-52.60925036
 10
-88.99233871
 20
-53.76395098
 10
-90.99233885
 20
-52.60925036
 10
-90.99233885
 20
-50.29984913
  0
CIRCLE
  5
5B6
100
AcDbEntity
  8
MST_1_1
 62
   137
  6
CONTINUOUS
100
AcDbCircle
 10
-88.99233871
 20
-81.45454975
 30
0.0
 40
3.94736842
  0
LWPOLYLINE
  5
5B7
100
AcDbEntity
  8
MST_1_1
 62
   137
  6
CONTINUOUS
100
AcDbPolyline
 90
        6
 70
     1
 43
0.0
 38
2500.0
 39
-2500.0
 10
-88.99233871
 20
-79.14514852
 10
-86.99233858
 20
-80.29984913
 10
-86.99233858
 20
-82.60925036
 10
-88.99233871
 20
-83.76395098
 10
-90.99233885
 20
-82.60925036
 10
-90.99233885
 20
-80.29984913
  0
CIRCLE
  5
5B8
100
AcDbEntity
  8
MST_1_1
 62
   137
  6
CONTINUOUS
100
AcDbCircle
 10
-88.99233871
 20
-111.45454975
 30
0.0
 40
3.94736842
  0
LWPOLYLINE
  5
5B9
100
AcDbEntity
  8
MST_1_1
 62
   137
  6
CONTINUOUS
100
AcDbPolyline
 90
        6
 70
     1
 43
0.0
 38
2500.0
 39
-2500.0
 10
-88.99233871
 20
-109.14514852
 10
-86.99233858
 20
-110.29984913
 10
-86.99233858
 20
-112.60925036
 10
-88.99233871
 20
-113.76395098
 10
-90.99233885
 20
-112.60925036
 10
-90.99233885
 20
-110.29984913
  0
CIRCLE
  5
5BA
100
AcDbEntity
  8
MST_1_1
 62
   137
  6
CONTINUOUS
100
AcDbCircle
 10
-88.99233871
 20
-141.45454975
 30
0.0
 40
3.94736842
  0
LWPOLYLINE
  5
5BB
100
AcDbEntity
  8
MST_1_1
 62
   137
  6
CONTINUOUS
100
AcDbPolyline
 90
        6
 70
     1
 43
0.0
 38
2500.0
 39
-2500.0
 10
-88.99233871
 20
-139.14514852
 10
-86.99233858
 20
-140.29984913
 10
-86.99233858
 20
-142.60925036
 10
-88.99233871
 20
-143.76395098
 10
-90.99233885
 20
-142.60925036
 10
-90.99233885
 20
-140.29984913
  0
CIRCLE
  5
5BC
100
AcDbEntity
  8
MST_1_1
 62
   137
  6
CONTINUOUS
100
AcDbCircle
 10
-88.99233871
 20
-171.45454975
 30
0.0
 40
3.94736842
  0
LWPOLYLINE
  5
5BD
100
AcDbEntity
  8
MST_1_1
 62
   137
  6
CONTINUOUS
100
AcDbPolyline
 90
        6
 70
     1
 43
0.0
 38
2500.0
 39
-2500.0
 10
-88.99233871
 20
-169.14514852
 10
-86.99233858
 20
-170.29984913
 10
-86.99233858
 20
-172.60925036
 10
-88.99233871
 20
-173.76395098
 10
-90.99233885
 20
-172.60925036
 10
-90.99233885
 20
-170.29984913
  0
CIRCLE
  5
5BE
100
AcDbEntity
  8
MST_1_1
 62
   137
  6
CONTINUOUS
100
AcDbCircle
 10
-88.99233871
 20
-201.45454975
 30
0.0
 40
3.94736842
  0
LWPOLYLINE
  5
5BF
100
AcDbEntity
  8
MST_1_1
 62
   137
  6
CONTINUOUS
100
AcDbPolyline
 90
        6
 70
     1
 43
0.0
 38
2500.0
 39
-2500.0
 10
-88.99233871
 20
-199.14514852
 10
-86.99233858
 20
-200.29984913
 10
-86.99233858
 20
-202.60925036
 10
-88.99233871
 20
-203.76395098
 10
-90.99233885
 20
-202.60925036
 10
-90.99233885
 20
-200.29984913
  0
CIRCLE
  5
5C0
100
AcDbEntity
  8
MST_1_1
 62
   137
  6
CONTINUOUS
100
AcDbCircle
 10
-88.99233871
 20
-231.45454975
 30
0.0
 40
3.94736842
  0
LWPOLYLINE
  5
5C1
100
AcDbEntity
  8
MST_1_1
 62
   137
  6
CONTINUOUS
100
AcDbPolyline
 90
        6
 70
     1
 43
0.0
 38
2500.0
 39
-2500.0
 10
-88.99233871
 20
-229.14514852
 10
-86.99233858
 20
-230.29984913
 10
-86.99233858
 20
-232.60925036
 10
-88.99233871
 20
-233.76395098
 10
-90.99233885
 20
-232.60925036
 10
-90.99233885
 20
-230.29984913
  0
CIRCLE
  5
5C2
100
AcDbEntity
  8
MST_1_1
 62
   137
  6
CONTINUOUS
100
AcDbCircle
 10
-88.99233871
 20
-261.45454975
 30
0.0
 40
3.94736842
  0
LWPOLYLINE
  5
5C3
100
AcDbEntity
  8
MST_1_1
 62
   137
  6
CONTINUOUS
100
AcDbPolyline
 90
        6
 70
     1
 43
0.0
 38
2500.0
 39
-2500.0
 10
-88.99233871
 20
-259.14514852
 10
-86.99233858
 20
-260.29984913
 10
-86.99233858
 20
-262.60925036
 10
-88.99233871
 20
-263.76395098
 10
-90.99233885
 20
-262.60925036
 10
-90.99233885
 20
-260.29984913
  0
CIRCLE
  5
5C4
100
AcDbEntity
  8
MST_1_1
 62
   137
  6
CONTINUOUS
100
AcDbCircle
 10
-88.99233871
 20
-291.45454975
 30
0.0
 40
3.94736842
  0
LWPOLYLINE
  5
5C5
100
AcDbEntity
  8
MST_1_1
 62
   137
  6
CONTINUOUS
100
AcDbPolyline
 90
        6
 70
     1
 43
0.0
 38
2500.0
 39
-2500.0
 10
-88.99233871
 20
-289.14514852
 10
-86.99233858
 20
-290.29984913
 10
-86.99233858
 20
-292.60925036
 10
-88.99233871
 20
-293.76395098
 10
-90.99233885
 20
-292.60925036
 10
-90.99233885
 20
-290.29984913
  0
CIRCLE
  5
5C6
100
AcDbEntity
  8
MST_1_1
 62
   137
  6
CONTINUOUS
100
AcDbCircle
 10
-88.99233871
 20
-321.45454975
 30
0.0
 40
3.94736842
  0
LWPOLYLINE
  5
5C7
100
AcDbEntity
  8
MST_1_1
 62
   137
  6
CONTINUOUS
100
AcDbPolyline
 90
        6
 70
     1
 43
0.0
 38
2500.0
 39
-2500.0
 10
-88.99233871
 20
-319.14514852
 10
-86.99233858
 20
-320.29984913
 10
-86.99233858
 20
-322.60925036
 10
-88.99233871
 20
-323.76395098
 10
-90.99233885
 20
-322.60925036
 10
-90.99233885
 20
-320.29984913
  0
CIRCLE
  5
5C8
100
AcDbEntity
  8
MST_1_1
 62
   137
  6
CONTINUOUS
100
AcDbCircle
 10
-88.99233871
 20
-351.45454975
 30
0.0
 40
3.94736842
  0
LWPOLYLINE
  5
5C9
100
AcDbEntity
  8
MST_1_1
 62
   137
  6
CONTINUOUS
100
AcDbPolyline
 90
        6
 70
     1
 43
0.0
 38
2500.0
 39
-2500.0
 10
-88.99233871
 20
-349.14514852
 10
-86.99233858
 20
-350.29984913
 10
-86.99233858
 20
-352.60925036
 10
-88.99233871
 20
-353.76395098
 10
-90.99233885
 20
-352.60925036
 10
-90.99233885
 20
-350.29984913
  0
CIRCLE
  5
5CA
100
AcDbEntity
  8
MST_1_1
 62
   137
  6
CONTINUOUS
100
AcDbCircle
 10
-88.99233871
 20
-381.45454975
 30
0.0
 40
3.94736842
  0
LWPOLYLINE
  5
5CB
100
AcDbEntity
  8
MST_1_1
 62
   137
  6
CONTINUOUS
100
AcDbPolyline
 90
        6
 70
     1
 43
0.0
 38
2500.0
 39
-2500.0
 10
-88.99233871
 20
-379.14514852
 10
-86.99233858
 20
-380.29984913
 10
-86.99233858
 20
-382.60925036
 10
-88.99233871
 20
-383.76395098
 10
-90.99233885
 20
-382.60925036
 10
-90.99233885
 20
-380.29984913
  0
CIRCLE
  5
5CC
100
AcDbEntity
  8
MST_1_1
 62
   137
  6
CONTINUOUS
100
AcDbCircle
 10
-88.99233871
 20
-411.45454975
 30
0.0
 40
3.94736842
  0
LWPOLYLINE
  5
5CD
100
AcDbEntity
  8
MST_1_1
 62
   137
  6
CONTINUOUS
100
AcDbPolyline
 90
        6
 70
     1
 43
0.0
 38
2500.0
 39
-2500.0
 10
-88.99233871
 20
-409.14514852
 10
-86.99233858
 20
-410.29984913
 10
-86.99233858
 20
-412.60925036
 10
-88.99233871
 20
-413.76395098
 10
-90.99233885
 20
-412.60925036
 10
-90.99233885
 20
-410.29984913
  0
TEXT
  5
5CE
100
AcDbEntity
  8
MST_1_1
 62
     7
100
AcDbText
 10
101.0389121
 20
28.54545025
 30
0.0
 40
5.0
  1
60
  7
ARIAL
 50
89.9999975
 41
0.8
 51
0.0
100
AcDbText
  0
TEXT
  5
5CF
100
AcDbEntity
  8
MST_1_1
 62
     7
100
AcDbText
 10
-74.34408066
 20
6.04545025
 30
0.0
 40
5.0
  1
Distanzschrauben TOPROC 6.0x60
  7
ARIAL
 50
0.0
 41
0.8
 51
0.0
100
AcDbText
  0
TEXT
  5
5D0
100
AcDbEntity
  8
MST_1_1
 62
     7
100
AcDbText
 10
121.0389121
 20
28.54545025
 30
0.0
 40
5.0
  1
80
  7
ARIAL
 50
89.9999975
 41
0.8
 51
0.0
100
AcDbText
  0
TEXT
  5
5D1
100
AcDbEntity
  8
MST_1_1
 62
     7
100
AcDbText
 10
141.0389121
 20
28.54545025
 30
0.0
 40
5.0
  1
100
  7
ARIAL
 50
89.9999975
 41
0.8
 51
0.0
100
AcDbText
  0
TEXT
  5
5D2
100
AcDbEntity
  8
MST_1_1
 62
     7
100
AcDbText
 10
161.0389121
 20
28.54545025
 30
0.0
 40
5.0
  1
120
  7
ARIAL
 50
89.9999975
 41
0.8
 51
0.0
100
AcDbText
  0
TEXT
  5
5D3
100
AcDbEntity
  8
MST_1_1
 62
     7
100
AcDbText
 10
191.0389121
 20
28.54545025
 30
0.0
 40
5.0
  1
150
  7
ARIAL
 50
89.9999975
 41
0.8
 51
0.0
100
AcDbText
  0
TEXT
  5
5D4
100
AcDbEntity
  8
MST_1_1
 62
     7
100
AcDbText
 10
221.0389121
 20
28.54545025
 30
0.0
 40
5.0
  1
180
  7
ARIAL
 50
89.9999975
 41
0.8
 51
0.0
100
AcDbText
  0
TEXT
  5
5D5
100
AcDbEntity
  8
MST_1_1
 62
     7
100
AcDbText
 10
241.0389121
 20
28.54545025
 30
0.0
 40
5.0
  1
200
  7
ARIAL
 50
89.9999975
 41
0.8
 51
0.0
100
AcDbText
  0
TEXT
  5
5D6
100
AcDbEntity
  8
MST_1_1
 62
     7
100
AcDbText
 10
271.0389121
 20
28.54545025
 30
0.0
 40
5.0
  1
230
  7
ARIAL
 50
89.9999975
 41
0.8
 51
0.0
100
AcDbText
  0
TEXT
  5
5D7
100
AcDbEntity
  8
MST_1_1
 62
     7
100
AcDbText
 10
291.0389121
 20
28.54545025
 30
0.0
 40
5.0
  1
250
  7
ARIAL
 50
89.9999975
 41
0.8
 51
0.0
100
AcDbText
  0
TEXT
  5
5D8
100
AcDbEntity
  8
MST_1_1
 62
     7
100
AcDbText
 10
-153.19054565
 20
6.04545025
 30
0.0
 40
5.0
  1
Innensechskant SW4
  7
ARIAL
 50
0.0
 41
0.8
 51
0.0
100
AcDbText
  0
TEXT
  5
5D9
100
AcDbEntity
  8
MST_1_1
 62
     7
100
AcDbText
 10
341.0389121
 20
28.54545025
 30
0.0
 40
5.0
  1
300
  7
ARIAL
 50
89.9999975
 41
0.8
 51
0.0
100
AcDbText
  0
TEXT
  5
5DA
100
AcDbEntity
  8
MST_1_1
 62
     7
100
AcDbText
 10
391.0389121
 20
28.54545025
 30
0.0
 40
5.0
  1
350
  7
ARIAL
 50
89.9999975
 41
0.8
 51
0.0
100
AcDbText
  0
TEXT
  5
5DB
100
AcDbEntity
  8
MST_1_1
 62
     7
100
AcDbText
 10
441.0389121
 20
28.54545025
 30
0.0
 40
5.0
  1
400
  7
ARIAL
 50
89.9999975
 41
0.8
 51
0.0
100
AcDbText
  0
TEXT
  5
5DC
100
AcDbEntity
  8
MST_1_1
 62
     7
100
AcDbText
 10
491.0389121
 20
28.54545025
 30
0.0
 40
5.0
  1
450
  7
ARIAL
 50
89.9999975
 41
0.8
 51
0.0
100
AcDbText
  0
TEXT
  5
5DD
100
AcDbEntity
  8
MST_1_1
 62
     7
100
AcDbText
 10
541.0389121
 20
28.54545025
 30
0.0
 40
5.0
  1
500
  7
ARIAL
 50
89.9999975
 41
0.8
 51
0.0
100
AcDbText
  0
TEXT
  5
5DE
100
AcDbEntity
  8
MST_1_1
 62
     7
100
AcDbText
 10
641.0389121
 20
28.54545025
 30
0.0
 40
5.0
  1
600
  7
ARIAL
 50
89.9999975
 41
0.8
 51
0.0
100
AcDbText
  0
TEXT
  5
5DF
100
AcDbEntity
  8
MST_1_1
 62
     7
100
AcDbText
 10
-153.19054565
 20
-23.95454975
 30
0.0
 40
5.0
  1
Innensechskant SW4
  7
ARIAL
 50
0.0
 41
0.8
 51
0.0
100
AcDbText
  0
TEXT
  5
5E0
100
AcDbEntity
  8
MST_1_1
 62
     7
100
AcDbText
 10
-153.19054565
 20
-53.95454975
 30
0.0
 40
5.0
  1
Innensechskant SW4
  7
ARIAL
 50
0.0
 41
0.8
 51
0.0
100
AcDbText
  0
TEXT
  5
5E1
100
AcDbEntity
  8
MST_1_1
 62
     7
100
AcDbText
 10
-153.19054565
 20
-83.95454975
 30
0.0
 40
5.0
  1
Innensechskant SW4
  7
ARIAL
 50
0.0
 41
0.8
 51
0.0
100
AcDbText
  0
TEXT
  5
5E2
100
AcDbEntity
  8
MST_1_1
 62
     7
100
AcDbText
 10
-153.19054565
 20
-113.95454975
 30
0.0
 40
5.0
  1
Innensechskant SW4
  7
ARIAL
 50
0.0
 41
0.8
 51
0.0
100
AcDbText
  0
TEXT
  5
5E3
100
AcDbEntity
  8
MST_1_1
 62
     7
100
AcDbText
 10
-153.19054565
 20
-143.95454975
 30
0.0
 40
5.0
  1
Innensechskant SW4
  7
ARIAL
 50
0.0
 41
0.8
 51
0.0
100
AcDbText
  0
TEXT
  5
5E4
100
AcDbEntity
  8
MST_1_1
 62
     7
100
AcDbText
 10
-153.19054565
 20
-173.95454975
 30
0.0
 40
5.0
  1
Innensechskant SW4
  7
ARIAL
 50
0.0
 41
0.8
 51
0.0
100
AcDbText
  0
TEXT
  5
5E5
100
AcDbEntity
  8
MST_1_1
 62
     7
100
AcDbText
 10
-153.19054565
 20
-203.95454975
 30
0.0
 40
5.0
  1
Innensechskant SW4
  7
ARIAL
 50
0.0
 41
0.8
 51
0.0
100
AcDbText
  0
TEXT
  5
5E6
100
AcDbEntity
  8
MST_1_1
 62
     7
100
AcDbText
 10
-153.19054565
 20
-233.95454975
 30
0.0
 40
5.0
  1
Innensechskant SW4
  7
ARIAL
 50
0.0
 41
0.8
 51
0.0
100
AcDbText
  0
TEXT
  5
5E7
100
AcDbEntity
  8
MST_1_1
 62
     7
100
AcDbText
 10
-153.19054565
 20
-263.95454975
 30
0.0
 40
5.0
  1
Innensechskant SW4
  7
ARIAL
 50
0.0
 41
0.8
 51
0.0
100
AcDbText
  0
TEXT
  5
5E8
100
AcDbEntity
  8
MST_1_1
 62
     7
100
AcDbText
 10
-153.19054565
 20
-293.95454975
 30
0.0
 40
5.0
  1
Innensechskant SW4
  7
ARIAL
 50
0.0
 41
0.8
 51
0.0
100
AcDbText
  0
TEXT
  5
5E9
100
AcDbEntity
  8
MST_1_1
 62
     7
100
AcDbText
 10
-153.19054565
 20
-323.95454975
 30
0.0
 40
5.0
  1
Innensechskant SW4
  7
ARIAL
 50
0.0
 41
0.8
 51
0.0
100
AcDbText
  0
TEXT
  5
5EA
100
AcDbEntity
  8
MST_1_1
 62
     7
100
AcDbText
 10
-153.19054565
 20
-353.95454975
 30
0.0
 40
5.0
  1
Innensechskant SW4
  7
ARIAL
 50
0.0
 41
0.8
 51
0.0
100
AcDbText
  0
TEXT
  5
5EB
100
AcDbEntity
  8
MST_1_1
 62
     7
100
AcDbText
 10
-153.19054565
 20
-383.95454975
 30
0.0
 40
5.0
  1
Innensechskant SW4
  7
ARIAL
 50
0.0
 41
0.8
 51
0.0
100
AcDbText
  0
TEXT
  5
5EC
100
AcDbEntity
  8
MST_1_1
 62
     7
100
AcDbText
 10
-153.19054565
 20
-413.95454975
 30
0.0
 40
5.0
  1
Innensechskant SW4
  7
ARIAL
 50
0.0
 41
0.8
 51
0.0
100
AcDbText
  0
TEXT
  5
5ED
100
AcDbEntity
  8
MST_1_1
 62
     7
100
AcDbText
 10
-74.34408066
 20
-23.95454975
 30
0.0
 40
5.0
  1
Distanzschrauben TOPROC 6.0x80
  7
ARIAL
 50
0.0
 41
0.8
 51
0.0
100
AcDbText
  0
TEXT
  5
5EE
100
AcDbEntity
  8
MST_1_1
 62
     7
100
AcDbText
 10
-74.34408066
 20
-53.95454975
 30
0.0
 40
5.0
  1
Distanzschrauben TOPROC 6.0x100
  7
ARIAL
 50
0.0
 41
0.8
 51
0.0
100
AcDbText
  0
TEXT
  5
5EF
100
AcDbEntity
  8
MST_1_1
 62
     7
100
AcDbText
 10
-74.34408066
 20
-83.95454975
 30
0.0
 40
5.0
  1
Distanzschrauben TOPROC 6.0x120
  7
ARIAL
 50
0.0
 41
0.8
 51
0.0
100
AcDbText
  0
TEXT
  5
5F0
100
AcDbEntity
  8
MST_1_1
 62
     7
100
AcDbText
 10
-74.34408066
 20
-113.95454975
 30
0.0
 40
5.0
  1
Distanzschrauben TOPROC 6.0x150
  7
ARIAL
 50
0.0
 41
0.8
 51
0.0
100
AcDbText
  0
TEXT
  5
5F1
100
AcDbEntity
  8
MST_1_1
 62
     7
100
AcDbText
 10
-74.34408066
 20
-143.95454975
 30
0.0
 40
5.0
  1
Distanzschrauben TOPROC 6.0x180
  7
ARIAL
 50
0.0
 41
0.8
 51
0.0
100
AcDbText
  0
TEXT
  5
5F2
100
AcDbEntity
  8
MST_1_1
 62
     7
100
AcDbText
 10
-74.34408066
 20
-173.95454975
 30
0.0
 40
5.0
  1
Distanzschrauben TOPROC 6.0x200
  7
ARIAL
 50
0.0
 41
0.8
 51
0.0
100
AcDbText
  0
TEXT
  5
5F3
100
AcDbEntity
  8
MST_1_1
 62
     7
100
AcDbText
 10
-74.34408066
 20
-203.95454975
 30
0.0
 40
5.0
  1
Distanzschrauben TOPROC 6.0x230
  7
ARIAL
 50
0.0
 41
0.8
 51
0.0
100
AcDbText
  0
TEXT
  5
5F4
100
AcDbEntity
  8
MST_1_1
 62
     7
100
AcDbText
 10
-74.34408066
 20
-233.95454975
 30
0.0
 40
5.0
  1
Distanzschrauben TOPROC 6.0x250
  7
ARIAL
 50
0.0
 41
0.8
 51
0.0
100
AcDbText
  0
TEXT
  5
5F5
100
AcDbEntity
  8
MST_1_1
 62
     7
100
AcDbText
 10
-74.34408066
 20
-263.95454975
 30
0.0
 40
5.0
  1
Distanzschrauben TOPROC 6.0x300
  7
ARIAL
 50
0.0
 41
0.8
 51
0.0
100
AcDbText
  0
TEXT
  5
5F6
100
AcDbEntity
  8
MST_1_1
 62
     7
100
AcDbText
 10
-74.34408066
 20
-293.95454975
 30
0.0
 40
5.0
  1
Distanzschrauben TOPROC 6.0x350
  7
ARIAL
 50
0.0
 41
0.8
 51
0.0
100
AcDbText
  0
TEXT
  5
5F7
100
AcDbEntity
  8
MST_1_1
 62
     7
100
AcDbText
 10
-74.34408066
 20
-323.95454975
 30
0.0
 40
5.0
  1
Distanzschrauben TOPROC 6.0x400
  7
ARIAL
 50
0.0
 41
0.8
 51
0.0
100
AcDbText
  0
TEXT
  5
5F8
100
AcDbEntity
  8
MST_1_1
 62
     7
100
AcDbText
 10
-74.34408066
 20
-353.95454975
 30
0.0
 40
5.0
  1
Distanzschrauben TOPROC 6.0x450
  7
ARIAL
 50
0.0
 41
0.8
 51
0.0
100
AcDbText
  0
TEXT
  5
5F9
100
AcDbEntity
  8
MST_1_1
 62
     7
100
AcDbText
 10
-74.34408066
 20
-383.95454975
 30
0.0
 40
5.0
  1
Distanzschrauben TOPROC 6.0x500
  7
ARIAL
 50
0.0
 41
0.8
 51
0.0
100
AcDbText
  0
TEXT
  5
5FA
100
AcDbEntity
  8
MST_1_1
 62
     7
100
AcDbText
 10
-74.34408066
 20
-413.95454975
 30
0.0
 40
5.0
  1
Distanzschrauben TOPROC 6.0x600
  7
ARIAL
 50
0.0
 41
0.8
 51
0.0
100
AcDbText
  0
ENDSEC
  0
SECTION
  2
OBJECTS
  0
DICTIONARY
  5
1
100
AcDbDictionary
  3
ACAD_GROUP
350
2
  3
ACAD_MLINESTYLE
350
3
  0
DICTIONARY
  5
2
102
{CDWK_REACTORS
330
1
102
}
100
AcDbDictionary
  0
DICTIONARY
  5
3
102
{CDWK_REACTORS
330
1
102
}
100
AcDbDictionary
  3
STANDARD
350
4
  0
MLINESTYLE
  5
4
102
{CDWK_REACTORS
330
3
102
}
100
AcDbMlineStyle
  2
STANDARD
 70
     0
  3

 62
     0
 51
90.0
 52
90.0
 71
     2
 49
0.5
 62
   256
  6
BYLAYER
 49
-0.5
 62
   256
  6
BYLAYER
  0
ENDSEC
  0
EOF
