  0
SECTION
  2
HEADER
  9
$ACADVER
  1
AC1012
  9
$DWGCODEPAGE
  3
ANSI_1252
  9
$INSBASE
 10
0.0
 20
0.0
 30
0.0
  9
$EXTMIN
 10
-551.61757186
 20
-796.00596748
  9
$EXTMAX
 10
-47.7495717
 20
-429.72553932
  9
$LIMMIN
 10
-551.61757186
 20
-796.00596748
  9
$LIMMAX
 10
-47.7495717
 20
-429.72553932
  9
$ORTHOMODE
 70
     0
  9
$REGENMODE
 70
     1
  9
$FILLMODE
 70
     1
  9
$QTEXTMODE
 70
     0
  9
$MIRRTEXT
 70
     1
  9
$DRAGMODE
 70
     2
  9
$LTSCALE
 40
1.0
  9
$OSMODE
 70
     0
  9
$ATTMODE
 70
     1
  9
$TEXTSIZE
 40
3.5
  9
$TRACEWID
 40
1.0
  9
$TEXTSTYLE
  7
STANDARD
  9
$CLAYER
  8
0
  9
$CELTYPE
  6
BYLAYER
  9
$CECOLOR
 62
   256
  9
$DIMSCALE
 40
1.0
  9
$DIMASZ
 40
2.0
  9
$DIMEXO
 40
5.0
  9
$DIMDLI
 40
10.0
  9
$DIMRND
 40
0.0
  9
$DIMDLE
 40
2.0
  9
$DIMEXE
 40
2.0
  9
$DIMTP
 40
0.0
  9
$DIMTM
 40
0.0
  9
$DIMTXT
 40
2.5
  9
$DIMCEN
 40
1.5
  9
$DIMTSZ
 40
0.0
  9
$DIMTOL
 70
     0
  9
$DIMLIM
 70
     0
  9
$DIMTIH
 70
     1
  9
$DIMTOH
 70
     0
  9
$DIMSE1
 70
     0
  9
$DIMSE2
 70
     0
  9
$DIMTAD
 70
     1
  9
$DIMZIN
 70
     8
  9
$DIMBLK
  1

  9
$DIMASO
 70
     1
  9
$DIMSHO
 70
     1
  9
$DIMPOST
  1

  9
$DIMAPOST
  1

  9
$DIMALT
 70
     0
  9
$DIMALTD
 70
     2
  9
$DIMALTF
 40
25.4
  9
$DIMLFAC
 40
1.0
  9
$DIMTOFL
 70
     0
  9
$DIMTVP
 40
0.0
  9
$DIMTIX
 70
     0
  9
$DIMSOXD
 70
     0
  9
$DIMSAH
 70
     0
  9
$DIMBLK1
  1

  9
$DIMBLK2
  1

  9
$DIMSTYLE
  2
*UNNAMED
  9
$DIMCLRD
 70
     9
  9
$DIMCLRE
 70
     9
  9
$DIMCLRT
 70
     7
  9
$DIMTFAC
 40
1.0
  9
$DIMGAP
 40
0.09
  9
$DIMUNIT
 70
     2
  9
$LUNITS
 70
     2
  9
$LUPREC
 70
     6
  9
$AXISMODE
 70
     0
  9
$AXISUNIT
 10
0.0
 20
0.0
  9
$SKETCHINC
 40
0.1
  9
$FILLETRAD
 40
0.0
  9
$AUNITS
 70
     0
  9
$AUPREC
 70
     0
  9
$MENU
  1
ACAD
  9
$ELEVATION
 40
0.0
  9
$PELEVATION
 40
0.0
  9
$THICKNESS
 40
0.0
  9
$LIMCHECK
 70
     0
  9
$BLIPMODE
 70
     1
  9
$CHAMFERA
 40
0.0
  9
$CHAMFERB
 40
0.0
  9
$SKPOLY
 70
     1
  9
$TDCREATE
 40
2456310.0000000000
  9
$TDUPDATE
 40
2456310.0000000000
  9
$TDINDWG
 40
0.0
  9
$TDUSRTIMER
 40
0.0
  9
$USRTIMER
 70
     1
  9
$ANGBASE
 50
0.0
  9
$ANGDIR
 70
     0
  9
$PDMODE
 70
     0
  9
$PDSIZE
 40
0.0
  9
$PLINEWID
 40
0.0
  9
$COORDS
 70
     2
  9
$SPLFRAME
 70
     0
  9
$SPLINETYPE
 70
     6
  9
$SPLINESEGS
 70
     8
  9
$ATTDIA
 70
     1
  9
$ATTREQ
 70
     1
  9
$HANDLING
 70
     1
  9
$HANDSEED
  5
      BA
  9
$SURFTAB1
 70
     6
  9
$SURFTAB2
 70
     6
  9
$SURFTYPE
 70
     6
  9
$SURFU
 70
     6
  9
$SURFV
 70
     6
  9
$UCSNAME
  2

  9
$UCSORG
 10
0.0
 20
0.0
 30
0.0
  9
$UCSXDIR
 10
1.0
 20
0.0
 30
0.0
  9
$UCSYDIR
 10
0.0
 20
1.0
 30
0.0
  9
$PUCSNAME
  2

  9
$PUCSORG
 10
0.0
 20
0.0
 30
0.0
  9
$PUCSXDIR
 10
1.0
 20
0.0
 30
0.0
  9
$PUCSYDIR
 10
0.0
 20
1.0
 30
0.0
  9
$USERI1
 70
     0
  9
$USERI2
 70
     0
  9
$USERI3
 70
     0
  9
$USERI4
 70
     0
  9
$USERI5
 70
     0
  9
$USERR1
 40
0.0
  9
$USERR2
 40
0.0
  9
$USERR3
 40
0.0
  9
$USERR4
 40
0.0
  9
$USERR5
 40
0.0
  9
$WORLDVIEW
 70
     1
  9
$SHADEDGE
 70
     3
  9
$SHADEDIF
 70
    70
  9
$TILEMODE
 70
     1
  9
$MAXACTVP
 70
    16
  9
$PINSBASE
 10
0.0
 20
0.0
 30
0.0
  9
$PLIMCHECK
 70
     0
  9
$PEXTMIN
 10
1.0000000000000E+20
 20
1.0000000000000E+20
 30
1.0000000000000E+20
  9
$PEXTMAX
 10
-1.0000000000000E+20
 20
-1.0000000000000E+20
 30
-1.0000000000000E+20
  9
$PLIMMIN
 10
0.0
 20
0.0
  9
$UNITMODE
 70
     0
  9
$VISRETAIN
 70
     0
  9
$MEASUREMENT
 70
     1
  0
ENDSEC
  0
SECTION
  2
TABLES
  0
TABLE
  2
VPORT
  5
1A
100
AcDbSymbolTable
 70
     1
  0
ENDTAB
  0
TABLE
  2
STYLE
  5
1B
100
AcDbSymbolTable
 70
     4
  0
STYLE
  5
1C
100
AcDbSymbolTableRecord
100
AcDbTextStyleTableRecord
  2
STANDARD
 70
     0
 40
0.0
 41
1.0
 50
0.0
 71
     0
 42
3.5
  3
MONOTXT
  4

  0
STYLE
  5
1D
100
AcDbSymbolTableRecord
100
AcDbTextStyleTableRecord
  2
CADWORK1
 70
     0
 40
0.0
 41
1.0
 50
0.0
 71
     0
 42
3.5
  3
MONOTXT
  4

  0
STYLE
  5
1E
100
AcDbSymbolTableRecord
100
AcDbTextStyleTableRecord
  2
MONOTXT
 70
     0
 40
0.0
 41
1.0
 50
0.0
 71
     0
 42
3.5
  3
MONOTXT
  4

  0
STYLE
  5
1F
100
AcDbSymbolTableRecord
100
AcDbTextStyleTableRecord
  2
TAHOMA
 70
     0
 40
0.0
 41
1.0
 50
0.0
 71
     0
 42
3.5
  3

  4

1001
ACAD
1000
Tahoma
1071
        0
  0
STYLE
  5
20
100
AcDbSymbolTableRecord
100
AcDbTextStyleTableRecord
  2
ARIAL
 70
     0
 40
0.0
 41
1.0
 50
0.0
 71
     0
 42
3.5
  3

  4

1001
ACAD
1000
Arial
1071
        0
  0
ENDTAB
  0
TABLE
  2
LTYPE
  5
21
100
AcDbSymbolTable
 70
    11
  0
LTYPE
  5
22
100
AcDbSymbolTableRecord
100
AcDbLinetypeTableRecord
  2
BYBLOCK
 70
    64
  3

 72
    65
 73
     0
 40
0.0
  0
LTYPE
  5
23
100
AcDbSymbolTableRecord
100
AcDbLinetypeTableRecord
  2
BYLAYER
 70
    64
  3

 72
    65
 73
     0
 40
0.0
  0
LTYPE
  5
24
100
AcDbSymbolTableRecord
100
AcDbLinetypeTableRecord
  2
CONTINUOUS
 70
    64
  3
Solid line
 72
    65
 73
     0
 40
0.0
  0
LTYPE
  5
25
100
AcDbSymbolTableRecord
100
AcDbLinetypeTableRecord
  2
DOT
 70
    64
  3
. . . . . . . . . . . . . . . . . . . . . . . .
 72
    65
 73
     2
 40
2.5
 49
0.0
 74
     0
 49
-2.5
 74
     0
  0
LTYPE
  5
26
100
AcDbSymbolTableRecord
100
AcDbLinetypeTableRecord
  2
DASHED
 70
    64
  3
__ __ __ __ __ __ __ __ __ __ __ __ __ __ __ __
 72
    65
 73
     2
 40
7.5
 49
5.0
 74
     0
 49
-2.5
 74
     0
  0
LTYPE
  5
27
100
AcDbSymbolTableRecord
100
AcDbLinetypeTableRecord
  2
DAL
 70
    64
  3
Solid line (for MAPS)
 72
    65
 73
     0
 40
0.0
  0
LTYPE
  5
28
100
AcDbSymbolTableRecord
100
AcDbLinetypeTableRecord
  2
MUR
 70
    64
  3
Solid line (for MAPS)
 72
    65
 73
     0
 40
0.0
  0
LTYPE
  5
29
100
AcDbSymbolTableRecord
100
AcDbLinetypeTableRecord
  2
SOM
 70
    64
  3
Solid line (for MAPS)
 72
    65
 73
     0
 40
0.0
  0
LTYPE
  5
2A
100
AcDbSymbolTableRecord
100
AcDbLinetypeTableRecord
  2
COL
 70
    64
  3
Solid line (for MAPS)
 72
    65
 73
     0
 40
0.0
  0
LTYPE
  5
2B
100
AcDbSymbolTableRecord
100
AcDbLinetypeTableRecord
  2
LGN
 70
    64
  3
Solid line (for MAPS)
 72
    65
 73
     0
 40
0.0
  0
LTYPE
  5
2C
100
AcDbSymbolTableRecord
100
AcDbLinetypeTableRecord
  2
PNT
 70
    64
  3
Solid line (for MAPS)
 72
    65
 73
     0
 40
0.0
  0
ENDTAB
  0
TABLE
  2
LAYER
  5
2D
100
AcDbSymbolTable
 70
     1
  0
LAYER
  5
2E
100
AcDbSymbolTableRecord
100
AcDbLayerTableRecord
  2
0
 70
     0
 62
     1
  6
CONTINUOUS
  0
LAYER
  5
2F
100
AcDbSymbolTableRecord
100
AcDbLayerTableRecord
  2
MST_1_1
 70
     0
 62
     7
  6
CONTINUOUS
  0
ENDTAB
  0
TABLE
  2
VIEW
  5
30
100
AcDbSymbolTable
 70
     0
  0
ENDTAB
  0
TABLE
  2
UCS
  5
31
100
AcDbSymbolTable
 70
     0
  0
ENDTAB
  0
TABLE
  2
APPID
  5
32
100
AcDbSymbolTable
 70
     1
  0
APPID
  5
33
100
AcDbSymbolTableRecord
100
AcDbRegAppTableRecord
  2
ACAD
 70
     0
  0
ENDTAB
  0
TABLE
  2
DIMSTYLE
  5
34
100
AcDbSymbolTable
 70
     0
  0
ENDTAB
  0
TABLE
  2
BLOCK_RECORD
  5
35
100
AcDbSymbolTable
 70
     0
  0
BLOCK_RECORD
  5
36
100
AcDbSymbolTableRecord
100
AcDbBlockTableRecord
  2
*MODEL_SPACE
  0
BLOCK_RECORD
  5
37
100
AcDbSymbolTableRecord
100
AcDbBlockTableRecord
  2
*PAPER_SPACE
  0
BLOCK_RECORD
  5
38
100
AcDbSymbolTableRecord
100
AcDbBlockTableRecord
  2
CDWK_EXTR_0
  0
BLOCK_RECORD
  5
39
100
AcDbSymbolTableRecord
100
AcDbBlockTableRecord
  2
CDWK_EXTR_1D
  0
BLOCK_RECORD
  5
3A
100
AcDbSymbolTableRecord
100
AcDbBlockTableRecord
  2
CDWK_EXTR_1G
  0
BLOCK_RECORD
  5
3B
100
AcDbSymbolTableRecord
100
AcDbBlockTableRecord
  2
CDWK_EXTR_2
  0
BLOCK_RECORD
  5
3C
100
AcDbSymbolTableRecord
100
AcDbBlockTableRecord
  2
CDWK_EXTR_3
  0
BLOCK_RECORD
  5
3D
100
AcDbSymbolTableRecord
100
AcDbBlockTableRecord
  2
CDWK_EXTR_4
  0
BLOCK_RECORD
  5
3E
100
AcDbSymbolTableRecord
100
AcDbBlockTableRecord
  2
CDWK_PTTYP0
  0
ENDTAB
  0
ENDSEC
  0
SECTION
  2
BLOCKS
  0
BLOCK
  5
3F
100
AcDbEntity
  8
0
100
AcDbBlockBegin
  2
*MODEL_SPACE
 70
     0
 10
0.0
 20
0.0
 30
0.0
  3
*MODEL_SPACE
  1

  0
ENDBLK
  5
40
100
AcDbEntity
100
AcDbBlockEnd
  0
BLOCK
  5
41
100
AcDbEntity
  8
0
100
AcDbBlockBegin
  2
*PAPER_SPACE
 70
     0
 10
0.0
 20
0.0
 30
0.0
  3
*PAPER_SPACE
  1

  0
ENDBLK
  5
42
100
AcDbEntity
100
AcDbBlockEnd
  0
BLOCK
  5
43
100
AcDbEntity
  8
0
100
AcDbBlockBegin
  2
CDWK_EXTR_0
 70
     0
 10
0.0
 20
0.0
 30
0.0
  3
CDWK_EXTR_0
  1

  4
Cadwork line-extremity
  0
LINE
  5
44
100
AcDbEntity
  8
0
 62
     0
100
AcDbLine
 10
0.0
 20
0.0
 30
0.0
 11
2.0
 21
0.5
 31
0.0
  0
LINE
  5
45
100
AcDbEntity
  8
0
 62
     0
100
AcDbLine
 10
0.0
 20
0.0
 30
0.0
 11
2.0
 21
-0.5
 31
0.0
  0
LINE
  5
46
100
AcDbEntity
  8
0
 62
     0
100
AcDbLine
 10
2.0
 20
0.5
 30
0.0
 11
2.0
 21
-0.5
 31
0.0
  0
ENDBLK
  5
47
100
AcDbEntity
100
AcDbBlockEnd
  0
BLOCK
  5
48
100
AcDbEntity
  8
0
100
AcDbBlockBegin
  2
CDWK_EXTR_1D
 70
     0
 10
0.0
 20
0.0
 30
0.0
  3
CDWK_EXTR_1D
  1

  4
Cadwork line-extremity
  0
LINE
  5
49
100
AcDbEntity
  8
0
 62
     0
100
AcDbLine
 10
0.0
 20
0.0
 30
0.0
 11
0.0
 21
1.0
 31
0.0
  0
LINE
  5
4A
100
AcDbEntity
  8
0
 62
     0
100
AcDbLine
 10
0.0
 20
1.0
 30
0.0
 11
0.5
 21
1.5
 31
0.0
  0
LINE
  5
4B
100
AcDbEntity
  8
0
 62
     0
100
AcDbLine
 10
0.5
 20
1.5
 30
0.0
 11
1.5
 21
1.5
 31
0.0
  0
ENDBLK
  5
4C
100
AcDbEntity
100
AcDbBlockEnd
  0
BLOCK
  5
4D
100
AcDbEntity
  8
0
100
AcDbBlockBegin
  2
CDWK_EXTR_1G
 70
     0
 10
0.0
 20
0.0
 30
0.0
  3
CDWK_EXTR_1G
  1

  4
Cadwork line-extremity
  0
LINE
  5
4E
100
AcDbEntity
  8
0
 62
     0
100
AcDbLine
 10
0.0
 20
0.0
 30
0.0
 11
0.0
 21
-1.0
 31
0.0
  0
LINE
  5
4F
100
AcDbEntity
  8
0
 62
     0
100
AcDbLine
 10
0.0
 20
-1.0
 30
0.0
 11
0.5
 21
-1.5
 31
0.0
  0
LINE
  5
50
100
AcDbEntity
  8
0
 62
     0
100
AcDbLine
 10
0.5
 20
-1.5
 30
0.0
 11
1.5
 21
-1.5
 31
0.0
  0
ENDBLK
  5
51
100
AcDbEntity
100
AcDbBlockEnd
  0
BLOCK
  5
52
100
AcDbEntity
  8
0
100
AcDbBlockBegin
  2
CDWK_EXTR_2
 70
     0
 10
0.0
 20
0.0
 30
0.0
  3
CDWK_EXTR_2
  1

  4
Cadwork line-extremity
  0
SOLID
  5
53
100
AcDbEntity
  8
0
 62
     0
100
AcDbTrace
 10
0.0
 20
0.0
 11
2.0
 21
0.5
 12
2.0
 22
-0.5
 13
2.0
 23
-0.5
  0
ENDBLK
  5
54
100
AcDbEntity
100
AcDbBlockEnd
  0
BLOCK
  5
55
100
AcDbEntity
  8
0
100
AcDbBlockBegin
  2
CDWK_EXTR_3
 70
     0
 10
0.0
 20
0.0
 30
0.0
  3
CDWK_EXTR_3
  1

  4
Cadwork line-extremity
  0
SOLID
  5
56
100
AcDbEntity
  8
0
 62
     0
100
AcDbTrace
 10
0.0
 20
0.0
 11
2.0
 21
0.5
 12
2.0
 22
-0.5
 13
2.0
 23
-0.5
  0
LINE
  5
57
100
AcDbEntity
  8
0
 62
     0
100
AcDbLine
 10
0.0
 20
1.0
 30
0.0
 11
0.0
 21
-1.0
 31
0.0
  0
ENDBLK
  5
58
100
AcDbEntity
100
AcDbBlockEnd
  0
BLOCK
  5
59
100
AcDbEntity
  8
0
100
AcDbBlockBegin
  2
CDWK_EXTR_4
 70
     0
 10
0.0
 20
0.0
 30
0.0
  3
CDWK_EXTR_4
  1

  4
Cadwork line-extremity
  0
POLYLINE
  5
5A
100
AcDbEntity
  8
0
 62
     0
100
AcDb2dPolyline
 70
     1
 66
     1
 10
0.0
 20
0.0
 30
0.0
 40
0.5
 41
0.5
  0
VERTEX
  5
5B
100
AcDbEntity
  8
0
100
AcDbVertex
100
AcDb2dVertex
 10
-0.25
 20
0.0
 30
0.0
 42
1.0
  0
VERTEX
  5
5C
100
AcDbEntity
  8
0
100
AcDbVertex
100
AcDb2dVertex
 10
0.25
 20
0.0
 30
0.0
 42
1.0
  0
SEQEND
  5
5D
100
AcDbEntity
  0
ENDBLK
  5
5E
100
AcDbEntity
100
AcDbBlockEnd
  0
BLOCK
  5
5F
100
AcDbEntity
  8
0
100
AcDbBlockBegin
  2
CDWK_PTTYP0
 70
     0
 10
0.0
 20
0.0
 30
0.0
  3
CDWK_PTTYP0
  1

  4
Cadwork point
  0
POINT
  5
60
100
AcDbEntity
  8
0
 62
     0
100
AcDbPoint
 10
0.0
 20
0.0
 30
0.0
  0
ENDBLK
  5
61
100
AcDbEntity
100
AcDbBlockEnd
  0
ENDSEC
  0
SECTION
  2
ENTITIES
  0
LINE
  5
62
100
AcDbEntity
  8
MST_1_1
 62
     7
  6
DASHED
100
AcDbLine
 10
-386.45132855
 20
-592.32203697
 30
0.0
 11
-386.45132855
 21
-782.32203697
 31
0.0
  0
MTEXT
  5
63
100
AcDbEntity
  8
MST_1_1
 62
   102
100
AcDbMText
 10
-536.82930548
 20
-446.93273677
 30
2500.0
 11
1.0
 21
0.0
 31
0.0
 40
20.0
 41
336.79292277
 71
     1
 72
     1
  1
\fTahoma|b0|i0|c0|p18;\H20;\W0.80000001;\C7;Senkscheiben (Cuvetten) gedreht\PPROFIX\P35.610 / 35.611
  0
LWPOLYLINE
  5
64
102
{ACAD_REACTORS
330
65
102
}
100
AcDbEntity
  8
MST_1_1
 62
    12
100
AcDbPolyline
 90
       46
 70
     1
 43
0.0
 10
-53.90178507
 20
-436.36698677
 10
-54.03260641
 20
-436.35634843
 10
-54.15675574
 20
-436.3255601
 10
-54.27256107
 20
-436.27631177
 10
-54.37835041
 20
-436.21029343
 10
-54.47245174
 20
-436.1291951
 10
-54.55319307
 20
-436.03470677
 10
-54.61890241
 20
-435.92851843
 10
-54.66790774
 20
-435.8123201
 10
-54.69853707
 20
-435.68780177
 10
-54.70911841
 20
-435.55665343
 10
-54.70911841
 20
-435.55665343
 10
-54.69853707
 20
-435.42544127
 10
-54.66790774
 20
-435.3008361
 10
-54.61890241
 20
-435.18453493
 10
-54.55319307
 20
-435.07823477
 10
-54.47245174
 20
-434.9836326
 10
-54.37835041
 20
-434.90242543
 10
-54.27256107
 20
-434.83631027
 10
-54.15675574
 20
-434.7869841
 10
-54.03260641
 20
-434.75614393
 10
-53.90178507
 20
-434.74548677
 10
-53.90178507
 20
-434.74548677
 10
-53.77113041
 20
-434.75614393
 10
-53.64708774
 20
-434.7869841
 10
-53.53133907
 20
-434.83631027
 10
-53.42556641
 20
-434.90242543
 10
-53.33145174
 20
-434.9836326
 10
-53.25067707
 20
-435.07823477
 10
-53.18492441
 20
-435.18453493
 10
-53.13587574
 20
-435.3008361
 10
-53.10521307
 20
-435.42544127
 10
-53.09461841
 20
-435.55665343
 10
-53.09461841
 20
-435.55665343
 10
-53.10521307
 20
-435.68780177
 10
-53.13587574
 20
-435.8123201
 10
-53.18492441
 20
-435.92851843
 10
-53.25067707
 20
-436.03470677
 10
-53.33145174
 20
-436.1291951
 10
-53.42556641
 20
-436.21029343
 10
-53.53133907
 20
-436.27631177
 10
-53.64708774
 20
-436.3255601
 10
-53.77113041
 20
-436.35634843
 10
-53.90178507
 20
-436.36698677
 10
-53.90178507
 20
-436.36698677
 10
-53.90178507
 20
-436.36698677
  0
HATCH
  5
65
100
AcDbEntity
  8
MST_1_1
 62
    12
100
AcDbHatch
 10
0.0
 20
0.0
 30
0.0
210
0.0
220
0.0
230
1.0
  2
SOLID
 70
     1
 71
     1
 91
        1
 92
        7
 72
     0
 73
     1
 93
       40
 10
-53.90178507
 20
-436.36698677
 10
-54.03260641
 20
-436.35634843
 10
-54.15675574
 20
-436.3255601
 10
-54.27256107
 20
-436.27631177
 10
-54.37835041
 20
-436.21029343
 10
-54.47245174
 20
-436.1291951
 10
-54.55319307
 20
-436.03470677
 10
-54.61890241
 20
-435.92851843
 10
-54.66790774
 20
-435.8123201
 10
-54.69853707
 20
-435.68780177
 10
-54.70911841
 20
-435.55665343
 10
-54.69853707
 20
-435.42544127
 10
-54.66790774
 20
-435.3008361
 10
-54.61890241
 20
-435.18453493
 10
-54.55319307
 20
-435.07823477
 10
-54.47245174
 20
-434.9836326
 10
-54.37835041
 20
-434.90242543
 10
-54.27256107
 20
-434.83631027
 10
-54.15675574
 20
-434.7869841
 10
-54.03260641
 20
-434.75614393
 10
-53.90178507
 20
-434.74548677
 10
-53.77113041
 20
-434.75614393
 10
-53.64708774
 20
-434.7869841
 10
-53.53133907
 20
-434.83631027
 10
-53.42556641
 20
-434.90242543
 10
-53.33145174
 20
-434.9836326
 10
-53.25067707
 20
-435.07823477
 10
-53.18492441
 20
-435.18453493
 10
-53.13587574
 20
-435.3008361
 10
-53.10521307
 20
-435.42544127
 10
-53.09461841
 20
-435.55665343
 10
-53.10521307
 20
-435.68780177
 10
-53.13587574
 20
-435.8123201
 10
-53.18492441
 20
-435.92851843
 10
-53.25067707
 20
-436.03470677
 10
-53.33145174
 20
-436.1291951
 10
-53.42556641
 20
-436.21029343
 10
-53.53133907
 20
-436.27631177
 10
-53.64708774
 20
-436.3255601
 10
-53.77113041
 20
-436.35634843
 97
        1
330
64
 75
     0
 76
     2
 47
0.775229
 98
        1
 10
0.0
 20
0.0
  0
LWPOLYLINE
  5
66
102
{ACAD_REACTORS
330
67
102
}
100
AcDbEntity
  8
MST_1_1
 62
    12
100
AcDbPolyline
 90
        8
 70
     1
 43
0.0
 10
-121.36678507
 20
-436.93273677
 10
-55.39895174
 20
-436.93273677
 10
-55.39895174
 20
-436.93273677
 10
-55.39895174
 20
-453.51398677
 10
-55.39895174
 20
-453.51398677
 10
-121.36678507
 20
-453.51398677
 10
-121.36678507
 20
-453.51398677
 10
-121.36678507
 20
-436.93273677
  0
HATCH
  5
67
100
AcDbEntity
  8
MST_1_1
 62
    12
100
AcDbHatch
 10
0.0
 20
0.0
 30
0.0
210
0.0
220
0.0
230
1.0
  2
SOLID
 70
     1
 71
     1
 91
        1
 92
        7
 72
     0
 73
     1
 93
        4
 10
-121.36678507
 20
-436.93273677
 10
-55.39895174
 20
-436.93273677
 10
-55.39895174
 20
-453.51398677
 10
-121.36678507
 20
-453.51398677
 97
        1
330
66
 75
     0
 76
     2
 47
0.775229
 98
        1
 10
0.0
 20
0.0
  0
LINE
  5
68
100
AcDbEntity
  8
MST_1_1
100
AcDbLine
 10
-121.36678507
 20
-453.51398677
 30
0.0
 11
-121.36678507
 21
-453.51398677
 31
0.0
  0
LINE
  5
69
100
AcDbEntity
  8
MST_1_1
100
AcDbLine
 10
-121.36678507
 20
-453.51398677
 30
0.0
 11
-121.36678507
 21
-453.51398677
 31
0.0
  0
LINE
  5
6A
100
AcDbEntity
  8
MST_1_1
100
AcDbLine
 10
-121.36678507
 20
-453.51398677
 30
0.0
 11
-121.36678507
 21
-453.51398677
 31
0.0
  0
LINE
  5
6B
100
AcDbEntity
  8
MST_1_1
100
AcDbLine
 10
-121.36678507
 20
-453.51398677
 30
0.0
 11
-121.36678507
 21
-453.51398677
 31
0.0
  0
LINE
  5
6C
100
AcDbEntity
  8
MST_1_1
100
AcDbLine
 10
-121.36678507
 20
-453.51398677
 30
0.0
 11
-121.36678507
 21
-453.51398677
 31
0.0
  0
LINE
  5
6D
100
AcDbEntity
  8
MST_1_1
100
AcDbLine
 10
-121.36678507
 20
-453.51398677
 30
0.0
 11
-121.36678507
 21
-453.51398677
 31
0.0
  0
LINE
  5
6E
100
AcDbEntity
  8
MST_1_1
100
AcDbLine
 10
-121.36678507
 20
-453.51398677
 30
0.0
 11
-121.36678507
 21
-453.51398677
 31
0.0
  0
LINE
  5
6F
100
AcDbEntity
  8
MST_1_1
100
AcDbLine
 10
-121.36678507
 20
-453.51398677
 30
0.0
 11
-121.36678507
 21
-453.51398677
 31
0.0
  0
LINE
  5
70
100
AcDbEntity
  8
MST_1_1
100
AcDbLine
 10
-121.36678507
 20
-453.51398677
 30
0.0
 11
-121.36678507
 21
-453.51398677
 31
0.0
  0
LINE
  5
71
100
AcDbEntity
  8
MST_1_1
100
AcDbLine
 10
-121.36678507
 20
-453.51398677
 30
0.0
 11
-121.36678507
 21
-453.51398677
 31
0.0
  0
LINE
  5
72
100
AcDbEntity
  8
MST_1_1
100
AcDbLine
 10
-121.36678507
 20
-453.51398677
 30
0.0
 11
-121.36678507
 21
-453.51398677
 31
0.0
  0
LWPOLYLINE
  5
73
102
{ACAD_REACTORS
330
74
102
}
100
AcDbEntity
  8
MST_1_1
 62
   190
100
AcDbPolyline
 90
        8
 70
     1
 43
0.0
 10
-88.56028507
 20
-438.08240343
 10
-56.54545174
 20
-438.08240343
 10
-56.54545174
 20
-438.08240343
 10
-56.54545174
 20
-452.3661551
 10
-56.54545174
 20
-452.3661551
 10
-88.56028507
 20
-452.3661551
 10
-88.56028507
 20
-452.3661551
 10
-88.56028507
 20
-438.08240343
  0
HATCH
  5
74
100
AcDbEntity
  8
MST_1_1
 62
   190
100
AcDbHatch
 10
0.0
 20
0.0
 30
0.0
210
0.0
220
0.0
230
1.0
  2
SOLID
 70
     1
 71
     1
 91
        1
 92
        7
 72
     0
 73
     1
 93
        4
 10
-88.56028507
 20
-438.08240343
 10
-56.54545174
 20
-438.08240343
 10
-56.54545174
 20
-452.3661551
 10
-88.56028507
 20
-452.3661551
 97
        1
330
73
 75
     0
 76
     2
 47
0.775229
 98
        1
 10
0.0
 20
0.0
  0
LWPOLYLINE
  5
75
102
{ACAD_REACTORS
330
76
102
}
100
AcDbEntity
  8
MST_1_1
 62
    12
100
AcDbPolyline
 90
       22
 70
     1
 43
0.0
 10
-86.64245174
 20
-450.07288677
 10
-86.64245174
 20
-440.9863701
 10
-86.64245174
 20
-440.9863701
 10
-78.46311841
 20
-440.9863701
 10
-78.46311841
 20
-440.9863701
 10
-78.46311841
 20
-443.4507201
 10
-78.46311841
 20
-443.4507201
 10
-82.23911841
 20
-443.4507201
 10
-82.23911841
 20
-443.4507201
 10
-82.23911841
 20
-444.50533677
 10
-82.23911841
 20
-444.50533677
 10
-78.82145174
 20
-444.50533677
 10
-78.82145174
 20
-444.50533677
 10
-78.82145174
 20
-446.83313677
 10
-78.82145174
 20
-446.83313677
 10
-82.23911841
 20
-446.83313677
 10
-82.23911841
 20
-446.83313677
 10
-82.23911841
 20
-450.07288677
 10
-82.23911841
 20
-450.07288677
 10
-86.64245174
 20
-450.07288677
 10
-86.64245174
 20
-450.07288677
 10
-86.64245174
 20
-450.07288677
  0
HATCH
  5
76
100
AcDbEntity
  8
MST_1_1
 62
    12
100
AcDbHatch
 10
0.0
 20
0.0
 30
0.0
210
0.0
220
0.0
230
1.0
  2
SOLID
 70
     1
 71
     1
 91
        1
 92
        7
 72
     0
 73
     1
 93
       10
 10
-86.64245174
 20
-450.07288677
 10
-86.64245174
 20
-440.9863701
 10
-78.46311841
 20
-440.9863701
 10
-78.46311841
 20
-443.4507201
 10
-82.23911841
 20
-443.4507201
 10
-82.23911841
 20
-444.50533677
 10
-78.82145174
 20
-444.50533677
 10
-78.82145174
 20
-446.83313677
 10
-82.23911841
 20
-446.83313677
 10
-82.23911841
 20
-450.07288677
 97
        1
330
75
 75
     0
 76
     2
 47
0.775229
 98
        1
 10
0.0
 20
0.0
  0
LWPOLYLINE
  5
77
102
{ACAD_REACTORS
330
78
102
}
100
AcDbEntity
  8
MST_1_1
 62
   190
100
AcDbPolyline
 90
      178
 70
     1
 43
0.0
 10
-90.41778507
 20
-445.54773677
 10
-90.42135707
 20
-445.74590348
 10
-90.43206107
 20
-445.9413705
 10
-90.44987907
 20
-446.13411812
 10
-90.47479307
 20
-446.32412663
 10
-90.50678507
 20
-446.51137635
 10
-90.54583707
 20
-446.69584757
 10
-90.59193107
 20
-446.87752058
 10
-90.64504907
 20
-447.0563757
 10
-90.70517307
 20
-447.23239322
 10
-90.77228507
 20
-447.40555343
 10
-90.77228507
 20
-447.40555343
 10
-90.84601807
 20
-447.5760273
 10
-90.92640907
 20
-447.74277437
 10
-91.01344607
 20
-447.90580283
 10
-91.10711707
 20
-448.0651209
 10
-91.20741007
 20
-448.22073677
 10
-91.31431307
 20
-448.37265863
 10
-91.42781407
 20
-448.5208947
 10
-91.54790107
 20
-448.66545317
 10
-91.67456207
 20
-448.80634223
 10
-91.80778507
 20
-448.9435701
 10
-91.80778507
 20
-448.9435701
 10
-91.94652374
 20
-449.07335088
 10
-92.08943441
 20
-449.19691837
 10
-92.23650907
 20
-449.31426525
 10
-92.38773974
 20
-449.42538423
 10
-92.54311841
 20
-449.53026802
 10
-92.70263707
 20
-449.6289093
 10
-92.86628774
 20
-449.72130078
 10
-93.03406241
 20
-449.80743517
 10
-93.20595307
 20
-449.88730515
 10
-93.38195174
 20
-449.96090343
 10
-93.38195174
 20
-449.96090343
 10
-93.56099974
 20
-450.02790157
 10
-93.74251574
 20
-450.0879585
 10
-93.92645774
 20
-450.14104803
 10
-94.11278374
 20
-450.18714397
 10
-94.30145174
 20
-450.2262201
 10
-94.49241974
 20
-450.25825023
 10
-94.68564574
 20
-450.28320817
 10
-94.88108774
 20
-450.3010677
 10
-95.07870374
 20
-450.31180263
 10
-95.27845174
 20
-450.31538677
 10
-95.27845174
 20
-450.31538677
 10
-95.48037207
 20
-450.31180263
 10
-95.67981441
 20
-450.3010677
 10
-95.87675074
 20
-450.28320817
 10
-96.07115307
 20
-450.25825023
 10
-96.26299341
 20
-450.2262201
 10
-96.45224374
 20
-450.18714397
 10
-96.63887607
 20
-450.14104803
 10
-96.82286241
 20
-450.0879585
 10
-97.00417474
 20
-450.02790157
 10
-97.18278507
 20
-449.96090343
 10
-97.18278507
 20
-449.96090343
 10
-97.35871157
 20
-449.8871878
 10
-97.53059707
 20
-449.80696437
 10
-97.69845057
 20
-449.72023833
 10
-97.86228107
 20
-449.6270149
 10
-98.02209757
 20
-449.52729927
 10
-98.17790907
 20
-449.42109663
 10
-98.32972457
 20
-449.3084122
 10
-98.47755307
 20
-449.18925117
 10
-98.62140357
 20
-449.06361873
 10
-98.76128507
 20
-448.9315201
 10
-98.76128507
 20
-448.9315201
 10
-98.89284391
 20
-448.79774522
 10
-99.01799574
 20
-448.66000103
 10
-99.13670357
 20
-448.51830325
 10
-99.24893041
 20
-448.37266757
 10
-99.35463924
 20
-448.22310968
 10
-99.45379307
 20
-448.0696453
 10
-99.54635491
 20
-447.91229012
 10
-99.63228774
 20
-447.75105983
 10
-99.71155457
 20
-447.58597015
 10
-99.78411841
 20
-447.41703677
 10
-99.78411841
 20
-447.41703677
 10
-99.84993624
 20
-447.24391412
 10
-99.90888107
 20
-447.06770957
 10
-99.96093991
 20
-446.88842822
 10
-100.00609974
 20
-446.70607517
 10
-100.04434757
 20
-446.52065552
 10
-100.07567041
 20
-446.33217437
 10
-100.10005524
 20
-446.14063682
 10
-100.11748907
 20
-445.94604797
 10
-100.12795891
 20
-445.74841292
 10
-100.13145174
 20
-445.54773677
 10
-100.13145174
 20
-445.54773677
 10
-100.12795891
 20
-445.34706473
 10
-100.11748907
 20
-445.1493425
 10
-100.10005524
 20
-444.95456087
 10
-100.07567041
 20
-444.76271063
 10
-100.04434757
 20
-444.5737826
 10
-100.00609974
 20
-444.38776757
 10
-99.96093991
 20
-444.20465633
 10
-99.90888107
 20
-444.0244397
 10
-99.84993624
 20
-443.84710847
 10
-99.78411841
 20
-443.67265343
 10
-99.78411841
 20
-443.67265343
 10
-99.71155457
 20
-443.50258698
 10
-99.63228774
 20
-443.33641383
 10
-99.54635491
 20
-443.17417328
 10
-99.45379307
 20
-443.01590463
 10
-99.35463924
 20
-442.86164718
 10
-99.24893041
 20
-442.71144023
 10
-99.13670357
 20
-442.56532308
 10
-99.01799574
 20
-442.42333503
 10
-98.89284391
 20
-442.28551538
 10
-98.76128507
 20
-442.15190343
 10
-98.76128507
 20
-442.15190343
 10
-98.62248124
 20
-442.0215116
 10
-98.47965441
 20
-441.89738877
 10
-98.33278157
 20
-441.77955393
 10
-98.18183974
 20
-441.6680261
 10
-98.02680591
 20
-441.56282427
 10
-97.86765707
 20
-441.46396743
 10
-97.70437024
 20
-441.3714746
 10
-97.53692241
 20
-441.28536477
 10
-97.36529057
 20
-441.20565693
 10
-97.18945174
 20
-441.1323701
 10
-97.18945174
 20
-441.1323701
 10
-97.01053774
 20
-441.06533852
 10
-96.82889974
 20
-441.00544143
 10
-96.64454374
 20
-440.95266035
 10
-96.45747574
 20
-440.90697677
 10
-96.26770174
 20
-440.86837218
 10
-96.07522774
 20
-440.8368281
 10
-95.88005974
 20
-440.81232602
 10
-95.68220374
 20
-440.79484743
 10
-95.48166574
 20
-440.78437385
 10
-95.27845174
 20
-440.78088677
 10
-95.27845174
 20
-440.78088677
 10
-95.07508007
 20
-440.78437385
 10
-94.87437841
 20
-440.79484743
 10
-94.67636674
 20
-440.81232602
 10
-94.48106507
 20
-440.8368281
 10
-94.28849341
 20
-440.86837218
 10
-94.09867174
 20
-440.90697677
 10
-93.91162007
 20
-440.95266035
 10
-93.72735841
 20
-441.00544143
 10
-93.54590674
 20
-441.06533852
 10
-93.36728507
 20
-441.1323701
 10
-93.36728507
 20
-441.1323701
 10
-93.19128241
 20
-441.20565693
 10
-93.01936374
 20
-441.28536477
 10
-92.85151307
 20
-441.3714746
 10
-92.68771441
 20
-441.46396743
 10
-92.52795174
 20
-441.56282427
 10
-92.37220907
 20
-441.6680261
 10
-92.22047041
 20
-441.77955393
 10
-92.07271974
 20
-441.89738877
 10
-91.92894107
 20
-442.0215116
 10
-91.78911841
 20
-442.15190343
 10
-91.78911841
 20
-442.15190343
 10
-91.65877357
 20
-442.28667795
 10
-91.53465974
 20
-442.42550557
 10
-91.41680791
 20
-442.56836238
 10
-91.30524907
 20
-442.7152245
 10
-91.20001424
 20
-442.86606802
 10
-91.10113441
 20
-443.02086903
 10
-91.00864057
 20
-443.17960365
 10
-90.92256374
 20
-443.34224797
 10
-90.84293491
 20
-443.50877808
 10
-90.76978507
 20
-443.6791701
 10
-90.76978507
 20
-443.6791701
 10
-90.70274307
 20
-443.85346202
 10
-90.64280907
 20
-444.03053943
 10
-90.58997107
 20
-444.21040485
 10
-90.54421707
 20
-444.39306077
 10
-90.50553507
 20
-444.57850968
 10
-90.47391307
 20
-444.7667541
 10
-90.44933907
 20
-444.95779652
 10
-90.43180107
 20
-445.15163943
 10
-90.42128707
 20
-445.34828535
 10
-90.41778507
 20
-445.54773677
 10
-90.41778507
 20
-445.54773677
 10
-90.41778507
 20
-445.54773677
  0
HATCH
  5
78
100
AcDbEntity
  8
MST_1_1
 62
   190
100
AcDbHatch
 10
0.0
 20
0.0
 30
0.0
210
0.0
220
0.0
230
1.0
  2
SOLID
 70
     1
 71
     1
 91
        1
 92
        7
 72
     0
 73
     1
 93
      160
 10
-90.41778507
 20
-445.54773677
 10
-90.42135707
 20
-445.74590348
 10
-90.43206107
 20
-445.9413705
 10
-90.44987907
 20
-446.13411812
 10
-90.47479307
 20
-446.32412663
 10
-90.50678507
 20
-446.51137635
 10
-90.54583707
 20
-446.69584757
 10
-90.59193107
 20
-446.87752058
 10
-90.64504907
 20
-447.0563757
 10
-90.70517307
 20
-447.23239322
 10
-90.77228507
 20
-447.40555343
 10
-90.84601807
 20
-447.5760273
 10
-90.92640907
 20
-447.74277437
 10
-91.01344607
 20
-447.90580283
 10
-91.10711707
 20
-448.0651209
 10
-91.20741007
 20
-448.22073677
 10
-91.31431307
 20
-448.37265863
 10
-91.42781407
 20
-448.5208947
 10
-91.54790107
 20
-448.66545317
 10
-91.67456207
 20
-448.80634223
 10
-91.80778507
 20
-448.9435701
 10
-91.94652374
 20
-449.07335088
 10
-92.08943441
 20
-449.19691837
 10
-92.23650907
 20
-449.31426525
 10
-92.38773974
 20
-449.42538423
 10
-92.54311841
 20
-449.53026802
 10
-92.70263707
 20
-449.6289093
 10
-92.86628774
 20
-449.72130078
 10
-93.03406241
 20
-449.80743517
 10
-93.20595307
 20
-449.88730515
 10
-93.38195174
 20
-449.96090343
 10
-93.56099974
 20
-450.02790157
 10
-93.74251574
 20
-450.0879585
 10
-93.92645774
 20
-450.14104803
 10
-94.11278374
 20
-450.18714397
 10
-94.30145174
 20
-450.2262201
 10
-94.49241974
 20
-450.25825023
 10
-94.68564574
 20
-450.28320817
 10
-94.88108774
 20
-450.3010677
 10
-95.07870374
 20
-450.31180263
 10
-95.27845174
 20
-450.31538677
 10
-95.48037207
 20
-450.31180263
 10
-95.67981441
 20
-450.3010677
 10
-95.87675074
 20
-450.28320817
 10
-96.07115307
 20
-450.25825023
 10
-96.26299341
 20
-450.2262201
 10
-96.45224374
 20
-450.18714397
 10
-96.63887607
 20
-450.14104803
 10
-96.82286241
 20
-450.0879585
 10
-97.00417474
 20
-450.02790157
 10
-97.18278507
 20
-449.96090343
 10
-97.35871157
 20
-449.8871878
 10
-97.53059707
 20
-449.80696437
 10
-97.69845057
 20
-449.72023833
 10
-97.86228107
 20
-449.6270149
 10
-98.02209757
 20
-449.52729927
 10
-98.17790907
 20
-449.42109663
 10
-98.32972457
 20
-449.3084122
 10
-98.47755307
 20
-449.18925117
 10
-98.62140357
 20
-449.06361873
 10
-98.76128507
 20
-448.9315201
 10
-98.89284391
 20
-448.79774522
 10
-99.01799574
 20
-448.66000103
 10
-99.13670357
 20
-448.51830325
 10
-99.24893041
 20
-448.37266757
 10
-99.35463924
 20
-448.22310968
 10
-99.45379307
 20
-448.0696453
 10
-99.54635491
 20
-447.91229012
 10
-99.63228774
 20
-447.75105983
 10
-99.71155457
 20
-447.58597015
 10
-99.78411841
 20
-447.41703677
 10
-99.84993624
 20
-447.24391412
 10
-99.90888107
 20
-447.06770957
 10
-99.96093991
 20
-446.88842822
 10
-100.00609974
 20
-446.70607517
 10
-100.04434757
 20
-446.52065552
 10
-100.07567041
 20
-446.33217437
 10
-100.10005524
 20
-446.14063682
 10
-100.11748907
 20
-445.94604797
 10
-100.12795891
 20
-445.74841292
 10
-100.13145174
 20
-445.54773677
 10
-100.12795891
 20
-445.34706473
 10
-100.11748907
 20
-445.1493425
 10
-100.10005524
 20
-444.95456087
 10
-100.07567041
 20
-444.76271063
 10
-100.04434757
 20
-444.5737826
 10
-100.00609974
 20
-444.38776757
 10
-99.96093991
 20
-444.20465633
 10
-99.90888107
 20
-444.0244397
 10
-99.84993624
 20
-443.84710847
 10
-99.78411841
 20
-443.67265343
 10
-99.71155457
 20
-443.50258698
 10
-99.63228774
 20
-443.33641383
 10
-99.54635491
 20
-443.17417328
 10
-99.45379307
 20
-443.01590463
 10
-99.35463924
 20
-442.86164718
 10
-99.24893041
 20
-442.71144023
 10
-99.13670357
 20
-442.56532308
 10
-99.01799574
 20
-442.42333503
 10
-98.89284391
 20
-442.28551538
 10
-98.76128507
 20
-442.15190343
 10
-98.62248124
 20
-442.0215116
 10
-98.47965441
 20
-441.89738877
 10
-98.33278157
 20
-441.77955393
 10
-98.18183974
 20
-441.6680261
 10
-98.02680591
 20
-441.56282427
 10
-97.86765707
 20
-441.46396743
 10
-97.70437024
 20
-441.3714746
 10
-97.53692241
 20
-441.28536477
 10
-97.36529057
 20
-441.20565693
 10
-97.18945174
 20
-441.1323701
 10
-97.01053774
 20
-441.06533852
 10
-96.82889974
 20
-441.00544143
 10
-96.64454374
 20
-440.95266035
 10
-96.45747574
 20
-440.90697677
 10
-96.26770174
 20
-440.86837218
 10
-96.07522774
 20
-440.8368281
 10
-95.88005974
 20
-440.81232602
 10
-95.68220374
 20
-440.79484743
 10
-95.48166574
 20
-440.78437385
 10
-95.27845174
 20
-440.78088677
 10
-95.07508007
 20
-440.78437385
 10
-94.87437841
 20
-440.79484743
 10
-94.67636674
 20
-440.81232602
 10
-94.48106507
 20
-440.8368281
 10
-94.28849341
 20
-440.86837218
 10
-94.09867174
 20
-440.90697677
 10
-93.91162007
 20
-440.95266035
 10
-93.72735841
 20
-441.00544143
 10
-93.54590674
 20
-441.06533852
 10
-93.36728507
 20
-441.1323701
 10
-93.19128241
 20
-441.20565693
 10
-93.01936374
 20
-441.28536477
 10
-92.85151307
 20
-441.3714746
 10
-92.68771441
 20
-441.46396743
 10
-92.52795174
 20
-441.56282427
 10
-92.37220907
 20
-441.6680261
 10
-92.22047041
 20
-441.77955393
 10
-92.07271974
 20
-441.89738877
 10
-91.92894107
 20
-442.0215116
 10
-91.78911841
 20
-442.15190343
 10
-91.65877357
 20
-442.28667795
 10
-91.53465974
 20
-442.42550557
 10
-91.41680791
 20
-442.56836238
 10
-91.30524907
 20
-442.7152245
 10
-91.20001424
 20
-442.86606802
 10
-91.10113441
 20
-443.02086903
 10
-91.00864057
 20
-443.17960365
 10
-90.92256374
 20
-443.34224797
 10
-90.84293491
 20
-443.50877808
 10
-90.76978507
 20
-443.6791701
 10
-90.70274307
 20
-443.85346202
 10
-90.64280907
 20
-444.03053943
 10
-90.58997107
 20
-444.21040485
 10
-90.54421707
 20
-444.39306077
 10
-90.50553507
 20
-444.57850968
 10
-90.47391307
 20
-444.7667541
 10
-90.44933907
 20
-444.95779652
 10
-90.43180107
 20
-445.15163943
 10
-90.42128707
 20
-445.34828535
 97
        1
330
77
 75
     0
 76
     2
 47
0.775229
 98
        1
 10
0.0
 20
0.0
  0
LWPOLYLINE
  5
79
102
{ACAD_REACTORS
330
7A
102
}
100
AcDbEntity
  8
MST_1_1
 62
    12
100
AcDbPolyline
 90
       90
 70
     1
 43
0.0
 10
-95.27845174
 20
-447.2619201
 10
-95.14323457
 20
-447.25718478
 10
-95.01347441
 20
-447.24300157
 10
-94.88915824
 20
-447.21940455
 10
-94.77027307
 20
-447.18642783
 10
-94.65680591
 20
-447.14410552
 10
-94.54874374
 20
-447.0924717
 10
-94.44607357
 20
-447.03156048
 10
-94.34878241
 20
-446.96140597
 10
-94.25685724
 20
-446.88204225
 10
-94.17028507
 20
-446.79350343
 10
-94.17028507
 20
-446.79350343
 10
-94.09059257
 20
-446.69637842
 10
-94.01922507
 20
-446.5932573
 10
-93.95619757
 20
-446.48410098
 10
-93.90152507
 20
-446.36887037
 10
-93.85522257
 20
-446.24752635
 10
-93.81730507
 20
-446.12002983
 10
-93.78778757
 20
-445.98634172
 10
-93.76668507
 20
-445.8464229
 10
-93.75401257
 20
-445.70023428
 10
-93.74978507
 20
-445.54773677
 10
-93.74978507
 20
-445.54773677
 10
-93.75401257
 20
-445.39449123
 10
-93.76668507
 20
-445.2474825
 10
-93.78778757
 20
-445.10667737
 10
-93.81730507
 20
-444.97204263
 10
-93.85522257
 20
-444.8435451
 10
-93.90152507
 20
-444.72115157
 10
-93.95619757
 20
-444.60482883
 10
-94.01922507
 20
-444.4945437
 10
-94.09059257
 20
-444.39026297
 10
-94.17028507
 20
-444.29195343
 10
-94.17028507
 20
-444.29195343
 10
-94.25685724
 20
-444.20192805
 10
-94.34878241
 20
-444.12131237
 10
-94.44607357
 20
-444.05012208
 10
-94.54874374
 20
-443.9883729
 10
-94.65680591
 20
-443.93608052
 10
-94.77027307
 20
-443.89326063
 10
-94.88915824
 20
-443.85992895
 10
-95.01347441
 20
-443.83610117
 10
-95.14323457
 20
-443.82179298
 10
-95.27845174
 20
-443.8170201
 10
-95.27845174
 20
-443.8170201
 10
-95.41360474
 20
-443.82179705
 10
-95.54345574
 20
-443.8361337
 10
-95.66799274
 20
-443.86003875
 10
-95.78720374
 20
-443.8935209
 10
-95.90107674
 20
-443.93658885
 10
-96.00959974
 20
-443.9892513
 10
-96.11276074
 20
-444.05151695
 10
-96.21054774
 20
-444.1233945
 10
-96.30294874
 20
-444.20489265
 10
-96.38995174
 20
-444.2960201
 10
-96.38995174
 20
-444.2960201
 10
-96.47029841
 20
-444.39438407
 10
-96.54214507
 20
-444.49870583
 10
-96.60550174
 20
-444.6089852
 10
-96.66037841
 20
-444.72522197
 10
-96.70678507
 20
-444.84741593
 10
-96.74473174
 20
-444.9755669
 10
-96.77422841
 20
-445.10967467
 10
-96.79528507
 20
-445.24973903
 10
-96.80791174
 20
-445.3957598
 10
-96.81211841
 20
-445.54773677
 10
-96.81211841
 20
-445.54773677
 10
-96.80791174
 20
-445.70023428
 10
-96.79528507
 20
-445.8464229
 10
-96.77422841
 20
-445.98634172
 10
-96.74473174
 20
-446.12002983
 10
-96.70678507
 20
-446.24752635
 10
-96.66037841
 20
-446.36887037
 10
-96.60550174
 20
-446.48410098
 10
-96.54214507
 20
-446.5932573
 10
-96.47029841
 20
-446.69637842
 10
-96.38995174
 20
-446.79350343
 10
-96.38995174
 20
-446.79350343
 10
-96.30294874
 20
-446.88204225
 10
-96.21054774
 20
-446.96140597
 10
-96.11276074
 20
-447.03156048
 10
-96.00959974
 20
-447.0924717
 10
-95.90107674
 20
-447.14410552
 10
-95.78720374
 20
-447.18642783
 10
-95.66799274
 20
-447.21940455
 10
-95.54345574
 20
-447.24300157
 10
-95.41360474
 20
-447.25718478
 10
-95.27845174
 20
-447.2619201
 10
-95.27845174
 20
-447.2619201
 10
-95.27845174
 20
-447.2619201
  0
HATCH
  5
7A
100
AcDbEntity
  8
MST_1_1
 62
    12
100
AcDbHatch
 10
0.0
 20
0.0
 30
0.0
210
0.0
220
0.0
230
1.0
  2
SOLID
 70
     1
 71
     1
 91
        1
 92
        7
 72
     0
 73
     1
 93
       80
 10
-95.27845174
 20
-447.2619201
 10
-95.14323457
 20
-447.25718478
 10
-95.01347441
 20
-447.24300157
 10
-94.88915824
 20
-447.21940455
 10
-94.77027307
 20
-447.18642783
 10
-94.65680591
 20
-447.14410552
 10
-94.54874374
 20
-447.0924717
 10
-94.44607357
 20
-447.03156048
 10
-94.34878241
 20
-446.96140597
 10
-94.25685724
 20
-446.88204225
 10
-94.17028507
 20
-446.79350343
 10
-94.09059257
 20
-446.69637842
 10
-94.01922507
 20
-446.5932573
 10
-93.95619757
 20
-446.48410098
 10
-93.90152507
 20
-446.36887037
 10
-93.85522257
 20
-446.24752635
 10
-93.81730507
 20
-446.12002983
 10
-93.78778757
 20
-445.98634172
 10
-93.76668507
 20
-445.8464229
 10
-93.75401257
 20
-445.70023428
 10
-93.74978507
 20
-445.54773677
 10
-93.75401257
 20
-445.39449123
 10
-93.76668507
 20
-445.2474825
 10
-93.78778757
 20
-445.10667737
 10
-93.81730507
 20
-444.97204263
 10
-93.85522257
 20
-444.8435451
 10
-93.90152507
 20
-444.72115157
 10
-93.95619757
 20
-444.60482883
 10
-94.01922507
 20
-444.4945437
 10
-94.09059257
 20
-444.39026297
 10
-94.17028507
 20
-444.29195343
 10
-94.25685724
 20
-444.20192805
 10
-94.34878241
 20
-444.12131237
 10
-94.44607357
 20
-444.05012208
 10
-94.54874374
 20
-443.9883729
 10
-94.65680591
 20
-443.93608052
 10
-94.77027307
 20
-443.89326063
 10
-94.88915824
 20
-443.85992895
 10
-95.01347441
 20
-443.83610117
 10
-95.14323457
 20
-443.82179298
 10
-95.27845174
 20
-443.8170201
 10
-95.41360474
 20
-443.82179705
 10
-95.54345574
 20
-443.8361337
 10
-95.66799274
 20
-443.86003875
 10
-95.78720374
 20
-443.8935209
 10
-95.90107674
 20
-443.93658885
 10
-96.00959974
 20
-443.9892513
 10
-96.11276074
 20
-444.05151695
 10
-96.21054774
 20
-444.1233945
 10
-96.30294874
 20
-444.20489265
 10
-96.38995174
 20
-444.2960201
 10
-96.47029841
 20
-444.39438407
 10
-96.54214507
 20
-444.49870583
 10
-96.60550174
 20
-444.6089852
 10
-96.66037841
 20
-444.72522197
 10
-96.70678507
 20
-444.84741593
 10
-96.74473174
 20
-444.9755669
 10
-96.77422841
 20
-445.10967467
 10
-96.79528507
 20
-445.24973903
 10
-96.80791174
 20
-445.3957598
 10
-96.81211841
 20
-445.54773677
 10
-96.80791174
 20
-445.70023428
 10
-96.79528507
 20
-445.8464229
 10
-96.77422841
 20
-445.98634172
 10
-96.74473174
 20
-446.12002983
 10
-96.70678507
 20
-446.24752635
 10
-96.66037841
 20
-446.36887037
 10
-96.60550174
 20
-446.48410098
 10
-96.54214507
 20
-446.5932573
 10
-96.47029841
 20
-446.69637842
 10
-96.38995174
 20
-446.79350343
 10
-96.30294874
 20
-446.88204225
 10
-96.21054774
 20
-446.96140597
 10
-96.11276074
 20
-447.03156048
 10
-96.00959974
 20
-447.0924717
 10
-95.90107674
 20
-447.14410552
 10
-95.78720374
 20
-447.18642783
 10
-95.66799274
 20
-447.21940455
 10
-95.54345574
 20
-447.24300157
 10
-95.41360474
 20
-447.25718478
 97
        1
330
79
 75
     0
 76
     2
 47
0.775229
 98
        1
 10
0.0
 20
0.0
  0
LWPOLYLINE
  5
7B
102
{ACAD_REACTORS
330
7C
102
}
100
AcDbEntity
  8
MST_1_1
 62
   190
100
AcDbPolyline
 90
       60
 70
     1
 43
0.0
 10
-108.91748507
 20
-450.07288677
 10
-108.91748507
 20
-440.9863701
 10
-108.91748507
 20
-440.9863701
 10
-104.80721841
 20
-440.9863701
 10
-104.80721841
 20
-440.9863701
 10
-104.45848264
 20
-440.99427073
 10
-104.12654027
 20
-441.01796317
 10
-103.81139871
 20
-441.0574332
 10
-103.51306534
 20
-441.11266663
 10
-103.23154757
 20
-441.18364927
 10
-102.96685281
 20
-441.2703669
 10
-102.71898844
 20
-441.37280533
 10
-102.48796187
 20
-441.49095037
 10
-102.27378051
 20
-441.6247878
 10
-102.07645174
 20
-441.77430343
 10
-102.07645174
 20
-441.77430343
 10
-101.89724591
 20
-441.93889248
 10
-101.73692507
 20
-442.11745783
 10
-101.59548424
 20
-442.30996678
 10
-101.47291841
 20
-442.51638663
 10
-101.36922257
 20
-442.73668468
 10
-101.28439174
 20
-442.97082823
 10
-101.21842091
 20
-443.21878458
 10
-101.17130507
 20
-443.48052103
 10
-101.14303924
 20
-443.75600488
 10
-101.13361841
 20
-444.04520343
 10
-101.13361841
 20
-444.04520343
 10
-101.13840007
 20
-444.235688
 10
-101.15273174
 20
-444.41933397
 10
-101.17659341
 20
-444.59612973
 10
-101.20996507
 20
-444.7660637
 10
-101.25282674
 20
-444.92912427
 10
-101.30515841
 20
-445.08529983
 10
-101.36694007
 20
-445.2345788
 10
-101.43815174
 20
-445.37694957
 10
-101.51877341
 20
-445.51240053
 10
-101.60878507
 20
-445.6409201
 10
-101.60878507
 20
-445.6409201
 10
-101.70722607
 20
-445.76151235
 10
-101.81217307
 20
-445.8715481
 10
-101.92366207
 20
-445.97104085
 10
-102.04172907
 20
-446.0600041
 10
-102.16641007
 20
-446.13845135
 10
-102.29774107
 20
-446.2063961
 10
-102.43575807
 20
-446.26385185
 10
-102.58049707
 20
-446.3108321
 10
-102.73199407
 20
-446.34735035
 10
-102.89028507
 20
-446.3734201
 10
-102.89028507
 20
-446.3734201
 10
-100.46395174
 20
-450.07288677
 10
-100.46395174
 20
-450.07288677
 10
-104.12445174
 20
-450.07288677
 10
-104.12445174
 20
-450.07288677
 10
-105.71443507
 20
-447.0755701
 10
-105.71443507
 20
-447.0755701
 10
-105.71443507
 20
-450.07288677
 10
-105.71443507
 20
-450.07288677
 10
-108.91748507
 20
-450.07288677
 10
-108.91748507
 20
-450.07288677
 10
-108.91748507
 20
-450.07288677
  0
HATCH
  5
7C
100
AcDbEntity
  8
MST_1_1
 62
   190
100
AcDbHatch
 10
0.0
 20
0.0
 30
0.0
210
0.0
220
0.0
230
1.0
  2
SOLID
 70
     1
 71
     1
 91
        1
 92
        7
 72
     0
 73
     1
 93
       47
 10
-108.91748507
 20
-450.07288677
 10
-108.91748507
 20
-440.9863701
 10
-104.80721841
 20
-440.9863701
 10
-104.45848264
 20
-440.99427073
 10
-104.12654027
 20
-441.01796317
 10
-103.81139871
 20
-441.0574332
 10
-103.51306534
 20
-441.11266663
 10
-103.23154757
 20
-441.18364927
 10
-102.96685281
 20
-441.2703669
 10
-102.71898844
 20
-441.37280533
 10
-102.48796187
 20
-441.49095037
 10
-102.27378051
 20
-441.6247878
 10
-102.07645174
 20
-441.77430343
 10
-101.89724591
 20
-441.93889248
 10
-101.73692507
 20
-442.11745783
 10
-101.59548424
 20
-442.30996678
 10
-101.47291841
 20
-442.51638663
 10
-101.36922257
 20
-442.73668468
 10
-101.28439174
 20
-442.97082823
 10
-101.21842091
 20
-443.21878458
 10
-101.17130507
 20
-443.48052103
 10
-101.14303924
 20
-443.75600488
 10
-101.13361841
 20
-444.04520343
 10
-101.13840007
 20
-444.235688
 10
-101.15273174
 20
-444.41933397
 10
-101.17659341
 20
-444.59612973
 10
-101.20996507
 20
-444.7660637
 10
-101.25282674
 20
-444.92912427
 10
-101.30515841
 20
-445.08529983
 10
-101.36694007
 20
-445.2345788
 10
-101.43815174
 20
-445.37694957
 10
-101.51877341
 20
-445.51240053
 10
-101.60878507
 20
-445.6409201
 10
-101.70722607
 20
-445.76151235
 10
-101.81217307
 20
-445.8715481
 10
-101.92366207
 20
-445.97104085
 10
-102.04172907
 20
-446.0600041
 10
-102.16641007
 20
-446.13845135
 10
-102.29774107
 20
-446.2063961
 10
-102.43575807
 20
-446.26385185
 10
-102.58049707
 20
-446.3108321
 10
-102.73199407
 20
-446.34735035
 10
-102.89028507
 20
-446.3734201
 10
-100.46395174
 20
-450.07288677
 10
-104.12445174
 20
-450.07288677
 10
-105.71443507
 20
-447.0755701
 10
-105.71443507
 20
-450.07288677
 97
        1
330
7B
 75
     0
 76
     2
 47
0.775229
 98
        1
 10
0.0
 20
0.0
  0
LWPOLYLINE
  5
7D
102
{ACAD_REACTORS
330
7E
102
}
100
AcDbEntity
  8
MST_1_1
 62
    12
100
AcDbPolyline
 90
       52
 70
     1
 43
0.0
 10
-105.71443507
 20
-443.32500343
 10
-105.71443507
 20
-445.10005343
 10
-105.71443507
 20
-445.10005343
 10
-105.20531841
 20
-445.10005343
 10
-105.20531841
 20
-445.10005343
 10
-105.11427196
 20
-445.09778203
 10
-105.02759281
 20
-445.09097223
 10
-104.94526626
 20
-445.07963063
 10
-104.86727761
 20
-445.06376383
 10
-104.79361216
 20
-445.04337843
 10
-104.72425521
 20
-445.01848103
 10
-104.65919206
 20
-444.98907823
 10
-104.59840801
 20
-444.95517663
 10
-104.54188836
 20
-444.91678283
 10
-104.48961841
 20
-444.87390343
 10
-104.48961841
 20
-444.87390343
 10
-104.44177424
 20
-444.82681995
 10
-104.39894507
 20
-444.77579757
 10
-104.36113591
 20
-444.72083338
 10
-104.32835174
 20
-444.6619245
 10
-104.30059757
 20
-444.59906802
 10
-104.27787841
 20
-444.53226103
 10
-104.26019924
 20
-444.46150065
 10
-104.24756507
 20
-444.38678397
 10
-104.23998091
 20
-444.30810808
 10
-104.23745174
 20
-444.2254701
 10
-104.23745174
 20
-444.2254701
 10
-104.23998091
 20
-444.1406313
 10
-104.24756507
 20
-444.0598017
 10
-104.26019924
 20
-443.9829915
 10
-104.27787841
 20
-443.9102109
 10
-104.30059757
 20
-443.8414701
 10
-104.32835174
 20
-443.7767793
 10
-104.36113591
 20
-443.7161487
 10
-104.39894507
 20
-443.6595885
 10
-104.44177424
 20
-443.6071089
 10
-104.48961841
 20
-443.5587201
 10
-104.48961841
 20
-443.5587201
 10
-104.54188836
 20
-443.51458393
 10
-104.59840801
 20
-443.47500877
 10
-104.65919206
 20
-443.4400146
 10
-104.72425521
 20
-443.40962143
 10
-104.79361216
 20
-443.38384927
 10
-104.86727761
 20
-443.3627181
 10
-104.94526626
 20
-443.34624793
 10
-105.02759281
 20
-443.33445877
 10
-105.11427196
 20
-443.3273706
 10
-105.20531841
 20
-443.32500343
 10
-105.20531841
 20
-443.32500343
 10
-105.71443507
 20
-443.32500343
 10
-105.71443507
 20
-443.32500343
 10
-105.71443507
 20
-443.32500343
  0
HATCH
  5
7E
100
AcDbEntity
  8
MST_1_1
 62
    12
100
AcDbHatch
 10
0.0
 20
0.0
 30
0.0
210
0.0
220
0.0
230
1.0
  2
SOLID
 70
     1
 71
     1
 91
        1
 92
        7
 72
     0
 73
     1
 93
       43
 10
-105.71443507
 20
-443.32500343
 10
-105.71443507
 20
-445.10005343
 10
-105.20531841
 20
-445.10005343
 10
-105.11427196
 20
-445.09778203
 10
-105.02759281
 20
-445.09097223
 10
-104.94526626
 20
-445.07963063
 10
-104.86727761
 20
-445.06376383
 10
-104.79361216
 20
-445.04337843
 10
-104.72425521
 20
-445.01848103
 10
-104.65919206
 20
-444.98907823
 10
-104.59840801
 20
-444.95517663
 10
-104.54188836
 20
-444.91678283
 10
-104.48961841
 20
-444.87390343
 10
-104.44177424
 20
-444.82681995
 10
-104.39894507
 20
-444.77579757
 10
-104.36113591
 20
-444.72083338
 10
-104.32835174
 20
-444.6619245
 10
-104.30059757
 20
-444.59906802
 10
-104.27787841
 20
-444.53226103
 10
-104.26019924
 20
-444.46150065
 10
-104.24756507
 20
-444.38678397
 10
-104.23998091
 20
-444.30810808
 10
-104.23745174
 20
-444.2254701
 10
-104.23998091
 20
-444.1406313
 10
-104.24756507
 20
-444.0598017
 10
-104.26019924
 20
-443.9829915
 10
-104.27787841
 20
-443.9102109
 10
-104.30059757
 20
-443.8414701
 10
-104.32835174
 20
-443.7767793
 10
-104.36113591
 20
-443.7161487
 10
-104.39894507
 20
-443.6595885
 10
-104.44177424
 20
-443.6071089
 10
-104.48961841
 20
-443.5587201
 10
-104.54188836
 20
-443.51458393
 10
-104.59840801
 20
-443.47500877
 10
-104.65919206
 20
-443.4400146
 10
-104.72425521
 20
-443.40962143
 10
-104.79361216
 20
-443.38384927
 10
-104.86727761
 20
-443.3627181
 10
-104.94526626
 20
-443.34624793
 10
-105.02759281
 20
-443.33445877
 10
-105.11427196
 20
-443.3273706
 10
-105.20531841
 20
-443.32500343
 97
        1
330
7D
 75
     0
 76
     2
 47
0.775229
 98
        1
 10
0.0
 20
0.0
  0
LWPOLYLINE
  5
7F
102
{ACAD_REACTORS
330
80
102
}
100
AcDbEntity
  8
MST_1_1
 62
   190
100
AcDbPolyline
 90
       56
 70
     1
 43
0.0
 10
-117.91708507
 20
-450.07288677
 10
-117.91708507
 20
-440.9863701
 10
-117.91708507
 20
-440.9863701
 10
-114.01236841
 20
-440.9863701
 10
-114.01236841
 20
-440.9863701
 10
-113.61159226
 20
-440.99431877
 10
-113.23294121
 20
-441.01816143
 10
-112.87641136
 20
-441.0578931
 10
-112.54199881
 20
-441.11350877
 10
-112.22969966
 20
-441.18500343
 10
-111.93951001
 20
-441.2723721
 10
-111.67142596
 20
-441.37560977
 10
-111.42544361
 20
-441.49471143
 10
-111.20155906
 20
-441.6296721
 10
-110.99976841
 20
-441.78048677
 10
-110.99976841
 20
-441.78048677
 10
-110.81871321
 20
-441.9488481
 10
-110.65670881
 20
-442.13573543
 10
-110.51375701
 20
-442.34116877
 10
-110.38985961
 20
-442.5651681
 10
-110.28501841
 20
-442.80775343
 10
-110.19923521
 20
-443.06894477
 10
-110.13251181
 20
-443.3487621
 10
-110.08485001
 20
-443.64722543
 10
-110.05625161
 20
-443.96435477
 10
-110.04671841
 20
-444.3001701
 10
-110.04671841
 20
-444.3001701
 10
-110.05528831
 20
-444.61316212
 10
-110.08099161
 20
-444.90882423
 10
-110.12381871
 20
-445.18715055
 10
-110.18376001
 20
-445.44813517
 10
-110.26080591
 20
-445.69177218
 10
-110.35494681
 20
-445.9180557
 10
-110.46617311
 20
-446.12697982
 10
-110.59447521
 20
-446.31853863
 10
-110.73984351
 20
-446.49272625
 10
-110.90226841
 20
-446.64953677
 10
-110.90226841
 20
-446.64953677
 10
-111.08402107
 20
-446.79009422
 10
-111.28582374
 20
-446.91590837
 10
-111.50768341
 20
-447.02696692
 10
-111.74960707
 20
-447.12325757
 10
-112.01160174
 20
-447.20476802
 10
-112.29367441
 20
-447.27148597
 10
-112.59583207
 20
-447.32339912
 10
-112.91808174
 20
-447.36049517
 10
-113.26043041
 20
-447.38276182
 10
-113.62288507
 20
-447.39018677
 10
-113.62288507
 20
-447.39018677
 10
-114.64583507
 20
-447.39018677
 10
-114.64583507
 20
-447.39018677
 10
-114.64583507
 20
-450.07288677
 10
-114.64583507
 20
-450.07288677
 10
-117.91708507
 20
-450.07288677
 10
-117.91708507
 20
-450.07288677
 10
-117.91708507
 20
-450.07288677
  0
HATCH
  5
80
100
AcDbEntity
  8
MST_1_1
 62
   190
100
AcDbHatch
 10
0.0
 20
0.0
 30
0.0
210
0.0
220
0.0
230
1.0
  2
SOLID
 70
     1
 71
     1
 91
        1
 92
        7
 72
     0
 73
     1
 93
       45
 10
-117.91708507
 20
-450.07288677
 10
-117.91708507
 20
-440.9863701
 10
-114.01236841
 20
-440.9863701
 10
-113.61159226
 20
-440.99431877
 10
-113.23294121
 20
-441.01816143
 10
-112.87641136
 20
-441.0578931
 10
-112.54199881
 20
-441.11350877
 10
-112.22969966
 20
-441.18500343
 10
-111.93951001
 20
-441.2723721
 10
-111.67142596
 20
-441.37560977
 10
-111.42544361
 20
-441.49471143
 10
-111.20155906
 20
-441.6296721
 10
-110.99976841
 20
-441.78048677
 10
-110.81871321
 20
-441.9488481
 10
-110.65670881
 20
-442.13573543
 10
-110.51375701
 20
-442.34116877
 10
-110.38985961
 20
-442.5651681
 10
-110.28501841
 20
-442.80775343
 10
-110.19923521
 20
-443.06894477
 10
-110.13251181
 20
-443.3487621
 10
-110.08485001
 20
-443.64722543
 10
-110.05625161
 20
-443.96435477
 10
-110.04671841
 20
-444.3001701
 10
-110.05528831
 20
-444.61316212
 10
-110.08099161
 20
-444.90882423
 10
-110.12381871
 20
-445.18715055
 10
-110.18376001
 20
-445.44813517
 10
-110.26080591
 20
-445.69177218
 10
-110.35494681
 20
-445.9180557
 10
-110.46617311
 20
-446.12697982
 10
-110.59447521
 20
-446.31853863
 10
-110.73984351
 20
-446.49272625
 10
-110.90226841
 20
-446.64953677
 10
-111.08402107
 20
-446.79009422
 10
-111.28582374
 20
-446.91590837
 10
-111.50768341
 20
-447.02696692
 10
-111.74960707
 20
-447.12325757
 10
-112.01160174
 20
-447.20476802
 10
-112.29367441
 20
-447.27148597
 10
-112.59583207
 20
-447.32339912
 10
-112.91808174
 20
-447.36049517
 10
-113.26043041
 20
-447.38276182
 10
-113.62288507
 20
-447.39018677
 10
-114.64583507
 20
-447.39018677
 10
-114.64583507
 20
-450.07288677
 97
        1
330
7F
 75
     0
 76
     2
 47
0.775229
 98
        1
 10
0.0
 20
0.0
  0
LWPOLYLINE
  5
81
102
{ACAD_REACTORS
330
82
102
}
100
AcDbEntity
  8
MST_1_1
 62
    12
100
AcDbPolyline
 90
       52
 70
     1
 43
0.0
 10
-114.63306841
 20
-443.5119201
 10
-114.63306841
 20
-445.02648677
 10
-114.63306841
 20
-445.02648677
 10
-114.12541841
 20
-445.02648677
 10
-114.12541841
 20
-445.02648677
 10
-114.03458029
 20
-445.02451847
 10
-113.94797547
 20
-445.01862037
 10
-113.86563326
 20
-445.00880267
 10
-113.78758294
 20
-444.99507557
 10
-113.71385382
 20
-444.97744927
 10
-113.64447521
 20
-444.95593397
 10
-113.57947639
 20
-444.93053987
 10
-113.51888667
 20
-444.90127717
 10
-113.46273536
 20
-444.86815607
 10
-113.41105174
 20
-444.83118677
 10
-113.41105174
 20
-444.83118677
 10
-113.36398299
 20
-444.7903694
 10
-113.32184974
 20
-444.74628183
 10
-113.28465649
 20
-444.69891587
 10
-113.25240774
 20
-444.6482633
 10
-113.22510799
 20
-444.59431593
 10
-113.20276174
 20
-444.53706557
 10
-113.18537349
 20
-444.476504
 10
-113.17294774
 20
-444.41262303
 10
-113.16548899
 20
-444.34541447
 10
-113.16300174
 20
-444.2748701
 10
-113.16300174
 20
-444.2748701
 10
-113.16553551
 20
-444.20461242
 10
-113.17314387
 20
-444.13749663
 10
-113.18583744
 20
-444.07351865
 10
-113.20362681
 20
-444.01267437
 10
-113.22652257
 20
-443.95495968
 10
-113.25453534
 20
-443.9003705
 10
-113.28767571
 20
-443.84890272
 10
-113.32595427
 20
-443.80055223
 10
-113.36938164
 20
-443.75531495
 10
-113.41796841
 20
-443.71318677
 10
-113.41796841
 20
-443.71318677
 10
-113.47071431
 20
-443.67515535
 10
-113.52743761
 20
-443.64106143
 10
-113.58814671
 20
-443.61092052
 10
-113.65285001
 20
-443.5847481
 10
-113.72155591
 20
-443.56255968
 10
-113.79427281
 20
-443.54437077
 10
-113.87100911
 20
-443.53019685
 10
-113.95177321
 20
-443.52005343
 10
-114.03657351
 20
-443.51395602
 10
-114.12541841
 20
-443.5119201
 10
-114.12541841
 20
-443.5119201
 10
-114.63306841
 20
-443.5119201
 10
-114.63306841
 20
-443.5119201
 10
-114.63306841
 20
-443.5119201
  0
HATCH
  5
82
100
AcDbEntity
  8
MST_1_1
 62
    12
100
AcDbHatch
 10
0.0
 20
0.0
 30
0.0
210
0.0
220
0.0
230
1.0
  2
SOLID
 70
     1
 71
     1
 91
        1
 92
        7
 72
     0
 73
     1
 93
       43
 10
-114.63306841
 20
-443.5119201
 10
-114.63306841
 20
-445.02648677
 10
-114.12541841
 20
-445.02648677
 10
-114.03458029
 20
-445.02451847
 10
-113.94797547
 20
-445.01862037
 10
-113.86563326
 20
-445.00880267
 10
-113.78758294
 20
-444.99507557
 10
-113.71385382
 20
-444.97744927
 10
-113.64447521
 20
-444.95593397
 10
-113.57947639
 20
-444.93053987
 10
-113.51888667
 20
-444.90127717
 10
-113.46273536
 20
-444.86815607
 10
-113.41105174
 20
-444.83118677
 10
-113.36398299
 20
-444.7903694
 10
-113.32184974
 20
-444.74628183
 10
-113.28465649
 20
-444.69891587
 10
-113.25240774
 20
-444.6482633
 10
-113.22510799
 20
-444.59431593
 10
-113.20276174
 20
-444.53706557
 10
-113.18537349
 20
-444.476504
 10
-113.17294774
 20
-444.41262303
 10
-113.16548899
 20
-444.34541447
 10
-113.16300174
 20
-444.2748701
 10
-113.16553551
 20
-444.20461242
 10
-113.17314387
 20
-444.13749663
 10
-113.18583744
 20
-444.07351865
 10
-113.20362681
 20
-444.01267437
 10
-113.22652257
 20
-443.95495968
 10
-113.25453534
 20
-443.9003705
 10
-113.28767571
 20
-443.84890272
 10
-113.32595427
 20
-443.80055223
 10
-113.36938164
 20
-443.75531495
 10
-113.41796841
 20
-443.71318677
 10
-113.47071431
 20
-443.67515535
 10
-113.52743761
 20
-443.64106143
 10
-113.58814671
 20
-443.61092052
 10
-113.65285001
 20
-443.5847481
 10
-113.72155591
 20
-443.56255968
 10
-113.79427281
 20
-443.54437077
 10
-113.87100911
 20
-443.53019685
 10
-113.95177321
 20
-443.52005343
 10
-114.03657351
 20
-443.51395602
 10
-114.12541841
 20
-443.5119201
 97
        1
330
81
 75
     0
 76
     2
 47
0.775229
 98
        1
 10
0.0
 20
0.0
  0
LWPOLYLINE
  5
83
102
{ACAD_REACTORS
330
84
102
}
100
AcDbEntity
  8
MST_1_1
 62
    12
100
AcDbPolyline
 90
       10
 70
     1
 43
0.0
 10
-76.87061841
 20
-450.07288677
 10
-76.87061841
 20
-440.9863701
 10
-76.87061841
 20
-440.9863701
 10
-72.40278507
 20
-440.9863701
 10
-72.40278507
 20
-440.9863701
 10
-72.40278507
 20
-450.07288677
 10
-72.40278507
 20
-450.07288677
 10
-76.87061841
 20
-450.07288677
 10
-76.87061841
 20
-450.07288677
 10
-76.87061841
 20
-450.07288677
  0
HATCH
  5
84
100
AcDbEntity
  8
MST_1_1
 62
    12
100
AcDbHatch
 10
0.0
 20
0.0
 30
0.0
210
0.0
220
0.0
230
1.0
  2
SOLID
 70
     1
 71
     1
 91
        1
 92
        7
 72
     0
 73
     1
 93
        4
 10
-76.87061841
 20
-450.07288677
 10
-76.87061841
 20
-440.9863701
 10
-72.40278507
 20
-440.9863701
 10
-72.40278507
 20
-450.07288677
 97
        1
330
83
 75
     0
 76
     2
 47
0.775229
 98
        1
 10
0.0
 20
0.0
  0
LWPOLYLINE
  5
85
102
{ACAD_REACTORS
330
86
102
}
100
AcDbEntity
  8
MST_1_1
 62
    12
100
AcDbPolyline
 90
      114
 70
     1
 43
0.0
 10
-64.65345174
 20
-448.0117701
 10
-64.68780574
 20
-447.95695175
 10
-64.72036374
 20
-447.9044013
 10
-64.75111974
 20
-447.85409565
 10
-64.78006774
 20
-447.8060117
 10
-64.80720174
 20
-447.76012635
 10
-64.83251574
 20
-447.7164165
 10
-64.85600374
 20
-447.67485905
 10
-64.87765974
 20
-447.6354309
 10
-64.89747774
 20
-447.59810895
 10
-64.91545174
 20
-447.5628701
 10
-64.91545174
 20
-447.5628701
 10
-64.93275441
 20
-447.52891893
 10
-64.94907307
 20
-447.49570877
 10
-64.96442374
 20
-447.4632296
 10
-64.97882241
 20
-447.43147143
 10
-64.99228507
 20
-447.40042427
 10
-65.00482774
 20
-447.3700781
 10
-65.01646641
 20
-447.34042293
 10
-65.02721707
 20
-447.31144877
 10
-65.03709574
 20
-447.2831456
 10
-65.04611841
 20
-447.25550343
 10
-65.04611841
 20
-447.25550343
 10
-65.05378274
 20
-447.28170742
 10
-65.06221307
 20
-447.3084713
 10
-65.07146541
 20
-447.33579798
 10
-65.08159574
 20
-447.36369037
 10
-65.09266007
 20
-447.39215135
 10
-65.10471441
 20
-447.42118383
 10
-65.11781474
 20
-447.45079072
 10
-65.13201707
 20
-447.4809749
 10
-65.14737741
 20
-447.51173928
 10
-65.16395174
 20
-447.54308677
 10
-65.16395174
 20
-447.54308677
 10
-65.18128807
 20
-447.57649275
 10
-65.20128241
 20
-447.61293063
 10
-65.22391274
 20
-447.65238532
 10
-65.24915707
 20
-447.6948417
 10
-65.27699341
 20
-447.74028468
 10
-65.30739974
 20
-447.78869917
 10
-65.34035407
 20
-447.84007005
 10
-65.37583441
 20
-447.89438223
 10
-65.41381874
 20
-447.95162062
 10
-65.45428507
 20
-448.0117701
 10
-65.45428507
 20
-448.0117701
 10
-66.84395174
 20
-450.07288677
 10
-66.84395174
 20
-450.07288677
 10
-71.87161841
 20
-450.07288677
 10
-71.87161841
 20
-450.07288677
 10
-67.52878507
 20
-445.2328701
 10
-67.52878507
 20
-445.2328701
 10
-71.36078507
 20
-440.9863701
 10
-71.36078507
 20
-440.9863701
 10
-66.34128507
 20
-440.9863701
 10
-66.34128507
 20
-440.9863701
 10
-65.43795174
 20
-442.46945343
 10
-65.43795174
 20
-442.46945343
 10
-65.43512574
 20
-442.47496652
 10
-65.43176374
 20
-442.4810641
 10
-65.42788974
 20
-442.48774368
 10
-65.42352774
 20
-442.49500277
 10
-65.41870174
 20
-442.50283885
 10
-65.41343574
 20
-442.51124943
 10
-65.40775374
 20
-442.52023202
 10
-65.40167974
 20
-442.5297841
 10
-65.39523774
 20
-442.53990318
 10
-65.38845174
 20
-442.55058677
 10
-65.38845174
 20
-442.55058677
 10
-65.33971641
 20
-442.63323968
 10
-65.29420907
 20
-442.7124881
 10
-65.25192774
 20
-442.78831652
 10
-65.21287041
 20
-442.86070943
 10
-65.17703507
 20
-442.92965135
 10
-65.14441974
 20
-442.99512677
 10
-65.11502241
 20
-443.05712018
 10
-65.08884107
 20
-443.1156161
 10
-65.06587374
 20
-443.17059902
 10
-65.04611841
 20
-443.22205343
 10
-65.04611841
 20
-443.22205343
 10
-65.03400474
 20
-443.18941013
 10
-65.02134907
 20
-443.15666103
 10
-65.00812941
 20
-443.12379233
 10
-64.99432374
 20
-443.09079023
 10
-64.97991007
 20
-443.05764093
 10
-64.96486641
 20
-443.02433063
 10
-64.94917074
 20
-442.99084553
 10
-64.93280107
 20
-442.95717183
 10
-64.91573541
 20
-442.92329573
 10
-64.89795174
 20
-442.88920343
 10
-64.89795174
 20
-442.88920343
 10
-64.88066541
 20
-442.85412108
 10
-64.86204107
 20
-442.81748063
 10
-64.84213074
 20
-442.77929198
 10
-64.82098641
 20
-442.73956503
 10
-64.79866007
 20
-442.69830968
 10
-64.77520374
 20
-442.65553583
 10
-64.75066941
 20
-442.61125338
 10
-64.72510907
 20
-442.56547223
 10
-64.69857474
 20
-442.51820228
 10
-64.67111841
 20
-442.46945343
 10
-64.67111841
 20
-442.46945343
 10
-63.74361841
 20
-440.9863701
 10
-63.74361841
 20
-440.9863701
 10
-58.74695174
 20
-440.9863701
 10
-58.74695174
 20
-440.9863701
 10
-62.56628507
 20
-445.2328701
 10
-62.56628507
 20
-445.2328701
 10
-58.21861841
 20
-450.07288677
 10
-58.21861841
 20
-450.07288677
 10
-63.25078507
 20
-450.07288677
 10
-63.25078507
 20
-450.07288677
 10
-64.65345174
 20
-448.0117701
 10
-64.65345174
 20
-448.0117701
 10
-64.65345174
 20
-448.0117701
  0
HATCH
  5
86
100
AcDbEntity
  8
MST_1_1
 62
    12
100
AcDbHatch
 10
0.0
 20
0.0
 30
0.0
210
0.0
220
0.0
230
1.0
  2
SOLID
 70
     1
 71
     1
 91
        1
 92
        7
 72
     0
 73
     1
 93
       92
 10
-64.65345174
 20
-448.0117701
 10
-64.68780574
 20
-447.95695175
 10
-64.72036374
 20
-447.9044013
 10
-64.75111974
 20
-447.85409565
 10
-64.78006774
 20
-447.8060117
 10
-64.80720174
 20
-447.76012635
 10
-64.83251574
 20
-447.7164165
 10
-64.85600374
 20
-447.67485905
 10
-64.87765974
 20
-447.6354309
 10
-64.89747774
 20
-447.59810895
 10
-64.91545174
 20
-447.5628701
 10
-64.93275441
 20
-447.52891893
 10
-64.94907307
 20
-447.49570877
 10
-64.96442374
 20
-447.4632296
 10
-64.97882241
 20
-447.43147143
 10
-64.99228507
 20
-447.40042427
 10
-65.00482774
 20
-447.3700781
 10
-65.01646641
 20
-447.34042293
 10
-65.02721707
 20
-447.31144877
 10
-65.03709574
 20
-447.2831456
 10
-65.04611841
 20
-447.25550343
 10
-65.05378274
 20
-447.28170742
 10
-65.06221307
 20
-447.3084713
 10
-65.07146541
 20
-447.33579798
 10
-65.08159574
 20
-447.36369037
 10
-65.09266007
 20
-447.39215135
 10
-65.10471441
 20
-447.42118383
 10
-65.11781474
 20
-447.45079072
 10
-65.13201707
 20
-447.4809749
 10
-65.14737741
 20
-447.51173928
 10
-65.16395174
 20
-447.54308677
 10
-65.18128807
 20
-447.57649275
 10
-65.20128241
 20
-447.61293063
 10
-65.22391274
 20
-447.65238532
 10
-65.24915707
 20
-447.6948417
 10
-65.27699341
 20
-447.74028468
 10
-65.30739974
 20
-447.78869917
 10
-65.34035407
 20
-447.84007005
 10
-65.37583441
 20
-447.89438223
 10
-65.41381874
 20
-447.95162062
 10
-65.45428507
 20
-448.0117701
 10
-66.84395174
 20
-450.07288677
 10
-71.87161841
 20
-450.07288677
 10
-67.52878507
 20
-445.2328701
 10
-71.36078507
 20
-440.9863701
 10
-66.34128507
 20
-440.9863701
 10
-65.43795174
 20
-442.46945343
 10
-65.43512574
 20
-442.47496652
 10
-65.43176374
 20
-442.4810641
 10
-65.42788974
 20
-442.48774368
 10
-65.42352774
 20
-442.49500277
 10
-65.41870174
 20
-442.50283885
 10
-65.41343574
 20
-442.51124943
 10
-65.40775374
 20
-442.52023202
 10
-65.40167974
 20
-442.5297841
 10
-65.39523774
 20
-442.53990318
 10
-65.38845174
 20
-442.55058677
 10
-65.33971641
 20
-442.63323968
 10
-65.29420907
 20
-442.7124881
 10
-65.25192774
 20
-442.78831652
 10
-65.21287041
 20
-442.86070943
 10
-65.17703507
 20
-442.92965135
 10
-65.14441974
 20
-442.99512677
 10
-65.11502241
 20
-443.05712018
 10
-65.08884107
 20
-443.1156161
 10
-65.06587374
 20
-443.17059902
 10
-65.04611841
 20
-443.22205343
 10
-65.03400474
 20
-443.18941013
 10
-65.02134907
 20
-443.15666103
 10
-65.00812941
 20
-443.12379233
 10
-64.99432374
 20
-443.09079023
 10
-64.97991007
 20
-443.05764093
 10
-64.96486641
 20
-443.02433063
 10
-64.94917074
 20
-442.99084553
 10
-64.93280107
 20
-442.95717183
 10
-64.91573541
 20
-442.92329573
 10
-64.89795174
 20
-442.88920343
 10
-64.88066541
 20
-442.85412108
 10
-64.86204107
 20
-442.81748063
 10
-64.84213074
 20
-442.77929198
 10
-64.82098641
 20
-442.73956503
 10
-64.79866007
 20
-442.69830968
 10
-64.77520374
 20
-442.65553583
 10
-64.75066941
 20
-442.61125338
 10
-64.72510907
 20
-442.56547223
 10
-64.69857474
 20
-442.51820228
 10
-64.67111841
 20
-442.46945343
 10
-63.74361841
 20
-440.9863701
 10
-58.74695174
 20
-440.9863701
 10
-62.56628507
 20
-445.2328701
 10
-58.21861841
 20
-450.07288677
 10
-63.25078507
 20
-450.07288677
 97
        1
330
85
 75
     0
 76
     2
 47
0.775229
 98
        1
 10
0.0
 20
0.0
  0
LWPOLYLINE
  5
87
102
{ACAD_REACTORS
330
88
102
}
100
AcDbEntity
  8
MST_1_1
 62
     7
100
AcDbPolyline
 90
       46
 70
     1
 43
0.0
 10
-53.90345174
 20
-434.8603201
 10
-53.79092124
 20
-434.8694336
 10
-53.68400774
 20
-434.8958081
 10
-53.58417824
 20
-434.9379946
 10
-53.49289974
 20
-434.9945441
 10
-53.41163924
 20
-435.0640076
 10
-53.34186374
 20
-435.1449361
 10
-53.28504024
 20
-435.2358806
 10
-53.24263574
 20
-435.3353921
 10
-53.21611724
 20
-435.4420216
 10
-53.20695174
 20
-435.5543201
 10
-53.20695174
 20
-435.5543201
 10
-53.21611724
 20
-435.66647377
 10
-53.24263574
 20
-435.77296943
 10
-53.28504024
 20
-435.8723591
 10
-53.34186374
 20
-435.96319477
 10
-53.41163924
 20
-436.04402843
 10
-53.49289974
 20
-436.1134121
 10
-53.58417824
 20
-436.16989777
 10
-53.68400774
 20
-436.21203743
 10
-53.79092124
 20
-436.2383831
 10
-53.90345174
 20
-436.24748677
 10
-53.90345174
 20
-436.24748677
 10
-54.01657257
 20
-436.2383831
 10
-54.12387841
 20
-436.21203743
 10
-54.22393424
 20
-436.16989777
 10
-54.31530507
 20
-436.1134121
 10
-54.39655591
 20
-436.04402843
 10
-54.46625174
 20
-435.96319477
 10
-54.52295757
 20
-435.8723591
 10
-54.56523841
 20
-435.77296943
 10
-54.59165924
 20
-435.66647377
 10
-54.60078507
 20
-435.5543201
 10
-54.60078507
 20
-435.5543201
 10
-54.59165924
 20
-435.4420216
 10
-54.56523841
 20
-435.3353921
 10
-54.52295757
 20
-435.2358806
 10
-54.46625174
 20
-435.1449361
 10
-54.39655591
 20
-435.0640076
 10
-54.31530507
 20
-434.9945441
 10
-54.22393424
 20
-434.9379946
 10
-54.12387841
 20
-434.8958081
 10
-54.01657257
 20
-434.8694336
 10
-53.90345174
 20
-434.8603201
 10
-53.90345174
 20
-434.8603201
 10
-53.90345174
 20
-434.8603201
  0
HATCH
  5
88
100
AcDbEntity
  8
MST_1_1
 62
     7
100
AcDbHatch
 10
0.0
 20
0.0
 30
0.0
210
0.0
220
0.0
230
1.0
  2
SOLID
 70
     1
 71
     1
 91
        1
 92
        7
 72
     0
 73
     1
 93
       40
 10
-53.90345174
 20
-434.8603201
 10
-53.79092124
 20
-434.8694336
 10
-53.68400774
 20
-434.8958081
 10
-53.58417824
 20
-434.9379946
 10
-53.49289974
 20
-434.9945441
 10
-53.41163924
 20
-435.0640076
 10
-53.34186374
 20
-435.1449361
 10
-53.28504024
 20
-435.2358806
 10
-53.24263574
 20
-435.3353921
 10
-53.21611724
 20
-435.4420216
 10
-53.20695174
 20
-435.5543201
 10
-53.21611724
 20
-435.66647377
 10
-53.24263574
 20
-435.77296943
 10
-53.28504024
 20
-435.8723591
 10
-53.34186374
 20
-435.96319477
 10
-53.41163924
 20
-436.04402843
 10
-53.49289974
 20
-436.1134121
 10
-53.58417824
 20
-436.16989777
 10
-53.68400774
 20
-436.21203743
 10
-53.79092124
 20
-436.2383831
 10
-53.90345174
 20
-436.24748677
 10
-54.01657257
 20
-436.2383831
 10
-54.12387841
 20
-436.21203743
 10
-54.22393424
 20
-436.16989777
 10
-54.31530507
 20
-436.1134121
 10
-54.39655591
 20
-436.04402843
 10
-54.46625174
 20
-435.96319477
 10
-54.52295757
 20
-435.8723591
 10
-54.56523841
 20
-435.77296943
 10
-54.59165924
 20
-435.66647377
 10
-54.60078507
 20
-435.5543201
 10
-54.59165924
 20
-435.4420216
 10
-54.56523841
 20
-435.3353921
 10
-54.52295757
 20
-435.2358806
 10
-54.46625174
 20
-435.1449361
 10
-54.39655591
 20
-435.0640076
 10
-54.31530507
 20
-434.9945441
 10
-54.22393424
 20
-434.9379946
 10
-54.12387841
 20
-434.8958081
 10
-54.01657257
 20
-434.8694336
 97
        1
330
87
 75
     0
 76
     2
 47
0.775229
 98
        1
 10
0.0
 20
0.0
  0
LWPOLYLINE
  5
89
102
{ACAD_REACTORS
330
8A
102
}
100
AcDbEntity
  8
MST_1_1
 62
    12
100
AcDbPolyline
 90
       29
 70
     1
 43
0.0
 10
-54.22311841
 20
-435.0723201
 10
-54.22311841
 20
-435.97898677
 10
-54.22311841
 20
-435.97898677
 10
-54.08895174
 20
-435.97898677
 10
-54.08895174
 20
-435.97898677
 10
-54.08895174
 20
-435.57198677
 10
-54.08895174
 20
-435.57198677
 10
-53.91061841
 20
-435.57198677
 10
-53.91061841
 20
-435.57198677
 10
-53.65128507
 20
-435.97298677
 10
-53.65128507
 20
-435.97298677
 10
-53.51511841
 20
-435.97298677
 10
-53.51511841
 20
-435.97298677
 10
-53.77395174
 20
-435.56465343
 10
-53.77395174
 20
-435.56465343
 10
-53.68536474
 20
-435.54623177
 10
-53.61569574
 20
-435.5060801
 10
-53.56523274
 20
-435.44976843
 10
-53.53426374
 20
-435.38286677
 10
-53.52307674
 20
-435.3109451
 10
-53.53195974
 20
-435.23957343
 10
-53.56120074
 20
-435.17432177
 10
-53.61108774
 20
-435.1207601
 10
-53.68190874
 20
-435.08445843
 10
-53.77395174
 20
-435.07098677
 10
-53.77395174
 20
-435.07098677
 10
-54.22311841
 20
-435.0723201
 10
-54.22311841
 20
-435.0723201
 10
-54.22311841
 20
-435.0723201
  0
HATCH
  5
8A
100
AcDbEntity
  8
MST_1_1
 62
    12
100
AcDbHatch
 10
0.0
 20
0.0
 30
0.0
210
0.0
220
0.0
230
1.0
  2
SOLID
 70
     1
 71
     1
 91
        1
 92
        7
 72
     0
 73
     1
 93
       18
 10
-54.22311841
 20
-435.0723201
 10
-54.22311841
 20
-435.97898677
 10
-54.08895174
 20
-435.97898677
 10
-54.08895174
 20
-435.57198677
 10
-53.91061841
 20
-435.57198677
 10
-53.65128507
 20
-435.97298677
 10
-53.51511841
 20
-435.97298677
 10
-53.77395174
 20
-435.56465343
 10
-53.68536474
 20
-435.54623177
 10
-53.61569574
 20
-435.5060801
 10
-53.56523274
 20
-435.44976843
 10
-53.53426374
 20
-435.38286677
 10
-53.52307674
 20
-435.3109451
 10
-53.53195974
 20
-435.23957343
 10
-53.56120074
 20
-435.17432177
 10
-53.61108774
 20
-435.1207601
 10
-53.68190874
 20
-435.08445843
 10
-53.77395174
 20
-435.07098677
 97
        1
330
89
 75
     0
 76
     2
 47
0.775229
 98
        1
 10
0.0
 20
0.0
  0
LWPOLYLINE
  5
8B
102
{ACAD_REACTORS
330
8C
102
}
100
AcDbEntity
  8
MST_1_1
 62
     7
100
AcDbPolyline
 90
       19
 70
     1
 43
0.0
 10
-54.08895174
 20
-435.17548677
 10
-54.08895174
 20
-435.46615343
 10
-54.08895174
 20
-435.46615343
 10
-53.78761841
 20
-435.4653201
 10
-53.78761841
 20
-435.4653201
 10
-53.73463991
 20
-435.45346977
 10
-53.69317041
 20
-435.42909743
 10
-53.66330891
 20
-435.3954711
 10
-53.64515441
 20
-435.35585877
 10
-53.63880591
 20
-435.31352843
 10
-53.64436241
 20
-435.2717481
 10
-53.66192291
 20
-435.23378577
 10
-53.69158641
 20
-435.20290943
 10
-53.73345191
 20
-435.1823871
 10
-53.78761841
 20
-435.17548677
 10
-53.78761841
 20
-435.17548677
 10
-54.08895174
 20
-435.17548677
 10
-54.08895174
 20
-435.17548677
 10
-54.08895174
 20
-435.17548677
  0
HATCH
  5
8C
100
AcDbEntity
  8
MST_1_1
 62
     7
100
AcDbHatch
 10
0.0
 20
0.0
 30
0.0
210
0.0
220
0.0
230
1.0
  2
SOLID
 70
     1
 71
     1
 91
        1
 92
        7
 72
     0
 73
     1
 93
       13
 10
-54.08895174
 20
-435.17548677
 10
-54.08895174
 20
-435.46615343
 10
-53.78761841
 20
-435.4653201
 10
-53.73463991
 20
-435.45346977
 10
-53.69317041
 20
-435.42909743
 10
-53.66330891
 20
-435.3954711
 10
-53.64515441
 20
-435.35585877
 10
-53.63880591
 20
-435.31352843
 10
-53.64436241
 20
-435.2717481
 10
-53.66192291
 20
-435.23378577
 10
-53.69158641
 20
-435.20290943
 10
-53.73345191
 20
-435.1823871
 10
-53.78761841
 20
-435.17548677
 97
        1
330
8B
 75
     0
 76
     2
 47
0.775229
 98
        1
 10
0.0
 20
0.0
  0
CIRCLE
  5
8D
100
AcDbEntity
  8
MST_1_1
 62
   137
  6
CONTINUOUS
100
AcDbCircle
 39
-1000.0
 10
-426.2641818
 20
-607.32203697
 30
1000.0
 40
2.65
  0
CIRCLE
  5
8E
100
AcDbEntity
  8
MST_1_1
 62
   137
  6
CONTINUOUS
100
AcDbCircle
 39
-1000.0
 10
-426.2641818
 20
-607.32203697
 30
1000.0
 40
8.0
  0
CIRCLE
  5
8F
100
AcDbEntity
  8
MST_1_1
 62
   137
  6
CONTINUOUS
100
AcDbCircle
 39
-1000.0
 10
-426.2641818
 20
-607.32203697
 30
1000.0
 40
5.75
  0
CIRCLE
  5
90
100
AcDbEntity
  8
MST_1_1
 62
   137
  6
CONTINUOUS
100
AcDbCircle
 39
-1000.0
 10
-426.2641818
 20
-607.32203697
 30
1000.0
 40
5.2
  0
3DFACE
  5
91
100
AcDbEntity
  8
MST_1_1
 62
   137
  6
CONTINUOUS
100
AcDbFace
 70
     0
 10
-386.45132855
 20
-599.32203697
 30
1000.0
 11
-389.25132855
 21
-601.57203697
 31
1000.0
 12
-389.25132855
 22
-602.12203697
 32
1000.0
 13
-386.45132855
 23
-604.67203697
 33
1000.0
  0
3DFACE
  5
92
100
AcDbEntity
  8
MST_1_1
 62
   137
  6
CONTINUOUS
100
AcDbFace
 70
     0
 10
-386.45132855
 20
-609.97203697
 30
1000.0
 11
-389.25132855
 21
-612.52203697
 31
1000.0
 12
-389.25132855
 22
-613.07203697
 32
1000.0
 13
-386.45132855
 23
-615.32203697
 33
1000.0
  0
CIRCLE
  5
93
100
AcDbEntity
  8
MST_1_1
 62
   137
  6
CONTINUOUS
100
AcDbCircle
 39
-1000.0
 10
-426.2641818
 20
-637.32203697
 30
1000.0
 40
3.2
  0
CIRCLE
  5
94
100
AcDbEntity
  8
MST_1_1
 62
   137
  6
CONTINUOUS
100
AcDbCircle
 39
-1000.0
 10
-426.2641818
 20
-637.32203697
 30
1000.0
 40
9.0
  0
CIRCLE
  5
95
100
AcDbEntity
  8
MST_1_1
 62
   137
  6
CONTINUOUS
100
AcDbCircle
 39
-1000.0
 10
-426.2641818
 20
-637.32203697
 30
1000.0
 40
6.75
  0
CIRCLE
  5
96
100
AcDbEntity
  8
MST_1_1
 62
   137
  6
CONTINUOUS
100
AcDbCircle
 39
-1000.0
 10
-426.2641818
 20
-637.32203697
 30
1000.0
 40
6.2
  0
3DFACE
  5
97
100
AcDbEntity
  8
MST_1_1
 62
   137
  6
CONTINUOUS
100
AcDbFace
 70
     0
 10
-386.45132855
 20
-628.32203697
 30
1000.0
 11
-389.75132855
 21
-630.57203697
 31
1000.0
 12
-389.75132855
 22
-631.12203697
 32
1000.0
 13
-386.45132855
 23
-634.12203697
 33
1000.0
  0
3DFACE
  5
98
100
AcDbEntity
  8
MST_1_1
 62
   137
  6
CONTINUOUS
100
AcDbFace
 70
     0
 10
-386.45132855
 20
-640.52203697
 30
1000.0
 11
-389.75132855
 21
-643.52203697
 31
1000.0
 12
-389.75132855
 22
-644.07203697
 32
1000.0
 13
-386.45132855
 23
-646.32203697
 33
1000.0
  0
CIRCLE
  5
99
100
AcDbEntity
  8
MST_1_1
 62
   137
  6
CONTINUOUS
100
AcDbCircle
 39
-1000.0
 10
-426.2641818
 20
-667.32203697
 30
1000.0
 40
4.2
  0
CIRCLE
  5
9A
100
AcDbEntity
  8
MST_1_1
 62
   137
  6
CONTINUOUS
100
AcDbCircle
 39
-1000.0
 10
-426.2641818
 20
-667.32203697
 30
1000.0
 40
12.5
  0
CIRCLE
  5
9B
100
AcDbEntity
  8
MST_1_1
 62
   137
  6
CONTINUOUS
100
AcDbCircle
 39
-1000.0
 10
-426.2641818
 20
-667.32203697
 30
1000.0
 40
8.75
  0
CIRCLE
  5
9C
100
AcDbEntity
  8
MST_1_1
 62
   137
  6
CONTINUOUS
100
AcDbCircle
 39
-1000.0
 10
-426.2641818
 20
-667.32203697
 30
1000.0
 40
8.2
  0
CIRCLE
  5
9D
100
AcDbEntity
  8
MST_1_1
 62
   137
  6
CONTINUOUS
100
AcDbCircle
 39
-1000.0
 10
-426.2641818
 20
-707.32203697
 30
1000.0
 40
5.4
  0
CIRCLE
  5
9E
100
AcDbEntity
  8
MST_1_1
 62
   137
  6
CONTINUOUS
100
AcDbCircle
 39
-1000.0
 10
-426.2641818
 20
-707.32203697
 30
1000.0
 40
16.0
  0
CIRCLE
  5
9F
100
AcDbEntity
  8
MST_1_1
 62
   137
  6
CONTINUOUS
100
AcDbCircle
 39
-1000.0
 10
-426.2641818
 20
-707.32203697
 30
1000.0
 40
11.35
  0
CIRCLE
  5
A0
100
AcDbEntity
  8
MST_1_1
 62
   137
  6
CONTINUOUS
100
AcDbCircle
 39
-1000.0
 10
-426.2641818
 20
-707.32203697
 30
1000.0
 40
11.15
  0
CIRCLE
  5
A1
100
AcDbEntity
  8
MST_1_1
 62
   137
  6
CONTINUOUS
100
AcDbCircle
 39
-1000.0
 10
-426.2641818
 20
-757.32203697
 30
1000.0
 40
7.0
  0
CIRCLE
  5
A2
100
AcDbEntity
  8
MST_1_1
 62
   137
  6
CONTINUOUS
100
AcDbCircle
 39
-1000.0
 10
-426.2641818
 20
-757.32203697
 30
1000.0
 40
20.0
  0
CIRCLE
  5
A3
100
AcDbEntity
  8
MST_1_1
 62
   137
  6
CONTINUOUS
100
AcDbCircle
 39
-1000.0
 10
-426.2641818
 20
-757.32203697
 30
1000.0
 40
13.5
  0
CIRCLE
  5
A4
100
AcDbEntity
  8
MST_1_1
 62
   137
  6
CONTINUOUS
100
AcDbCircle
 39
-1000.0
 10
-426.2641818
 20
-757.32203697
 30
1000.0
 40
13.0
  0
3DFACE
  5
A5
100
AcDbEntity
  8
MST_1_1
 62
   137
  6
CONTINUOUS
100
AcDbFace
 70
     0
 10
-386.45132855
 20
-671.52203697
 30
1000.0
 11
-391.45132855
 21
-675.52203697
 31
1000.0
 12
-391.45132855
 22
-676.07203697
 32
1000.0
 13
-386.45132855
 23
-679.82203697
 33
1000.0
  0
3DFACE
  5
A6
100
AcDbEntity
  8
MST_1_1
 62
   137
  6
CONTINUOUS
100
AcDbFace
 70
     0
 10
-386.45132855
 20
-691.32203697
 30
1000.0
 11
-391.85132855
 21
-695.97203697
 31
1000.0
 12
-391.85132855
 22
-696.17203697
 32
1000.0
 13
-386.45132855
 23
-701.92203697
 33
1000.0
  0
3DFACE
  5
A7
100
AcDbEntity
  8
MST_1_1
 62
   137
  6
CONTINUOUS
100
AcDbFace
 70
     0
 10
-386.45132855
 20
-712.72203697
 30
1000.0
 11
-391.85132855
 21
-718.47203697
 31
1000.0
 12
-391.85132855
 22
-718.67203697
 32
1000.0
 13
-386.45132855
 23
-723.32203697
 33
1000.0
  0
3DFACE
  5
A8
100
AcDbEntity
  8
MST_1_1
 62
   137
  6
CONTINUOUS
100
AcDbFace
 70
     0
 10
-386.45132855
 20
-737.32203697
 30
1000.0
 11
-394.45132855
 21
-743.82203697
 31
1000.0
 12
-394.45132855
 22
-744.32203697
 32
1000.0
 13
-386.45132855
 23
-750.32203697
 33
1000.0
  0
3DFACE
  5
A9
100
AcDbEntity
  8
MST_1_1
 62
   137
  6
CONTINUOUS
100
AcDbFace
 70
     0
 10
-386.45132855
 20
-764.32203697
 30
1000.0
 11
-394.45132855
 21
-770.32203697
 31
1000.0
 12
-394.45132855
 22
-770.82203697
 32
1000.0
 13
-386.45132855
 23
-777.32203697
 33
1000.0
  0
3DFACE
  5
AA
100
AcDbEntity
  8
MST_1_1
 62
   137
  6
CONTINUOUS
100
AcDbFace
 70
     0
 10
-386.45132855
 20
-654.82203697
 30
1000.0
 11
-391.45132855
 21
-658.57203697
 31
1000.0
 12
-391.45132855
 22
-659.12203697
 32
1000.0
 13
-386.45132855
 23
-663.12203697
 33
1000.0
  0
LINE
  5
AB
100
AcDbEntity
  8
MST_1_1
 62
   137
  6
CONTINUOUS
100
AcDbLine
 10
-389.25132855
 20
-602.12203697
 30
1000.0
 11
-389.25132855
 21
-612.52203697
 31
1000.0
  0
LINE
  5
AC
100
AcDbEntity
  8
MST_1_1
 62
   137
  6
CONTINUOUS
100
AcDbLine
 10
-386.45132855
 20
-609.97203697
 30
1000.0
 11
-386.45132855
 21
-604.67203697
 31
1000.0
  0
LINE
  5
AD
100
AcDbEntity
  8
MST_1_1
 62
   137
  6
CONTINUOUS
100
AcDbLine
 10
-389.75132855
 20
-631.12203697
 30
1000.0
 11
-389.75132855
 21
-643.52203697
 31
1000.0
  0
LINE
  5
AE
100
AcDbEntity
  8
MST_1_1
 62
   137
  6
CONTINUOUS
100
AcDbLine
 10
-386.45132855
 20
-640.52203697
 30
1000.0
 11
-386.45132855
 21
-634.12203697
 31
1000.0
  0
LINE
  5
AF
100
AcDbEntity
  8
MST_1_1
 62
   137
  6
CONTINUOUS
100
AcDbLine
 10
-391.45132855
 20
-659.12203697
 30
1000.0
 11
-391.45132855
 21
-675.52203697
 31
1000.0
  0
LINE
  5
B0
100
AcDbEntity
  8
MST_1_1
 62
   137
  6
CONTINUOUS
100
AcDbLine
 10
-386.45132855
 20
-671.52203697
 30
1000.0
 11
-386.45132855
 21
-663.12203697
 31
1000.0
  0
LINE
  5
B1
100
AcDbEntity
  8
MST_1_1
 62
   137
  6
CONTINUOUS
100
AcDbLine
 10
-391.85132855
 20
-696.17203697
 30
1000.0
 11
-391.85132855
 21
-718.47203697
 31
1000.0
  0
LINE
  5
B2
100
AcDbEntity
  8
MST_1_1
 62
   137
  6
CONTINUOUS
100
AcDbLine
 10
-386.45132855
 20
-712.72203697
 30
1000.0
 11
-386.45132855
 21
-701.92203697
 31
1000.0
  0
LINE
  5
B3
100
AcDbEntity
  8
MST_1_1
 62
   137
  6
CONTINUOUS
100
AcDbLine
 10
-394.45132855
 20
-744.32203697
 30
1000.0
 11
-394.45132855
 21
-770.32203697
 31
1000.0
  0
LINE
  5
B4
100
AcDbEntity
  8
MST_1_1
 62
   137
  6
CONTINUOUS
100
AcDbLine
 10
-386.45132855
 20
-764.32203697
 30
1000.0
 11
-386.45132855
 21
-750.32203697
 31
1000.0
  0
TEXT
  5
B5
100
AcDbEntity
  8
MST_1_1
 62
     7
100
AcDbText
 10
-532.74867122
 20
-609.82203697
 30
0.0
 40
5.0
  1
Senkscheiben PROFIX M5
  7
ARIAL
 50
0.0
 41
0.8
 51
0.0
100
AcDbText
  0
TEXT
  5
B6
100
AcDbEntity
  8
MST_1_1
 62
     7
100
AcDbText
 10
-532.74867122
 20
-639.82203697
 30
0.0
 40
5.0
  1
Senkscheiben PROFIX M6
  7
ARIAL
 50
0.0
 41
0.8
 51
0.0
100
AcDbText
  0
TEXT
  5
B7
100
AcDbEntity
  8
MST_1_1
 62
     7
100
AcDbText
 10
-532.74867122
 20
-669.82203697
 30
0.0
 40
5.0
  1
Senkscheiben PROFIX M8
  7
ARIAL
 50
0.0
 41
0.8
 51
0.0
100
AcDbText
  0
TEXT
  5
B8
100
AcDbEntity
  8
MST_1_1
 62
     7
100
AcDbText
 10
-532.74867122
 20
-709.82203697
 30
0.0
 40
5.0
  1
Senkscheiben PROFIX M10
  7
ARIAL
 50
0.0
 41
0.8
 51
0.0
100
AcDbText
  0
TEXT
  5
B9
100
AcDbEntity
  8
MST_1_1
 62
     7
100
AcDbText
 10
-532.74867122
 20
-759.82203697
 30
0.0
 40
5.0
  1
Senkscheiben PROFIX M12
  7
ARIAL
 50
0.0
 41
0.8
 51
0.0
100
AcDbText
  0
ENDSEC
  0
SECTION
  2
OBJECTS
  0
DICTIONARY
  5
1
100
AcDbDictionary
  3
ACAD_GROUP
350
2
  3
ACAD_MLINESTYLE
350
3
  0
DICTIONARY
  5
2
102
{CDWK_REACTORS
330
1
102
}
100
AcDbDictionary
  0
DICTIONARY
  5
3
102
{CDWK_REACTORS
330
1
102
}
100
AcDbDictionary
  3
STANDARD
350
4
  0
MLINESTYLE
  5
4
102
{CDWK_REACTORS
330
3
102
}
100
AcDbMlineStyle
  2
STANDARD
 70
     0
  3

 62
     0
 51
90.0
 52
90.0
 71
     2
 49
0.5
 62
   256
  6
BYLAYER
 49
-0.5
 62
   256
  6
BYLAYER
  0
ENDSEC
  0
EOF
