  0
SECTION
  2
HEADER
  9
$ACADVER
  1
AC1015
  9
$ACADMAINTVER
 70
    20
  9
$DWGCODEPAGE
  3
ANSI_1252
  9
$INSBASE
 10
247.9294531628316
 20
261.2843918767078
 30
0.0
  9
$EXTMIN
 10
189.3640148702125
 20
202.7237100339538
 30
-0.0015258207003583
  9
$EXTMAX
 10
306.5148934238996
 20
319.8496406106856
 30
1.478576696802143
  9
$LIMMIN
 10
0.0
 20
0.0
  9
$LIMMAX
 10
420.0
 20
297.0
  9
$ORTHOMODE
 70
     0
  9
$REGENMODE
 70
     1
  9
$FILLMODE
 70
     1
  9
$QTEXTMODE
 70
     0
  9
$MIRRTEXT
 70
     0
  9
$LTSCALE
 40
1.0
  9
$ATTMODE
 70
     1
  9
$TEXTSIZE
 40
2.5
  9
$TRACEWID
 40
1.0
  9
$TEXTSTYLE
  7
Standard
  9
$CLAYER
  8
0
  9
$CELTYPE
  6
ByLayer
  9
$CECOLOR
 62
   256
  9
$CELTSCALE
 40
1.0
  9
$DISPSILH
 70
     0
  9
$DIMSCALE
 40
1.0
  9
$DIMASZ
 40
2.5
  9
$DIMEXO
 40
0.625
  9
$DIMDLI
 40
3.75
  9
$DIMRND
 40
0.0
  9
$DIMDLE
 40
0.0
  9
$DIMEXE
 40
1.25
  9
$DIMTP
 40
0.0
  9
$DIMTM
 40
0.0
  9
$DIMTXT
 40
2.5
  9
$DIMCEN
 40
2.5
  9
$DIMTSZ
 40
0.0
  9
$DIMTOL
 70
     0
  9
$DIMLIM
 70
     0
  9
$DIMTIH
 70
     0
  9
$DIMTOH
 70
     0
  9
$DIMSE1
 70
     0
  9
$DIMSE2
 70
     0
  9
$DIMTAD
 70
     1
  9
$DIMZIN
 70
     8
  9
$DIMBLK
  1

  9
$DIMASO
 70
     1
  9
$DIMSHO
 70
     1
  9
$DIMPOST
  1

  9
$DIMAPOST
  1

  9
$DIMALT
 70
     0
  9
$DIMALTD
 70
     3
  9
$DIMALTF
 40
0.03937007874016
  9
$DIMLFAC
 40
1.0
  9
$DIMTOFL
 70
     1
  9
$DIMTVP
 40
0.0
  9
$DIMTIX
 70
     0
  9
$DIMSOXD
 70
     0
  9
$DIMSAH
 70
     0
  9
$DIMBLK1
  1

  9
$DIMBLK2
  1

  9
$DIMSTYLE
  2
ISO-25
  9
$DIMCLRD
 70
     0
  9
$DIMCLRE
 70
     0
  9
$DIMCLRT
 70
     0
  9
$DIMTFAC
 40
1.0
  9
$DIMGAP
 40
0.625
  9
$DIMJUST
 70
     0
  9
$DIMSD1
 70
     0
  9
$DIMSD2
 70
     0
  9
$DIMTOLJ
 70
     0
  9
$DIMTZIN
 70
     8
  9
$DIMALTZ
 70
     0
  9
$DIMALTTZ
 70
     0
  9
$DIMUPT
 70
     0
  9
$DIMDEC
 70
     2
  9
$DIMTDEC
 70
     2
  9
$DIMALTU
 70
     2
  9
$DIMALTTD
 70
     3
  9
$DIMTXSTY
  7
Standard
  9
$DIMAUNIT
 70
     0
  9
$DIMADEC
 70
     0
  9
$DIMALTRND
 40
0.0
  9
$DIMAZIN
 70
     0
  9
$DIMDSEP
 70
    44
  9
$DIMATFIT
 70
     3
  9
$DIMFRAC
 70
     0
  9
$DIMLDRBLK
  1

  9
$DIMLUNIT
 70
     2
  9
$DIMLWD
 70
    -2
  9
$DIMLWE
 70
    -2
  9
$DIMTMOVE
 70
     0
  9
$LUNITS
 70
     2
  9
$LUPREC
 70
     4
  9
$SKETCHINC
 40
1.0
  9
$FILLETRAD
 40
0.0
  9
$AUNITS
 70
     0
  9
$AUPREC
 70
     0
  9
$MENU
  1
.
  9
$ELEVATION
 40
0.0
  9
$PELEVATION
 40
0.0
  9
$THICKNESS
 40
0.0
  9
$LIMCHECK
 70
     0
  9
$CHAMFERA
 40
0.0
  9
$CHAMFERB
 40
0.0
  9
$CHAMFERC
 40
0.0
  9
$CHAMFERD
 40
0.0
  9
$SKPOLY
 70
     0
  9
$TDCREATE
 40
2453809.386277489
  9
$TDUCREATE
 40
2453809.344610822
  9
$TDUPDATE
 40
2453809.486463761
  9
$TDUUPDATE
 40
2453809.444797095
  9
$TDINDWG
 40
0.0960188889
  9
$TDUSRTIMER
 40
0.0960188889
  9
$USRTIMER
 70
     1
  9
$ANGBASE
 50
0.0
  9
$ANGDIR
 70
     0
  9
$PDMODE
 70
     0
  9
$PDSIZE
 40
0.0
  9
$PLINEWID
 40
0.0
  9
$SPLFRAME
 70
     0
  9
$SPLINETYPE
 70
     6
  9
$SPLINESEGS
 70
     8
  9
$HANDSEED
  5
D3
  9
$SURFTAB1
 70
     6
  9
$SURFTAB2
 70
     6
  9
$SURFTYPE
 70
     6
  9
$SURFU
 70
     6
  9
$SURFV
 70
     6
  9
$UCSBASE
  2

  9
$UCSNAME
  2

  9
$UCSORG
 10
0.0
 20
0.0
 30
0.0
  9
$UCSXDIR
 10
1.0
 20
0.0
 30
0.0
  9
$UCSYDIR
 10
0.0
 20
1.0
 30
0.0
  9
$UCSORTHOREF
  2

  9
$UCSORTHOVIEW
 70
     0
  9
$UCSORGTOP
 10
0.0
 20
0.0
 30
0.0
  9
$UCSORGBOTTOM
 10
0.0
 20
0.0
 30
0.0
  9
$UCSORGLEFT
 10
0.0
 20
0.0
 30
0.0
  9
$UCSORGRIGHT
 10
0.0
 20
0.0
 30
0.0
  9
$UCSORGFRONT
 10
0.0
 20
0.0
 30
0.0
  9
$UCSORGBACK
 10
0.0
 20
0.0
 30
0.0
  9
$PUCSBASE
  2

  9
$PUCSNAME
  2

  9
$PUCSORG
 10
0.0
 20
0.0
 30
0.0
  9
$PUCSXDIR
 10
1.0
 20
0.0
 30
0.0
  9
$PUCSYDIR
 10
0.0
 20
1.0
 30
0.0
  9
$PUCSORTHOREF
  2

  9
$PUCSORTHOVIEW
 70
     0
  9
$PUCSORGTOP
 10
0.0
 20
0.0
 30
0.0
  9
$PUCSORGBOTTOM
 10
0.0
 20
0.0
 30
0.0
  9
$PUCSORGLEFT
 10
0.0
 20
0.0
 30
0.0
  9
$PUCSORGRIGHT
 10
0.0
 20
0.0
 30
0.0
  9
$PUCSORGFRONT
 10
0.0
 20
0.0
 30
0.0
  9
$PUCSORGBACK
 10
0.0
 20
0.0
 30
0.0
  9
$USERI1
 70
     0
  9
$USERI2
 70
     0
  9
$USERI3
 70
     0
  9
$USERI4
 70
     0
  9
$USERI5
 70
     0
  9
$USERR1
 40
0.0
  9
$USERR2
 40
0.0
  9
$USERR3
 40
0.0
  9
$USERR4
 40
0.0
  9
$USERR5
 40
0.0
  9
$WORLDVIEW
 70
     1
  9
$SHADEDGE
 70
     3
  9
$SHADEDIF
 70
    70
  9
$TILEMODE
 70
     1
  9
$MAXACTVP
 70
    64
  9
$PINSBASE
 10
0.0
 20
0.0
 30
0.0
  9
$PLIMCHECK
 70
     0
  9
$PEXTMIN
 10
1.000000000000000E+20
 20
1.000000000000000E+20
 30
1.000000000000000E+20
  9
$PEXTMAX
 10
-1.000000000000000E+20
 20
-1.000000000000000E+20
 30
-1.000000000000000E+20
  9
$PLIMMIN
 10
0.0
 20
0.0
  9
$PLIMMAX
 10
420.0
 20
297.0
  9
$UNITMODE
 70
     0
  9
$VISRETAIN
 70
     1
  9
$PLINEGEN
 70
     0
  9
$PSLTSCALE
 70
     1
  9
$TREEDEPTH
 70
  3020
  9
$CMLSTYLE
  2
Standard
  9
$CMLJUST
 70
     0
  9
$CMLSCALE
 40
20.0
  9
$PROXYGRAPHICS
 70
     1
  9
$MEASUREMENT
 70
     1
  9
$CELWEIGHT
370
    -1
  9
$ENDCAPS
280
     0
  9
$JOINSTYLE
280
     0
  9
$LWDISPLAY
290
     0
  9
$INSUNITS
 70
     4
  9
$HYPERLINKBASE
  1

  9
$STYLESHEET
  1

  9
$XEDIT
290
     1
  9
$CEPSNTYPE
380
     0
  9
$PSTYLEMODE
290
     1
  9
$FINGERPRINTGUID
  2
{551D837A-308C-4FB2-B23B-1DCD61706134}
  9
$VERSIONGUID
  2
{009CB90E-45E8-4B1D-A3C4-C25E8434CE04}
  9
$EXTNAMES
290
     1
  9
$PSVPSCALE
 40
0.0
  9
$OLESTARTUP
290
     0
  0
ENDSEC
  0
SECTION
  2
CLASSES
  0
CLASS
  1
ACDBDICTIONARYWDFLT
  2
AcDbDictionaryWithDefault
  3
ObjectDBX Classes
 90
        0
280
     0
281
     0
  0
CLASS
  1
TABLESTYLE
  2
AcDbTableStyle
  3
ObjectDBX Classes
 90
     2047
280
     0
281
     0
  0
CLASS
  1
SORTENTSTABLE
  2
AcDbSortentsTable
  3
ObjectDBX Classes
 90
        0
280
     0
281
     0
  0
CLASS
  1
DICTIONARYVAR
  2
AcDbDictionaryVar
  3
ObjectDBX Classes
 90
        0
280
     0
281
     0
  0
CLASS
  1
ACDBPLACEHOLDER
  2
AcDbPlaceHolder
  3
ObjectDBX Classes
 90
        0
280
     0
281
     0
  0
CLASS
  1
LAYOUT
  2
AcDbLayout
  3
ObjectDBX Classes
 90
        0
280
     0
281
     0
  0
ENDSEC
  0
SECTION
  2
TABLES
  0
TABLE
  2
VPORT
  5
1B
330
0
100
AcDbSymbolTable
 70
     2
  0
VPORT
  5
CD
330
1B
100
AcDbSymbolTableRecord
100
AcDbViewportTableRecord
  2
*Active
 70
     0
 10
0.0
 20
0.0
 11
1.0
 21
1.0
 12
247.9394541470561
 22
261.2866753223197
 13
0.0
 23
0.0
 14
10.0
 24
10.0
 15
10.0
 25
10.0
 16
0.0
 26
0.0
 36
1.0
 17
0.0
 27
0.0
 37
0.0
 40
118.5660034936588
 41
1.985626283367556
 42
50.0
 43
0.0
 44
0.0
 50
0.0
 51
0.0
 71
     0
 72
  1000
 73
     1
 74
     3
 75
     0
 76
     0
 77
     0
 78
     0
281
     0
 65
     1
110
0.0
120
0.0
130
0.0
111
1.0
121
0.0
131
0.0
112
0.0
122
1.0
132
0.0
 79
     0
146
0.0
  0
ENDTAB
  0
TABLE
  2
LTYPE
  5
16
330
0
100
AcDbSymbolTable
 70
     2
  0
LTYPE
  5
17
330
16
100
AcDbSymbolTableRecord
100
AcDbLinetypeTableRecord
  2
ByBlock
 70
     0
  3

 72
    65
 73
     0
 40
0.0
  0
LTYPE
  5
18
330
16
100
AcDbSymbolTableRecord
100
AcDbLinetypeTableRecord
  2
ByLayer
 70
     0
  3

 72
    65
 73
     0
 40
0.0
  0
LTYPE
  5
8
330
16
100
AcDbSymbolTableRecord
100
AcDbLinetypeTableRecord
  2
Continuous
 70
     0
  3
Solid line
 72
    65
 73
     0
 40
0.0
  0
LTYPE
  5
58
330
16
100
AcDbSymbolTableRecord
100
AcDbLinetypeTableRecord
  2
DASHED
 70
     0
  3
__ __ __ __ __ __ __ __ __ __ __ __ __ __ __ __
 72
    65
 73
     2
 40
0.75
 49
0.5
 74
     0
 49
-0.25
 74
     0
  0
ENDTAB
  0
TABLE
  2
LAYER
  5
10
102
{ACAD_XDICTIONARY
360
11
102
}
330
0
100
AcDbSymbolTable
 70
     1
  0
LAYER
  5
4
330
10
100
AcDbSymbolTableRecord
100
AcDbLayerTableRecord
  2
0
 70
     0
 62
     7
  6
Continuous
370
    -3
390
5
  0
ENDTAB
  0
TABLE
  2
STYLE
  5
13
330
0
100
AcDbSymbolTable
 70
     2
  0
STYLE
  5
14
330
13
100
AcDbSymbolTableRecord
100
AcDbTextStyleTableRecord
  2
Standard
 70
     0
 40
0.0
 41
1.0
 50
0.0
 71
     0
 42
2.5
  3
txt
  4

  0
STYLE
  5
BE
330
13
100
AcDbSymbolTableRecord
100
AcDbTextStyleTableRecord
  2
SST
 70
     0
 40
0.0
 41
1.0
 50
0.0
 71
     0
 42
3.5
  3
romans.shx
  4

  0
ENDTAB
  0
TABLE
  2
VIEW
  5
19
330
0
100
AcDbSymbolTable
 70
     1
  0
ENDTAB
  0
TABLE
  2
UCS
  5
1A
330
0
100
AcDbSymbolTable
 70
     0
  0
ENDTAB
  0
TABLE
  2
APPID
  5
1D
330
0
100
AcDbSymbolTable
 70
     1
  0
APPID
  5
1E
330
1D
100
AcDbSymbolTableRecord
100
AcDbRegAppTableRecord
  2
ACAD
 70
     0
  0
ENDTAB
  0
TABLE
  2
DIMSTYLE
  5
1F
330
0
100
AcDbSymbolTable
 70
     1
100
AcDbDimStyleTable
 71
     0
  0
DIMSTYLE
105
29
330
1F
100
AcDbSymbolTableRecord
100
AcDbDimStyleTableRecord
  2
ISO-25
 70
     0
 41
2.5
 42
0.625
 43
3.75
 44
1.25
 73
     0
 74
     0
 77
     1
 78
     8
140
2.5
141
2.5
143
0.03937007874016
147
0.625
171
     3
172
     1
271
     2
272
     2
274
     3
278
    44
283
     0
284
     8
340
14
  0
ENDTAB
  0
TABLE
  2
BLOCK_RECORD
  5
1
330
0
100
AcDbSymbolTable
 70
     1
  0
BLOCK_RECORD
  5
2
330
1
100
AcDbSymbolTableRecord
100
AcDbBlockTableRecord
  2
*Model_Space
340
A
  0
BLOCK_RECORD
  5
C
330
1
100
AcDbSymbolTableRecord
100
AcDbBlockTableRecord
  2
*Paper_Space
340
F
  0
BLOCK_RECORD
  5
B9
102
{ACAD_XDICTIONARY
360
BA
102
}
330
1
100
AcDbSymbolTableRecord
100
AcDbBlockTableRecord
  2
SST_STEMPEL
340
0
102
{BLKREFS
331
B8
102
}
  0
ENDTAB
  0
ENDSEC
  0
SECTION
  2
BLOCKS
  0
BLOCK
  5
3
330
2
100
AcDbEntity
  8
0
100
AcDbBlockBegin
  2
*Model_Space
 70
     0
 10
0.0
 20
0.0
 30
0.0
  3
*Model_Space
  1

  0
ENDBLK
  5
9
330
2
100
AcDbEntity
  8
0
100
AcDbBlockEnd
  0
BLOCK
  5
D
330
C
100
AcDbEntity
 67
     1
  8
0
100
AcDbBlockBegin
  2
*Paper_Space
 70
     0
 10
0.0
 20
0.0
 30
0.0
  3
*Paper_Space
  1

  0
ENDBLK
  5
E
330
C
100
AcDbEntity
 67
     1
  8
0
100
AcDbBlockEnd
  0
BLOCK
  5
BC
330
B9
100
AcDbEntity
  8
0
100
AcDbBlockBegin
  2
SST_STEMPEL
 70
     0
 10
0.0
 20
0.0
 30
0.0
  3
SST_STEMPEL
  1

  0
TEXT
  5
BD
330
B9
100
AcDbEntity
  8
0
  6
Continuous
100
AcDbText
 10
-3.741149563515705
 20
3.992811447199528
 30
0.0
 40
2.0
  1
SIMPSON
 50
316.9414863909134
  7
SST
100
AcDbText
  0
TEXT
  5
BF
330
B9
100
AcDbEntity
  8
0
  6
Continuous
100
AcDbText
 10
-6.656222857237139
 20
3.112015578657064
 30
0.0
 40
2.0
  1
Strong-Tie
 50
316.9414863909134
  7
SST
100
AcDbText
  0
ENDBLK
  5
C0
330
B9
100
AcDbEntity
  8
0
100
AcDbBlockEnd
  0
ENDSEC
  0
SECTION
  2
ENTITIES
  0
LINE
  5
2A
330
2
100
AcDbEntity
  8
0
100
AcDbLine
 10
217.2852151676839
 20
259.528915878783
 30
0.0
 11
217.9238342329686
 21
260.6351780858142
 31
0.0
  0
LINE
  5
2B
330
2
100
AcDbEntity
  8
0
100
AcDbLine
 10
217.9238342329686
 20
260.6351780858142
 30
0.0
 11
217.9191850706761
 21
261.9066643681629
 31
0.0
  0
LINE
  5
2C
330
2
100
AcDbEntity
  8
0
100
AcDbLine
 10
217.9191850706761
 20
261.9066643681629
 30
0.0
 11
217.2850661560719
 21
263.0117344822986
 31
0.0
  0
LINE
  5
2D
330
2
100
AcDbEntity
  8
0
100
AcDbLine
 10
217.2850661560719
 20
263.0117344822986
 30
0.0
 11
216.1806814953511
 21
263.6509346928699
 31
0.0
  0
LINE
  5
2E
330
2
100
AcDbEntity
  8
0
100
AcDbLine
 10
216.1806814953511
 20
263.6509346928699
 30
0.0
 11
214.9026088997548
 21
263.6485505070789
 31
0.0
  0
LINE
  5
2F
330
2
100
AcDbEntity
  8
0
100
AcDbLine
 10
214.9026088997548
 20
263.6485505070789
 30
0.0
 11
213.8003402039235
 21
263.0112576451404
 31
0.0
  0
LINE
  5
30
330
2
100
AcDbEntity
  8
0
100
AcDbLine
 10
213.8003402039235
 20
263.0112576451404
 30
0.0
 11
213.1642841383641
 21
261.9097638096912
 31
0.0
  0
LINE
  5
31
330
2
100
AcDbEntity
  8
0
100
AcDbLine
 10
213.1642841383641
 20
261.9097638096912
 30
0.0
 11
213.1613337084477
 21
260.6301712956531
 31
0.0
  0
LINE
  5
32
330
2
100
AcDbEntity
  8
0
100
AcDbLine
 10
213.1613337084477
 20
260.6301712956531
 30
0.0
 11
213.8005935236638
 21
259.5282006230457
 31
0.0
  0
LINE
  5
33
330
2
100
AcDbEntity
  8
0
100
AcDbLine
 10
213.8005935236638
 20
259.5282006230457
 30
0.0
 11
214.9057083412831
 21
258.8934111561878
 31
0.0
  0
LINE
  5
34
330
2
100
AcDbEntity
  8
0
100
AcDbLine
 10
216.1794596001332
 20
258.8906693425281
 30
0.0
 11
217.2852151676839
 21
259.528915878783
 31
0.0
  0
LINE
  5
35
330
2
100
AcDbEntity
  8
0
100
AcDbLine
 10
214.9057083412831
 20
258.8934111561878
 30
0.0
 11
216.1794596001332
 21
258.8906693425281
 31
0.0
  0
LINE
  5
36
330
2
100
AcDbEntity
  8
0
100
AcDbLine
 10
277.9336266800588
 20
261.9176316228015
 30
0.0
 11
277.9304378315633
 21
260.6456685032947
 31
0.0
  0
LINE
  5
37
330
2
100
AcDbEntity
  8
0
100
AcDbLine
 10
277.9304378315633
 20
260.6456685032947
 30
0.0
 11
278.5687141701405
 21
259.5396447148425
 31
0.0
  0
LINE
  5
38
330
2
100
AcDbEntity
  8
0
100
AcDbLine
 10
279.6720557495778
 20
263.6621403660877
 30
0.0
 11
278.5684757515614
 21
263.0227017369373
 31
0.0
  0
LINE
  5
39
330
2
100
AcDbEntity
  8
0
100
AcDbLine
 10
278.5684757515614
 20
263.0227017369373
 30
0.0
 11
277.9336266800588
 21
261.9176316228015
 31
0.0
  0
LINE
  5
3A
330
2
100
AcDbEntity
  8
0
100
AcDbLine
 10
282.0513241573994
 20
263.0227017369373
 30
0.0
 11
280.9499793335622
 21
263.6585640874011
 31
0.0
  0
LINE
  5
3B
330
2
100
AcDbEntity
  8
0
100
AcDbLine
 10
280.9499793335622
 20
263.6585640874011
 30
0.0
 11
279.6720557495778
 21
263.6621403660877
 31
0.0
  0
LINE
  5
3C
330
2
100
AcDbEntity
  8
0
100
AcDbLine
 10
282.6916270538991
 20
260.6404232945545
 30
0.0
 11
282.6886766239827
 21
261.9207310643298
 31
0.0
  0
LINE
  5
3D
330
2
100
AcDbEntity
  8
0
100
AcDbLine
 10
282.6886766239827
 20
261.9207310643298
 30
0.0
 11
282.0513241573994
 21
263.0227017369373
 31
0.0
  0
LINE
  5
3E
330
2
100
AcDbEntity
  8
0
100
AcDbLine
 10
280.9470289036458
 20
258.9039015736682
 30
0.0
 11
282.0520394131368
 21
259.5382142033679
 31
0.0
  0
LINE
  5
3F
330
2
100
AcDbEntity
  8
0
100
AcDbLine
 10
282.0520394131368
 20
259.5382142033679
 30
0.0
 11
282.6916270538991
 21
260.6404232945545
 31
0.0
  0
LINE
  5
40
330
2
100
AcDbEntity
  8
0
100
AcDbLine
 10
279.6748273655599
 20
258.9011597600086
 30
0.0
 11
280.9470289036458
 21
258.9039015736682
 31
0.0
  0
LINE
  5
41
330
2
100
AcDbEntity
  8
0
100
AcDbLine
 10
278.5687141701405
 20
259.5396447148425
 30
0.0
 11
279.6748273655599
 21
258.9011597600086
 31
0.0
  0
POINT
  5
42
330
2
100
AcDbEntity
  8
0
100
AcDbPoint
 10
247.9294531628316
 20
261.2843918767078
 30
0.0
  0
POINT
  5
43
330
2
100
AcDbEntity
  8
0
100
AcDbPoint
 10
247.9294531628316
 20
261.2843918767078
 30
0.0
  0
POINT
  5
44
330
2
100
AcDbEntity
  8
0
100
AcDbPoint
 10
247.9294531628316
 20
261.2843918767078
 30
0.0
  0
POINT
  5
45
330
2
100
AcDbEntity
  8
0
100
AcDbPoint
 10
247.9294531628316
 20
261.2843918767078
 30
0.0
  0
POINT
  5
46
330
2
100
AcDbEntity
  8
0
100
AcDbPoint
 10
247.9294531628316
 20
261.2843918767078
 30
0.0
  0
POINT
  5
47
330
2
100
AcDbEntity
  8
0
100
AcDbPoint
 10
247.9294531628316
 20
261.2843918767078
 30
0.0
  0
POINT
  5
48
330
2
100
AcDbEntity
  8
0
100
AcDbPoint
 10
247.9294531628316
 20
261.2843918767078
 30
0.0
  0
POINT
  5
49
330
2
100
AcDbEntity
  8
0
100
AcDbPoint
 10
247.9294531628316
 20
261.2843918767078
 30
0.0
  0
POINT
  5
4A
330
2
100
AcDbEntity
  8
0
100
AcDbPoint
 10
247.9294531628316
 20
261.2843918767078
 30
0.0
  0
POINT
  5
4B
330
2
100
AcDbEntity
  8
0
100
AcDbPoint
 10
247.9294531628316
 20
261.2843918767078
 30
0.0
  0
POINT
  5
4C
330
2
100
AcDbEntity
  8
0
100
AcDbPoint
 10
247.9294531628316
 20
261.2843918767078
 30
0.0
  0
POINT
  5
4D
330
2
100
AcDbEntity
  8
0
100
AcDbPoint
 10
247.9294531628316
 20
261.2843918767078
 30
0.0
  0
POINT
  5
4E
330
2
100
AcDbEntity
  8
0
100
AcDbPoint
 10
247.9294531628316
 20
261.2843918767078
 30
0.0
  0
CIRCLE
  5
4F
330
2
100
AcDbEntity
  8
0
100
AcDbCircle
 39
1.199999940581619
 10
247.9294531628316
 20
261.2843918767078
 30
0.0
 40
8.4
  0
CIRCLE
  5
50
330
2
100
AcDbEntity
  8
0
100
AcDbCircle
 39
1.199999940581619
 10
247.9294531628316
 20
261.2843918767078
 30
0.0
 40
9.9
  0
LINE
  5
51
330
2
100
AcDbEntity
  8
0
100
AcDbLine
 10
247.9294531628316
 20
218.4597659077747
 30
0.0
 11
252.3255043312734
 21
232.8685927357776
 31
0.0
  0
LINE
  5
52
330
2
100
AcDbEntity
  8
0
100
AcDbLine
 10
251.8678002640431
 20
231.3677477803333
 30
0.0
 11
243.9913742825215
 21
231.3677477803333
 31
0.0
  0
LINE
  5
53
330
2
100
AcDbEntity
  8
0
100
AcDbLine
 10
243.5334615990346
 20
232.8682351079089
 30
0.0
 11
247.9294531628316
 21
218.4597659077747
 31
0.0
  0
LINE
  5
54
330
2
100
AcDbEntity
  8
0
100
AcDbLine
 10
252.3255043312734
 20
232.8685927357776
 30
0.0
 11
243.5334615990346
 21
232.8682351079089
 31
0.0
  0
LINE
  5
55
330
2
100
AcDbEntity
  8
0
100
AcDbLine
 39
1.477894722484052
 10
247.9294531628316
 20
231.3679861989124
 30
0.0
 11
247.9294531628316
 21
232.8682351079089
 31
0.0
  0
LINE
  5
56
330
2
100
AcDbEntity
  8
0
100
AcDbLine
 10
247.9294531628316
 20
202.7849364247424
 30
0.0
 11
260.2921419426625
 21
215.1468205418689
 31
0.0
  0
LINE
  5
57
330
2
100
AcDbEntity
  8
0
  6
DASHED
100
AcDbLine
 10
235.4477041050618
 20
213.1485152211292
 30
0.0
 11
235.5694763943379
 21
215.1492047276599
 31
0.0
  0
LINE
  5
59
330
2
100
AcDbEntity
  8
0
100
AcDbLine
 10
235.4477041050618
 20
213.1485152211292
 30
0.0
 11
245.869129209203
 21
202.7241396870715
 31
0.0
  0
LINE
  5
5A
330
2
100
AcDbEntity
  8
0
100
AcDbLine
 10
247.9306750580495
 20
202.7838635411365
 30
0.0
 11
245.8682649418538
 21
202.7247357335193
 31
0.0
  0
LINE
  5
5B
330
2
100
AcDbEntity
  8
0
100
AcDbLine
 39
1.477894722484052
 10
240.6583421513265
 20
207.9360890355212
 30
0.0
 11
241.749256162328
 21
208.9652228322131
 31
0.0
  0
LINE
  5
5C
330
2
100
AcDbEntity
  8
0
100
AcDbLine
 10
235.5677776619618
 20
215.1476550068958
 30
0.0
 11
247.9294531628316
 21
202.7849364247424
 31
0.0
  0
LINE
  5
5D
330
2
100
AcDbEntity
  8
0
100
AcDbLine
 10
285.0168340489095
 20
239.8720192875964
 30
0.0
 11
274.7364633366292
 21
250.8836197819812
 31
0.0
  0
LINE
  5
5E
330
2
100
AcDbEntity
  8
0
100
AcDbLine
 10
275.8072607800191
 20
249.7368264165027
 30
0.0
 11
271.8690924927419
 21
242.915670868407
 31
0.0
  0
LINE
  5
5F
330
2
100
AcDbEntity
  8
0
100
AcDbLine
 10
270.3405909821217
 20
243.2693648305042
 30
0.0
 11
285.0168340489095
 21
239.8720192875964
 31
0.0
  0
LINE
  5
60
330
2
100
AcDbEntity
  8
0
100
AcDbLine
 10
274.7364633366292
 20
250.8836197819812
 30
0.0
 11
270.3405909821217
 21
243.2693648305042
 31
0.0
  0
LINE
  5
61
330
2
100
AcDbEntity
  8
0
100
AcDbLine
 39
1.477894722484052
 10
273.8379531189626
 20
246.3263678517444
 30
0.0
 11
272.5385718628591
 21
247.0763134923084
 31
0.0
  0
LINE
  5
62
330
2
100
AcDbEntity
  8
0
100
AcDbLine
 10
285.0168340489095
 20
282.6970028843982
 30
0.0
 11
270.3403525635426
 21
279.2995381322009
 31
0.0
  0
LINE
  5
63
330
2
100
AcDbEntity
  8
0
100
AcDbLine
 10
271.8689434811299
 20
279.6533513035877
 30
0.0
 11
275.8072309776967
 21
272.8324341740711
 31
0.0
  0
LINE
  5
64
330
2
100
AcDbEntity
  8
0
100
AcDbLine
 10
274.7366123482411
 20
271.6856408085925
 30
0.0
 11
285.0168340489095
 21
282.6970028843982
 31
0.0
  0
LINE
  5
65
330
2
100
AcDbEntity
  8
0
100
AcDbLine
 10
270.3403525635426
 20
279.2995381322009
 30
0.0
 11
274.7366123482411
 21
271.6856408085925
 31
0.0
  0
LINE
  5
66
330
2
100
AcDbEntity
  8
0
100
AcDbLine
 39
1.477894722484052
 10
273.8379233166402
 20
276.2427735295398
 30
0.0
 11
272.5385718628591
 21
275.4924702611072
 31
0.0
  0
LINE
  5
67
330
2
100
AcDbEntity
  8
0
100
AcDbLine
 10
247.9294531628316
 20
304.1091370549304
 30
0.0
 11
243.5333125874227
 21
289.7003102269275
 31
0.0
  0
LINE
  5
68
330
2
100
AcDbEntity
  8
0
100
AcDbLine
 10
243.9911954685872
 20
291.2011551823718
 30
0.0
 11
251.867561845464
 21
291.2011551823718
 31
0.0
  0
LINE
  5
69
330
2
100
AcDbEntity
  8
0
100
AcDbLine
 10
252.3254149243062
 20
289.7005486455066
 30
0.0
 11
247.9294531628316
 21
304.1091370549304
 31
0.0
  0
LINE
  5
6A
330
2
100
AcDbEntity
  8
0
100
AcDbLine
 10
243.5333125874227
 20
289.7003102269275
 30
0.0
 11
252.3254149243062
 21
289.7005486455066
 31
0.0
  0
LINE
  5
6B
330
2
100
AcDbEntity
  8
0
100
AcDbLine
 39
1.477894722484052
 10
247.9294531628316
 20
291.2009167637927
 30
0.0
 11
247.9294233605092
 21
289.7005486455066
 31
0.0
  0
LINE
  5
6C
330
2
100
AcDbEntity
  8
0
100
AcDbLine
 10
210.8421467825597
 20
282.6967644658191
 30
0.0
 11
221.1224727913564
 21
271.6851639714343
 31
0.0
  0
LINE
  5
6D
330
2
100
AcDbEntity
  8
0
100
AcDbLine
 10
220.0517647549336
 20
272.8319573369129
 30
0.0
 11
223.9898436352437
 21
279.6533513035877
 31
0.0
  0
LINE
  5
6E
330
2
100
AcDbEntity
  8
0
100
AcDbLine
 10
225.5183302447026
 20
279.2995381322009
 30
0.0
 11
210.8421467825597
 21
282.6967644658191
 31
0.0
  0
LINE
  5
6F
330
2
100
AcDbEntity
  8
0
100
AcDbLine
 10
221.1224727913564
 20
271.6851639714343
 30
0.0
 11
225.5183302447026
 21
279.2995381322009
 31
0.0
  0
LINE
  5
70
330
2
100
AcDbEntity
  8
0
100
AcDbLine
 39
1.477894722484052
 10
222.0210724159902
 20
276.2427735295398
 30
0.0
 11
223.3203493639653
 21
275.4924702611072
 31
0.0
  0
LINE
  5
71
330
2
100
AcDbEntity
  8
0
100
AcDbLine
 10
210.8422361895268
 20
239.8720192875964
 30
0.0
 11
225.5186729714101
 21
243.2691264119251
 31
0.0
  0
LINE
  5
72
330
2
100
AcDbEntity
  8
0
100
AcDbLine
 10
223.9901267573064
 20
242.9153132405383
 30
0.0
 11
220.0518094584172
 21
249.7365879979236
 31
0.0
  0
LINE
  5
73
330
2
100
AcDbEntity
  8
0
100
AcDbLine
 10
221.1224280878728
 20
250.8833813634021
 30
0.0
 11
210.8422361895268
 21
239.8720192875964
 31
0.0
  0
LINE
  5
74
330
2
100
AcDbEntity
  8
0
100
AcDbLine
 10
225.5186729714101
 20
243.2691264119251
 30
0.0
 11
221.1224280878728
 21
250.8833813634021
 31
0.0
  0
LINE
  5
75
330
2
100
AcDbEntity
  8
0
100
AcDbLine
 39
1.477894722484052
 10
222.0211618229573
 20
246.3261294331653
 30
0.0
 11
223.3204536720937
 21
247.0763134923084
 31
0.0
  0
LINE
  5
76
330
2
100
AcDbEntity
  8
0
100
AcDbLine
 10
277.1791808888143
 20
210.6223511662586
 30
0.0
 11
281.7046933457082
 21
227.5094199147327
 31
0.0
  0
LINE
  5
77
330
2
100
AcDbEntity
  8
0
  6
DASHED
100
AcDbLine
 10
261.1878507420247
 20
213.3566546406848
 30
0.0
 11
260.2930062100118
 21
215.1502776112659
 31
0.0
  0
LINE
  5
78
330
2
100
AcDbEntity
  8
0
100
AcDbLine
 10
261.1878507420247
 20
213.3566546406848
 30
0.0
 11
275.4253142162984
 21
209.5394539799793
 31
0.0
  0
LINE
  5
79
330
2
100
AcDbEntity
  8
0
100
AcDbLine
 10
277.1808200165456
 20
210.6218743291004
 30
0.0
 11
275.4242413326924
 21
209.5395731892688
 31
0.0
  0
LINE
  5
7A
330
2
100
AcDbEntity
  8
0
100
AcDbLine
 39
1.477894722484052
 10
268.3066718861287
 20
211.4478754963977
 30
0.0
 11
268.7368684097951
 21
212.8845858540637
 31
0.0
  0
LINE
  5
7B
330
2
100
AcDbEntity
  8
0
100
AcDbLine
 10
260.2922611519521
 20
215.1480126347644
 30
0.0
 11
277.1791808888143
 21
210.6223511662586
 31
0.0
  0
LINE
  5
7C
330
2
100
AcDbEntity
  8
0
100
AcDbLine
 10
298.5914938732808
 20
232.0346045460803
 30
0.0
 11
294.06714370696
 21
248.9219117131336
 31
0.0
  0
LINE
  5
7D
330
2
100
AcDbEntity
  8
0
  6
DASHED
100
AcDbLine
 10
283.3754711434071
 20
226.406972404967
 30
0.0
 11
281.7037098690694
 21
227.5127577748401
 31
0.0
  0
LINE
  5
7E
330
2
100
AcDbEntity
  8
0
100
AcDbLine
 10
283.3754711434071
 20
226.406972404967
 30
0.0
 11
297.6140373036092
 21
230.2200007405383
 31
0.0
  0
LINE
  5
7F
330
2
100
AcDbEntity
  8
0
100
AcDbLine
 10
298.5930733963673
 20
232.0352005925281
 30
0.0
 11
297.6130538269704
 21
230.2195239033801
 31
0.0
  0
LINE
  5
80
330
2
100
AcDbEntity
  8
0
100
AcDbLine
 39
1.477894722484052
 10
290.4948883339589
 20
228.3134865727527
 30
0.0
 11
290.1491217896169
 21
229.7727274861438
 31
0.0
  0
LINE
  5
81
330
2
100
AcDbEntity
  8
0
100
AcDbLine
 10
281.7041867062276
 20
227.5103735890491
 30
0.0
 11
298.5914938732808
 21
232.0346045460803
 31
0.0
  0
LINE
  5
82
330
2
100
AcDbEntity
  8
0
100
AcDbLine
 10
306.4289384171193
 20
261.2843918767078
 30
0.0
 11
294.0671139046376
 21
273.6471104588611
 31
0.0
  0
LINE
  5
83
330
2
100
AcDbEntity
  8
0
  6
DASHED
100
AcDbLine
 10
296.0653298184102
 20
248.8027024235828
 30
0.0
 11
294.0646403118794
 21
248.9246535267932
 31
0.0
  0
LINE
  5
84
330
2
100
AcDbEntity
  8
0
100
AcDbLine
 10
296.0653298184102
 20
248.8027024235828
 30
0.0
 11
306.489794759435
 21
259.2239785161121
 31
0.0
  0
LINE
  5
85
330
2
100
AcDbEntity
  8
0
100
AcDbLine
 10
306.4301007076924
 20
261.2855839696033
 30
0.0
 11
306.4891987129872
 21
259.2232632603748
 31
0.0
  0
LINE
  5
86
330
2
100
AcDbEntity
  8
0
100
AcDbLine
 39
1.477894722484052
 10
301.2777560040181
 20
254.013459679137
 30
0.0
 11
300.2487116142934
 21
255.1041054692371
 31
0.0
  0
LINE
  5
87
330
2
100
AcDbEntity
  8
0
100
AcDbLine
 10
294.066219834966
 20
248.9226269688709
 30
0.0
 11
306.4289384171193
 21
261.2843918767078
 31
0.0
  0
LINE
  5
88
330
2
100
AcDbEntity
  8
0
100
AcDbLine
 10
298.5915236756032
 20
290.5340599980457
 30
0.0
 11
281.7044847294515
 21
295.0597214665515
 31
0.0
  0
LINE
  5
89
330
2
100
AcDbEntity
  8
0
  6
DASHED
100
AcDbLine
 10
295.8572202011769
 20
274.5428490605457
 30
0.0
 11
294.0636568352406
 21
273.6478257145984
 31
0.0
  0
LINE
  5
8A
330
2
100
AcDbEntity
  8
0
100
AcDbLine
 10
295.8572202011769
 20
274.5428490605457
 30
0.0
 11
299.6743612572377
 21
288.7802529301746
 31
0.0
  0
LINE
  5
8B
330
2
100
AcDbEntity
  8
0
100
AcDbLine
 10
298.5919111057942
 20
290.5357289280994
 30
0.0
 11
299.6743314549153
 21
288.7790608372791
 31
0.0
  0
LINE
  5
8C
330
2
100
AcDbEntity
  8
0
100
AcDbLine
 39
1.477894722484052
 10
297.765999345464
 20
281.6617894139392
 30
0.0
 11
296.3293783947652
 21
282.0918965306384
 31
0.0
  0
LINE
  5
8D
330
2
100
AcDbEntity
  8
0
100
AcDbLine
 10
294.0659814163869
 20
273.6471104588611
 30
0.0
 11
298.5915236756032
 21
290.5340599980457
 31
0.0
  0
LINE
  5
8E
330
2
100
AcDbEntity
  8
0
100
AcDbLine
 10
277.179240493459
 20
311.946432587157
 30
0.0
 11
260.291873721761
 21
307.4222016301257
 31
0.0
  0
LINE
  5
8F
330
2
100
AcDbEntity
  8
0
  6
DASHED
100
AcDbLine
 10
282.8069024368947
 20
296.7305588688953
 30
0.0
 11
281.7010872646993
 21
295.058529373656
 31
0.0
  0
LINE
  5
90
330
2
100
AcDbEntity
  8
0
100
AcDbLine
 10
282.8069024368947
 20
296.7305588688953
 30
0.0
 11
278.9939337059682
 21
310.9689164128406
 31
0.0
  0
LINE
  5
91
330
2
100
AcDbEntity
  8
0
100
AcDbLine
 10
277.1787934586232
 20
311.9478630986316
 30
0.0
 11
278.9944403454488
 21
310.9682011571033
 31
0.0
  0
LINE
  5
92
330
2
100
AcDbEntity
  8
0
100
AcDbLine
 39
1.477894722484052
 10
280.9005670830434
 20
303.849976059447
 30
0.0
 11
279.4413559719747
 21
303.5040307011707
 31
0.0
  0
LINE
  5
93
330
2
100
AcDbEntity
  8
0
100
AcDbLine
 10
281.7034714504903
 20
295.0592446293933
 30
0.0
 11
277.179240493459
 21
311.946432587157
 31
0.0
  0
LINE
  5
94
330
2
100
AcDbEntity
  8
0
100
AcDbLine
 10
247.9294531628316
 20
319.7839665379627
 30
0.0
 11
235.5667643830007
 21
307.4222016301257
 31
0.0
  0
LINE
  5
95
330
2
100
AcDbEntity
  8
0
  6
DASHED
100
AcDbLine
 10
260.411172418279
 20
309.4203877415759
 30
0.0
 11
260.2894299313252
 21
307.4195790257556
 31
0.0
  0
LINE
  5
96
330
2
100
AcDbEntity
  8
0
100
AcDbLine
 10
260.411172418279
 20
309.4203877415759
 30
0.0
 11
249.9898069187825
 21
319.8447632756336
 31
0.0
  0
LINE
  5
97
330
2
100
AcDbEntity
  8
0
100
AcDbLine
 10
247.9283504769032
 20
319.7849202122791
 30
0.0
 11
249.9906711861318
 21
319.8442864384754
 31
0.0
  0
LINE
  5
98
330
2
100
AcDbEntity
  8
0
100
AcDbLine
 39
1.477894722484052
 10
255.2005343720143
 20
314.6329331364734
 30
0.0
 11
254.1097693726247
 21
313.603680130492
 31
0.0
  0
LINE
  5
99
330
2
100
AcDbEntity
  8
0
100
AcDbLine
 10
260.2912478729909
 20
307.4212479558093
 30
0.0
 11
247.9294531628316
 21
319.7839665379627
 31
0.0
  0
LINE
  5
9A
330
2
100
AcDbEntity
  8
0
100
AcDbLine
 10
218.6796956345265
 20
311.946432587157
 30
0.0
 11
214.1541980787938
 21
295.0594830479724
 31
0.0
  0
LINE
  5
9B
330
2
100
AcDbEntity
  8
0
  6
DASHED
100
AcDbLine
 10
234.6709661766713
 20
309.2122483220203
 30
0.0
 11
235.5659299179738
 21
307.4186253514392
 31
0.0
  0
LINE
  5
9C
330
2
100
AcDbEntity
  8
0
100
AcDbLine
 10
234.6709661766713
 20
309.2122483220203
 30
0.0
 11
220.433607010526
 21
313.0293297734363
 31
0.0
  0
LINE
  5
9D
330
2
100
AcDbEntity
  8
0
100
AcDbLine
 10
218.6782055184071
 20
311.9466710057361
 30
0.0
 11
220.4346351906484
 21
313.0293297734363
 31
0.0
  0
LINE
  5
9E
330
2
100
AcDbEntity
  8
0
100
AcDbLine
 39
1.477894722484052
 10
227.5522195383733
 20
311.1210274663074
 30
0.0
 11
227.1221571251576
 21
309.6843171086414
 31
0.0
  0
LINE
  5
9F
330
2
100
AcDbEntity
  8
0
100
AcDbLine
 10
235.5667047783559
 20
307.4210095372302
 30
0.0
 11
218.6796956345265
 21
311.946432587157
 31
0.0
  0
LINE
  5
A0
330
2
100
AcDbEntity
  8
0
100
AcDbLine
 10
197.2673975512211
 20
290.5340599980457
 30
0.0
 11
201.7917328163808
 21
273.646872040282
 31
0.0
  0
LINE
  5
A1
330
2
100
AcDbEntity
  8
0
  6
DASHED
100
AcDbLine
 10
212.4833755776112
 20
296.161930557738
 30
0.0
 11
214.1552709623998
 21
295.0559067692859
 31
0.0
  0
LINE
  5
A2
330
2
100
AcDbEntity
  8
0
100
AcDbLine
 10
212.4833755776112
 20
296.161930557738
 30
0.0
 11
198.2449435278599
 21
292.3489022221668
 31
0.0
  0
LINE
  5
A3
330
2
100
AcDbEntity
  8
0
100
AcDbLine
 10
197.2659372374242
 20
290.5338215794666
 30
0.0
 11
198.2458226963704
 21
292.349379059325
 31
0.0
  0
LINE
  5
A4
330
2
100
AcDbEntity
  8
0
100
AcDbLine
 39
1.477894722484052
 10
205.3639881893819
 20
294.255535599242
 30
0.0
 11
205.7099037453359
 21
292.7964138951404
 31
0.0
  0
LINE
  5
A5
330
2
100
AcDbEntity
  8
0
100
AcDbLine
 10
214.1547345205968
 20
295.058529373656
 30
0.0
 11
197.2673975512211
 21
290.5340599980457
 31
0.0
  0
LINE
  5
A6
330
2
100
AcDbEntity
  8
0
100
AcDbLine
 10
189.4299381062215
 20
261.2843918767078
 30
0.0
 11
201.7918222233479
 21
248.9216732945545
 31
0.0
  0
LINE
  5
A7
330
2
100
AcDbEntity
  8
0
  6
DASHED
100
AcDbLine
 10
199.7935467049306
 20
273.7660813298328
 30
0.0
 11
201.7944001242345
 21
273.644487854491
 31
0.0
  0
LINE
  5
A8
330
2
100
AcDbEntity
  8
0
100
AcDbLine
 10
199.7935467049306
 20
273.7660813298328
 30
0.0
 11
189.3691860720341
 21
263.3445668187244
 31
0.0
  0
LINE
  5
A9
330
2
100
AcDbEntity
  8
0
100
AcDbLine
 10
189.4289695307439
 20
261.2831997838123
 30
0.0
 11
189.3697225138371
 21
263.3455204930408
 31
0.0
  0
LINE
  5
AA
330
2
100
AcDbEntity
  8
0
100
AcDbLine
 39
1.477894722484052
 10
194.5811205193226
 20
268.5556817021472
 30
0.0
 11
195.6103735253041
 21
267.4646782841785
 31
0.0
  0
LINE
  5
AB
330
2
100
AcDbEntity
  8
0
100
AcDbLine
 10
201.7927013918584
 20
273.6461567845447
 30
0.0
 11
189.4299381062215
 21
261.2843918767078
 31
0.0
  0
LINE
  5
AC
330
2
100
AcDbEntity
  8
0
100
AcDbLine
 10
197.2673975512211
 20
232.0346045460803
 30
0.0
 11
214.1544961020177
 21
227.5093007054431
 31
0.0
  0
LINE
  5
AD
330
2
100
AcDbEntity
  8
0
  6
DASHED
100
AcDbLine
 10
200.0017159268086
 20
248.0258154835803
 30
0.0
 11
201.7953686997121
 21
248.920719620238
 31
0.0
  0
LINE
  5
AE
330
2
100
AcDbEntity
  8
0
100
AcDbLine
 10
200.0017159268086
 20
248.0258154835803
 30
0.0
 11
196.1846046730702
 21
233.7887692418201
 31
0.0
  0
LINE
  5
AF
330
2
100
AcDbEntity
  8
0
100
AcDbLine
 10
197.2671442314809
 20
232.0331740346057
 30
0.0
 11
196.184664277715
 21
233.7894844975574
 31
0.0
  0
LINE
  5
B0
330
2
100
AcDbEntity
  8
0
100
AcDbLine
 39
1.477894722484052
 10
198.0929218813603
 20
240.9072327580554
 30
0.0
 11
199.5297067448323
 21
240.4771256413562
 31
0.0
  0
LINE
  5
B1
330
2
100
AcDbEntity
  8
0
100
AcDbLine
 10
201.7929845139211
 20
248.9215540852649
 30
0.0
 11
197.2673975512211
 21
232.0346045460803
 31
0.0
  0
LINE
  5
B2
330
2
100
AcDbEntity
  8
0
100
AcDbLine
 10
218.6796956345265
 20
210.6223511662586
 30
0.0
 11
235.5671518131917
 21
215.1468205418689
 31
0.0
  0
LINE
  5
B3
330
2
100
AcDbEntity
  8
0
  6
DASHED
100
AcDbLine
 10
213.0520932957356
 20
225.8384633030994
 30
0.0
 11
214.157982973737
 21
227.5102543797595
 31
0.0
  0
LINE
  5
B4
330
2
100
AcDbEntity
  8
0
100
AcDbLine
 10
213.0520932957356
 20
225.8384633030994
 30
0.0
 11
216.8650322243398
 21
211.5999865498645
 31
0.0
  0
LINE
  5
B5
330
2
100
AcDbEntity
  8
0
100
AcDbLine
 10
218.6802320763295
 20
210.6209206547839
 30
0.0
 11
216.8646000906651
 21
211.6009402241809
 31
0.0
  0
LINE
  5
B6
330
2
100
AcDbEntity
  8
0
100
AcDbLine
 39
1.477894722484052
 10
214.9584137484258
 20
218.7189269032581
 30
0.0
 11
216.4176844641393
 21
219.0648722615344
 31
0.0
  0
LINE
  5
B7
330
2
100
AcDbEntity
  8
0
100
AcDbLine
 10
214.1555093809789
 20
227.5096583333118
 30
0.0
 11
218.6796956345265
 21
210.6223511662586
 31
0.0
  0
INSERT
  5
B8
330
2
100
AcDbEntity
  8
0
100
AcDbBlockReference
  2
SST_STEMPEL
 10
252.8025569530671
 20
279.3110306570879
 30
0.0
  0
ENDSEC
  0
SECTION
  2
OBJECTS
  0
DICTIONARY
  5
7
330
0
100
AcDbDictionary
281
     1
  3
ACAD_COLOR
350
25
  3
ACAD_GROUP
350
21
  3
ACAD_LAYOUT
350
B
  3
ACAD_MATERIAL
350
24
  3
ACAD_MLINESTYLE
350
22
  3
ACAD_PLOTSETTINGS
350
23
  3
ACAD_PLOTSTYLENAME
350
6
  3
ACAD_TABLESTYLE
350
26
  3
ACDBHEADERROUNDTRIPXREC
350
CE
  3
AcDbVariableDictionary
350
C2
  0
DICTIONARY
  5
11
330
10
100
AcDbDictionary
280
     1
281
     1
  3
ACAD_LAYERSTATES
360
12
  0
DICTIONARY
  5
BA
330
B9
100
AcDbDictionary
280
     1
281
     1
  3
ACAD_SORTENTS
360
BB
  0
DICTIONARY
  5
25
102
{ACAD_REACTORS
330
7
102
}
330
7
100
AcDbDictionary
281
     1
  0
DICTIONARY
  5
21
102
{ACAD_REACTORS
330
7
102
}
330
7
100
AcDbDictionary
281
     1
  0
DICTIONARY
  5
B
102
{ACAD_REACTORS
330
7
102
}
330
7
100
AcDbDictionary
281
     1
  3
Layout1
350
F
  3
Model
350
A
  0
DICTIONARY
  5
24
102
{ACAD_REACTORS
330
7
102
}
330
7
100
AcDbDictionary
281
     1
  0
DICTIONARY
  5
22
102
{ACAD_REACTORS
330
7
102
}
330
7
100
AcDbDictionary
281
     1
  3
Standard
350
27
  0
DICTIONARY
  5
23
102
{ACAD_REACTORS
330
7
102
}
330
7
100
AcDbDictionary
281
     1
  0
ACDBDICTIONARYWDFLT
  5
6
102
{ACAD_REACTORS
330
7
102
}
330
7
100
AcDbDictionary
281
     1
  3
Normal
350
5
100
AcDbDictionaryWithDefault
340
5
  0
DICTIONARY
  5
26
102
{ACAD_REACTORS
330
7
102
}
330
7
100
AcDbDictionary
281
     1
  3
Standard
350
28
  0
DICTIONARY
  5
CE
102
{ACAD_REACTORS
330
7
102
}
330
7
100
AcDbDictionary
281
     1
  0
DICTIONARY
  5
C2
102
{ACAD_REACTORS
330
7
102
}
330
7
100
AcDbDictionary
281
     1
  3
CTABLESTYLE
350
C3
  3
DIMASSOC
350
CB
  3
HIDETEXT
350
CA
  3
PROJECTNAME
350
CC
  0
DICTIONARY
  5
12
102
{ACAD_REACTORS
330
11
102
}
330
11
100
AcDbDictionary
281
     1
  0
SORTENTSTABLE
  5
BB
102
{ACAD_REACTORS
330
BA
102
}
330
BA
100
AcDbSortentsTable
330
B9
  0
LAYOUT
  5
F
102
{ACAD_XDICTIONARY
360
D1
102
}
102
{ACAD_REACTORS
330
B
102
}
330
B
100
AcDbPlotSettings
  1

  2
\\46nt\Lexmark Optra S 1855 plus
  4

  6

 40
0.0
 41
0.0
 42
0.0
 43
0.0
 44
0.0
 45
0.0
 46
0.0
 47
0.0
 48
0.0
 49
0.0
140
0.0
141
0.0
142
1.0
143
1.0
 70
   688
 72
     0
 73
     0
 74
     5
  7

 75
    16
147
1.0
148
0.0
149
0.0
100
AcDbLayout
  1
Layout1
 70
     1
 71
     1
 10
0.0
 20
0.0
 11
420.0
 21
297.0
 12
0.0
 22
0.0
 32
0.0
 14
1.000000000000000E+20
 24
1.000000000000000E+20
 34
1.000000000000000E+20
 15
-1.000000000000000E+20
 25
-1.000000000000000E+20
 35
-1.000000000000000E+20
146
0.0
 13
0.0
 23
0.0
 33
0.0
 16
1.0
 26
0.0
 36
0.0
 17
0.0
 27
1.0
 37
0.0
 76
     0
330
C
  0
LAYOUT
  5
A
102
{ACAD_XDICTIONARY
360
CF
102
}
102
{ACAD_REACTORS
330
B
102
}
330
B
100
AcDbPlotSettings
  1

  2
\\46nt\Lexmark Optra S 1855 plus
  4

  6

 40
0.0
 41
0.0
 42
0.0
 43
0.0
 44
0.0
 45
0.0
 46
0.0
 47
0.0
 48
0.0
 49
0.0
140
0.0
141
0.0
142
1.0
143
1.0
 70
  1712
 72
     0
 73
     0
 74
     0
  7

 75
     0
147
1.0
148
0.0
149
0.0
100
AcDbLayout
  1
Model
 70
     1
 71
     0
 10
0.0
 20
0.0
 11
12.0
 21
9.0
 12
0.0
 22
0.0
 32
0.0
 14
0.0
 24
0.0
 34
0.0
 15
0.0
 25
0.0
 35
0.0
146
0.0
 13
0.0
 23
0.0
 33
0.0
 16
1.0
 26
0.0
 36
0.0
 17
0.0
 27
1.0
 37
0.0
 76
     0
330
2
  0
MLINESTYLE
  5
27
102
{ACAD_REACTORS
330
22
102
}
330
22
100
AcDbMlineStyle
  2
STANDARD
 70
     0
  3

 62
   256
 51
90.0
 52
90.0
 71
     2
 49
0.5
 62
   256
  6
BYLAYER
 49
-0.5
 62
   256
  6
BYLAYER
  0
ACDBPLACEHOLDER
  5
5
102
{ACAD_REACTORS
330
6
102
}
330
6
  0
TABLESTYLE
  5
28
102
{ACAD_REACTORS
330
26
102
}
330
26
100
AcDbTableStyle
  3
Standard
 70
     0
 71
     0
 40
1.5
 41
1.5
280
     0
281
     0
  7
Standard
140
4.5
170
     2
 62
     0
 63
     7
283
     0
274
    -2
284
     1
 64
     0
275
    -2
285
     1
 65
     0
276
    -2
286
     1
 66
     0
277
    -2
287
     1
 67
     0
278
    -2
288
     1
 68
     0
279
    -2
289
     1
 69
     0
  7
Standard
140
6.0
170
     5
 62
     0
 63
     7
283
     0
274
    -2
284
     1
 64
     0
275
    -2
285
     1
 65
     0
276
    -2
286
     1
 66
     0
277
    -2
287
     1
 67
     0
278
    -2
288
     1
 68
     0
279
    -2
289
     1
 69
     0
  7
Standard
140
4.5
170
     5
 62
     0
 63
     7
283
     0
274
    -2
284
     1
 64
     0
275
    -2
285
     1
 65
     0
276
    -2
286
     1
 66
     0
277
    -2
287
     1
 67
     0
278
    -2
288
     1
 68
     0
279
    -2
289
     1
 69
     0
  0
DICTIONARYVAR
  5
C3
102
{ACAD_REACTORS
330
C2
102
}
330
C2
100
DictionaryVariables
280
     0
  1
STANDARD
  0
DICTIONARYVAR
  5
CB
102
{ACAD_REACTORS
330
C2
102
}
330
C2
100
DictionaryVariables
280
     0
  1
2
  0
DICTIONARYVAR
  5
CA
102
{ACAD_REACTORS
330
C2
102
}
330
C2
100
DictionaryVariables
280
     0
  1
1
  0
DICTIONARYVAR
  5
CC
102
{ACAD_REACTORS
330
C2
102
}
330
C2
100
DictionaryVariables
280
     0
  1

  0
DICTIONARY
  5
D1
330
F
100
AcDbDictionary
280
     1
281
     1
  3
ACAD_XREC_ROUNDTRIP
360
D2
  0
DICTIONARY
  5
CF
330
A
100
AcDbDictionary
280
     1
281
     1
  3
ACAD_XREC_ROUNDTRIP
360
D0
  0
XRECORD
  5
D2
102
{ACAD_REACTORS
330
D1
102
}
330
D1
100
AcDbXrecord
280
     1
102
SHADEPLOT
 70
     0
102
SHADEPLOTRESLEVEL
 70
     2
102
SHADEPLOTCUSTOMDPI
 70
   300
  0
XRECORD
  5
D0
102
{ACAD_REACTORS
330
CF
102
}
330
CF
100
AcDbXrecord
280
     1
102
SHADEPLOT
 70
     0
102
SHADEPLOTRESLEVEL
 70
     2
102
SHADEPLOTCUSTOMDPI
 70
   300
  0
ENDSEC
  0
EOF
