  0
SECTION
  2
HEADER
  9
$ACADVER
  1
AC1015
  9
$ACADMAINTVER
 70
    20
  9
$DWGCODEPAGE
  3
ANSI_1252
  9
$INSBASE
 10
241.9643105002317
 20
233.2358662266066
 30
0.0
  9
$EXTMIN
 10
194.3223402830037
 20
185.5939332622816
 30
0.0
  9
$EXTMAX
 10
289.606310519782
 20
280.8780376095107
 30
1.199999940581619
  9
$LIMMIN
 10
0.0
 20
0.0
  9
$LIMMAX
 10
420.0
 20
297.0
  9
$ORTHOMODE
 70
     0
  9
$REGENMODE
 70
     1
  9
$FILLMODE
 70
     1
  9
$QTEXTMODE
 70
     0
  9
$MIRRTEXT
 70
     0
  9
$LTSCALE
 40
1.0
  9
$ATTMODE
 70
     1
  9
$TEXTSIZE
 40
2.5
  9
$TRACEWID
 40
1.0
  9
$TEXTSTYLE
  7
Standard
  9
$CLAYER
  8
0
  9
$CELTYPE
  6
ByLayer
  9
$CECOLOR
 62
   256
  9
$CELTSCALE
 40
1.0
  9
$DISPSILH
 70
     0
  9
$DIMSCALE
 40
1.0
  9
$DIMASZ
 40
2.5
  9
$DIMEXO
 40
0.625
  9
$DIMDLI
 40
3.75
  9
$DIMRND
 40
0.0
  9
$DIMDLE
 40
0.0
  9
$DIMEXE
 40
1.25
  9
$DIMTP
 40
0.0
  9
$DIMTM
 40
0.0
  9
$DIMTXT
 40
2.5
  9
$DIMCEN
 40
2.5
  9
$DIMTSZ
 40
0.0
  9
$DIMTOL
 70
     0
  9
$DIMLIM
 70
     0
  9
$DIMTIH
 70
     0
  9
$DIMTOH
 70
     0
  9
$DIMSE1
 70
     0
  9
$DIMSE2
 70
     0
  9
$DIMTAD
 70
     1
  9
$DIMZIN
 70
     8
  9
$DIMBLK
  1

  9
$DIMASO
 70
     1
  9
$DIMSHO
 70
     1
  9
$DIMPOST
  1

  9
$DIMAPOST
  1

  9
$DIMALT
 70
     0
  9
$DIMALTD
 70
     3
  9
$DIMALTF
 40
0.03937007874016
  9
$DIMLFAC
 40
1.0
  9
$DIMTOFL
 70
     1
  9
$DIMTVP
 40
0.0
  9
$DIMTIX
 70
     0
  9
$DIMSOXD
 70
     0
  9
$DIMSAH
 70
     0
  9
$DIMBLK1
  1

  9
$DIMBLK2
  1

  9
$DIMSTYLE
  2
ISO-25
  9
$DIMCLRD
 70
     0
  9
$DIMCLRE
 70
     0
  9
$DIMCLRT
 70
     0
  9
$DIMTFAC
 40
1.0
  9
$DIMGAP
 40
0.625
  9
$DIMJUST
 70
     0
  9
$DIMSD1
 70
     0
  9
$DIMSD2
 70
     0
  9
$DIMTOLJ
 70
     0
  9
$DIMTZIN
 70
     8
  9
$DIMALTZ
 70
     0
  9
$DIMALTTZ
 70
     0
  9
$DIMUPT
 70
     0
  9
$DIMDEC
 70
     2
  9
$DIMTDEC
 70
     2
  9
$DIMALTU
 70
     2
  9
$DIMALTTD
 70
     3
  9
$DIMTXSTY
  7
Standard
  9
$DIMAUNIT
 70
     0
  9
$DIMADEC
 70
     0
  9
$DIMALTRND
 40
0.0
  9
$DIMAZIN
 70
     0
  9
$DIMDSEP
 70
    44
  9
$DIMATFIT
 70
     3
  9
$DIMFRAC
 70
     0
  9
$DIMLDRBLK
  1

  9
$DIMLUNIT
 70
     2
  9
$DIMLWD
 70
    -2
  9
$DIMLWE
 70
    -2
  9
$DIMTMOVE
 70
     0
  9
$LUNITS
 70
     2
  9
$LUPREC
 70
     4
  9
$SKETCHINC
 40
1.0
  9
$FILLETRAD
 40
0.0
  9
$AUNITS
 70
     0
  9
$AUPREC
 70
     0
  9
$MENU
  1
.
  9
$ELEVATION
 40
0.0
  9
$PELEVATION
 40
0.0
  9
$THICKNESS
 40
0.0
  9
$LIMCHECK
 70
     0
  9
$CHAMFERA
 40
0.0
  9
$CHAMFERB
 40
0.0
  9
$CHAMFERC
 40
0.0
  9
$CHAMFERD
 40
0.0
  9
$SKPOLY
 70
     0
  9
$TDCREATE
 40
2453809.386277489
  9
$TDUCREATE
 40
2453809.344610822
  9
$TDUPDATE
 40
2453809.486747512
  9
$TDUUPDATE
 40
2453809.445080845
  9
$TDINDWG
 40
0.0905600810
  9
$TDUSRTIMER
 40
0.0905600810
  9
$USRTIMER
 70
     1
  9
$ANGBASE
 50
0.0
  9
$ANGDIR
 70
     0
  9
$PDMODE
 70
     0
  9
$PDSIZE
 40
0.0
  9
$PLINEWID
 40
0.0
  9
$SPLFRAME
 70
     0
  9
$SPLINETYPE
 70
     6
  9
$SPLINESEGS
 70
     8
  9
$HANDSEED
  5
C6
  9
$SURFTAB1
 70
     6
  9
$SURFTAB2
 70
     6
  9
$SURFTYPE
 70
     6
  9
$SURFU
 70
     6
  9
$SURFV
 70
     6
  9
$UCSBASE
  2

  9
$UCSNAME
  2

  9
$UCSORG
 10
0.0
 20
0.0
 30
0.0
  9
$UCSXDIR
 10
1.0
 20
0.0
 30
0.0
  9
$UCSYDIR
 10
0.0
 20
1.0
 30
0.0
  9
$UCSORTHOREF
  2

  9
$UCSORTHOVIEW
 70
     0
  9
$UCSORGTOP
 10
0.0
 20
0.0
 30
0.0
  9
$UCSORGBOTTOM
 10
0.0
 20
0.0
 30
0.0
  9
$UCSORGLEFT
 10
0.0
 20
0.0
 30
0.0
  9
$UCSORGRIGHT
 10
0.0
 20
0.0
 30
0.0
  9
$UCSORGFRONT
 10
0.0
 20
0.0
 30
0.0
  9
$UCSORGBACK
 10
0.0
 20
0.0
 30
0.0
  9
$PUCSBASE
  2

  9
$PUCSNAME
  2

  9
$PUCSORG
 10
0.0
 20
0.0
 30
0.0
  9
$PUCSXDIR
 10
1.0
 20
0.0
 30
0.0
  9
$PUCSYDIR
 10
0.0
 20
1.0
 30
0.0
  9
$PUCSORTHOREF
  2

  9
$PUCSORTHOVIEW
 70
     0
  9
$PUCSORGTOP
 10
0.0
 20
0.0
 30
0.0
  9
$PUCSORGBOTTOM
 10
0.0
 20
0.0
 30
0.0
  9
$PUCSORGLEFT
 10
0.0
 20
0.0
 30
0.0
  9
$PUCSORGRIGHT
 10
0.0
 20
0.0
 30
0.0
  9
$PUCSORGFRONT
 10
0.0
 20
0.0
 30
0.0
  9
$PUCSORGBACK
 10
0.0
 20
0.0
 30
0.0
  9
$USERI1
 70
     0
  9
$USERI2
 70
     0
  9
$USERI3
 70
     0
  9
$USERI4
 70
     0
  9
$USERI5
 70
     0
  9
$USERR1
 40
0.0
  9
$USERR2
 40
0.0
  9
$USERR3
 40
0.0
  9
$USERR4
 40
0.0
  9
$USERR5
 40
0.0
  9
$WORLDVIEW
 70
     1
  9
$SHADEDGE
 70
     3
  9
$SHADEDIF
 70
    70
  9
$TILEMODE
 70
     1
  9
$MAXACTVP
 70
    64
  9
$PINSBASE
 10
0.0
 20
0.0
 30
0.0
  9
$PLIMCHECK
 70
     0
  9
$PEXTMIN
 10
1.000000000000000E+20
 20
1.000000000000000E+20
 30
1.000000000000000E+20
  9
$PEXTMAX
 10
-1.000000000000000E+20
 20
-1.000000000000000E+20
 30
-1.000000000000000E+20
  9
$PLIMMIN
 10
0.0
 20
0.0
  9
$PLIMMAX
 10
420.0
 20
297.0
  9
$UNITMODE
 70
     0
  9
$VISRETAIN
 70
     1
  9
$PLINEGEN
 70
     0
  9
$PSLTSCALE
 70
     1
  9
$TREEDEPTH
 70
  3020
  9
$CMLSTYLE
  2
Standard
  9
$CMLJUST
 70
     0
  9
$CMLSCALE
 40
20.0
  9
$PROXYGRAPHICS
 70
     1
  9
$MEASUREMENT
 70
     1
  9
$CELWEIGHT
370
    -1
  9
$ENDCAPS
280
     0
  9
$JOINSTYLE
280
     0
  9
$LWDISPLAY
290
     0
  9
$INSUNITS
 70
     4
  9
$HYPERLINKBASE
  1

  9
$STYLESHEET
  1

  9
$XEDIT
290
     1
  9
$CEPSNTYPE
380
     0
  9
$PSTYLEMODE
290
     1
  9
$FINGERPRINTGUID
  2
{2899A89C-DA72-491B-974B-0F45D779BAD1}
  9
$VERSIONGUID
  2
{23A6E18B-94CE-4A41-9EB5-1E22A564CCC8}
  9
$EXTNAMES
290
     1
  9
$PSVPSCALE
 40
0.0
  9
$OLESTARTUP
290
     0
  0
ENDSEC
  0
SECTION
  2
CLASSES
  0
CLASS
  1
ACDBDICTIONARYWDFLT
  2
AcDbDictionaryWithDefault
  3
ObjectDBX Classes
 90
        0
280
     0
281
     0
  0
CLASS
  1
TABLESTYLE
  2
AcDbTableStyle
  3
ObjectDBX Classes
 90
     2047
280
     0
281
     0
  0
CLASS
  1
SORTENTSTABLE
  2
AcDbSortentsTable
  3
ObjectDBX Classes
 90
        0
280
     0
281
     0
  0
CLASS
  1
DICTIONARYVAR
  2
AcDbDictionaryVar
  3
ObjectDBX Classes
 90
        0
280
     0
281
     0
  0
CLASS
  1
ACDBPLACEHOLDER
  2
AcDbPlaceHolder
  3
ObjectDBX Classes
 90
        0
280
     0
281
     0
  0
CLASS
  1
LAYOUT
  2
AcDbLayout
  3
ObjectDBX Classes
 90
        0
280
     0
281
     0
  0
ENDSEC
  0
SECTION
  2
TABLES
  0
TABLE
  2
VPORT
  5
1B
330
0
100
AcDbSymbolTable
 70
     2
  0
VPORT
  5
C0
330
1B
100
AcDbSymbolTableRecord
100
AcDbViewportTableRecord
  2
*Active
 70
     0
 10
0.0
 20
0.0
 11
1.0
 21
1.0
 12
237.0587220410952
 22
228.7651973187602
 13
0.0
 23
0.0
 14
10.0
 24
10.0
 15
10.0
 25
10.0
 16
0.0
 26
0.0
 36
1.0
 17
0.0
 27
0.0
 37
0.0
 40
116.8189756768346
 41
1.985626283367556
 42
50.0
 43
0.0
 44
0.0
 50
0.0
 51
0.0
 71
     0
 72
  1000
 73
     1
 74
     3
 75
     0
 76
     0
 77
     0
 78
     0
281
     0
 65
     1
110
0.0
120
0.0
130
0.0
111
1.0
121
0.0
131
0.0
112
0.0
122
1.0
132
0.0
 79
     0
146
0.0
  0
ENDTAB
  0
TABLE
  2
LTYPE
  5
16
330
0
100
AcDbSymbolTable
 70
     2
  0
LTYPE
  5
17
330
16
100
AcDbSymbolTableRecord
100
AcDbLinetypeTableRecord
  2
ByBlock
 70
     0
  3

 72
    65
 73
     0
 40
0.0
  0
LTYPE
  5
18
330
16
100
AcDbSymbolTableRecord
100
AcDbLinetypeTableRecord
  2
ByLayer
 70
     0
  3

 72
    65
 73
     0
 40
0.0
  0
LTYPE
  5
8
330
16
100
AcDbSymbolTableRecord
100
AcDbLinetypeTableRecord
  2
Continuous
 70
     0
  3
Solid line
 72
    65
 73
     0
 40
0.0
  0
LTYPE
  5
60
330
16
100
AcDbSymbolTableRecord
100
AcDbLinetypeTableRecord
  2
DASHED
 70
     0
  3
__ __ __ __ __ __ __ __ __ __ __ __ __ __ __ __
 72
    65
 73
     2
 40
0.75
 49
0.5
 74
     0
 49
-0.25
 74
     0
  0
ENDTAB
  0
TABLE
  2
LAYER
  5
10
102
{ACAD_XDICTIONARY
360
11
102
}
330
0
100
AcDbSymbolTable
 70
     1
  0
LAYER
  5
4
330
10
100
AcDbSymbolTableRecord
100
AcDbLayerTableRecord
  2
0
 70
     0
 62
     7
  6
Continuous
370
    -3
390
5
  0
ENDTAB
  0
TABLE
  2
STYLE
  5
13
330
0
100
AcDbSymbolTable
 70
     2
  0
STYLE
  5
14
330
13
100
AcDbSymbolTableRecord
100
AcDbTextStyleTableRecord
  2
Standard
 70
     0
 40
0.0
 41
1.0
 50
0.0
 71
     0
 42
2.5
  3
txt
  4

  0
STYLE
  5
B2
330
13
100
AcDbSymbolTableRecord
100
AcDbTextStyleTableRecord
  2
SST
 70
     0
 40
0.0
 41
1.0
 50
0.0
 71
     0
 42
3.5
  3
romans.shx
  4

  0
ENDTAB
  0
TABLE
  2
VIEW
  5
19
330
0
100
AcDbSymbolTable
 70
     0
  0
ENDTAB
  0
TABLE
  2
UCS
  5
1A
330
0
100
AcDbSymbolTable
 70
     0
  0
ENDTAB
  0
TABLE
  2
APPID
  5
1D
330
0
100
AcDbSymbolTable
 70
     1
  0
APPID
  5
1E
330
1D
100
AcDbSymbolTableRecord
100
AcDbRegAppTableRecord
  2
ACAD
 70
     0
  0
ENDTAB
  0
TABLE
  2
DIMSTYLE
  5
1F
330
0
100
AcDbSymbolTable
 70
     1
100
AcDbDimStyleTable
 71
     0
  0
DIMSTYLE
105
29
330
1F
100
AcDbSymbolTableRecord
100
AcDbDimStyleTableRecord
  2
ISO-25
 70
     0
 41
2.5
 42
0.625
 43
3.75
 44
1.25
 73
     0
 74
     0
 77
     1
 78
     8
140
2.5
141
2.5
143
0.03937007874016
147
0.625
171
     3
172
     1
271
     2
272
     2
274
     3
278
    44
283
     0
284
     8
340
14
  0
ENDTAB
  0
TABLE
  2
BLOCK_RECORD
  5
1
330
0
100
AcDbSymbolTable
 70
     1
  0
BLOCK_RECORD
  5
2
330
1
100
AcDbSymbolTableRecord
100
AcDbBlockTableRecord
  2
*Model_Space
340
A
  0
BLOCK_RECORD
  5
C
330
1
100
AcDbSymbolTableRecord
100
AcDbBlockTableRecord
  2
*Paper_Space
340
F
  0
BLOCK_RECORD
  5
AD
102
{ACAD_XDICTIONARY
360
AE
102
}
330
1
100
AcDbSymbolTableRecord
100
AcDbBlockTableRecord
  2
SST_STEMPEL
340
0
102
{BLKREFS
331
AC
102
}
  0
ENDTAB
  0
ENDSEC
  0
SECTION
  2
BLOCKS
  0
BLOCK
  5
3
330
2
100
AcDbEntity
  8
0
100
AcDbBlockBegin
  2
*Model_Space
 70
     0
 10
0.0
 20
0.0
 30
0.0
  3
*Model_Space
  1

  0
ENDBLK
  5
9
330
2
100
AcDbEntity
  8
0
100
AcDbBlockEnd
  0
BLOCK
  5
D
330
C
100
AcDbEntity
 67
     1
  8
0
100
AcDbBlockBegin
  2
*Paper_Space
 70
     0
 10
0.0
 20
0.0
 30
0.0
  3
*Paper_Space
  1

  0
ENDBLK
  5
E
330
C
100
AcDbEntity
 67
     1
  8
0
100
AcDbBlockEnd
  0
BLOCK
  5
B0
330
AD
100
AcDbEntity
  8
0
100
AcDbBlockBegin
  2
SST_STEMPEL
 70
     0
 10
0.0
 20
0.0
 30
0.0
  3
SST_STEMPEL
  1

  0
TEXT
  5
B1
330
AD
100
AcDbEntity
  8
0
  6
Continuous
100
AcDbText
 10
-3.741149563515705
 20
3.992811447199528
 30
0.0
 40
2.0
  1
SIMPSON
 50
316.9414863909134
  7
SST
100
AcDbText
  0
TEXT
  5
B3
330
AD
100
AcDbEntity
  8
0
  6
Continuous
100
AcDbText
 10
-6.656222857237139
 20
3.112015578657064
 30
0.0
 40
2.0
  1
Strong-Tie
 50
316.9414863909134
  7
SST
100
AcDbText
  0
ENDBLK
  5
B4
330
AD
100
AcDbEntity
  8
0
100
AcDbBlockEnd
  0
ENDSEC
  0
SECTION
  2
ENTITIES
  0
LINE
  5
2A
330
2
100
AcDbEntity
  8
0
100
AcDbLine
 10
217.0821950765524
 20
231.8106595653822
 30
0.0
 11
217.6007703872595
 21
232.7087823528578
 31
0.0
  0
LINE
  5
2B
330
2
100
AcDbEntity
  8
0
100
AcDbLine
 10
217.6007703872595
 20
232.7087823528578
 30
0.0
 11
217.5969854923162
 21
233.7412540096571
 31
0.0
  0
LINE
  5
2C
330
2
100
AcDbEntity
  8
0
100
AcDbLine
 10
217.5969854923162
 20
233.7412540096571
 30
0.0
 11
217.082090768424
 21
234.6385423321059
 31
0.0
  0
LINE
  5
2D
330
2
100
AcDbEntity
  8
0
100
AcDbLine
 10
217.082090768424
 20
234.6385423321059
 30
0.0
 11
216.185398492423
 21
235.1574603695204
 31
0.0
  0
LINE
  5
2E
330
2
100
AcDbEntity
  8
0
100
AcDbLine
 10
216.185398492423
 20
235.1574603695204
 30
0.0
 11
215.1476220222387
 21
235.1554338115981
 31
0.0
  0
LINE
  5
2F
330
2
100
AcDbEntity
  8
0
100
AcDbLine
 10
215.1476220222387
 20
235.1554338115981
 30
0.0
 11
214.2526135774526
 21
234.6379462856581
 31
0.0
  0
LINE
  5
30
330
2
100
AcDbEntity
  8
0
100
AcDbLine
 10
214.2526135774526
 20
234.6379462856581
 30
0.0
 11
213.736228737441
 21
233.7437574047377
 31
0.0
  0
LINE
  5
31
330
2
100
AcDbEntity
  8
0
100
AcDbLine
 10
213.736228737441
 20
233.7437574047377
 30
0.0
 11
213.7337998481664
 21
232.7046100277236
 31
0.0
  0
LINE
  5
32
330
2
100
AcDbEntity
  8
0
100
AcDbLine
 10
213.7337998481664
 20
232.7046100277236
 30
0.0
 11
214.2528072925482
 21
231.8100635189345
 31
0.0
  0
LINE
  5
33
330
2
100
AcDbEntity
  8
0
100
AcDbLine
 10
214.2528072925482
 20
231.8100635189345
 30
0.0
 11
215.1501850219641
 21
231.2946025509169
 31
0.0
  0
LINE
  5
34
330
2
100
AcDbEntity
  8
0
100
AcDbLine
 10
216.1843852134619
 20
231.2923375744154
 30
0.0
 11
217.0821950765524
 21
231.8106595653822
 31
0.0
  0
LINE
  5
35
330
2
100
AcDbEntity
  8
0
100
AcDbLine
 10
215.1501850219641
 20
231.2946025509169
 30
0.0
 11
216.1843852134619
 21
231.2923375744154
 31
0.0
  0
LINE
  5
36
330
2
100
AcDbEntity
  8
0
100
AcDbLine
 10
266.3267032237921
 20
233.7499562877944
 30
0.0
 11
266.3241104217443
 21
232.7171270031264
 31
0.0
  0
LINE
  5
37
330
2
100
AcDbEntity
  8
0
100
AcDbLine
 10
266.3241104217443
 20
232.7171270031264
 30
0.0
 11
266.8423728080663
 21
231.8192426342299
 31
0.0
  0
LINE
  5
38
330
2
100
AcDbEntity
  8
0
100
AcDbLine
 10
267.7382008167181
 20
235.1665202755263
 30
0.0
 11
266.842193994132
 21
234.6471254009535
 31
0.0
  0
LINE
  5
39
330
2
100
AcDbEntity
  8
0
100
AcDbLine
 10
266.842193994132
 20
234.6471254009535
 30
0.0
 11
266.3267032237921
 21
233.7499562877944
 31
0.0
  0
LINE
  5
3A
330
2
100
AcDbEntity
  8
0
100
AcDbLine
 10
269.6700767608557
 20
234.6473638195326
 30
0.0
 11
268.7758282752905
 21
235.1637784618666
 31
0.0
  0
LINE
  5
3B
330
2
100
AcDbEntity
  8
0
100
AcDbLine
 10
268.7758282752905
 20
235.1637784618666
 30
0.0
 11
267.7382008167181
 21
235.1665202755263
 31
0.0
  0
LINE
  5
3C
330
2
100
AcDbEntity
  8
0
100
AcDbLine
 10
270.1900080772314
 20
232.7129546779921
 30
0.0
 11
270.1876238914404
 21
233.7524596828749
 31
0.0
  0
LINE
  5
3D
330
2
100
AcDbEntity
  8
0
100
AcDbLine
 10
270.1876238914404
 20
233.7524596828749
 30
0.0
 11
269.6700767608557
 21
234.6473638195326
 31
0.0
  0
LINE
  5
3E
330
2
100
AcDbEntity
  8
0
100
AcDbLine
 10
268.7734142871771
 20
231.303066410475
 30
0.0
 11
269.670643004981
 21
231.8180505413344
 31
0.0
  0
LINE
  5
3F
330
2
100
AcDbEntity
  8
0
100
AcDbLine
 10
269.670643004981
 20
231.8180505413344
 30
0.0
 11
270.1900080772314
 21
232.7129546779921
 31
0.0
  0
LINE
  5
40
330
2
100
AcDbEntity
  8
0
100
AcDbLine
 10
267.7404359908972
 20
231.3008014339736
 30
0.0
 11
268.7734142871771
 21
231.303066410475
 31
0.0
  0
LINE
  5
41
330
2
100
AcDbEntity
  8
0
100
AcDbLine
 10
266.8423728080663
 20
231.8192426342299
 30
0.0
 11
267.7404359908972
 21
231.3008014339736
 31
0.0
  0
LINE
  5
42
330
2
100
AcDbEntity
  8
0
100
AcDbLine
 10
265.7140270801458
 20
192.1001378673842
 30
0.0
 11
269.3891898723516
 21
205.8124248165419
 31
0.0
  0
LINE
  5
43
330
2
100
AcDbEntity
  8
0
100
AcDbLine
 10
252.0023361774359
 20
195.7738105434706
 30
0.0
 11
265.7140270801458
 21
192.1001378673842
 31
0.0
  0
LINE
  5
44
330
2
100
AcDbEntity
  8
0
100
AcDbLine
 10
269.3891898723516
 20
205.8124248165419
 30
0.0
 11
283.1014768215093
 21
209.4865743297865
 31
0.0
  0
LINE
  5
45
330
2
100
AcDbEntity
  8
0
100
AcDbLine
 10
283.1014768215093
 20
209.4865743297865
 30
0.0
 11
279.4272677036199
 21
223.1989804882338
 31
0.0
  0
LINE
  5
46
330
2
100
AcDbEntity
  8
0
100
AcDbLine
 10
279.4272677036199
 20
223.1989804882338
 30
0.0
 11
289.4653753372106
 21
233.2361642498305
 31
0.0
  0
LINE
  5
47
330
2
100
AcDbEntity
  8
0
100
AcDbLine
 10
289.4653753372106
 20
233.2361642498305
 30
0.0
 11
279.4264630409155
 21
243.2738248485854
 31
0.0
  0
LINE
  5
48
330
2
100
AcDbEntity
  8
0
100
AcDbLine
 10
279.4264630409155
 20
243.2738248485854
 30
0.0
 11
283.1015066238317
 21
256.9859925884535
 31
0.0
  0
LINE
  5
49
330
2
100
AcDbEntity
  8
0
100
AcDbLine
 10
283.1015066238317
 20
256.9859925884535
 30
0.0
 11
269.3892792793188
 21
260.6610957760146
 31
0.0
  0
LINE
  5
4A
330
2
100
AcDbEntity
  8
0
100
AcDbLine
 10
269.3892792793188
 20
260.6610957760146
 30
0.0
 11
265.7154575916204
 21
274.3718330044081
 31
0.0
  0
LINE
  5
4B
330
2
100
AcDbEntity
  8
0
100
AcDbLine
 10
265.7154575916204
 20
274.3718330044081
 30
0.0
 11
252.0031706424627
 21
270.6976834911635
 31
0.0
  0
LINE
  5
4C
330
2
100
AcDbEntity
  8
0
100
AcDbLine
 10
252.0031706424627
 20
270.6976834911635
 30
0.0
 11
241.9644371601019
 21
280.7354632992079
 31
0.0
  0
LINE
  5
4D
330
2
100
AcDbEntity
  8
0
100
AcDbLine
 10
241.9644371601019
 20
280.7354632992079
 30
0.0
 11
231.9263891311559
 21
270.6980411190321
 31
0.0
  0
LINE
  5
4E
330
2
100
AcDbEntity
  8
0
100
AcDbLine
 10
231.9263891311559
 20
270.6980411190321
 30
0.0
 11
218.2145939203176
 21
274.371594585829
 31
0.0
  0
LINE
  5
4F
330
2
100
AcDbEntity
  8
0
100
AcDbLine
 10
218.2145939203176
 20
274.371594585829
 30
0.0
 11
214.5410255523596
 21
260.6597844738295
 31
0.0
  0
LINE
  5
50
330
2
100
AcDbEntity
  8
0
100
AcDbLine
 10
214.5410255523596
 20
260.6597844738295
 30
0.0
 11
200.8287237020407
 21
256.9855157512953
 31
0.0
  0
LINE
  5
51
330
2
100
AcDbEntity
  8
0
100
AcDbLine
 10
200.8287237020407
 20
256.9855157512953
 30
0.0
 11
204.5024857850942
 21
243.2747785229018
 31
0.0
  0
LINE
  5
52
330
2
100
AcDbEntity
  8
0
100
AcDbLine
 10
204.5024857850942
 20
243.2747785229018
 30
0.0
 11
194.4649294944677
 21
233.2359258312514
 31
0.0
  0
LINE
  5
53
330
2
100
AcDbEntity
  8
0
100
AcDbLine
 10
194.4649294944677
 20
233.2359258312514
 30
0.0
 11
204.5020983549032
 21
223.1980268139174
 31
0.0
  0
LINE
  5
54
330
2
100
AcDbEntity
  8
0
100
AcDbLine
 10
204.5020983549032
 20
223.1980268139174
 30
0.0
 11
200.8287237020407
 21
209.4859782833388
 31
0.0
  0
LINE
  5
55
330
2
100
AcDbEntity
  8
0
100
AcDbLine
 10
200.8287237020407
 20
209.4859782833388
 30
0.0
 11
214.5403997035894
 21
205.812663235121
 31
0.0
  0
LINE
  5
56
330
2
100
AcDbEntity
  8
0
100
AcDbLine
 10
218.2146833272848
 20
192.1002570766737
 30
0.0
 11
231.9270745845709
 21
195.7744065899183
 31
0.0
  0
LINE
  5
57
330
2
100
AcDbEntity
  8
0
100
AcDbLine
 10
214.5403997035894
 20
205.812663235121
 30
0.0
 11
218.2146833272848
 21
192.1002570766737
 31
0.0
  0
LINE
  5
58
330
2
100
AcDbEntity
  8
0
100
AcDbLine
 10
241.9642881484899
 20
185.7363883632948
 30
0.0
 11
252.0023361774359
 21
195.7738105434706
 31
0.0
  0
LINE
  5
59
330
2
100
AcDbEntity
  8
0
100
AcDbLine
 10
231.9270745845709
 20
195.7744065899183
 30
0.0
 11
241.9642881484899
 21
185.7363883632948
 31
0.0
  0
LINE
  5
5A
330
2
100
AcDbEntity
  8
0
100
AcDbLine
 10
272.0779553981695
 20
215.8497277874281
 30
0.0
 11
263.6368648143682
 21
224.8912755626967
 31
0.0
  0
LINE
  5
5B
330
2
100
AcDbEntity
  8
0
100
AcDbLine
 10
264.6000162692938
 20
223.8595191616347
 30
0.0
 11
261.4023462863836
 21
218.3210555691054
 31
0.0
  0
LINE
  5
5C
330
2
100
AcDbEntity
  8
0
100
AcDbLine
 10
260.0272969337377
 20
218.639344372206
 30
0.0
 11
272.0779553981695
 21
215.8497277874281
 31
0.0
  0
LINE
  5
5D
330
2
100
AcDbEntity
  8
0
100
AcDbLine
 10
263.6368648143682
 20
224.8912755626967
 30
0.0
 11
260.0272969337377
 21
218.639344372206
 31
0.0
  0
LINE
  5
5E
330
2
100
AcDbEntity
  8
0
100
AcDbLine
 39
1.199999940581619
 10
263.0011812778387
 20
221.0904065746596
 30
0.0
 11
261.8320659728918
 21
221.7653695720961
 31
0.0
  0
LINE
  5
5F
330
2
100
AcDbEntity
  8
0
  6
DASHED
100
AcDbLine
 10
270.7793490024481
 20
204.7896091121962
 30
0.0
 11
269.3878785701666
 21
205.8145705837538
 31
0.0
  0
LINE
  5
61
330
2
100
AcDbEntity
  8
0
100
AcDbLine
 10
270.7793490024481
 20
204.7896091121962
 30
0.0
 11
282.3404745193395
 21
207.8855935711195
 31
0.0
  0
LINE
  5
62
330
2
100
AcDbEntity
  8
0
100
AcDbLine
 10
283.1014768215093
 20
209.4865743297865
 30
0.0
 11
282.3397890659246
 21
207.8851167339613
 31
0.0
  0
LINE
  5
63
330
2
100
AcDbEntity
  8
0
100
AcDbLine
 39
1.199999940581619
 10
276.5598968597326
 20
206.3375417370131
 30
0.0
 11
276.2453333469305
 21
207.649559177809
 31
0.0
  0
LINE
  5
64
330
2
100
AcDbEntity
  8
0
  6
DASHED
100
AcDbLine
 10
281.1420337291631
 20
223.0082456249526
 30
0.0
 11
279.4245258899603
 21
223.2000533718398
 31
0.0
  0
LINE
  5
65
330
2
100
AcDbEntity
  8
0
100
AcDbLine
 10
281.1420337291631
 20
223.0082456249526
 30
0.0
 11
289.606310519782
 21
231.4699594158461
 31
0.0
  0
LINE
  5
66
330
2
100
AcDbEntity
  8
0
100
AcDbLine
 10
289.4647792907629
 20
233.2369987148573
 30
0.0
 11
289.605923089591
 21
231.4692441601088
 31
0.0
  0
LINE
  5
67
330
2
100
AcDbEntity
  8
0
100
AcDbLine
 39
1.199999940581619
 10
285.3741423221502
 20
227.2391025203993
 30
0.0
 11
284.4457701774511
 21
228.2179299969008
 31
0.0
  0
LINE
  5
68
330
2
100
AcDbEntity
  8
0
  6
DASHED
100
AcDbLine
 10
281.0070590110693
 20
243.9673844951918
 30
0.0
 11
279.4237510295782
 21
243.2747785229018
 31
0.0
  0
LINE
  5
69
330
2
100
AcDbEntity
  8
0
100
AcDbLine
 10
281.0070590110693
 20
243.9673844951918
 30
0.0
 11
284.1065005393896
 21
255.5275861400893
 31
0.0
  0
LINE
  5
6A
330
2
100
AcDbEntity
  8
0
100
AcDbLine
 10
283.1004039379034
 20
256.9870654720595
 30
0.0
 11
284.1065005393896
 21
255.526870884352
 31
0.0
  0
LINE
  5
6B
330
2
100
AcDbEntity
  8
0
100
AcDbLine
 39
1.199999940581619
 10
282.5567797752294
 20
249.747366108351
 30
0.0
 11
281.2633589836035
 21
250.1309816021254
 31
0.0
  0
LINE
  5
6C
330
2
100
AcDbEntity
  8
0
  6
DASHED
100
AcDbLine
 10
270.4106346698675
 20
262.0510760921767
 30
0.0
 11
269.3857328029547
 21
260.6595460552504
 31
0.0
  0
LINE
  5
6D
330
2
100
AcDbEntity
  8
0
100
AcDbLine
 10
270.4106346698675
 20
262.0510760921767
 30
0.0
 11
267.3146800132665
 21
273.612112202101
 31
0.0
  0
LINE
  5
6E
330
2
100
AcDbEntity
  8
0
100
AcDbLine
 10
265.7136396499548
 20
274.3730250973036
 30
0.0
 11
267.3150674434576
 21
273.6115161556532
 31
0.0
  0
LINE
  5
6F
330
2
100
AcDbEntity
  8
0
100
AcDbLine
 39
1.199999940581619
 10
268.8627020450506
 20
267.8315345424941
 30
0.0
 11
267.5508336158666
 21
267.5169412273695
 31
0.0
  0
LINE
  5
70
330
2
100
AcDbEntity
  8
0
  6
DASHED
100
AcDbLine
 10
252.1920279594335
 20
272.413701214247
 30
0.0
 11
252.0001606079016
 21
270.6962529796889
 31
0.0
  0
LINE
  5
71
330
2
100
AcDbEntity
  8
0
100
AcDbLine
 10
252.1920279594335
 20
272.413701214247
 30
0.0
 11
243.7302843662176
 21
280.8780376095107
 31
0.0
  0
LINE
  5
72
330
2
100
AcDbEntity
  8
0
100
AcDbLine
 10
241.9632748695287
 20
280.7364169735243
 30
0.0
 11
243.7309698196325
 21
280.877679981642
 31
0.0
  0
LINE
  5
73
330
2
100
AcDbEntity
  8
0
100
AcDbLine
 39
1.199999940581619
 10
247.9611710639868
 20
276.6458694118788
 30
0.0
 11
246.9823435874853
 21
275.7174674648573
 31
0.0
  0
LINE
  5
74
330
2
100
AcDbEntity
  8
0
  6
DASHED
100
AcDbLine
 10
231.2329188915167
 20
272.2787562984755
 30
0.0
 11
231.9254652591619
 21
270.695418514662
 31
0.0
  0
LINE
  5
75
330
2
100
AcDbEntity
  8
0
100
AcDbLine
 10
231.2329188915167
 20
272.2787562984755
 30
0.0
 11
219.6726874442968
 21
275.3780786175063
 31
0.0
  0
LINE
  5
76
330
2
100
AcDbEntity
  8
0
100
AcDbLine
 10
218.2131783100042
 20
274.3720714229872
 30
0.0
 11
219.6734623046789
 21
275.3780786175063
 31
0.0
  0
LINE
  5
77
330
2
100
AcDbEntity
  8
0
100
AcDbLine
 39
1.199999940581619
 10
225.4528031679067
 20
273.8284770626357
 30
0.0
 11
225.0693068834219
 21
272.5349370617201
 31
0.0
  0
LINE
  5
78
330
2
100
AcDbEntity
  8
0
  6
DASHED
100
AcDbLine
 10
213.1493018003378
 20
261.6822425503066
 30
0.0
 11
214.5406828256521
 21
260.6574002880385
 31
0.0
  0
LINE
  5
79
330
2
100
AcDbEntity
  8
0
100
AcDbLine
 10
213.1493018003378
 20
261.6822425503066
 30
0.0
 11
201.5881315799627
 21
258.5863773006728
 31
0.0
  0
LINE
  5
7A
330
2
100
AcDbEntity
  8
0
100
AcDbLine
 10
200.8271739812765
 20
256.9853965420058
 30
0.0
 11
201.5888021322164
 21
258.5867349285414
 31
0.0
  0
LINE
  5
7B
330
2
100
AcDbEntity
  8
0
100
AcDbLine
 39
1.199999940581619
 10
207.3686347337637
 20
260.1344291347792
 30
0.0
 11
207.6833025546942
 21
258.8224116939833
 31
0.0
  0
LINE
  5
7C
330
2
100
AcDbEntity
  8
0
  6
DASHED
100
AcDbLine
 10
202.7866021724615
 20
243.4637252468398
 30
0.0
 11
204.5040355058584
 21
243.271798290663
 31
0.0
  0
LINE
  5
7D
330
2
100
AcDbEntity
  8
0
100
AcDbLine
 10
202.7866021724615
 20
243.4637252468398
 30
0.0
 11
194.3223402830037
 21
235.0018922466567
 31
0.0
  0
LINE
  5
7E
330
2
100
AcDbEntity
  8
0
100
AcDbLine
 10
194.4638119073781
 20
233.234972156935
 30
0.0
 11
194.3227277131948
 21
235.002607502394
 31
0.0
  0
LINE
  5
7F
330
2
100
AcDbEntity
  8
0
100
AcDbLine
 39
1.199999940581619
 10
198.5543594690236
 20
239.232868351393
 30
0.0
 11
199.4828359218511
 21
238.2540408748915
 31
0.0
  0
LINE
  5
80
330
2
100
AcDbEntity
  8
0
  6
DASHED
100
AcDbLine
 10
202.9215768905554
 20
222.5045863766005
 30
0.0
 11
204.5048103662405
 21
223.1971923488905
 31
0.0
  0
LINE
  5
81
330
2
100
AcDbEntity
  8
0
100
AcDbLine
 10
202.9215768905554
 20
222.5045863766005
 30
0.0
 11
199.8221949668798
 21
210.944384731703
 31
0.0
  0
LINE
  5
82
330
2
100
AcDbEntity
  8
0
100
AcDbLine
 10
200.8281425567541
 20
209.4849053997328
 30
0.0
 11
199.8221949668798
 21
210.9450999874403
 31
0.0
  0
LINE
  5
83
330
2
100
AcDbEntity
  8
0
100
AcDbLine
 39
1.199999940581619
 10
201.3717220159445
 20
216.7244855541518
 30
0.0
 11
202.6652471156988
 21
216.3409892696669
 31
0.0
  0
LINE
  5
84
330
2
100
AcDbEntity
  8
0
  6
DASHED
100
AcDbLine
 10
213.5179714294348
 20
204.4210139889052
 30
0.0
 11
214.5428136917028
 21
205.8124248165419
 31
0.0
  0
LINE
  5
85
330
2
100
AcDbEntity
  8
0
100
AcDbLine
 10
213.5179714294348
 20
204.4210139889052
 30
0.0
 11
216.6139558883581
 21
192.8598586696913
 31
0.0
  0
LINE
  5
86
330
2
100
AcDbEntity
  8
0
100
AcDbLine
 10
218.2148770423803
 20
192.0988265651991
 30
0.0
 11
216.6135684581671
 21
192.8604547161391
 31
0.0
  0
LINE
  5
87
330
2
100
AcDbEntity
  8
0
100
AcDbLine
 39
1.199999940581619
 10
215.0658444496069
 20
198.6403171200087
 30
0.0
 11
216.3777873845968
 21
198.9550296444227
 31
0.0
  0
LINE
  5
88
330
2
100
AcDbEntity
  8
0
  6
DASHED
100
AcDbLine
 10
231.7365185352239
 20
194.0582696575453
 30
0.0
 11
231.9283858867559
 21
195.7757178921034
 31
0.0
  0
LINE
  5
89
330
2
100
AcDbEntity
  8
0
100
AcDbLine
 10
231.7365185352239
 20
194.0582696575453
 30
0.0
 11
240.1983217330847
 21
185.5939332622816
 31
0.0
  0
LINE
  5
8A
330
2
100
AcDbEntity
  8
0
100
AcDbLine
 10
241.9652716251287
 20
185.7354346889784
 30
0.0
 11
240.1976362796697
 21
185.5944100994398
 31
0.0
  0
LINE
  5
8B
330
2
100
AcDbEntity
  8
0
100
AcDbLine
 39
1.199999940581619
 10
235.9673754306707
 20
189.8259822506239
 30
0.0
 11
236.9462029071722
 21
190.754503406935
 31
0.0
  0
LINE
  5
8C
330
2
100
AcDbEntity
  8
0
  6
DASHED
100
AcDbLine
 10
252.6956276031408
 20
194.1932145733168
 30
0.0
 11
252.0030812354955
 21
195.7765523571303
 31
0.0
  0
LINE
  5
8D
330
2
100
AcDbEntity
  8
0
100
AcDbLine
 10
252.6956276031408
 20
194.1932145733168
 30
0.0
 11
264.2559186550054
 21
191.093892254286
 31
0.0
  0
LINE
  5
8E
330
2
100
AcDbEntity
  8
0
100
AcDbLine
 10
265.715427789298
 20
192.0997802395155
 30
0.0
 11
264.2550841899786
 21
191.093892254286
 31
0.0
  0
LINE
  5
8F
330
2
100
AcDbEntity
  8
0
100
AcDbLine
 39
1.199999940581619
 10
258.4757880302343
 20
192.6433745998671
 30
0.0
 11
258.859194907752
 21
193.9369146007826
 31
0.0
  0
LINE
  5
90
330
2
100
AcDbEntity
  8
0
100
AcDbLine
 10
272.0780150028143
 20
250.6221238750746
 30
0.0
 11
260.0272969337377
 21
247.8326264995863
 31
0.0
  0
LINE
  5
91
330
2
100
AcDbEntity
  8
0
100
AcDbLine
 10
261.4023462863836
 20
248.1509153026869
 30
0.0
 11
264.6000162692938
 21
242.6124517101576
 31
0.0
  0
LINE
  5
92
330
2
100
AcDbEntity
  8
0
100
AcDbLine
 10
263.6368648143682
 20
241.5806953090956
 30
0.0
 11
272.0780150028143
 21
250.6221238750746
 31
0.0
  0
LINE
  5
93
330
2
100
AcDbEntity
  8
0
100
AcDbLine
 10
260.0272969337377
 20
247.8326264995863
 30
0.0
 11
263.6368648143682
 21
241.5806953090956
 31
0.0
  0
LINE
  5
94
330
2
100
AcDbEntity
  8
0
100
AcDbLine
 39
1.199999940581619
 10
263.0011514755163
 20
245.3815642971327
 30
0.0
 11
261.8320659728918
 21
244.7066012996962
 31
0.0
  0
LINE
  5
95
330
2
100
AcDbEntity
  8
0
100
AcDbLine
 10
241.9643477531347
 20
268.0082027096083
 30
0.0
 11
238.3547202678594
 21
256.177276768141
 31
0.0
  0
LINE
  5
96
330
2
100
AcDbEntity
  8
0
100
AcDbLine
 10
238.7665883632574
 20
257.5273219723036
 30
0.0
 11
245.1619283290777
 21
257.5273219723036
 31
0.0
  0
LINE
  5
97
330
2
100
AcDbEntity
  8
0
100
AcDbLine
 10
245.5738560291204
 20
256.177276768141
 30
0.0
 11
241.9643477531347
 21
268.0082027096083
 31
0.0
  0
LINE
  5
98
330
2
100
AcDbEntity
  8
0
100
AcDbLine
 10
238.3547202678594
 20
256.177276768141
 30
0.0
 11
245.5738560291204
 21
256.177276768141
 31
0.0
  0
LINE
  5
99
330
2
100
AcDbEntity
  8
0
100
AcDbLine
 39
1.199999940581619
 10
241.9642881484899
 20
257.5272027630141
 30
0.0
 11
241.9642881484899
 21
256.177276768141
 31
0.0
  0
LINE
  5
9A
330
2
100
AcDbEntity
  8
0
100
AcDbLine
 10
211.8506805034551
 20
250.6221238750746
 30
0.0
 11
220.2917859884176
 21
241.5805760998061
 31
0.0
  0
LINE
  5
9B
330
2
100
AcDbEntity
  8
0
100
AcDbLine
 10
219.3285749288473
 20
242.6123325008681
 30
0.0
 11
222.5262002082739
 21
248.1507960933974
 31
0.0
  0
LINE
  5
9C
330
2
100
AcDbEntity
  8
0
100
AcDbLine
 10
223.9013538690481
 20
247.8325072902968
 30
0.0
 11
211.8506805034551
 21
250.6221238750746
 31
0.0
  0
LINE
  5
9D
330
2
100
AcDbEntity
  8
0
100
AcDbLine
 10
220.2917859884176
 20
241.5805760998061
 30
0.0
 11
223.9013538690481
 21
247.8325072902968
 31
0.0
  0
LINE
  5
9E
330
2
100
AcDbEntity
  8
0
100
AcDbLine
 39
1.199999940581619
 10
220.9274993272695
 20
245.3815642971327
 30
0.0
 11
222.0965699287329
 21
244.7066012996962
 31
0.0
  0
LINE
  5
9F
330
2
100
AcDbEntity
  8
0
100
AcDbLine
 10
211.8506805034551
 20
215.8498469967177
 30
0.0
 11
223.9013985725317
 21
218.639344372206
 31
0.0
  0
LINE
  5
A0
330
2
100
AcDbEntity
  8
0
100
AcDbLine
 10
222.526289615241
 20
218.3209363598158
 30
0.0
 11
219.3286196323309
 21
223.8595191616347
 31
0.0
  0
LINE
  5
A1
330
2
100
AcDbEntity
  8
0
100
AcDbLine
 10
220.2918306919012
 20
224.8912755626967
 30
0.0
 11
211.8506805034551
 21
215.8498469967177
 31
0.0
  0
LINE
  5
A2
330
2
100
AcDbEntity
  8
0
100
AcDbLine
 10
223.9013985725317
 20
218.639344372206
 30
0.0
 11
220.2918306919012
 21
224.8912755626967
 31
0.0
  0
LINE
  5
A3
330
2
100
AcDbEntity
  8
0
100
AcDbLine
 39
1.199999940581619
 10
220.9275440307531
 20
221.0904065746596
 30
0.0
 11
222.0966146322164
 21
221.7653695720961
 31
0.0
  0
LINE
  5
A4
330
2
100
AcDbEntity
  8
0
100
AcDbLine
 10
241.9642881484899
 20
198.463768162184
 30
0.0
 11
245.5739156337652
 21
210.2946941036513
 31
0.0
  0
LINE
  5
A5
330
2
100
AcDbEntity
  8
0
100
AcDbLine
 10
245.162107143012
 20
208.9445296901991
 30
0.0
 11
238.7667671771917
 21
208.9445296901991
 31
0.0
  0
LINE
  5
A6
330
2
100
AcDbEntity
  8
0
100
AcDbLine
 10
238.3547798725042
 20
210.2946941036513
 30
0.0
 11
241.9642881484899
 21
198.463768162184
 31
0.0
  0
LINE
  5
A7
330
2
100
AcDbEntity
  8
0
100
AcDbLine
 10
245.5739156337652
 20
210.2946941036513
 30
0.0
 11
238.3547798725042
 21
210.2946941036513
 31
0.0
  0
LINE
  5
A8
330
2
100
AcDbEntity
  8
0
100
AcDbLine
 39
1.199999940581619
 10
241.9643477531347
 20
208.9447681087782
 30
0.0
 11
241.9643477531347
 21
210.2946941036513
 31
0.0
  0
POINT
  5
A9
330
2
100
AcDbEntity
  8
0
100
AcDbPoint
 10
241.9643105002317
 20
233.2358662266066
 30
0.0
  0
CIRCLE
  5
AA
330
2
100
AcDbEntity
  8
0
100
AcDbCircle
 39
1.199999940581619
 10
241.9643105002317
 20
233.2358662266066
 30
0.0
 40
10.375
  0
CIRCLE
  5
AB
330
2
100
AcDbEntity
  8
0
100
AcDbCircle
 39
1.199999940581619
 10
241.9643105002317
 20
233.2358662266066
 30
0.0
 40
11.625
  0
INSERT
  5
AC
330
2
100
AcDbEntity
  8
0
100
AcDbBlockReference
  2
SST_STEMPEL
 10
254.6560564881818
 20
259.2601348189735
 30
0.0
  0
ENDSEC
  0
SECTION
  2
OBJECTS
  0
DICTIONARY
  5
7
330
0
100
AcDbDictionary
281
     1
  3
ACAD_COLOR
350
25
  3
ACAD_GROUP
350
21
  3
ACAD_LAYOUT
350
B
  3
ACAD_MATERIAL
350
24
  3
ACAD_MLINESTYLE
350
22
  3
ACAD_PLOTSETTINGS
350
23
  3
ACAD_PLOTSTYLENAME
350
6
  3
ACAD_TABLESTYLE
350
26
  3
ACDBHEADERROUNDTRIPXREC
350
C1
  3
AcDbVariableDictionary
350
B6
  0
DICTIONARY
  5
11
330
10
100
AcDbDictionary
280
     1
281
     1
  3
ACAD_LAYERSTATES
360
12
  0
DICTIONARY
  5
AE
330
AD
100
AcDbDictionary
280
     1
281
     1
  3
ACAD_SORTENTS
360
AF
  0
DICTIONARY
  5
25
102
{ACAD_REACTORS
330
7
102
}
330
7
100
AcDbDictionary
281
     1
  0
DICTIONARY
  5
21
102
{ACAD_REACTORS
330
7
102
}
330
7
100
AcDbDictionary
281
     1
  0
DICTIONARY
  5
B
102
{ACAD_REACTORS
330
7
102
}
330
7
100
AcDbDictionary
281
     1
  3
Layout1
350
F
  3
Model
350
A
  0
DICTIONARY
  5
24
102
{ACAD_REACTORS
330
7
102
}
330
7
100
AcDbDictionary
281
     1
  0
DICTIONARY
  5
22
102
{ACAD_REACTORS
330
7
102
}
330
7
100
AcDbDictionary
281
     1
  3
Standard
350
27
  0
DICTIONARY
  5
23
102
{ACAD_REACTORS
330
7
102
}
330
7
100
AcDbDictionary
281
     1
  0
ACDBDICTIONARYWDFLT
  5
6
102
{ACAD_REACTORS
330
7
102
}
330
7
100
AcDbDictionary
281
     1
  3
Normal
350
5
100
AcDbDictionaryWithDefault
340
5
  0
DICTIONARY
  5
26
102
{ACAD_REACTORS
330
7
102
}
330
7
100
AcDbDictionary
281
     1
  3
Standard
350
28
  0
DICTIONARY
  5
C1
102
{ACAD_REACTORS
330
7
102
}
330
7
100
AcDbDictionary
281
     1
  0
DICTIONARY
  5
B6
102
{ACAD_REACTORS
330
7
102
}
330
7
100
AcDbDictionary
281
     1
  3
CTABLESTYLE
350
B7
  3
DIMASSOC
350
BE
  3
HIDETEXT
350
BD
  3
PROJECTNAME
350
BF
  0
DICTIONARY
  5
12
102
{ACAD_REACTORS
330
11
102
}
330
11
100
AcDbDictionary
281
     1
  0
SORTENTSTABLE
  5
AF
102
{ACAD_REACTORS
330
AE
102
}
330
AE
100
AcDbSortentsTable
330
AD
  0
LAYOUT
  5
F
102
{ACAD_XDICTIONARY
360
C4
102
}
102
{ACAD_REACTORS
330
B
102
}
330
B
100
AcDbPlotSettings
  1

  2
\\46nt\Lexmark Optra S 1855 plus
  4

  6

 40
0.0
 41
0.0
 42
0.0
 43
0.0
 44
0.0
 45
0.0
 46
0.0
 47
0.0
 48
0.0
 49
0.0
140
0.0
141
0.0
142
1.0
143
1.0
 70
   688
 72
     0
 73
     0
 74
     5
  7

 75
    16
147
1.0
148
0.0
149
0.0
100
AcDbLayout
  1
Layout1
 70
     1
 71
     1
 10
0.0
 20
0.0
 11
420.0
 21
297.0
 12
0.0
 22
0.0
 32
0.0
 14
1.000000000000000E+20
 24
1.000000000000000E+20
 34
1.000000000000000E+20
 15
-1.000000000000000E+20
 25
-1.000000000000000E+20
 35
-1.000000000000000E+20
146
0.0
 13
0.0
 23
0.0
 33
0.0
 16
1.0
 26
0.0
 36
0.0
 17
0.0
 27
1.0
 37
0.0
 76
     0
330
C
  0
LAYOUT
  5
A
102
{ACAD_XDICTIONARY
360
C2
102
}
102
{ACAD_REACTORS
330
B
102
}
330
B
100
AcDbPlotSettings
  1

  2
\\46nt\Lexmark Optra S 1855 plus
  4

  6

 40
0.0
 41
0.0
 42
0.0
 43
0.0
 44
0.0
 45
0.0
 46
0.0
 47
0.0
 48
0.0
 49
0.0
140
0.0
141
0.0
142
1.0
143
1.0
 70
  1712
 72
     0
 73
     0
 74
     0
  7

 75
     0
147
1.0
148
0.0
149
0.0
100
AcDbLayout
  1
Model
 70
     1
 71
     0
 10
0.0
 20
0.0
 11
12.0
 21
9.0
 12
0.0
 22
0.0
 32
0.0
 14
0.0
 24
0.0
 34
0.0
 15
0.0
 25
0.0
 35
0.0
146
0.0
 13
0.0
 23
0.0
 33
0.0
 16
1.0
 26
0.0
 36
0.0
 17
0.0
 27
1.0
 37
0.0
 76
     0
330
2
  0
MLINESTYLE
  5
27
102
{ACAD_REACTORS
330
22
102
}
330
22
100
AcDbMlineStyle
  2
STANDARD
 70
     0
  3

 62
   256
 51
90.0
 52
90.0
 71
     2
 49
0.5
 62
   256
  6
BYLAYER
 49
-0.5
 62
   256
  6
BYLAYER
  0
ACDBPLACEHOLDER
  5
5
102
{ACAD_REACTORS
330
6
102
}
330
6
  0
TABLESTYLE
  5
28
102
{ACAD_REACTORS
330
26
102
}
330
26
100
AcDbTableStyle
  3
Standard
 70
     0
 71
     0
 40
1.5
 41
1.5
280
     0
281
     0
  7
Standard
140
4.5
170
     2
 62
     0
 63
     7
283
     0
274
    -2
284
     1
 64
     0
275
    -2
285
     1
 65
     0
276
    -2
286
     1
 66
     0
277
    -2
287
     1
 67
     0
278
    -2
288
     1
 68
     0
279
    -2
289
     1
 69
     0
  7
Standard
140
6.0
170
     5
 62
     0
 63
     7
283
     0
274
    -2
284
     1
 64
     0
275
    -2
285
     1
 65
     0
276
    -2
286
     1
 66
     0
277
    -2
287
     1
 67
     0
278
    -2
288
     1
 68
     0
279
    -2
289
     1
 69
     0
  7
Standard
140
4.5
170
     5
 62
     0
 63
     7
283
     0
274
    -2
284
     1
 64
     0
275
    -2
285
     1
 65
     0
276
    -2
286
     1
 66
     0
277
    -2
287
     1
 67
     0
278
    -2
288
     1
 68
     0
279
    -2
289
     1
 69
     0
  0
DICTIONARYVAR
  5
B7
102
{ACAD_REACTORS
330
B6
102
}
330
B6
100
DictionaryVariables
280
     0
  1
STANDARD
  0
DICTIONARYVAR
  5
BE
102
{ACAD_REACTORS
330
B6
102
}
330
B6
100
DictionaryVariables
280
     0
  1
2
  0
DICTIONARYVAR
  5
BD
102
{ACAD_REACTORS
330
B6
102
}
330
B6
100
DictionaryVariables
280
     0
  1
1
  0
DICTIONARYVAR
  5
BF
102
{ACAD_REACTORS
330
B6
102
}
330
B6
100
DictionaryVariables
280
     0
  1

  0
DICTIONARY
  5
C4
330
F
100
AcDbDictionary
280
     1
281
     1
  3
ACAD_XREC_ROUNDTRIP
360
C5
  0
DICTIONARY
  5
C2
330
A
100
AcDbDictionary
280
     1
281
     1
  3
ACAD_XREC_ROUNDTRIP
360
C3
  0
XRECORD
  5
C5
102
{ACAD_REACTORS
330
C4
102
}
330
C4
100
AcDbXrecord
280
     1
102
SHADEPLOT
 70
     0
102
SHADEPLOTRESLEVEL
 70
     2
102
SHADEPLOTCUSTOMDPI
 70
   300
  0
XRECORD
  5
C3
102
{ACAD_REACTORS
330
C2
102
}
330
C2
100
AcDbXrecord
280
     1
102
SHADEPLOT
 70
     0
102
SHADEPLOTRESLEVEL
 70
     2
102
SHADEPLOTCUSTOMDPI
 70
   300
  0
ENDSEC
  0
EOF
