  0
SECTION
  2
HEADER
  9
$ACADVER
  1
AC1009
  9
$INSBASE
 10
0.0
 20
0.0
 30
0.0
  9
$EXTMIN
 10
-47.499805688858032
 20
-1.349925994873046
 30
0.0
  9
$EXTMAX
 10
47.499924898147583
 20
11.450052261352541
 30
1.1999999405816191
  9
$LIMMIN
 10
0.0
 20
0.0
  9
$LIMMAX
 10
12.0
 20
9.0
  9
$ORTHOMODE
 70
     1
  9
$REGENMODE
 70
     1
  9
$FILLMODE
 70
     1
  9
$QTEXTMODE
 70
     0
  9
$MIRRTEXT
 70
     0
  9
$DRAGMODE
 70
     2
  9
$LTSCALE
 40
1.0
  9
$OSMODE
 70
    47
  9
$ATTMODE
 70
     1
  9
$TEXTSIZE
 40
3.5
  9
$TRACEWID
 40
0.05
  9
$TEXTSTYLE
  7
SST
  9
$CLAYER
  8
0
  9
$CELTYPE
  6
BYLAYER
  9
$CECOLOR
 62
   256
  9
$DIMSCALE
 40
1.0
  9
$DIMASZ
 40
0.18
  9
$DIMEXO
 40
0.0625
  9
$DIMDLI
 40
0.38
  9
$DIMRND
 40
0.0
  9
$DIMDLE
 40
0.0
  9
$DIMEXE
 40
0.18
  9
$DIMTP
 40
0.0
  9
$DIMTM
 40
0.0
  9
$DIMTXT
 40
0.18
  9
$DIMCEN
 40
0.09
  9
$DIMTSZ
 40
0.0
  9
$DIMTOL
 70
     0
  9
$DIMLIM
 70
     0
  9
$DIMTIH
 70
     1
  9
$DIMTOH
 70
     1
  9
$DIMSE1
 70
     0
  9
$DIMSE2
 70
     0
  9
$DIMTAD
 70
     0
  9
$DIMZIN
 70
     0
  9
$DIMBLK
  1

  9
$DIMASO
 70
     1
  9
$DIMSHO
 70
     1
  9
$DIMPOST
  1

  9
$DIMAPOST
  1

  9
$DIMALT
 70
     0
  9
$DIMALTD
 70
     2
  9
$DIMALTF
 40
25.399999999999999
  9
$DIMLFAC
 40
1.0
  9
$DIMTOFL
 70
     0
  9
$DIMTVP
 40
0.0
  9
$DIMTIX
 70
     0
  9
$DIMSOXD
 70
     0
  9
$DIMSAH
 70
     0
  9
$DIMBLK1
  1

  9
$DIMBLK2
  1

  9
$DIMSTYLE
  2
STANDARD
  9
$DIMCLRD
 70
     0
  9
$DIMCLRE
 70
     0
  9
$DIMCLRT
 70
     0
  9
$DIMTFAC
 40
1.0
  9
$DIMGAP
 40
0.09
  9
$LUNITS
 70
     2
  9
$LUPREC
 70
     0
  9
$SKETCHINC
 40
0.1
  9
$FILLETRAD
 40
0.0
  9
$AUNITS
 70
     0
  9
$AUPREC
 70
     0
  9
$MENU
  1
acad
  9
$ELEVATION
 40
0.0
  9
$PELEVATION
 40
0.0
  9
$THICKNESS
 40
0.0
  9
$LIMCHECK
 70
     0
  9
$BLIPMODE
 70
     0
  9
$CHAMFERA
 40
0.0
  9
$CHAMFERB
 40
0.0
  9
$SKPOLY
 70
     0
  9
$TDCREATE
 40
2449631.7321383101
  9
$TDUPDATE
 40
2453443.5714458451
  9
$TDINDWG
 40
0.00479
  9
$TDUSRTIMER
 40
0.00479
  9
$USRTIMER
 70
     1
  9
$ANGBASE
 50
0.0
  9
$ANGDIR
 70
     0
  9
$PDMODE
 70
     0
  9
$PDSIZE
 40
0.0
  9
$PLINEWID
 40
0.0
  9
$COORDS
 70
     1
  9
$SPLFRAME
 70
     0
  9
$SPLINETYPE
 70
     6
  9
$SPLINESEGS
 70
     8
  9
$ATTDIA
 70
     0
  9
$ATTREQ
 70
     1
  9
$HANDLING
 70
     1
  9
$HANDSEED
  5
B4
  9
$SURFTAB1
 70
     6
  9
$SURFTAB2
 70
     6
  9
$SURFTYPE
 70
     6
  9
$SURFU
 70
     6
  9
$SURFV
 70
     6
  9
$UCSNAME
  2

  9
$UCSORG
 10
0.0
 20
0.0
 30
0.0
  9
$UCSXDIR
 10
1.0
 20
0.0
 30
0.0
  9
$UCSYDIR
 10
0.0
 20
1.0
 30
0.0
  9
$PUCSNAME
  2

  9
$PUCSORG
 10
0.0
 20
0.0
 30
0.0
  9
$PUCSXDIR
 10
1.0
 20
0.0
 30
0.0
  9
$PUCSYDIR
 10
0.0
 20
1.0
 30
0.0
  9
$USERI1
 70
     0
  9
$USERI2
 70
     0
  9
$USERI3
 70
     0
  9
$USERI4
 70
     0
  9
$USERI5
 70
     0
  9
$USERR1
 40
0.0
  9
$USERR2
 40
0.0
  9
$USERR3
 40
0.0
  9
$USERR4
 40
0.0
  9
$USERR5
 40
0.0
  9
$WORLDVIEW
 70
     1
  9
$SHADEDGE
 70
     3
  9
$SHADEDIF
 70
    70
  9
$TILEMODE
 70
     1
  9
$MAXACTVP
 70
    16
  9
$PLIMCHECK
 70
     0
  9
$PEXTMIN
 10
1.0000000000000000E+020
 20
1.0000000000000000E+020
 30
1.0000000000000000E+020
  9
$PEXTMAX
 10
-1.0000000000000000E+020
 20
-1.0000000000000000E+020
 30
-1.0000000000000000E+020
  9
$PLIMMIN
 10
0.0
 20
0.0
  9
$PLIMMAX
 10
12.0
 20
9.0
  9
$UNITMODE
 70
     0
  9
$VISRETAIN
 70
     0
  9
$PLINEGEN
 70
     0
  9
$PSLTSCALE
 70
     1
  0
ENDSEC
  0
SECTION
  2
TABLES
  0
TABLE
  2
VPORT
 70
     2
  0
VPORT
  2
*ACTIVE
 70
     0
 10
0.0
 20
0.0
 11
1.0
 21
1.0
 12
131.2130483809415
 22
-33.346356778828643
 13
0.0
 23
0.0
 14
1.0
 24
1.0
 15
0.0
 25
0.0
 16
0.0
 26
0.0
 36
1.0
 17
0.0
 27
0.0
 37
0.0
 40
578.61840731024301
 41
1.4993646759847521
 42
50.0
 43
0.0
 44
0.0
 50
0.0
 51
0.0
 71
     0
 72
   100
 73
     1
 74
     1
 75
     0
 76
     0
 77
     0
 78
     0
  0
ENDTAB
  0
TABLE
  2
LTYPE
 70
     1
  0
LTYPE
  2
CONTINUOUS
 70
     0
  3
Solid line
 72
    65
 73
     0
 40
0.0
  0
ENDTAB
  0
TABLE
  2
LAYER
 70
     1
  0
LAYER
  2
0
 70
     0
 62
     7
  6
CONTINUOUS
  0
ENDTAB
  0
TABLE
  2
STYLE
 70
     2
  0
STYLE
  2
STANDARD
 70
     0
 40
0.0
 41
1.0
 50
0.0
 71
     0
 42
0.2
  3
txt
  4

  0
STYLE
  2
SST
 70
     0
 40
0.0
 41
1.0
 50
0.0
 71
     0
 42
3.5
  3
romans.shx
  4

  0
ENDTAB
  0
TABLE
  2
VIEW
 70
     0
  0
ENDTAB
  0
TABLE
  2
UCS
 70
     0
  0
ENDTAB
  0
TABLE
  2
APPID
 70
     1
  0
APPID
  2
ACAD
 70
     0
  0
ENDTAB
  0
TABLE
  2
DIMSTYLE
 70
     1
  0
DIMSTYLE
  2
STANDARD
 70
     0
  3

  4

  5

  6

  7

 40
1.0
 41
0.18
 42
0.0625
 43
0.38
 44
0.18
 45
0.0
 46
0.0
 47
0.0
 48
0.0
140
0.18
141
0.09
142
0.0
143
25.399999999999999
144
1.0
145
0.0
146
1.0
147
0.09
 71
     0
 72
     0
 73
     1
 74
     1
 75
     0
 76
     0
 77
     0
 78
     0
170
     0
171
     2
172
     0
173
     0
174
     0
175
     0
176
     0
177
     0
178
     0
  0
ENDTAB
  0
ENDSEC
  0
SECTION
  2
BLOCKS
  0
BLOCK
  8
0
  2
$MODEL_SPACE
 70
     0
 10
0.0
 20
0.0
 30
0.0
  3
$MODEL_SPACE
  1

  0
ENDBLK
  5
9
  8
0
  0
BLOCK
 67
     1
  8
0
  2
$PAPER_SPACE
 70
     0
 10
0.0
 20
0.0
 30
0.0
  3
$PAPER_SPACE
  1

  0
ENDBLK
  5
E
 67
     1
  8
0
  0
ENDSEC
  0
SECTION
  2
ENTITIES
  0
LINE
  5
29
  8
0
 10
-24.281114339828491
 20
11.450052261352541
 30
0.0
 11
-25.584712624549869
 21
11.450052261352541
 31
0.0
  0
LINE
  5
2A
  8
0
 10
-22.444352507591251
 20
0.0
 30
0.0
 11
-24.281114339828491
 21
11.450052261352541
 31
0.0
  0
LINE
  5
2B
  8
0
 10
-24.281114339828491
 20
11.450052261352541
 30
0.0
 11
-26.117876172065731
 21
0.0
 31
0.0
  0
LINE
  5
2C
  8
0
 10
-37.993699312210083
 20
11.450052261352541
 30
0.0
 11
-39.298027753829949
 21
11.450052261352541
 31
0.0
  0
LINE
  5
2D
  8
0
 10
-36.156401038169861
 20
0.0
 30
0.0
 11
-37.993699312210083
 21
11.450052261352541
 31
0.0
  0
LINE
  5
2E
  8
0
 10
-37.459909915924072
 20
0.0
 30
0.0
 11
-39.298027753829949
 21
11.450052261352541
 31
0.0
  0
LINE
  5
2F
  8
0
 10
-39.296820759773247
 20
11.450052261352541
 30
0.0
 11
-41.134923696517937
 21
0.0
 31
0.0
  0
LINE
  5
30
  8
0
 10
-25.584623217582699
 20
11.450052261352541
 30
0.0
 11
-27.422979474067692
 21
0.0
 31
0.0
  0
LINE
  5
31
  8
0
 10
-4.0602087974548331
 20
11.450052261352541
 30
0.0
 11
-5.0141215324401847
 21
11.450052261352541
 31
0.0
  0
LINE
  5
32
  8
0
 10
-1.3631880283355711
 20
5.2973031997680664
 30
0.0
 11
-4.0602087974548331
 21
11.450052261352541
 31
0.0
  0
LINE
  5
33
  8
0
 10
-4.0602087974548331
 20
11.450052261352541
 30
0.0
 11
-7.9187452793121329
 21
2.6497840881347652
 31
0.0
  0
LINE
  5
34
  8
0
 10
-9.4509124755859375
 20
1.334786415100097
 30
0.0
 11
-10.03605127334594
 21
0.0
 31
0.0
  0
LINE
  5
35
  8
0
 10
-5.0141215324401847
 20
11.450052261352541
 30
0.0
 11
-8.8726580142974854
 21
2.6500225067138672
 31
0.0
  0
LINE
  5
36
  8
0
 10
17.250031232833859
 20
11.450052261352541
 30
0.0
 11
16.90056920051574
 21
11.450052261352541
 31
0.0
  0
LINE
  5
37
  8
0
 10
19.579231739044189
 20
7.5600147247314453
 30
0.0
 11
17.250031232833859
 21
11.450052261352541
 31
0.0
  0
LINE
  5
38
  8
0
 10
24.105459451675411
 20
0.0
 30
0.0
 11
22.039651870727539
 21
3.4502744674682608
 31
0.0
  0
LINE
  5
39
  8
0
 10
17.250031232833859
 20
11.450052261352541
 30
0.0
 11
10.393112897872919
 21
0.0
 31
0.0
  0
LINE
  5
3A
  8
0
 10
16.90056920051574
 20
11.450052261352541
 30
0.0
 11
10.0407600402832
 21
0.0
 31
0.0
  0
LINE
  5
3B
  8
0
 10
38.471072912216187
 20
4.4624805450439453
 30
0.0
 11
34.287989139556878
 21
11.450052261352541
 31
0.0
  0
LINE
  5
3C
  8
0
 10
34.287989139556878
 20
11.450052261352541
 30
0.0
 11
33.937633037567139
 21
11.450052261352541
 31
0.0
  0
LINE
  5
3D
  8
0
 10
38.323342800140381
 20
4.1254758834838858
 30
0.0
 11
33.937633037567139
 21
11.450052261352541
 31
0.0
  0
LINE
  5
3E
  8
0
 10
33.937633037567139
 20
11.450052261352541
 30
0.0
 11
27.081698179244992
 21
0.0
 31
0.0
  0
LINE
  5
3F
  8
0
 10
41.533768177032471
 20
11.450052261352541
 30
0.0
 11
36.515116691589348
 21
0.0
 31
0.0
  0
LINE
  5
40
  8
0
 10
47.499865293502801
 20
0.0069141387939453
 30
0.0
 11
42.48425364494323
 21
11.450052261352541
 31
0.0
  0
LINE
  5
41
  8
0
 10
42.489796876907342
 20
11.450052261352541
 30
0.0
 11
41.533768177032471
 21
11.450052261352541
 31
0.0
  0
LINE
  5
42
  8
0
 10
41.533768177032471
 20
11.450052261352541
 30
0.0
 11
46.552449464797967
 21
0.0
 31
0.0
  0
LINE
  5
43
  8
0
 10
47.499865293502801
 20
0.0
 30
0.0
 11
47.499865293502801
 21
-1.349925994873046
 31
0.0
  0
LINE
  5
44
  8
0
 10
-47.499805688858032
 20
0.0
 30
0.0
 11
-47.499805688858032
 21
-1.349925994873046
 31
0.0
  0
LINE
  5
45
  8
0
 10
-21.472901105880741
 20
0.0
 30
0.0
 11
-19.873917102813721
 21
9.2443227767944336
 31
0.0
  0
LINE
  5
46
  8
0
 10
-18.275618553161621
 20
0.0
 30
0.0
 11
-19.87023651599884
 21
9.2424154281616211
 31
0.0
  0
LINE
  5
47
  8
0
 10
-19.87023651599884
 20
9.2424154281616211
 30
0.0
 11
-21.043136715888981
 21
9.2400312423706055
 31
0.0
  0
LINE
  5
48
  8
0
 10
0.0016987323760986
 20
9.2443227767944336
 30
0.0
 11
-2.280026674270629
 21
2.6501417160034171
 31
0.0
  0
LINE
  5
49
  8
0
 10
2.283841371536254
 20
2.6501417160034171
 30
0.0
 11
0.0081062316894531
 21
9.2424154281616211
 31
0.0
  0
LINE
  5
4A
  8
0
 10
19.870370626449581
 20
9.2443227767944336
 30
0.0
 11
18.271028995513909
 21
0.0
 31
0.0
  0
LINE
  5
4B
  8
0
 10
21.039038896560669
 20
9.2400312423706055
 30
0.0
 11
19.870370626449581
 21
9.2443227767944336
 31
0.0
  0
LINE
  5
4C
  8
0
 10
19.873470067977902
 20
9.2424154281616211
 30
0.0
 11
21.46929502487183
 21
0.0
 31
0.0
  0
LINE
  5
4D
  8
0
 10
-21.038532257080082
 20
9.2666149139404297
 30
0.0
 11
-22.64250814914703
 21
0.0
 31
0.0
  0
LINE
  5
4E
  8
0
 10
22.63796329498291
 20
0.0
 30
0.0
 11
21.039038896560669
 21
9.2400312423706055
 31
0.0
  0
LINE
  5
4F
  8
0
 10
9.4490945339202881
 20
2.6500225067138672
 30
0.0
 11
-9.4507336616516113
 21
2.6500225067138672
 31
0.0
  0
LINE
  5
50
  8
0
 10
-9.4509124755859375
 20
2.6500225067138672
 30
0.0
 11
-9.4509124755859375
 21
0.0
 31
0.0
  0
LINE
  5
51
  8
0
 10
-8.1001818180084229
 20
2.6501417160034171
 30
0.0
 11
-8.1001818180084229
 21
-1.349925994873046
 31
0.0
  0
LINE
  5
52
  8
0
 10
8.1006288528442383
 20
2.6501417160034171
 30
0.0
 11
8.1006288528442383
 21
-1.349925994873046
 31
0.0
  0
LINE
  5
53
  8
0
 10
47.499924898147583
 20
0.0
 30
0.0
 11
9.4510316848754883
 21
0.0
 31
0.0
  0
LINE
  5
54
  8
0
 10
47.499865293502801
 20
-1.349925994873046
 30
0.0
 11
-47.499805688858032
 21
-1.349925994873046
 31
0.0
  0
LINE
  5
55
  8
0
 10
-47.499805688858032
 20
0.0
 30
0.0
 11
-9.4509124755859375
 21
0.0
 31
0.0
  0
LINE
  5
56
  8
0
 10
9.4510316848754883
 20
2.6500225067138672
 30
0.0
 11
9.4510316848754883
 21
0.0
 31
0.0
  0
LINE
  5
57
  8
0
 62
     8
 39
1.1999999405816191
 10
-47.499805688858032
 20
-1.349925994873046
 30
0.0
 11
-46.149834990501397
 21
0.0
 31
0.0
  0
LINE
  5
58
  8
0
 62
     8
 39
1.1999999405816191
 10
-46.35205864906311
 20
-1.349925994873046
 30
0.0
 11
-45.002087950706482
 21
0.0
 31
0.0
  0
LINE
  5
59
  8
0
 62
     8
 39
1.1999999405816191
 10
-45.204296708106988
 20
-1.349925994873046
 30
0.0
 11
-43.85434091091156
 21
0.0
 31
0.0
  0
LINE
  5
5A
  8
0
 62
     8
 39
1.1999999405816191
 10
-44.056549668312073
 20
-1.349925994873046
 30
0.0
 11
-42.706593871116631
 21
0.0
 31
0.0
  0
LINE
  5
5B
  8
0
 62
     8
 39
1.1999999405816191
 10
-42.908802628517151
 20
-1.349925994873046
 30
0.0
 11
-41.558831930160522
 21
0.0
 31
0.0
  0
LINE
  5
5C
  8
0
 62
     8
 39
1.1999999405816191
 10
-41.761055588722222
 20
-1.349925994873046
 30
0.0
 11
-40.411084890365601
 21
0.0
 31
0.0
  0
LINE
  5
5D
  8
0
 62
     8
 39
1.1999999405816191
 10
-40.6133085489273
 20
-1.349925994873046
 30
0.0
 11
-39.263337850570679
 21
0.0
 31
0.0
  0
LINE
  5
5E
  8
0
 62
     8
 39
1.1999999405816191
 10
-39.465546607971191
 20
-1.349925994873046
 30
0.0
 11
-38.115590810775757
 21
0.0
 31
0.0
  0
LINE
  5
5F
  8
0
 62
     8
 39
1.1999999405816191
 10
-38.31779956817627
 20
-1.349925994873046
 30
0.0
 11
-36.967843770980828
 21
0.0
 31
0.0
  0
LINE
  5
60
  8
0
 62
     8
 39
1.1999999405816191
 10
-37.170052528381348
 20
-1.349925994873046
 30
0.0
 11
-35.820081830024719
 21
0.0
 31
0.0
  0
LINE
  5
61
  8
0
 62
     8
 39
1.1999999405816191
 10
-36.022305488586433
 20
-1.349925994873046
 30
0.0
 11
-34.672334790229797
 21
0.0
 31
0.0
  0
LINE
  5
62
  8
0
 62
     8
 39
1.1999999405816191
 10
-34.874558448791497
 20
-1.349925994873046
 30
0.0
 11
-33.524587750434868
 21
0.0
 31
0.0
  0
LINE
  5
63
  8
0
 62
     8
 39
1.1999999405816191
 10
-33.726811408996582
 20
-1.349925994873046
 30
0.0
 11
-32.376840710639947
 21
0.0
 31
0.0
  0
LINE
  5
64
  8
0
 62
     8
 39
1.1999999405816191
 10
-32.579049468040473
 20
-1.349925994873046
 30
0.0
 11
-31.229093670845032
 21
0.0
 31
0.0
  0
LINE
  5
65
  8
0
 62
     8
 39
1.1999999405816191
 10
-31.431302428245541
 20
-1.349925994873046
 30
0.0
 11
-30.08134663105011
 21
0.0
 31
0.0
  0
LINE
  5
66
  8
0
 62
     8
 39
1.1999999405816191
 10
-30.283555388450619
 20
-1.349925994873046
 30
0.0
 11
-28.933584690093991
 21
0.0
 31
0.0
  0
LINE
  5
67
  8
0
 62
     8
 39
1.1999999405816191
 10
-29.135808348655701
 20
-1.349925994873046
 30
0.0
 11
-27.785837650299069
 21
0.0
 31
0.0
  0
LINE
  5
68
  8
0
 62
     8
 39
1.1999999405816191
 10
-27.988061308860779
 20
-1.349925994873046
 30
0.0
 11
-26.63809061050415
 21
0.0
 31
0.0
  0
LINE
  5
69
  8
0
 62
     8
 39
1.1999999405816191
 10
-26.84031426906586
 20
-1.349925994873046
 30
0.0
 11
-25.490343570709229
 21
0.0
 31
0.0
  0
LINE
  5
6A
  8
0
 62
     8
 39
1.1999999405816191
 10
-25.692552328109741
 20
-1.349925994873046
 30
0.0
 11
-24.34259653091431
 21
0.0
 31
0.0
  0
LINE
  5
6B
  8
0
 62
     8
 39
1.1999999405816191
 10
-24.544805288314819
 20
-1.349925994873046
 30
0.0
 11
-23.194834589958191
 21
0.0
 31
0.0
  0
LINE
  5
6C
  8
0
 62
     8
 39
1.1999999405816191
 10
-23.397058248519901
 20
-1.349925994873046
 30
0.0
 11
-22.047087550163269
 21
0.0
 31
0.0
  0
LINE
  5
6D
  8
0
 62
     8
 39
1.1999999405816191
 10
-22.249311208724979
 20
-1.349925994873046
 30
0.0
 11
-20.899340510368351
 21
0.0
 31
0.0
  0
LINE
  5
6E
  8
0
 62
     8
 39
1.1999999405816191
 10
-21.10156416893005
 20
-1.349925994873046
 30
0.0
 11
-19.751593470573422
 21
0.0
 31
0.0
  0
LINE
  5
6F
  8
0
 62
     8
 39
1.1999999405816191
 10
-19.953802227973931
 20
-1.349925994873046
 30
0.0
 11
-18.6038464307785
 21
0.0
 31
0.0
  0
LINE
  5
70
  8
0
 62
     8
 39
1.1999999405816191
 10
-18.806055188179009
 20
-1.349925994873046
 30
0.0
 11
-17.456099390983582
 21
0.0
 31
0.0
  0
LINE
  5
71
  8
0
 62
     8
 39
1.1999999405816191
 10
-17.658308148384091
 20
-1.349925994873046
 30
0.0
 11
-16.308337450027459
 21
0.0
 31
0.0
  0
LINE
  5
72
  8
0
 62
     8
 39
1.1999999405816191
 10
-16.510561108589169
 20
-1.349925994873046
 30
0.0
 11
-15.16059041023254
 21
0.0
 31
0.0
  0
LINE
  5
73
  8
0
 62
     8
 39
1.1999999405816191
 10
-15.36281406879425
 20
-1.349925994873046
 30
0.0
 11
-14.01284337043762
 21
0.0
 31
0.0
  0
LINE
  5
74
  8
0
 62
     8
 39
1.1999999405816191
 10
-14.21506702899933
 20
-1.349925994873046
 30
0.0
 11
-12.8650963306427
 21
0.0
 31
0.0
  0
LINE
  5
75
  8
0
 62
     8
 39
1.1999999405816191
 10
-13.067305088043209
 20
-1.349925994873046
 30
0.0
 11
-11.71734929084778
 21
0.0
 31
0.0
  0
LINE
  5
76
  8
0
 62
     8
 39
1.1999999405816191
 10
-9.4509124755859375
 20
2.266526222229003
 30
0.0
 11
-9.0673267841339111
 21
2.6500225067138672
 31
0.0
  0
LINE
  5
77
  8
0
 62
     8
 39
1.1999999405816191
 10
-11.919558048248289
 20
-1.349925994873046
 30
0.0
 11
-10.569602251052849
 21
0.0
 31
0.0
  0
LINE
  5
78
  8
0
 62
     8
 39
1.1999999405816191
 10
-9.4509124755859375
 20
1.11854076385498
 30
0.0
 11
-8.1001818180084229
 21
2.4694204330444331
 31
0.0
  0
LINE
  5
79
  8
0
 62
     8
 39
1.1999999405816191
 10
-10.771811008453369
 20
-1.349925994873046
 30
0.0
 11
-8.1001818180084229
 21
1.32155418395996
 31
0.0
  0
LINE
  5
7A
  8
0
 62
     8
 39
1.1999999405816191
 10
-9.6240639686584473
 20
-1.349925994873046
 30
0.0
 11
-8.1001818180084229
 21
0.1739263534545898
 31
0.0
  0
LINE
  5
7B
  8
0
 62
     8
 39
1.1999999405816191
 10
8.1005692481994611
 20
-1.349925994873046
 30
0.0
 11
9.4505548477172852
 21
0.0
 31
0.0
  0
LINE
  5
7C
  8
0
 62
     8
 39
1.1999999405816191
 10
9.2483460903167725
 20
-1.349925994873046
 30
0.0
 11
10.5983018875122
 21
0.0
 31
0.0
  0
LINE
  5
7D
  8
0
 62
     8
 39
1.1999999405816191
 10
8.1006288528442383
 20
-0.2024173736572266
 30
0.0
 11
9.4510316848754883
 21
1.148104667663574
 31
0.0
  0
LINE
  5
7E
  8
0
 62
     8
 39
1.1999999405816191
 10
8.1006288528442383
 20
0.945448875427246
 30
0.0
 11
9.4510316848754883
 21
2.295970916748046
 31
0.0
  0
LINE
  5
7F
  8
0
 62
     8
 39
1.1999999405816191
 10
8.1006288528442383
 20
2.0931959152221671
 30
0.0
 11
8.6574852466583252
 21
2.6500225067138672
 31
0.0
  0
LINE
  5
80
  8
0
 62
     8
 39
1.1999999405816191
 10
10.396033525466921
 20
-1.349925994873046
 30
0.0
 11
11.74598932266235
 21
0.0
 31
0.0
  0
LINE
  5
81
  8
0
 62
     8
 39
1.1999999405816191
 10
11.54372096061706
 20
-1.349925994873046
 30
0.0
 11
12.893706560134881
 21
0.0
 31
0.0
  0
LINE
  5
82
  8
0
 62
     8
 39
1.1999999405816191
 10
12.6914381980896
 20
-1.349925994873046
 30
0.0
 11
14.041393995285031
 21
0.0
 31
0.0
  0
LINE
  5
83
  8
0
 62
     8
 39
1.1999999405816191
 10
13.839125633239741
 20
-1.349925994873046
 30
0.0
 11
15.18911123275757
 21
0.0
 31
0.0
  0
LINE
  5
84
  8
0
 62
     8
 39
1.1999999405816191
 10
14.98684287071228
 20
-1.349925994873046
 30
0.0
 11
16.336798667907711
 21
0.0
 31
0.0
  0
LINE
  5
85
  8
0
 62
     8
 39
1.1999999405816191
 10
16.13453030586242
 20
-1.349925994873046
 30
0.0
 11
17.484515905380249
 21
0.0
 31
0.0
  0
LINE
  5
86
  8
0
 62
     8
 39
1.1999999405816191
 10
17.282247543334961
 20
-1.349925994873046
 30
0.0
 11
18.632203340530388
 21
0.0
 31
0.0
  0
LINE
  5
87
  8
0
 62
     8
 39
1.1999999405816191
 10
18.4299349784851
 20
-1.349925994873046
 30
0.0
 11
19.77992057800293
 21
0.0
 31
0.0
  0
LINE
  5
88
  8
0
 62
     8
 39
1.1999999405816191
 10
19.577652215957642
 20
-1.349925994873046
 30
0.0
 11
20.92760801315308
 21
0.0
 31
0.0
  0
LINE
  5
89
  8
0
 62
     8
 39
1.1999999405816191
 10
20.725339651107792
 20
-1.349925994873046
 30
0.0
 11
22.07532525062561
 21
0.0
 31
0.0
  0
LINE
  5
8A
  8
0
 62
     8
 39
1.1999999405816191
 10
21.873056888580319
 20
-1.349925994873046
 30
0.0
 11
23.22301268577576
 21
0.0
 31
0.0
  0
LINE
  5
8B
  8
0
 62
     8
 39
1.1999999405816191
 10
23.020744323730469
 20
-1.349925994873046
 30
0.0
 11
24.3707001209259
 21
0.0
 31
0.0
  0
LINE
  5
8C
  8
0
 62
     8
 39
1.1999999405816191
 10
24.168461561202999
 20
-1.349925994873046
 30
0.0
 11
25.518417358398441
 21
0.0
 31
0.0
  0
LINE
  5
8D
  8
0
 62
     8
 39
1.1999999405816191
 10
25.316148996353149
 20
-1.349925994873046
 30
0.0
 11
26.66610479354858
 21
0.0
 31
0.0
  0
LINE
  5
8E
  8
0
 62
     8
 39
1.1999999405816191
 10
26.463836431503299
 20
-1.349925994873046
 30
0.0
 11
27.813822031021122
 21
0.0
 31
0.0
  0
LINE
  5
8F
  8
0
 62
     8
 39
1.1999999405816191
 10
27.61155366897583
 20
-1.349925994873046
 30
0.0
 11
28.961509466171261
 21
0.0
 31
0.0
  0
LINE
  5
90
  8
0
 62
     8
 39
1.1999999405816191
 10
28.75924110412598
 20
-1.349925994873046
 30
0.0
 11
30.109226703643799
 21
0.0
 31
0.0
  0
LINE
  5
91
  8
0
 62
     8
 39
1.1999999405816191
 10
29.906958341598511
 20
-1.349925994873046
 30
0.0
 11
31.256914138793942
 21
0.0
 31
0.0
  0
LINE
  5
92
  8
0
 62
     8
 39
1.1999999405816191
 10
31.054645776748661
 20
-1.349925994873046
 30
0.0
 11
32.404631376266479
 21
0.0
 31
0.0
  0
LINE
  5
93
  8
0
 62
     8
 39
1.1999999405816191
 10
32.202363014221191
 20
-1.349925994873046
 30
0.0
 11
33.552318811416633
 21
0.0
 31
0.0
  0
LINE
  5
94
  8
0
 62
     8
 39
1.1999999405816191
 10
33.350050449371338
 20
-1.349925994873046
 30
0.0
 11
34.70003604888916
 21
0.0
 31
0.0
  0
LINE
  5
95
  8
0
 62
     8
 39
1.1999999405816191
 10
34.497767686843872
 20
-1.349925994873046
 30
0.0
 11
35.847723484039307
 21
0.0
 31
0.0
  0
LINE
  5
96
  8
0
 62
     8
 39
1.1999999405816191
 10
35.645455121994019
 20
-1.349925994873046
 30
0.0
 11
36.995440721511841
 21
0.0
 31
0.0
  0
LINE
  5
97
  8
0
 62
     8
 39
1.1999999405816191
 10
36.793172359466553
 20
-1.349925994873046
 30
0.0
 11
38.143128156661987
 21
0.0
 31
0.0
  0
LINE
  5
98
  8
0
 62
     8
 39
1.1999999405816191
 10
37.940859794616699
 20
-1.349925994873046
 30
0.0
 11
39.290815591812127
 21
0.0
 31
0.0
  0
LINE
  5
99
  8
0
 62
     8
 39
1.1999999405816191
 10
39.088577032089233
 20
-1.349925994873046
 30
0.0
 11
40.438532829284661
 21
0.0
 31
0.0
  0
LINE
  5
9A
  8
0
 62
     8
 39
1.1999999405816191
 10
40.236264467239373
 20
-1.349925994873046
 30
0.0
 11
41.586220264434807
 21
0.0
 31
0.0
  0
LINE
  5
9B
  8
0
 62
     8
 39
1.1999999405816191
 10
41.383981704711907
 20
-1.349925994873046
 30
0.0
 11
42.733937501907342
 21
0.0
 31
0.0
  0
LINE
  5
9C
  8
0
 62
     8
 39
1.1999999405816191
 10
42.531669139862061
 20
-1.349925994873046
 30
0.0
 11
43.881624937057488
 21
0.0
 31
0.0
  0
LINE
  5
9D
  8
0
 62
     8
 39
1.1999999405816191
 10
43.6793565750122
 20
-1.349925994873046
 30
0.0
 11
45.029342174530022
 21
0.0
 31
0.0
  0
LINE
  5
9E
  8
0
 62
     8
 39
1.1999999405816191
 10
44.827073812484741
 20
-1.349925994873046
 30
0.0
 11
46.177029609680169
 21
0.0
 31
0.0
  0
LINE
  5
9F
  8
0
 62
     8
 39
1.1999999405816191
 10
45.974761247634881
 20
-1.349925994873046
 30
0.0
 11
47.324746847152703
 21
0.0
 31
0.0
  0
LINE
  5
A0
  8
0
 62
     8
 39
1.1999999405816191
 10
47.122478485107422
 20
-1.349925994873046
 30
0.0
 11
47.499865293502801
 21
-0.9725093841552734
 31
0.0
  0
ENDSEC
  0
EOF
