  0
SECTION
  2
HEADER
  9
$ACADVER
  1
AC1009
  9
$INSBASE
 10
0.0
 20
0.0
 30
0.0
  9
$EXTMIN
 10
-37.386995210391348
 20
-36.469001279801503
 30
0.0
  9
$EXTMAX
 10
37.87488077666157
 20
38.792830003767833
 30
1.1999999405816191
  9
$LIMMIN
 10
0.0
 20
0.0
  9
$LIMMAX
 10
12.0
 20
9.0
  9
$ORTHOMODE
 70
     0
  9
$REGENMODE
 70
     1
  9
$FILLMODE
 70
     1
  9
$QTEXTMODE
 70
     0
  9
$MIRRTEXT
 70
     0
  9
$DRAGMODE
 70
     2
  9
$LTSCALE
 40
1.0
  9
$OSMODE
 70
    47
  9
$ATTMODE
 70
     1
  9
$TEXTSIZE
 40
3.5
  9
$TRACEWID
 40
0.05
  9
$TEXTSTYLE
  7
SST
  9
$CLAYER
  8
0
  9
$CELTYPE
  6
BYLAYER
  9
$CECOLOR
 62
   256
  9
$DIMSCALE
 40
1.0
  9
$DIMASZ
 40
0.18
  9
$DIMEXO
 40
0.0625
  9
$DIMDLI
 40
0.38
  9
$DIMRND
 40
0.0
  9
$DIMDLE
 40
0.0
  9
$DIMEXE
 40
0.18
  9
$DIMTP
 40
0.0
  9
$DIMTM
 40
0.0
  9
$DIMTXT
 40
0.18
  9
$DIMCEN
 40
0.09
  9
$DIMTSZ
 40
0.0
  9
$DIMTOL
 70
     0
  9
$DIMLIM
 70
     0
  9
$DIMTIH
 70
     1
  9
$DIMTOH
 70
     1
  9
$DIMSE1
 70
     0
  9
$DIMSE2
 70
     0
  9
$DIMTAD
 70
     0
  9
$DIMZIN
 70
     0
  9
$DIMBLK
  1

  9
$DIMASO
 70
     1
  9
$DIMSHO
 70
     1
  9
$DIMPOST
  1

  9
$DIMAPOST
  1

  9
$DIMALT
 70
     0
  9
$DIMALTD
 70
     2
  9
$DIMALTF
 40
25.399999999999999
  9
$DIMLFAC
 40
1.0
  9
$DIMTOFL
 70
     0
  9
$DIMTVP
 40
0.0
  9
$DIMTIX
 70
     0
  9
$DIMSOXD
 70
     0
  9
$DIMSAH
 70
     0
  9
$DIMBLK1
  1

  9
$DIMBLK2
  1

  9
$DIMSTYLE
  2
STANDARD
  9
$DIMCLRD
 70
     0
  9
$DIMCLRE
 70
     0
  9
$DIMCLRT
 70
     0
  9
$DIMTFAC
 40
1.0
  9
$DIMGAP
 40
0.09
  9
$LUNITS
 70
     2
  9
$LUPREC
 70
     0
  9
$SKETCHINC
 40
0.1
  9
$FILLETRAD
 40
0.0
  9
$AUNITS
 70
     0
  9
$AUPREC
 70
     0
  9
$MENU
  1
acad
  9
$ELEVATION
 40
0.0
  9
$PELEVATION
 40
0.0
  9
$THICKNESS
 40
0.0
  9
$LIMCHECK
 70
     0
  9
$BLIPMODE
 70
     0
  9
$CHAMFERA
 40
0.0
  9
$CHAMFERB
 40
0.0
  9
$SKPOLY
 70
     0
  9
$TDCREATE
 40
2449631.7321383101
  9
$TDUPDATE
 40
2453443.5714393398
  9
$TDINDWG
 40
0.0032733333
  9
$TDUSRTIMER
 40
0.0032733333
  9
$USRTIMER
 70
     1
  9
$ANGBASE
 50
0.0
  9
$ANGDIR
 70
     0
  9
$PDMODE
 70
     0
  9
$PDSIZE
 40
0.0
  9
$PLINEWID
 40
0.0
  9
$COORDS
 70
     1
  9
$SPLFRAME
 70
     0
  9
$SPLINETYPE
 70
     6
  9
$SPLINESEGS
 70
     8
  9
$ATTDIA
 70
     0
  9
$ATTREQ
 70
     1
  9
$HANDLING
 70
     1
  9
$HANDSEED
  5
8F
  9
$SURFTAB1
 70
     6
  9
$SURFTAB2
 70
     6
  9
$SURFTYPE
 70
     6
  9
$SURFU
 70
     6
  9
$SURFV
 70
     6
  9
$UCSNAME
  2

  9
$UCSORG
 10
0.0
 20
0.0
 30
0.0
  9
$UCSXDIR
 10
1.0
 20
0.0
 30
0.0
  9
$UCSYDIR
 10
0.0
 20
1.0
 30
0.0
  9
$PUCSNAME
  2

  9
$PUCSORG
 10
0.0
 20
0.0
 30
0.0
  9
$PUCSXDIR
 10
1.0
 20
0.0
 30
0.0
  9
$PUCSYDIR
 10
0.0
 20
1.0
 30
0.0
  9
$USERI1
 70
     0
  9
$USERI2
 70
     0
  9
$USERI3
 70
     0
  9
$USERI4
 70
     0
  9
$USERI5
 70
     0
  9
$USERR1
 40
0.0
  9
$USERR2
 40
0.0
  9
$USERR3
 40
0.0
  9
$USERR4
 40
0.0
  9
$USERR5
 40
0.0
  9
$WORLDVIEW
 70
     1
  9
$SHADEDGE
 70
     3
  9
$SHADEDIF
 70
    70
  9
$TILEMODE
 70
     1
  9
$MAXACTVP
 70
    16
  9
$PLIMCHECK
 70
     0
  9
$PEXTMIN
 10
1.0000000000000000E+020
 20
1.0000000000000000E+020
 30
1.0000000000000000E+020
  9
$PEXTMAX
 10
-1.0000000000000000E+020
 20
-1.0000000000000000E+020
 30
-1.0000000000000000E+020
  9
$PLIMMIN
 10
0.0
 20
0.0
  9
$PLIMMAX
 10
12.0
 20
9.0
  9
$UNITMODE
 70
     0
  9
$VISRETAIN
 70
     0
  9
$PLINEGEN
 70
     0
  9
$PSLTSCALE
 70
     1
  0
ENDSEC
  0
SECTION
  2
TABLES
  0
TABLE
  2
VPORT
 70
     2
  0
VPORT
  2
*ACTIVE
 70
     0
 10
0.0
 20
0.0
 11
1.0
 21
1.0
 12
105.58957689689061
 22
-24.421521701429469
 13
0.0
 23
0.0
 14
1.0
 24
1.0
 15
0.0
 25
0.0
 16
0.0
 26
0.0
 36
1.0
 17
0.0
 27
0.0
 37
0.0
 40
562.48619202814791
 41
1.4993646759847521
 42
50.0
 43
0.0
 44
0.0
 50
0.0
 51
0.0
 71
     0
 72
   100
 73
     1
 74
     1
 75
     0
 76
     0
 77
     0
 78
     0
  0
ENDTAB
  0
TABLE
  2
LTYPE
 70
     1
  0
LTYPE
  2
CONTINUOUS
 70
     0
  3
Solid line
 72
    65
 73
     0
 40
0.0
  0
ENDTAB
  0
TABLE
  2
LAYER
 70
     1
  0
LAYER
  2
0
 70
     0
 62
     7
  6
CONTINUOUS
  0
ENDTAB
  0
TABLE
  2
STYLE
 70
     2
  0
STYLE
  2
STANDARD
 70
     0
 40
0.0
 41
1.0
 50
0.0
 71
     0
 42
0.2
  3
txt
  4

  0
STYLE
  2
SST
 70
     0
 40
0.0
 41
1.0
 50
0.0
 71
     0
 42
3.5
  3
romans.shx
  4

  0
ENDTAB
  0
TABLE
  2
VIEW
 70
     0
  0
ENDTAB
  0
TABLE
  2
UCS
 70
     0
  0
ENDTAB
  0
TABLE
  2
APPID
 70
     1
  0
APPID
  2
ACAD
 70
     0
  0
ENDTAB
  0
TABLE
  2
DIMSTYLE
 70
     1
  0
DIMSTYLE
  2
STANDARD
 70
     0
  3

  4

  5

  6

  7

 40
1.0
 41
0.18
 42
0.0625
 43
0.38
 44
0.18
 45
0.0
 46
0.0
 47
0.0
 48
0.0
140
0.18
141
0.09
142
0.0
143
25.399999999999999
144
1.0
145
0.0
146
1.0
147
0.09
 71
     0
 72
     0
 73
     1
 74
     1
 75
     0
 76
     0
 77
     0
 78
     0
170
     0
171
     2
172
     0
173
     0
174
     0
175
     0
176
     0
177
     0
178
     0
  0
ENDTAB
  0
ENDSEC
  0
SECTION
  2
BLOCKS
  0
BLOCK
  8
0
  2
$MODEL_SPACE
 70
     0
 10
0.0
 20
0.0
 30
0.0
  3
$MODEL_SPACE
  1

  0
ENDBLK
  5
9
  8
0
  0
BLOCK
 67
     1
  8
0
  2
$PAPER_SPACE
 70
     0
 10
0.0
 20
0.0
 30
0.0
  3
$PAPER_SPACE
  1

  0
ENDBLK
  5
E
 67
     1
  8
0
  0
BLOCK
  8
0
  2
SIMPSON-STRONG-TIE
 70
     0
 10
0.0
 20
0.0
 30
0.0
  3
SIMPSON-STRONG-TIE
  1

  0
TEXT
  5
78
  8
0
  6
CONTINUOUS
 10
-4.7318727780691416
 20
4.4215860385237811
 30
0.0
 40
2.0
  1
SIMPSON
 50
316.94148639091338
  7
SST
 72
     1
 11
0.0
 21
0.0
 31
0.0
  0
TEXT
  5
79
  8
0
  6
CONTINUOUS
 10
-7.9648409725863862
 20
3.4769825481547749
 30
0.0
 40
2.0
  1
Strong-Tie
 50
316.94148639091338
  7
SST
 72
     1
 11
-2.0499999999999541
 21
-2.0499999999999541
 31
0.0
  0
ENDBLK
  5
7A
  8
0
  0
ENDSEC
  0
SECTION
  2
ENTITIES
  0
LINE
  5
29
  8
0
 10
0.2439353325545177
 20
-36.337751852006093
 30
0.0
 11
8.1687006809889642
 21
-28.413433538407471
 31
0.0
  0
LINE
  5
2A
  8
0
 10
-7.680174364787403
 20
-28.412956701249261
 30
0.0
 11
0.2439353325545177
 21
-36.337751852006093
 31
0.0
  0
LINE
  5
2B
  8
0
 10
-7.8570213458359861
 20
-30.003923879593991
 30
0.0
 11
-7.6791610858262214
 21
-28.412003026932862
 31
0.0
  0
LINE
  5
2C
  8
0
 10
0.2447101929365978
 20
-36.338467107743398
 30
0.0
 11
-1.3924505851090561
 21
-36.469001279801503
 31
0.0
  0
LINE
  5
2D
  8
0
 39
0.9473684476688504
 10
-4.6247508666337138
 20
-33.236522184342519
 30
0.0
 11
-3.717717184764207
 21
-32.37606953236498
 31
0.0
  0
LINE
  5
2E
  8
0
 10
-7.8570213458359861
 20
-30.003923879593991
 30
0.0
 11
-1.3924505851090561
 21
-36.469001279801503
 31
0.0
  0
LINE
  5
2F
  8
0
 10
18.99376843954915
 20
-31.313795553177972
 30
0.0
 11
21.89466689612264
 21
-20.488757596940179
 31
0.0
  0
LINE
  5
30
  8
0
 10
8.1688496926009044
 20
-28.412718282670159
 30
0.0
 11
18.99376843954915
 21
-31.313795553177972
 31
0.0
  0
LINE
  5
31
  8
0
 10
8.8112387516676751
 20
-29.879111753434319
 30
0.0
 11
8.1692371227919445
 21
-28.411406980485101
 31
0.0
  0
LINE
  5
32
  8
0
 10
18.994781718510328
 20
-31.313914762467519
 30
0.0
 11
17.64229272391194
 21
-32.245654569596432
 31
0.0
  0
LINE
  5
33
  8
0
 39
0.9473684476688504
 10
13.22672103430623
 20
-31.06226395222583
 30
0.0
 11
13.581994519489941
 21
-29.863614545792721
 31
0.0
  0
LINE
  5
34
  8
0
 10
8.8112387516676751
 20
-29.879111753434319
 30
0.0
 11
17.64229272391194
 21
-32.245654569596432
 31
0.0
  0
LINE
  5
35
  8
0
 10
32.719585643070872
 20
-17.587918745011471
 30
0.0
 11
29.81931303526753
 21
-6.762761579484124
 31
0.0
  0
LINE
  5
36
  8
0
 10
21.894428477543531
 20
-20.48792313191333
 30
0.0
 11
32.719585643070872
 21
-17.587918745011471
 31
0.0
  0
LINE
  5
37
  8
0
 10
23.183915362614339
 20
-21.43659065815844
 30
0.0
 11
21.894070849674879
 21
-20.486731039017819
 31
0.0
  0
LINE
  5
38
  8
0
 10
32.72059892203206
 20
-17.587561117142808
 30
0.0
 11
32.015118346470537
 21
-19.070643888444081
 31
0.0
  0
LINE
  5
39
  8
0
 39
0.9473684476688504
 10
27.599487052220049
 20
-20.253676877946042
 30
0.0
 11
27.307811723011671
 21
-19.038099752396722
 31
0.0
  0
LINE
  5
3A
  8
0
 10
23.183915362614339
 20
-21.43659065815844
 30
0.0
 11
32.015118346470537
 21
-19.070643888444081
 31
0.0
  0
LINE
  5
3B
  8
0
 10
37.743601546543772
 20
1.1619143619831609
 30
0.0
 11
29.819283232945139
 21
9.0867095127399953
 31
0.0
  0
LINE
  5
3C
  8
0
 10
29.818746791142171
 20
-6.76228474232592
 30
0.0
 11
37.743601546543772
 21
1.1619143619831609
 31
0.0
  0
LINE
  5
3D
  8
0
 10
31.409833178776442
 20
-6.9390721187297286
 30
0.0
 11
29.81776331450337
 21
-6.7613310680095138
 31
0.0
  0
LINE
  5
3E
  8
0
 10
37.744286999958689
 20
1.1627488270100159
 30
0.0
 11
37.87488077666157
 21
-0.4744715556804131
 31
0.0
  0
LINE
  5
3F
  8
0
 39
0.9473684476688504
 10
34.64234207655781
 20
-3.7068314418498458
 30
0.0
 11
33.78185962225789
 21
-2.7997679576579522
 31
0.0
  0
LINE
  5
40
  8
0
 10
31.409833178776442
 20
-6.9390721187297286
 30
0.0
 11
37.87488077666157
 21
-0.4744715556804131
 31
0.0
  0
LINE
  5
41
  8
0
 10
32.719585643070872
 20
19.91174746897779
 30
0.0
 11
21.89457748915547
 21
22.812586320906501
 31
0.0
  0
LINE
  5
42
  8
0
 10
29.81853817488545
 20
9.0868287220295461
 30
0.0
 11
32.719585643070872
 21
19.91174746897779
 31
0.0
  0
LINE
  5
43
  8
0
 10
31.284872041004839
 20
9.7291283741291554
 30
0.0
 11
29.817197070378011
 21
9.0871863498981984
 31
0.0
  0
LINE
  5
44
  8
0
 10
32.719764457005198
 20
19.91282035258374
 30
0.0
 11
33.651444659489329
 21
18.560271753340579
 31
0.0
  0
LINE
  5
45
  8
0
 39
0.9473684476688504
 10
32.468143449085893
 20
14.14475966837964
 30
0.0
 11
31.2694642403304
 21
14.499884141951419
 31
0.0
  0
LINE
  5
46
  8
0
 10
31.284872041004839
 20
9.7291283741291554
 30
0.0
 11
33.651444659489329
 21
18.560271753340579
 31
0.0
  0
LINE
  5
47
  8
0
 10
18.99376843954915
 20
33.637505067854747
 30
0.0
 11
8.1685516693770275
 21
30.737262262373779
 31
0.0
  0
LINE
  5
48
  8
0
 10
21.893832431095781
 20
22.812347902327399
 30
0.0
 11
18.99376843954915
 21
33.637505067854747
 31
0.0
  0
LINE
  5
49
  8
0
 10
22.842529759663289
 20
24.1018347873982
 30
0.0
 11
21.892491326588331
 21
22.81199027445874
 31
0.0
  0
LINE
  5
4A
  8
0
 10
18.99338100935811
 20
33.638577951460711
 30
0.0
 11
20.476523385304152
 21
32.933097375899173
 31
0.0
  0
LINE
  5
4B
  8
0
 39
0.9473684476688504
 10
21.659496770161329
 20
28.517346872359131
 30
0.0
 11
20.44383023764485
 21
28.22576095011792
 31
0.0
  0
LINE
  5
4C
  8
0
 10
22.842529759663289
 20
24.1018347873982
 30
0.0
 11
20.476523385304152
 21
32.933097375899173
 31
0.0
  0
LINE
  5
4D
  8
0
 10
0.2439353325545177
 20
38.661580575972422
 30
0.0
 11
-7.6808002135575437
 21
30.737262262373779
 31
0.0
  0
LINE
  5
4E
  8
0
 10
8.1680748322188244
 20
30.736666215926029
 30
0.0
 11
0.2439353325545177
 21
38.661580575972422
 31
0.0
  0
LINE
  5
4F
  8
0
 10
8.3448920109450206
 20
32.327752603560313
 30
0.0
 11
8.1670615532576427
 21
30.735712541609619
 31
0.0
  0
LINE
  5
50
  8
0
 10
0.2431306698500499
 20
38.662176622420183
 30
0.0
 11
1.880291447895704
 21
38.792830003767833
 31
0.0
  0
LINE
  5
51
  8
0
 39
0.9473684476688504
 10
5.1125917294203624
 20
35.560231699019297
 30
0.0
 11
4.2056176521956301
 21
34.699779047041758
 31
0.0
  0
LINE
  5
52
  8
0
 10
8.3448920109450206
 20
32.327752603560313
 30
0.0
 11
1.880291447895704
 21
38.792830003767833
 31
0.0
  0
LINE
  5
53
  8
0
 10
-18.505882873278921
 20
33.637505067854747
 30
0.0
 11
-21.40676642869121
 21
22.81246711161695
 31
0.0
  0
LINE
  5
54
  8
0
 10
-7.6809492251694831
 20
30.736547006636481
 30
0.0
 11
-18.505882873278921
 21
33.637505067854747
 31
0.0
  0
LINE
  5
55
  8
0
 10
-8.3233680865586432
 20
32.202821268111087
 30
0.0
 11
-7.6813366553605231
 21
30.735116495161868
 31
0.0
  0
LINE
  5
56
  8
0
 10
-18.506940855723681
 20
33.637743486433848
 30
0.0
 11
-17.15440715764171
 21
34.569483293562762
 31
0.0
  0
LINE
  5
57
  8
0
 39
0.9473684476688504
 10
-12.738850369197189
 20
33.386092676192149
 30
0.0
 11
-13.094094052058519
 21
32.187443269759036
 31
0.0
  0
LINE
  5
58
  8
0
 10
-8.3233680865586432
 20
32.202821268111087
 30
0.0
 11
-17.15440715764171
 21
34.569483293562762
 31
0.0
  0
LINE
  5
59
  8
0
 10
-32.231685175639463
 20
19.91174746897779
 30
0.0
 11
-29.331427468997301
 21
9.0864710941608937
 31
0.0
  0
LINE
  5
5A
  8
0
 10
-21.406528010112108
 20
22.811871065169189
 30
0.0
 11
-32.231685175639463
 21
19.91174746897779
 31
0.0
  0
LINE
  5
5B
  8
0
 10
-22.696029796344099
 20
23.76053859141431
 30
0.0
 11
-21.40618528340465
 21
22.810321344405029
 31
0.0
  0
LINE
  5
5C
  8
0
 10
-32.232698454600637
 20
19.91127063181958
 30
0.0
 11
-31.52721787903911
 21
21.3944726124104
 31
0.0
  0
LINE
  5
5D
  8
0
 39
0.9473684476688504
 10
-27.111556782466231
 20
22.57738639262281
 30
0.0
 11
-26.819911255580251
 21
21.361690057783939
 31
0.0
  0
LINE
  5
5E
  8
0
 10
-22.696029796344099
 20
23.76053859141431
 30
0.0
 11
-31.52721787903911
 21
21.3944726124104
 31
0.0
  0
LINE
  5
5F
  8
0
 10
-37.255701079112363
 20
1.1619143619831609
 30
0.0
 11
-29.33138276551372
 21
-6.7628807887736739
 31
0.0
  0
LINE
  5
60
  8
0
 10
-29.330846323710741
 20
9.0859942570026906
 30
0.0
 11
-37.255701079112363
 21
1.1619143619831609
 31
0.0
  0
LINE
  5
61
  8
0
 10
-30.921932711345018
 20
9.2627816334064992
 30
0.0
 11
-29.329877748233141
 21
9.0849213733967336
 31
0.0
  0
LINE
  5
62
  8
0
 10
-37.256386532527273
 20
1.161079896956305
 30
0.0
 11
-37.386995210391348
 21
2.7981810703571841
 31
0.0
  0
LINE
  5
63
  8
0
 39
0.9473684476688504
 10
-34.154382004481619
 20
6.0305409565266181
 30
0.0
 11
-33.293974055987661
 21
5.1235966816242744
 31
0.0
  0
LINE
  5
64
  8
0
 10
-30.921932711345018
 20
9.2627816334064992
 30
0.0
 11
-37.386995210391348
 21
2.7981810703571841
 31
0.0
  0
LINE
  5
65
  8
0
 10
-32.231685175639463
 20
-17.587918745011471
 30
0.0
 11
-21.406662120562849
 21
-20.48887680622973
 31
0.0
  0
LINE
  5
66
  8
0
 10
-29.330652608615221
 20
-6.7629999980632247
 30
0.0
 11
-32.231685175639463
 21
-17.587918745011471
 31
0.0
  0
LINE
  5
67
  8
0
 10
-30.796986474734609
 20
-7.4054188594523849
 30
0.0
 11
-29.329296602946581
 21
-6.7633576259318771
 31
0.0
  0
LINE
  5
68
  8
0
 10
-32.231878890734983
 20
-17.588991628617421
 30
0.0
 11
-33.163559093219114
 21
-16.236443029374261
 31
0.0
  0
LINE
  5
69
  8
0
 39
0.9473684476688504
 10
-31.980198278170889
 20
-11.820811735123771
 30
0.0
 11
-30.781578674060171
 21
-12.17617462727465
 31
0.0
  0
LINE
  5
6A
  8
0
 10
-30.796986474734609
 20
-7.4054188594523849
 30
0.0
 11
-33.163559093219114
 21
-16.236443029374261
 31
0.0
  0
LINE
  5
6B
  8
0
 10
-18.505882873278921
 20
-31.313795553177972
 30
0.0
 11
-7.6806810042679929
 21
-28.413433538407471
 31
0.0
  0
LINE
  5
6C
  8
0
 10
-21.405946864825552
 20
-20.488519178361081
 30
0.0
 11
-18.505882873278921
 21
-31.313795553177972
 31
0.0
  0
LINE
  5
6D
  8
0
 10
-22.354629292231859
 20
-21.778125272721429
 30
0.0
 11
-21.404590859156912
 21
-20.488280759781979
 31
0.0
  0
LINE
  5
6E
  8
0
 10
-18.505495443087881
 20
-31.314749227494382
 30
0.0
 11
-19.988637819033919
 21
-30.609268651932862
 31
0.0
  0
LINE
  5
6F
  8
0
 39
0.9473684476688504
 10
-21.1716112038911
 20
-26.19363735768237
 30
0.0
 11
-19.95592977021343
 21
-25.901932226151612
 31
0.0
  0
LINE
  5
70
  8
0
 10
-22.354629292231859
 20
-21.778125272721429
 30
0.0
 11
-19.988637819033919
 21
-30.609268651932862
 31
0.0
  0
CIRCLE
  5
71
  8
0
 39
1.1999999405816191
 10
0.2439353325545177
 20
1.1619143619831609
 30
0.0
 40
8.0999899655580521
  0
CIRCLE
  5
72
  8
0
 39
1.1999999405816191
 10
0.2439353325545177
 20
1.1619143619831609
 30
0.0
 40
9.3500101938843727
  0
CIRCLE
  5
73
  8
0
 39
1.1999999405816191
 10
-20.931017055255239
 20
1.1614375248249571
 30
0.0
 40
2.0000231452286239
  0
CIRCLE
  5
74
  8
0
 39
1.1999999405816191
 10
21.418902621525469
 20
1.1614375248249571
 30
0.0
 40
2.0000231452286239
  0
INSERT
  5
75
  8
0
  2
SIMPSON-STRONG-TIE
 10
15.70732364637592
 20
14.427541816519801
 30
0.0
  0
ENDSEC
  0
EOF
