  0
SECTION
  2
HEADER
  9
$ACADVER
  1
AC1009
  9
$INSBASE
 10
0.0
 20
0.0
 30
0.0
  9
$EXTMIN
 10
-31.000629067420959
 20
-1.200258731842041
 30
0.0
  9
$EXTMAX
 10
30.99918365478516
 20
8.6996555328369141
 30
0.7831579423509539
  9
$LIMMIN
 10
0.0
 20
0.0
  9
$LIMMAX
 10
12.0
 20
9.0
  9
$ORTHOMODE
 70
     1
  9
$REGENMODE
 70
     1
  9
$FILLMODE
 70
     1
  9
$QTEXTMODE
 70
     0
  9
$MIRRTEXT
 70
     0
  9
$DRAGMODE
 70
     2
  9
$LTSCALE
 40
1.0
  9
$OSMODE
 70
    47
  9
$ATTMODE
 70
     1
  9
$TEXTSIZE
 40
3.5
  9
$TRACEWID
 40
0.05
  9
$TEXTSTYLE
  7
SST
  9
$CLAYER
  8
0
  9
$CELTYPE
  6
BYLAYER
  9
$CECOLOR
 62
   256
  9
$DIMSCALE
 40
1.0
  9
$DIMASZ
 40
0.18
  9
$DIMEXO
 40
0.0625
  9
$DIMDLI
 40
0.38
  9
$DIMRND
 40
0.0
  9
$DIMDLE
 40
0.0
  9
$DIMEXE
 40
0.18
  9
$DIMTP
 40
0.0
  9
$DIMTM
 40
0.0
  9
$DIMTXT
 40
0.18
  9
$DIMCEN
 40
0.09
  9
$DIMTSZ
 40
0.0
  9
$DIMTOL
 70
     0
  9
$DIMLIM
 70
     0
  9
$DIMTIH
 70
     1
  9
$DIMTOH
 70
     1
  9
$DIMSE1
 70
     0
  9
$DIMSE2
 70
     0
  9
$DIMTAD
 70
     0
  9
$DIMZIN
 70
     0
  9
$DIMBLK
  1

  9
$DIMASO
 70
     1
  9
$DIMSHO
 70
     1
  9
$DIMPOST
  1

  9
$DIMAPOST
  1

  9
$DIMALT
 70
     0
  9
$DIMALTD
 70
     2
  9
$DIMALTF
 40
25.399999999999999
  9
$DIMLFAC
 40
1.0
  9
$DIMTOFL
 70
     0
  9
$DIMTVP
 40
0.0
  9
$DIMTIX
 70
     0
  9
$DIMSOXD
 70
     0
  9
$DIMSAH
 70
     0
  9
$DIMBLK1
  1

  9
$DIMBLK2
  1

  9
$DIMSTYLE
  2
STANDARD
  9
$DIMCLRD
 70
     0
  9
$DIMCLRE
 70
     0
  9
$DIMCLRT
 70
     0
  9
$DIMTFAC
 40
1.0
  9
$DIMGAP
 40
0.09
  9
$LUNITS
 70
     2
  9
$LUPREC
 70
     0
  9
$SKETCHINC
 40
0.1
  9
$FILLETRAD
 40
0.0
  9
$AUNITS
 70
     0
  9
$AUPREC
 70
     0
  9
$MENU
  1
acad
  9
$ELEVATION
 40
0.0
  9
$PELEVATION
 40
0.0
  9
$THICKNESS
 40
0.0
  9
$LIMCHECK
 70
     0
  9
$BLIPMODE
 70
     0
  9
$CHAMFERA
 40
0.0
  9
$CHAMFERB
 40
0.0
  9
$SKPOLY
 70
     0
  9
$TDCREATE
 40
2449631.7321383101
  9
$TDUPDATE
 40
2453443.571419803
  9
$TDINDWG
 40
0.0042570255
  9
$TDUSRTIMER
 40
0.0042570255
  9
$USRTIMER
 70
     1
  9
$ANGBASE
 50
0.0
  9
$ANGDIR
 70
     0
  9
$PDMODE
 70
     0
  9
$PDSIZE
 40
0.0
  9
$PLINEWID
 40
0.0
  9
$COORDS
 70
     1
  9
$SPLFRAME
 70
     0
  9
$SPLINETYPE
 70
     6
  9
$SPLINESEGS
 70
     8
  9
$ATTDIA
 70
     0
  9
$ATTREQ
 70
     1
  9
$HANDLING
 70
     1
  9
$HANDSEED
  5
A7
  9
$SURFTAB1
 70
     6
  9
$SURFTAB2
 70
     6
  9
$SURFTYPE
 70
     6
  9
$SURFU
 70
     6
  9
$SURFV
 70
     6
  9
$UCSNAME
  2

  9
$UCSORG
 10
0.0
 20
0.0
 30
0.0
  9
$UCSXDIR
 10
1.0
 20
0.0
 30
0.0
  9
$UCSYDIR
 10
0.0
 20
1.0
 30
0.0
  9
$PUCSNAME
  2

  9
$PUCSORG
 10
0.0
 20
0.0
 30
0.0
  9
$PUCSXDIR
 10
1.0
 20
0.0
 30
0.0
  9
$PUCSYDIR
 10
0.0
 20
1.0
 30
0.0
  9
$USERI1
 70
     0
  9
$USERI2
 70
     0
  9
$USERI3
 70
     0
  9
$USERI4
 70
     0
  9
$USERI5
 70
     0
  9
$USERR1
 40
0.0
  9
$USERR2
 40
0.0
  9
$USERR3
 40
0.0
  9
$USERR4
 40
0.0
  9
$USERR5
 40
0.0
  9
$WORLDVIEW
 70
     1
  9
$SHADEDGE
 70
     3
  9
$SHADEDIF
 70
    70
  9
$TILEMODE
 70
     1
  9
$MAXACTVP
 70
    16
  9
$PLIMCHECK
 70
     0
  9
$PEXTMIN
 10
1.0000000000000000E+020
 20
1.0000000000000000E+020
 30
1.0000000000000000E+020
  9
$PEXTMAX
 10
-1.0000000000000000E+020
 20
-1.0000000000000000E+020
 30
-1.0000000000000000E+020
  9
$PLIMMIN
 10
0.0
 20
0.0
  9
$PLIMMAX
 10
12.0
 20
9.0
  9
$UNITMODE
 70
     0
  9
$VISRETAIN
 70
     0
  9
$PLINEGEN
 70
     0
  9
$PSLTSCALE
 70
     1
  0
ENDSEC
  0
SECTION
  2
TABLES
  0
TABLE
  2
VPORT
 70
     2
  0
VPORT
  2
*ACTIVE
 70
     0
 10
0.0
 20
0.0
 11
1.0
 21
1.0
 12
129.57701388671489
 22
-44.408886494876462
 13
0.0
 23
0.0
 14
1.0
 24
1.0
 15
0.0
 25
0.0
 16
0.0
 26
0.0
 36
1.0
 17
0.0
 27
0.0
 37
0.0
 40
523.61372571370509
 41
1.4993646759847521
 42
50.0
 43
0.0
 44
0.0
 50
0.0
 51
0.0
 71
     0
 72
   100
 73
     1
 74
     1
 75
     0
 76
     0
 77
     0
 78
     0
  0
ENDTAB
  0
TABLE
  2
LTYPE
 70
     1
  0
LTYPE
  2
CONTINUOUS
 70
     0
  3
Solid line
 72
    65
 73
     0
 40
0.0
  0
ENDTAB
  0
TABLE
  2
LAYER
 70
     1
  0
LAYER
  2
0
 70
     0
 62
     7
  6
CONTINUOUS
  0
ENDTAB
  0
TABLE
  2
STYLE
 70
     2
  0
STYLE
  2
STANDARD
 70
     0
 40
0.0
 41
1.0
 50
0.0
 71
     0
 42
0.2
  3
txt
  4

  0
STYLE
  2
SST
 70
     0
 40
0.0
 41
1.0
 50
0.0
 71
     0
 42
3.5
  3
romans.shx
  4

  0
ENDTAB
  0
TABLE
  2
VIEW
 70
     0
  0
ENDTAB
  0
TABLE
  2
UCS
 70
     0
  0
ENDTAB
  0
TABLE
  2
APPID
 70
     1
  0
APPID
  2
ACAD
 70
     0
  0
ENDTAB
  0
TABLE
  2
DIMSTYLE
 70
     1
  0
DIMSTYLE
  2
STANDARD
 70
     0
  3

  4

  5

  6

  7

 40
1.0
 41
0.18
 42
0.0625
 43
0.38
 44
0.18
 45
0.0
 46
0.0
 47
0.0
 48
0.0
140
0.18
141
0.09
142
0.0
143
25.399999999999999
144
1.0
145
0.0
146
1.0
147
0.09
 71
     0
 72
     0
 73
     1
 74
     1
 75
     0
 76
     0
 77
     0
 78
     0
170
     0
171
     2
172
     0
173
     0
174
     0
175
     0
176
     0
177
     0
178
     0
  0
ENDTAB
  0
ENDSEC
  0
SECTION
  2
BLOCKS
  0
BLOCK
  8
0
  2
$MODEL_SPACE
 70
     0
 10
0.0
 20
0.0
 30
0.0
  3
$MODEL_SPACE
  1

  0
ENDBLK
  5
9
  8
0
  0
BLOCK
 67
     1
  8
0
  2
$PAPER_SPACE
 70
     0
 10
0.0
 20
0.0
 30
0.0
  3
$PAPER_SPACE
  1

  0
ENDBLK
  5
E
 67
     1
  8
0
  0
ENDSEC
  0
SECTION
  2
ENTITIES
  0
LINE
  5
29
  8
0
 10
15.845984220504761
 20
8.6996555328369141
 30
0.0
 11
16.696721315383911
 21
8.6996555328369141
 31
0.0
  0
LINE
  5
2A
  8
0
 10
14.647215604782099
 20
0.0
 30
0.0
 11
15.845984220504761
 21
8.6996555328369141
 31
0.0
  0
LINE
  5
2B
  8
0
 10
15.845984220504761
 20
8.6996555328369141
 30
0.0
 11
17.044693231582642
 21
0.0
 31
0.0
  0
LINE
  5
2C
  8
0
 10
24.795204401016228
 20
8.6996555328369141
 30
0.0
 11
25.64644813537598
 21
8.6996555328369141
 31
0.0
  0
LINE
  5
2D
  8
0
 10
23.596137762069699
 20
0.0
 30
0.0
 11
24.795204401016228
 21
8.6996555328369141
 31
0.0
  0
LINE
  5
2E
  8
0
 10
24.446874856948849
 20
0.0
 30
0.0
 11
25.64644813537598
 21
8.6996555328369141
 31
0.0
  0
LINE
  5
2F
  8
0
 10
25.6456732749939
 20
8.6996555328369141
 30
0.0
 11
26.845276355743412
 21
0.0
 31
0.0
  0
LINE
  5
30
  8
0
 10
16.696661710739129
 20
8.6996555328369141
 30
0.0
 11
17.89644360542297
 21
0.0
 31
0.0
  0
LINE
  5
31
  8
0
 10
2.649158239364624
 20
8.6996555328369141
 30
0.0
 11
3.271698951721191
 21
8.6996555328369141
 31
0.0
  0
LINE
  5
32
  8
0
 10
0.5182027816772461
 20
2.7998089790344229
 30
0.0
 11
2.649158239364624
 21
8.6996555328369141
 31
0.0
  0
LINE
  5
33
  8
0
 10
2.649158239364624
 20
8.6996555328369141
 30
0.0
 11
5.2275359630584708
 21
2.7998089790344229
 31
0.0
  0
LINE
  5
34
  8
0
 10
3.271698951721191
 20
8.6996555328369141
 30
0.0
 11
5.8501362800598136
 21
2.7998089790344229
 31
0.0
  0
LINE
  5
35
  8
0
 10
-11.258602142333981
 20
8.6996555328369141
 30
0.0
 11
-11.03052496910095
 21
8.6996555328369141
 31
0.0
  0
LINE
  5
36
  8
0
 10
-15.732660889625549
 20
0.0
 30
0.0
 11
-11.258602142333981
 21
8.6996555328369141
 31
0.0
  0
LINE
  5
37
  8
0
 10
-11.258602142333981
 20
8.6996555328369141
 30
0.0
 11
-7.300555706024169
 21
0.770866870880127
 31
0.0
  0
LINE
  5
38
  8
0
 10
-25.007963180541989
 20
3.1245946884155269
 30
0.0
 11
-22.378087043762211
 21
8.6996555328369141
 31
0.0
  0
LINE
  5
39
  8
0
 10
-22.378087043762211
 20
8.6996555328369141
 30
0.0
 11
-22.149413824081421
 21
8.6996555328369141
 31
0.0
  0
LINE
  5
3A
  8
0
 10
-24.918720126152039
 20
2.8876066207885742
 30
0.0
 11
-22.149413824081421
 21
8.6996555328369141
 31
0.0
  0
LINE
  5
3B
  8
0
 10
-22.149413824081421
 20
8.6996555328369141
 30
0.0
 11
-17.675027251243591
 21
0.0
 31
0.0
  0
LINE
  5
3C
  8
0
 10
-27.106910943984978
 20
8.6996555328369141
 30
0.0
 11
-23.831635713577271
 21
0.0
 31
0.0
  0
LINE
  5
3D
  8
0
 10
-31.000569462776181
 20
0.0044107437133789
 30
0.0
 11
-27.727231383323669
 21
8.6996555328369141
 31
0.0
  0
LINE
  5
3E
  8
0
 10
-27.730867266654968
 20
8.6996555328369141
 30
0.0
 11
-27.106910943984978
 21
8.6996555328369141
 31
0.0
  0
LINE
  5
3F
  8
0
 10
-27.106910943984978
 20
8.6996555328369141
 30
0.0
 11
-30.382245779037479
 21
0.0
 31
0.0
  0
LINE
  5
40
  8
0
 10
-31.000569462776181
 20
0.0
 30
0.0
 11
-31.000569462776181
 21
-1.200258731842041
 31
0.0
  0
LINE
  5
41
  8
0
 10
30.99918365478516
 20
0.0
 30
0.0
 11
30.99918365478516
 21
-1.200258731842041
 31
0.0
  0
LINE
  5
42
  8
0
 10
-7.2993636131286621
 20
2.7998089790344229
 30
0.0
 11
7.2993636131286621
 21
2.7998089790344229
 31
0.0
  0
LINE
  5
43
  8
0
 10
7.2994530200958252
 20
2.7998089790344229
 30
0.0
 11
7.2994530200958252
 21
0.0
 31
0.0
  0
LINE
  5
44
  8
0
 10
6.0993432998657218
 20
2.7998089790344229
 30
0.0
 11
6.0993432998657218
 21
-1.20013952255249
 31
0.0
  0
LINE
  5
45
  8
0
 10
-6.1006844043731681
 20
2.7998089790344229
 30
0.0
 11
-6.1006844043731681
 21
-1.20013952255249
 31
0.0
  0
LINE
  5
46
  8
0
 10
-31.000629067420959
 20
0.0
 30
0.0
 11
-7.300555706024169
 21
0.0
 31
0.0
  0
LINE
  5
47
  8
0
 10
-31.000569462776181
 20
-1.20013952255249
 30
0.0
 11
30.99918365478516
 21
-1.200258731842041
 31
0.0
  0
LINE
  5
48
  8
0
 10
30.99918365478516
 20
0.0
 30
0.0
 11
7.2994530200958252
 21
0.0
 31
0.0
  0
LINE
  5
49
  8
0
 10
-7.300555706024169
 20
2.7998089790344229
 30
0.0
 11
-7.300555706024169
 21
0.0
 31
0.0
  0
LINE
  5
4A
  8
0
 62
     8
 39
0.7831579423509539
 10
30.99918365478516
 20
-1.200258731842041
 30
0.0
 11
30.118167400360111
 21
0.0
 31
0.0
  0
LINE
  5
4B
  8
0
 62
     8
 39
0.7831579423509539
 10
30.250132083892819
 20
-1.200258731842041
 30
0.0
 11
29.369086027145379
 21
0.0
 31
0.0
  0
LINE
  5
4C
  8
0
 62
     8
 39
0.7831579423509539
 10
29.501050710678101
 20
-1.200258731842041
 30
0.0
 11
28.620064258575439
 21
0.0
 31
0.0
  0
LINE
  5
4D
  8
0
 62
     8
 39
0.7831579423509539
 10
28.752028942108151
 20
-1.200258731842041
 30
0.0
 11
27.870982885360721
 21
0.0
 31
0.0
  0
LINE
  5
4E
  8
0
 62
     8
 39
0.7831579423509539
 10
28.003007173538212
 20
-1.200258731842041
 30
0.0
 11
27.12193131446838
 21
0.0
 31
0.0
  0
LINE
  5
4F
  8
0
 62
     8
 39
0.7831579423509539
 10
27.25392580032349
 20
-1.200258731842041
 30
0.0
 11
26.372849941253659
 21
0.0
 31
0.0
  0
LINE
  5
50
  8
0
 62
     8
 39
0.7831579423509539
 10
26.504874229431149
 20
-1.200258731842041
 30
0.0
 11
25.623828172683719
 21
0.0
 31
0.0
  0
LINE
  5
51
  8
0
 62
     8
 39
0.7831579423509539
 10
25.755792856216431
 20
-1.200258731842041
 30
0.0
 11
24.87480640411377
 21
0.0
 31
0.0
  0
LINE
  5
52
  8
0
 62
     8
 39
0.7831579423509539
 10
25.006771087646481
 20
-1.200258731842041
 30
0.0
 11
24.125725030899051
 21
0.0
 31
0.0
  0
LINE
  5
53
  8
0
 62
     8
 39
0.7831579423509539
 10
24.257689714431759
 20
-1.200258731842041
 30
0.0
 11
23.37667346000671
 21
0.0
 31
0.0
  0
LINE
  5
54
  8
0
 62
     8
 39
0.7831579423509539
 10
23.508638143539422
 20
-1.200258731842041
 30
0.0
 11
22.627592086791989
 21
0.0
 31
0.0
  0
LINE
  5
55
  8
0
 62
     8
 39
0.7831579423509539
 10
22.7595567703247
 20
-1.200258731842041
 30
0.0
 11
21.878570318222039
 21
0.0
 31
0.0
  0
LINE
  5
56
  8
0
 62
     8
 39
0.7831579423509539
 10
22.010475397109978
 20
-1.200258731842041
 30
0.0
 11
21.129488945007321
 21
0.0
 31
0.0
  0
LINE
  5
57
  8
0
 62
     8
 39
0.7831579423509539
 10
21.261453628540028
 20
-1.200258731842041
 30
0.0
 11
20.380407571792599
 21
0.0
 31
0.0
  0
LINE
  5
58
  8
0
 62
     8
 39
0.7831579423509539
 10
20.51237225532531
 20
-1.200258731842041
 30
0.0
 11
19.631356000900261
 21
0.0
 31
0.0
  0
LINE
  5
59
  8
0
 62
     8
 39
0.7831579423509539
 10
19.76332068443298
 20
-1.200258731842041
 30
0.0
 11
18.88227462768554
 21
0.0
 31
0.0
  0
LINE
  5
5A
  8
0
 62
     8
 39
0.7831579423509539
 10
19.01429891586303
 20
-1.200258731842041
 30
0.0
 11
18.133252859115601
 21
0.0
 31
0.0
  0
LINE
  5
5B
  8
0
 62
     8
 39
0.7831579423509539
 10
18.265217542648308
 20
-1.200258731842041
 30
0.0
 11
17.384171485900868
 21
0.0
 31
0.0
  0
LINE
  5
5C
  8
0
 62
     8
 39
0.7831579423509539
 10
17.516195774078358
 20
-1.200258731842041
 30
0.0
 11
16.635119915008541
 21
0.0
 31
0.0
  0
LINE
  5
5D
  8
0
 62
     8
 39
0.7831579423509539
 10
16.76711440086364
 20
-1.200258731842041
 30
0.0
 11
15.88609814643859
 21
0.0
 31
0.0
  0
LINE
  5
5E
  8
0
 62
     8
 39
0.7831579423509539
 10
16.01806282997131
 20
-1.200258731842041
 30
0.0
 11
15.13701677322387
 21
0.0
 31
0.0
  0
LINE
  5
5F
  8
0
 62
     8
 39
0.7831579423509539
 10
15.26898145675659
 20
-1.200258731842041
 30
0.0
 11
14.387995004653931
 21
0.0
 31
0.0
  0
LINE
  5
60
  8
0
 62
     8
 39
0.7831579423509539
 10
14.51995968818664
 20
-1.200258731842041
 30
0.0
 11
13.6389136314392
 21
0.0
 31
0.0
  0
LINE
  5
61
  8
0
 62
     8
 39
0.7831579423509539
 10
13.77090811729431
 20
-1.200258731842041
 30
0.0
 11
12.88986206054687
 21
0.0
 31
0.0
  0
LINE
  5
62
  8
0
 62
     8
 39
0.7831579423509539
 10
13.021826744079579
 20
-1.200258731842041
 30
0.0
 11
12.14078068733215
 21
0.0
 31
0.0
  0
LINE
  5
63
  8
0
 62
     8
 39
0.7831579423509539
 10
12.272745370864859
 20
-1.200258731842041
 30
0.0
 11
11.3917589187622
 21
0.0
 31
0.0
  0
LINE
  5
64
  8
0
 62
     8
 39
0.7831579423509539
 10
11.523663997650139
 20
-1.200258731842041
 30
0.0
 11
10.64267754554748
 21
0.0
 31
0.0
  0
LINE
  5
65
  8
0
 62
     8
 39
0.7831579423509539
 10
10.7746422290802
 20
-1.200258731842041
 30
0.0
 11
9.8935961723327601
 21
0.0
 31
0.0
  0
LINE
  5
66
  8
0
 62
     8
 39
0.7831579423509539
 10
10.02556085586547
 20
-1.200258731842041
 30
0.0
 11
9.1445446014404261
 21
0.0
 31
0.0
  0
LINE
  5
67
  8
0
 62
     8
 39
0.7831579423509539
 10
7.2994530200958252
 20
2.513587474822998
 30
0.0
 11
7.0894062519073477
 21
2.7998089790344229
 31
0.0
  0
LINE
  5
68
  8
0
 62
     8
 39
0.7831579423509539
 10
9.2765092849731392
 20
-1.200258731842041
 30
0.0
 11
8.3955228328704798
 21
0.0
 31
0.0
  0
LINE
  5
69
  8
0
 62
     8
 39
0.7831579423509539
 10
7.2994530200958252
 20
1.4930367469787591
 30
0.0
 11
6.3402056694030762
 21
2.7998089790344229
 31
0.0
  0
LINE
  5
6A
  8
0
 62
     8
 39
0.7831579423509539
 10
-7.5344741344451904
 20
-1.200258731842041
 30
0.0
 11
-8.4155201911926252
 21
0.0
 31
0.0
  0
LINE
  5
6B
  8
0
 62
     8
 39
0.7831579423509539
 10
-8.2834959030151367
 20
-1.200258731842041
 30
0.0
 11
-9.1645419597625732
 21
0.0
 31
0.0
  0
LINE
  5
6C
  8
0
 62
     8
 39
0.7831579423509539
 10
-9.0325474739074707
 20
-1.200258731842041
 30
0.0
 11
-9.9135339260101318
 21
0.0
 31
0.0
  0
LINE
  5
6D
  8
0
 62
     8
 39
0.7831579423509539
 10
-9.7815096378326416
 20
-1.200258731842041
 30
0.0
 11
-10.66258549690246
 21
0.0
 31
0.0
  0
LINE
  5
6E
  8
0
 62
     8
 39
0.7831579423509539
 10
-10.53059101104736
 20
-1.200258731842041
 30
0.0
 11
-11.41160726547241
 21
0.0
 31
0.0
  0
LINE
  5
6F
  8
0
 62
     8
 39
0.7831579423509539
 10
-11.27964258193969
 20
-1.200258731842041
 30
0.0
 11
-12.16062903404236
 21
0.0
 31
0.0
  0
LINE
  5
70
  8
0
 62
     8
 39
0.7831579423509539
 10
-12.028634548187251
 20
-1.200258731842041
 30
0.0
 11
-12.909680604934691
 21
0.0
 31
0.0
  0
LINE
  5
71
  8
0
 62
     8
 39
0.7831579423509539
 10
-12.7776563167572
 20
-1.200258731842041
 30
0.0
 11
-13.65870237350464
 21
0.0
 31
0.0
  0
LINE
  5
72
  8
0
 62
     8
 39
0.7831579423509539
 10
-13.526648283004761
 20
-1.200258731842041
 30
0.0
 11
-14.40769433975219
 21
0.0
 31
0.0
  0
LINE
  5
73
  8
0
 62
     8
 39
0.7831579423509539
 10
-14.275729656219481
 20
-1.200258731842041
 30
0.0
 11
-15.15673100948333
 21
0.0
 31
0.0
  0
LINE
  5
74
  8
0
 62
     8
 39
0.7831579423509539
 10
-15.02475142478943
 20
-1.200258731842041
 30
0.0
 11
-15.90575277805328
 21
0.0
 31
0.0
  0
LINE
  5
75
  8
0
 62
     8
 39
0.7831579423509539
 10
-15.77374339103698
 20
-1.200258731842041
 30
0.0
 11
-16.65478944778442
 21
0.0
 31
0.0
  0
LINE
  5
76
  8
0
 62
     8
 39
0.7831579423509539
 10
-16.52278006076812
 20
-1.200258731842041
 30
0.0
 11
-17.40382611751556
 21
0.0
 31
0.0
  0
LINE
  5
77
  8
0
 62
     8
 39
0.7831579423509539
 10
-17.27181673049926
 20
-1.200258731842041
 30
0.0
 11
-18.152818083763119
 21
0.0
 31
0.0
  0
LINE
  5
78
  8
0
 62
     8
 39
0.7831579423509539
 10
-18.02083849906921
 20
-1.200258731842041
 30
0.0
 11
-18.901899456977841
 21
0.0
 31
0.0
  0
LINE
  5
79
  8
0
 62
     8
 39
0.7831579423509539
 10
-18.76987516880035
 20
-1.200258731842041
 30
0.0
 11
-19.650921225547791
 21
0.0
 31
0.0
  0
LINE
  5
7A
  8
0
 62
     8
 39
0.7831579423509539
 10
-19.518911838531491
 20
-1.200258731842041
 30
0.0
 11
-20.399913191795349
 21
0.0
 31
0.0
  0
LINE
  5
7B
  8
0
 62
     8
 39
0.7831579423509539
 10
-20.267888903617859
 20
-1.200258731842041
 30
0.0
 11
-21.148949861526489
 21
0.0
 31
0.0
  0
LINE
  5
7C
  8
0
 62
     8
 39
0.7831579423509539
 10
-21.016925573348999
 20
-1.200258731842041
 30
0.0
 11
-21.89792692661285
 21
0.0
 31
0.0
  0
LINE
  5
7D
  8
0
 62
     8
 39
0.7831579423509539
 10
-21.765962243080139
 20
-1.200258731842041
 30
0.0
 11
-22.647008299827579
 21
0.0
 31
0.0
  0
LINE
  5
7E
  8
0
 62
     8
 39
0.7831579423509539
 10
-22.514998912811279
 20
-1.200258731842041
 30
0.0
 11
-23.396044969558719
 21
0.0
 31
0.0
  0
LINE
  5
7F
  8
0
 62
     8
 39
0.7831579423509539
 10
-23.264035582542419
 20
-1.200258731842041
 30
0.0
 11
-24.145036935806271
 21
0.0
 31
0.0
  0
LINE
  5
80
  8
0
 62
     8
 39
0.7831579423509539
 10
-24.013012647628781
 20
-1.200258731842041
 30
0.0
 11
-24.894073605537411
 21
0.0
 31
0.0
  0
LINE
  5
81
  8
0
 62
     8
 39
0.7831579423509539
 10
-24.762094020843509
 20
-1.200258731842041
 30
0.0
 11
-25.643095374107361
 21
0.0
 31
0.0
  0
LINE
  5
82
  8
0
 62
     8
 39
0.7831579423509539
 10
-25.51113069057465
 20
-1.200258731842041
 30
0.0
 11
-26.392132043838501
 21
0.0
 31
0.0
  0
LINE
  5
83
  8
0
 62
     8
 39
0.7831579423509539
 10
-26.260122656822201
 20
-1.200258731842041
 30
0.0
 11
-27.141168713569641
 21
0.0
 31
0.0
  0
LINE
  5
84
  8
0
 62
     8
 39
0.7831579423509539
 10
-27.009144425392151
 20
-1.200258731842041
 30
0.0
 11
-27.890205383300781
 21
0.0
 31
0.0
  0
LINE
  5
85
  8
0
 62
     8
 39
0.7831579423509539
 10
-27.758136391639709
 20
-1.200258731842041
 30
0.0
 11
-28.639182448387139
 21
0.0
 31
0.0
  0
LINE
  5
86
  8
0
 62
     8
 39
0.7831579423509539
 10
-28.507217764854431
 20
-1.200258731842041
 30
0.0
 11
-29.388219118118279
 21
0.0
 31
0.0
  0
LINE
  5
87
  8
0
 62
     8
 39
0.7831579423509539
 10
-29.256254434585571
 20
-1.200258731842041
 30
0.0
 11
-30.13725578784943
 21
0.0
 31
0.0
  0
LINE
  5
88
  8
0
 62
     8
 39
0.7831579423509539
 10
-30.00523149967194
 20
-1.200258731842041
 30
0.0
 11
-30.88629245758057
 21
0.0
 31
0.0
  0
LINE
  5
89
  8
0
 62
     8
 39
0.7831579423509539
 10
-30.75426816940308
 20
-1.200258731842041
 30
0.0
 11
-31.000569462776181
 21
-0.9538531303405761
 31
0.0
  0
LINE
  5
8A
  8
0
 10
-11.03052496910095
 20
8.6996555328369141
 30
0.0
 11
-7.300555706024169
 21
1.227796077728271
 31
0.0
  0
LINE
  5
8B
  8
0
 62
     8
 39
0.7831579423509539
 10
8.5274875164031947
 20
-1.200258731842041
 30
0.0
 11
7.6464414596557582
 21
0.0
 31
0.0
  0
LINE
  5
8C
  8
0
 62
     8
 39
0.7831579423509539
 10
7.2994530200958252
 20
0.4726052284240723
 30
0.0
 11
6.0993432998657218
 21
2.1075010299682608
 31
0.0
  0
LINE
  5
8D
  8
0
 62
     8
 39
0.7831579423509539
 10
7.7784657478332484
 20
-1.200258731842041
 30
0.0
 11
6.0993432998657218
 21
1.0871291160583489
 31
0.0
  0
LINE
  5
8E
  8
0
 62
     8
 39
0.7831579423509539
 10
7.0294141769409171
 20
-1.200258731842041
 30
0.0
 11
6.0993432998657218
 21
0.0668168067932129
 31
0.0
  0
LINE
  5
8F
  8
0
 62
     8
 39
0.7831579423509539
 10
-6.7854225635528556
 20
-1.200258731842041
 30
0.0
 11
-7.6664984226226798
 21
0.0
 31
0.0
  0
LINE
  5
90
  8
0
 62
     8
 39
0.7831579423509539
 10
-6.0364007949829102
 20
-1.200258731842041
 30
0.0
 11
-7.300555706024169
 21
0.521838665008545
 31
0.0
  0
LINE
  5
91
  8
0
 62
     8
 39
0.7831579423509539
 10
-6.1006844043731681
 20
-0.0922679901123047
 30
0.0
 11
-7.300555706024169
 21
1.542150974273681
 31
0.0
  0
LINE
  5
92
  8
0
 62
     8
 39
0.7831579423509539
 10
-6.1006844043731681
 20
0.928044319152832
 30
0.0
 11
-7.300555706024169
 21
2.5625228881835929
 31
0.0
  0
LINE
  5
93
  8
0
 62
     8
 39
0.7831579423509539
 10
-6.1006844043731681
 20
1.9484162330627439
 30
0.0
 11
-6.7256391048431388
 21
2.7998089790344229
 31
0.0
  0
ENDSEC
  0
EOF
