  0
SECTION
  2
HEADER
  9
$ACADVER
  1
AC1009
  9
$INSBASE
 10
0.0
 20
0.0
 30
0.0
  9
$EXTMIN
 10
-58.657526969909668
 20
-58.657526969909661
 30
0.0
  9
$EXTMAX
 10
58.65740776062011
 20
58.657646179199219
 30
728.47274888772506
  9
$LIMMIN
 10
0.0
 20
0.0
  9
$LIMMAX
 10
12.0
 20
9.0
  9
$ORTHOMODE
 70
     0
  9
$REGENMODE
 70
     1
  9
$FILLMODE
 70
     1
  9
$QTEXTMODE
 70
     0
  9
$MIRRTEXT
 70
     0
  9
$DRAGMODE
 70
     2
  9
$LTSCALE
 40
1.0
  9
$OSMODE
 70
    47
  9
$ATTMODE
 70
     1
  9
$TEXTSIZE
 40
3.5
  9
$TRACEWID
 40
0.05
  9
$TEXTSTYLE
  7
SST
  9
$CLAYER
  8
0
  9
$CELTYPE
  6
BYLAYER
  9
$CECOLOR
 62
   256
  9
$DIMSCALE
 40
1.0
  9
$DIMASZ
 40
0.18
  9
$DIMEXO
 40
0.0625
  9
$DIMDLI
 40
0.38
  9
$DIMRND
 40
0.0
  9
$DIMDLE
 40
0.0
  9
$DIMEXE
 40
0.18
  9
$DIMTP
 40
0.0
  9
$DIMTM
 40
0.0
  9
$DIMTXT
 40
0.18
  9
$DIMCEN
 40
0.09
  9
$DIMTSZ
 40
0.0
  9
$DIMTOL
 70
     0
  9
$DIMLIM
 70
     0
  9
$DIMTIH
 70
     1
  9
$DIMTOH
 70
     1
  9
$DIMSE1
 70
     0
  9
$DIMSE2
 70
     0
  9
$DIMTAD
 70
     0
  9
$DIMZIN
 70
     0
  9
$DIMBLK
  1

  9
$DIMASO
 70
     1
  9
$DIMSHO
 70
     1
  9
$DIMPOST
  1

  9
$DIMAPOST
  1

  9
$DIMALT
 70
     0
  9
$DIMALTD
 70
     2
  9
$DIMALTF
 40
25.399999999999999
  9
$DIMLFAC
 40
1.0
  9
$DIMTOFL
 70
     0
  9
$DIMTVP
 40
0.0
  9
$DIMTIX
 70
     0
  9
$DIMSOXD
 70
     0
  9
$DIMSAH
 70
     0
  9
$DIMBLK1
  1

  9
$DIMBLK2
  1

  9
$DIMSTYLE
  2
STANDARD
  9
$DIMCLRD
 70
     0
  9
$DIMCLRE
 70
     0
  9
$DIMCLRT
 70
     0
  9
$DIMTFAC
 40
1.0
  9
$DIMGAP
 40
0.09
  9
$LUNITS
 70
     2
  9
$LUPREC
 70
     0
  9
$SKETCHINC
 40
0.1
  9
$FILLETRAD
 40
0.0
  9
$AUNITS
 70
     0
  9
$AUPREC
 70
     0
  9
$MENU
  1
acad
  9
$ELEVATION
 40
0.0
  9
$PELEVATION
 40
0.0
  9
$THICKNESS
 40
0.0
  9
$LIMCHECK
 70
     0
  9
$BLIPMODE
 70
     0
  9
$CHAMFERA
 40
0.0
  9
$CHAMFERB
 40
0.0
  9
$SKPOLY
 70
     0
  9
$TDCREATE
 40
2449631.7321383101
  9
$TDUPDATE
 40
2453443.571550556
  9
$TDINDWG
 40
0.0188842477
  9
$TDUSRTIMER
 40
0.0188842477
  9
$USRTIMER
 70
     1
  9
$ANGBASE
 50
0.0
  9
$ANGDIR
 70
     0
  9
$PDMODE
 70
     0
  9
$PDSIZE
 40
0.0
  9
$PLINEWID
 40
0.0
  9
$COORDS
 70
     1
  9
$SPLFRAME
 70
     0
  9
$SPLINETYPE
 70
     6
  9
$SPLINESEGS
 70
     8
  9
$ATTDIA
 70
     0
  9
$ATTREQ
 70
     1
  9
$HANDLING
 70
     1
  9
$HANDSEED
  5
FE
  9
$SURFTAB1
 70
     6
  9
$SURFTAB2
 70
     6
  9
$SURFTYPE
 70
     6
  9
$SURFU
 70
     6
  9
$SURFV
 70
     6
  9
$UCSNAME
  2

  9
$UCSORG
 10
0.0
 20
0.0
 30
0.0
  9
$UCSXDIR
 10
1.0
 20
0.0
 30
0.0
  9
$UCSYDIR
 10
0.0
 20
1.0
 30
0.0
  9
$PUCSNAME
  2

  9
$PUCSORG
 10
0.0
 20
0.0
 30
0.0
  9
$PUCSXDIR
 10
1.0
 20
0.0
 30
0.0
  9
$PUCSYDIR
 10
0.0
 20
1.0
 30
0.0
  9
$USERI1
 70
     0
  9
$USERI2
 70
     0
  9
$USERI3
 70
     0
  9
$USERI4
 70
     0
  9
$USERI5
 70
     0
  9
$USERR1
 40
0.0
  9
$USERR2
 40
0.0
  9
$USERR3
 40
0.0
  9
$USERR4
 40
0.0
  9
$USERR5
 40
0.0
  9
$WORLDVIEW
 70
     1
  9
$SHADEDGE
 70
     3
  9
$SHADEDIF
 70
    70
  9
$TILEMODE
 70
     1
  9
$MAXACTVP
 70
    16
  9
$PLIMCHECK
 70
     0
  9
$PEXTMIN
 10
1.0000000000000000E+020
 20
1.0000000000000000E+020
 30
1.0000000000000000E+020
  9
$PEXTMAX
 10
-1.0000000000000000E+020
 20
-1.0000000000000000E+020
 30
-1.0000000000000000E+020
  9
$PLIMMIN
 10
0.0
 20
0.0
  9
$PLIMMAX
 10
12.0
 20
9.0
  9
$UNITMODE
 70
     0
  9
$VISRETAIN
 70
     0
  9
$PLINEGEN
 70
     0
  9
$PSLTSCALE
 70
     1
  0
ENDSEC
  0
SECTION
  2
TABLES
  0
TABLE
  2
VPORT
 70
     2
  0
VPORT
  2
*ACTIVE
 70
     0
 10
0.0
 20
0.0
 11
1.0
 21
1.0
 12
178.97846981432639
 22
13.257452752915521
 13
0.0
 23
0.0
 14
1.0
 24
1.0
 15
0.0
 25
0.0
 16
0.0
 26
0.0
 36
1.0
 17
0.0
 27
0.0
 37
0.0
 40
639.38317796830154
 41
1.4993646759847521
 42
50.0
 43
0.0
 44
0.0
 50
0.0
 51
0.0
 71
     0
 72
   100
 73
     1
 74
     1
 75
     0
 76
     0
 77
     0
 78
     0
  0
ENDTAB
  0
TABLE
  2
LTYPE
 70
     1
  0
LTYPE
  2
CONTINUOUS
 70
     0
  3
Solid line
 72
    65
 73
     0
 40
0.0
  0
ENDTAB
  0
TABLE
  2
LAYER
 70
     1
  0
LAYER
  2
0
 70
     0
 62
     7
  6
CONTINUOUS
  0
ENDTAB
  0
TABLE
  2
STYLE
 70
     2
  0
STYLE
  2
STANDARD
 70
     0
 40
0.0
 41
1.0
 50
0.0
 71
     0
 42
0.2
  3
txt
  4

  0
STYLE
  2
SST
 70
     0
 40
0.0
 41
1.0
 50
0.0
 71
     0
 42
3.5
  3
romans.shx
  4

  0
ENDTAB
  0
TABLE
  2
VIEW
 70
     0
  0
ENDTAB
  0
TABLE
  2
UCS
 70
     0
  0
ENDTAB
  0
TABLE
  2
APPID
 70
     1
  0
APPID
  2
ACAD
 70
     0
  0
ENDTAB
  0
TABLE
  2
DIMSTYLE
 70
     1
  0
DIMSTYLE
  2
STANDARD
 70
     0
  3

  4

  5

  6

  7

 40
1.0
 41
0.18
 42
0.0625
 43
0.38
 44
0.18
 45
0.0
 46
0.0
 47
0.0
 48
0.0
140
0.18
141
0.09
142
0.0
143
25.399999999999999
144
1.0
145
0.0
146
1.0
147
0.09
 71
     0
 72
     0
 73
     1
 74
     1
 75
     0
 76
     0
 77
     0
 78
     0
170
     0
171
     2
172
     0
173
     0
174
     0
175
     0
176
     0
177
     0
178
     0
  0
ENDTAB
  0
ENDSEC
  0
SECTION
  2
BLOCKS
  0
BLOCK
  8
0
  2
$MODEL_SPACE
 70
     0
 10
0.0
 20
0.0
 30
0.0
  3
$MODEL_SPACE
  1

  0
ENDBLK
  5
9
  8
0
  0
BLOCK
 67
     1
  8
0
  2
$PAPER_SPACE
 70
     0
 10
0.0
 20
0.0
 30
0.0
  3
$PAPER_SPACE
  1

  0
ENDBLK
  5
E
 67
     1
  8
0
  0
BLOCK
  8
0
  2
SIMPSON-STRONG-TIE
 70
     0
 10
0.0
 20
0.0
 30
0.0
  3
SIMPSON-STRONG-TIE
  1

  0
TEXT
  5
E7
  8
0
  6
CONTINUOUS
 10
-4.7318727780691416
 20
4.4215860385237811
 30
0.0
 40
2.0
  1
SIMPSON
 50
316.94148639091338
  7
SST
 72
     1
 11
0.0
 21
0.0
 31
0.0
  0
TEXT
  5
E8
  8
0
  6
CONTINUOUS
 10
-7.9648409725863862
 20
3.4769825481547749
 30
0.0
 40
2.0
  1
Strong-Tie
 50
316.94148639091338
  7
SST
 72
     1
 11
-2.0499999999999541
 21
-2.0499999999999541
 31
0.0
  0
ENDBLK
  5
E9
  8
0
  0
ENDSEC
  0
SECTION
  2
ENTITIES
  0
POINT
  5
29
  8
0
 10
0.0
 20
0.0
 30
0.0
  0
LINE
  5
2A
  8
0
 10
16.41750335693359
 20
-31.925678253173821
 30
727.27274894714355
 11
16.41750335693359
 21
-33.20264816284179
 31
727.27274894714355
  0
LINE
  5
2B
  8
0
 10
16.41750335693359
 20
-33.20264816284179
 30
727.27274894714355
 11
17.055988311767571
 21
-34.302949905395501
 31
727.27274894714355
  0
LINE
  5
2C
  8
0
 10
17.055988311767571
 20
-34.302949905395501
 30
727.27274894714355
 11
18.157601356506341
 21
-34.942865371704102
 31
727.27274894714355
  0
LINE
  5
2D
  8
0
 10
18.157601356506341
 20
-34.942865371704102
 30
727.27274894714355
 11
19.442200660705559
 21
-34.940004348754883
 31
727.27274894714355
  0
LINE
  5
2E
  8
0
 10
19.442200660705559
 20
-34.940004348754883
 30
727.27274894714355
 11
20.560622215271
 21
-34.302949905395501
 31
727.27274894714355
  0
LINE
  5
2F
  8
0
 10
20.560622215271
 20
-34.302949905395501
 30
727.27274894714355
 11
21.19505405426025
 21
-33.198356628417962
 31
727.27274894714355
  0
LINE
  5
30
  8
0
 10
21.19505405426025
 20
-33.198356628417962
 30
727.27274894714355
 11
21.192312240600589
 21
-31.92400932312011
 31
727.27274894714355
  0
LINE
  5
31
  8
0
 10
21.192312240600589
 20
-31.92400932312011
 30
727.27274894714355
 11
20.557761192321781
 21
-30.819416046142571
 31
727.27274894714355
  0
LINE
  5
32
  8
0
 10
20.557761192321781
 20
-30.819416046142571
 30
727.27274894714355
 11
19.452095031738281
 21
-30.18093109130859
 31
727.27274894714355
  0
LINE
  5
33
  8
0
 10
19.452095031738281
 20
-30.18093109130859
 30
727.27274894714355
 11
18.159151077270501
 21
-30.186653137207031
 31
727.27274894714355
  0
LINE
  5
34
  8
0
 10
18.175005912780762
 20
-30.18093109130859
 30
727.27274894714355
 11
17.08674430847168
 21
-30.802249908447259
 31
727.27274894714355
  0
LINE
  5
35
  8
0
 10
17.08674430847168
 20
-30.802249908447259
 30
727.27274894714355
 11
16.436100006103509
 21
-31.922578811645501
 31
727.27274894714355
  0
LINE
  5
36
  8
0
 10
-12.364029884338381
 20
46.136140823364258
 30
727.27274894714355
 11
0.0
 21
58.500289916992188
 31
727.27274894714355
  0
LINE
  5
37
  8
0
 10
12.371659278869631
 20
46.134233474731452
 30
727.27274894714355
 11
0.0097751617431641
 21
58.500289916992188
 31
727.27274894714355
  0
LINE
  5
38
  8
0
 10
-33.775806427001953
 20
33.773422241210952
 30
727.27274894714355
 11
-29.250264167785641
 21
50.662755966186531
 31
727.27274894714355
  0
LINE
  5
39
  8
0
 10
-12.352943420410149
 20
46.139240264892578
 30
727.27274894714355
 11
-29.24191951751709
 21
50.667762756347663
 31
727.27274894714355
  0
LINE
  5
3A
  8
0
 10
-46.137332916259759
 20
12.360334396362299
 30
727.27274894714355
 11
-50.662994384765632
 21
29.250144958496101
 31
727.27274894714355
  0
LINE
  5
3B
  8
0
 10
-33.7677001953125
 20
33.781290054321303
 30
727.27274894714355
 11
-50.65810680389405
 21
29.258489608764659
 31
727.27274894714355
  0
LINE
  5
3C
  8
0
 10
-46.13649845123291
 20
-12.36414909362793
 30
727.27274894714355
 11
-58.500409126281738
 21
0.0
 31
727.27274894714355
  0
LINE
  5
3D
  8
0
 10
-46.13447189331054
 20
12.37154006958008
 30
727.27274894714355
 11
-58.500409126281738
 21
0.0095367431640625
 31
727.27274894714355
  0
LINE
  5
3E
  8
0
 10
-33.773422241210938
 20
-33.776044845581048
 30
727.27274894714355
 11
-50.662994384765632
 21
-29.25014495849609
 31
727.27274894714355
  0
LINE
  5
3F
  8
0
 10
-46.139478683471673
 20
-12.35318183898926
 30
727.27274894714355
 11
-50.667762756347663
 21
-29.241800308227528
 31
727.27274894714355
  0
LINE
  5
40
  8
0
 10
-12.36069202423095
 20
-46.137571334838853
 30
727.27274894714355
 11
-29.250264167785641
 21
-50.662994384765618
 31
727.27274894714355
  0
LINE
  5
41
  8
0
 10
-33.78140926361084
 20
-33.7677001953125
 30
727.27274894714355
 11
-29.25872802734375
 21
-50.657987594604492
 31
727.27274894714355
  0
LINE
  5
42
  8
0
 10
12.364029884338381
 20
-46.136617660522447
 30
727.27274894714355
 11
0.0
 21
-58.500647544860833
 31
727.27274894714355
  0
LINE
  5
43
  8
0
 10
-12.37177848815918
 20
-46.134471893310533
 30
727.27274894714355
 11
-0.0098943710327148
 21
-58.500647544860833
 31
727.27274894714355
  0
LINE
  5
44
  8
0
 10
33.775806427001953
 20
-33.773660659790032
 30
727.27274894714355
 11
29.25014495849609
 21
-50.662994384765618
 31
727.27274894714355
  0
LINE
  5
45
  8
0
 10
12.352943420410149
 20
-46.139478683471673
 30
727.27274894714355
 11
29.241800308227539
 21
-50.668001174926751
 31
727.27274894714355
  0
LINE
  5
46
  8
0
 10
46.137332916259759
 20
-12.361049652099609
 30
727.27274894714355
 11
50.662875175476067
 21
-29.25014495849609
 31
727.27274894714355
  0
LINE
  5
47
  8
0
 10
33.7677001953125
 20
-33.781290054321282
 30
727.27274894714355
 11
50.657987594604492
 21
-29.25872802734375
 31
727.27274894714355
  0
LINE
  5
48
  8
0
 10
46.13649845123291
 20
12.36391067504883
 30
727.27274894714355
 11
58.500409126281731
 21
0.0
 31
727.27274894714355
  0
LINE
  5
49
  8
0
 10
46.13447189331054
 20
-12.37177848815918
 30
727.27274894714355
 11
58.500409126281731
 21
-0.0097751617431641
 31
727.27274894714355
  0
LINE
  5
4A
  8
0
 10
33.773303031921387
 20
33.77580642700196
 30
727.27274894714355
 11
50.662875175476067
 21
29.250144958496101
 31
727.27274894714355
  0
LINE
  5
4B
  8
0
 10
46.139478683471673
 20
12.352943420410149
 30
727.27274894714355
 11
50.667762756347649
 21
29.24180030822755
 31
727.27274894714355
  0
LINE
  5
4C
  8
0
 10
12.360572814941399
 20
46.137332916259773
 30
727.27274894714355
 11
29.25014495849609
 21
50.662755966186531
 31
727.27274894714355
  0
LINE
  5
4D
  8
0
 10
33.78140926361084
 20
33.767700195312507
 30
727.27274894714355
 11
29.258608818054199
 21
50.657987594604499
 31
727.27274894714355
  0
LINE
  5
4E
  8
0
 39
1.1999999405816191
 10
6.0383081436157218
 20
22.535800933837901
 30
727.27274894714355
 11
6.3748359680175781
 21
23.791551589965831
 31
727.27274894714355
  0
LINE
  5
4F
  8
0
 10
-12.750148773193359
 20
22.08352088928223
 30
727.27274894714355
 11
0.0
 21
25.499820709228519
 31
727.27274894714355
  0
LINE
  5
50
  8
0
 39
1.1999999405816191
 10
0.0
 20
25.499820709228519
 30
727.27274894714355
 11
-0.6024837493896486
 21
23.992300033569339
 31
727.27274894714355
  0
LINE
  5
51
  8
0
 39
1.1999999405816191
 10
-12.75002956390381
 20
22.08352088928223
 30
727.27274894714355
 11
-11.474490165710449
 21
21.079301834106449
 31
727.27274894714355
  0
LINE
  5
52
  8
0
 39
1.1999999405816191
 10
-11.474490165710449
 20
21.079301834106449
 30
727.27274894714355
 11
-0.6024837493896486
 21
23.992300033569339
 31
727.27274894714355
  0
LINE
  5
53
  8
0
 39
1.1999999405816191
 10
-0.0001192092895508
 20
25.499820709228519
 30
727.27274894714355
 11
12.7497911453247
 21
22.08352088928223
 31
727.27274894714355
  0
LINE
  5
54
  8
0
 39
1.1999999405816191
 10
12.7497911453247
 20
22.08352088928223
 30
727.27274894714355
 11
11.4743709564209
 21
21.079301834106449
 31
727.27274894714355
  0
LINE
  5
55
  8
0
 39
1.1999999405816191
 10
-0.0001192092895508
 20
25.499820709228519
 30
727.27274894714355
 11
0.6023645401000977
 21
23.992300033569339
 31
727.27274894714355
  0
LINE
  5
56
  8
0
 39
1.1999999405816191
 10
0.6023645401000977
 20
23.992300033569339
 30
727.27274894714355
 11
11.4743709564209
 21
21.079301834106449
 31
727.27274894714355
  0
LINE
  5
57
  8
0
 39
1.1999999405816191
 10
-16.497492790222161
 20
16.497373580932621
 30
727.27274894714355
 11
-17.416834831237789
 21
17.416715621948249
 31
727.27274894714355
  0
LINE
  5
58
  8
0
 10
-25.500059127807621
 20
0.0
 30
727.27274894714355
 11
-22.083640098571781
 21
12.74991035461426
 31
727.27274894714355
  0
LINE
  5
59
  8
0
 39
1.1999999405816191
 10
-22.083640098571781
 20
12.74991035461426
 30
727.27274894714355
 11
-21.079301834106442
 21
11.4743709564209
 31
727.27274894714355
  0
LINE
  5
5A
  8
0
 39
1.1999999405816191
 10
-25.49993991851807
 20
0.0
 30
727.27274894714355
 11
-23.992538452148441
 21
0.6022453308105469
 31
727.27274894714355
  0
LINE
  5
5B
  8
0
 39
1.1999999405816191
 10
-23.992538452148441
 20
0.6022453308105469
 30
727.27274894714355
 11
-21.079301834106442
 21
11.4743709564209
 31
727.27274894714355
  0
LINE
  5
5C
  8
0
 39
1.1999999405816191
 10
-22.083640098571781
 20
12.74991035461426
 30
727.27274894714355
 11
-12.75002956390381
 21
22.08352088928223
 31
727.27274894714355
  0
LINE
  5
5D
  8
0
 39
1.1999999405816191
 10
-12.75002956390381
 20
22.08352088928223
 30
727.27274894714355
 11
-12.51792907714843
 21
20.476579666137699
 31
727.27274894714355
  0
LINE
  5
5E
  8
0
 39
1.1999999405816191
 10
-22.083640098571781
 20
12.74991035461426
 30
727.27274894714355
 11
-20.476937294006351
 21
12.517690658569331
 31
727.27274894714355
  0
LINE
  5
5F
  8
0
 39
1.1999999405816191
 10
-20.476937294006351
 20
12.517690658569331
 30
727.27274894714355
 11
-12.51792907714843
 21
20.476579666137699
 31
727.27274894714355
  0
LINE
  5
60
  8
0
 39
1.1999999405816191
 10
-22.535920143127441
 20
-6.0384273529052734
 30
727.27274894714355
 11
-23.791790008544918
 21
-6.3750743865966788
 31
727.27274894714355
  0
LINE
  5
61
  8
0
 10
-12.74991035461426
 20
-22.083759307861321
 30
727.27274894714355
 11
-22.083640098571781
 21
-12.750148773193359
 31
727.27274894714355
  0
LINE
  5
62
  8
0
 39
1.1999999405816191
 10
-22.083640098571781
 20
-12.750148773193359
 30
727.27274894714355
 11
-20.47669887542725
 21
-12.51792907714843
 31
727.27274894714355
  0
LINE
  5
63
  8
0
 39
1.1999999405816191
 10
-12.74991035461426
 20
-22.083520889282219
 30
727.27274894714355
 11
-12.51792907714843
 21
-20.477056503295891
 31
727.27274894714355
  0
LINE
  5
64
  8
0
 39
1.1999999405816191
 10
-12.51792907714843
 20
-20.477056503295891
 30
727.27274894714355
 11
-20.47669887542725
 21
-12.51792907714843
 31
727.27274894714355
  0
LINE
  5
65
  8
0
 39
1.1999999405816191
 10
-22.083640098571781
 20
-12.750148773193359
 30
727.27274894714355
 11
-25.500059127807621
 21
0.0
 31
727.27274894714355
  0
LINE
  5
66
  8
0
 39
1.1999999405816191
 10
-25.500059127807621
 20
0.0
 30
727.27274894714355
 11
-23.99241924285889
 21
-0.6024837493896486
 31
727.27274894714355
  0
LINE
  5
67
  8
0
 39
1.1999999405816191
 10
-22.08352088928223
 20
-12.750148773193359
 30
727.27274894714355
 11
-21.079182624816891
 21
-11.474609375
 31
727.27274894714355
  0
LINE
  5
68
  8
0
 39
1.1999999405816191
 10
-21.079182624816891
 20
-11.474609375
 30
727.27274894714355
 11
-23.99241924285889
 21
-0.6024837493896486
 31
727.27274894714355
  0
LINE
  5
69
  8
0
 39
1.1999999405816191
 10
-6.0384273529052734
 20
-22.536039352416989
 30
727.27274894714355
 11
-6.374955177307128
 21
-23.791790008544918
 31
727.27274894714355
  0
LINE
  5
6A
  8
0
 10
12.750148773193359
 20
-22.083520889282219
 30
727.27274894714355
 11
0.0
 21
-25.50005912780761
 31
727.27274894714355
  0
LINE
  5
6B
  8
0
 39
1.1999999405816191
 10
0.0
 20
-25.50005912780761
 30
727.27274894714355
 11
0.6024837493896486
 21
-23.99253845214843
 31
727.27274894714355
  0
LINE
  5
6C
  8
0
 39
1.1999999405816191
 10
12.74991035461426
 20
-22.083520889282219
 30
727.27274894714355
 11
11.474490165710449
 21
-21.079301834106442
 31
727.27274894714355
  0
LINE
  5
6D
  8
0
 39
1.1999999405816191
 10
11.474490165710449
 20
-21.079301834106442
 30
727.27274894714355
 11
0.6024837493896486
 21
-23.99253845214843
 31
727.27274894714355
  0
LINE
  5
6E
  8
0
 39
1.1999999405816191
 10
0.0001192092895508
 20
-25.50005912780761
 30
727.27274894714355
 11
-12.75002956390381
 21
-22.083520889282219
 31
727.27274894714355
  0
LINE
  5
6F
  8
0
 39
1.1999999405816191
 10
-12.75002956390381
 20
-22.083520889282219
 30
727.27274894714355
 11
-11.474490165710449
 21
-21.07954025268554
 31
727.27274894714355
  0
LINE
  5
70
  8
0
 39
1.1999999405816191
 10
0.0
 20
-25.499820709228509
 30
727.27274894714355
 11
-0.6023645401000977
 21
-23.99253845214843
 31
727.27274894714355
  0
LINE
  5
71
  8
0
 39
1.1999999405816191
 10
-0.6023645401000977
 20
-23.99253845214843
 30
727.27274894714355
 11
-11.474490165710449
 21
-21.07954025268554
 31
727.27274894714355
  0
LINE
  5
72
  8
0
 39
1.1999999405816191
 10
16.49737358093261
 20
-16.49737358093261
 30
727.27274894714355
 11
17.416834831237789
 21
-17.41695404052733
 31
727.27274894714355
  0
LINE
  5
73
  8
0
 10
25.49993991851807
 20
0.0
 30
727.27274894714355
 11
22.083640098571781
 21
-12.750148773193359
 31
727.27274894714355
  0
LINE
  5
74
  8
0
 39
1.1999999405816191
 10
22.083640098571781
 20
-12.750148773193359
 30
727.27274894714355
 11
21.079182624816891
 21
-11.4743709564209
 31
727.27274894714355
  0
LINE
  5
75
  8
0
 39
1.1999999405816191
 10
25.499820709228519
 20
0.0
 30
727.27274894714355
 11
23.992300033569339
 21
-0.6024837493896486
 31
727.27274894714355
  0
LINE
  5
76
  8
0
 39
1.1999999405816191
 10
23.992300033569339
 20
-0.6024837493896486
 30
727.27274894714355
 11
21.079182624816891
 21
-11.4743709564209
 31
727.27274894714355
  0
LINE
  5
77
  8
0
 39
1.1999999405816191
 10
22.083640098571781
 20
-12.74991035461426
 30
727.27274894714355
 11
12.74991035461426
 21
-22.083520889282219
 31
727.27274894714355
  0
LINE
  5
78
  8
0
 39
1.1999999405816191
 10
12.74991035461426
 20
-22.083520889282219
 30
727.27274894714355
 11
12.51792907714843
 21
-20.47681808471679
 31
727.27274894714355
  0
LINE
  5
79
  8
0
 39
1.1999999405816191
 10
22.08352088928223
 20
-12.74991035461426
 30
727.27274894714355
 11
20.4768180847168
 21
-12.51792907714843
 31
727.27274894714355
  0
LINE
  5
7A
  8
0
 39
1.1999999405816191
 10
20.4768180847168
 20
-12.51792907714843
 30
727.27274894714355
 11
12.51792907714843
 21
-20.47681808471679
 31
727.27274894714355
  0
LINE
  5
7B
  8
0
 39
1.1999999405816191
 10
22.535800933837891
 20
6.038665771484375
 30
727.27274894714355
 11
23.791670799255371
 21
6.3750743865966788
 31
727.27274894714355
  0
LINE
  5
7C
  8
0
 10
12.7497911453247
 20
22.083759307861339
 30
727.27274894714355
 11
22.08352088928223
 21
12.74991035461426
 31
727.27274894714355
  0
LINE
  5
7D
  8
0
 39
1.1999999405816191
 10
22.08352088928223
 20
12.74991035461426
 30
727.27274894714355
 11
20.476579666137692
 21
12.51792907714843
 31
727.27274894714355
  0
LINE
  5
7E
  8
0
 39
1.1999999405816191
 10
12.7497911453247
 20
22.08352088928223
 30
727.27274894714355
 11
12.517690658569331
 21
20.476818084716811
 31
727.27274894714355
  0
LINE
  5
7F
  8
0
 39
1.1999999405816191
 10
12.517690658569331
 20
20.476818084716811
 30
727.27274894714355
 11
20.476579666137692
 21
12.51792907714843
 31
727.27274894714355
  0
LINE
  5
80
  8
0
 39
1.1999999405816191
 10
22.08352088928223
 20
12.74991035461426
 30
727.27274894714355
 11
25.49993991851807
 21
0.0
 31
727.27274894714355
  0
LINE
  5
81
  8
0
 39
1.1999999405816191
 10
25.49993991851807
 20
0.0
 30
727.27274894714355
 11
23.992300033569339
 21
0.6024837493896486
 31
727.27274894714355
  0
LINE
  5
82
  8
0
 39
1.1999999405816191
 10
22.083401679992679
 20
12.74991035461426
 30
727.27274894714355
 11
21.07906341552734
 21
11.474609375
 31
727.27274894714355
  0
LINE
  5
83
  8
0
 39
1.1999999405816191
 10
21.07906341552734
 20
11.474609375
 30
727.27274894714355
 11
23.992300033569339
 21
0.6024837493896486
 31
727.27274894714355
  0
LINE
  5
84
  8
0
 10
-50.657272338867188
 20
29.25968170166017
 30
727.27274894714355
 11
-49.811601638793952
 21
31.038045883178722
 31
727.27274894714355
  0
LINE
  5
85
  8
0
 10
-35.313010215759277
 20
34.92021560668946
 30
727.27274894714355
 11
-49.811601638793952
 21
31.038045883178722
 31
727.27274894714355
  0
LINE
  5
86
  8
0
 10
-35.313010215759277
 20
34.92021560668946
 30
727.27274894714355
 11
-33.767938613891602
 21
33.782243728637702
 31
727.27274894714355
  0
LINE
  5
87
  8
0
 10
-34.914612770080574
 20
35.318613052368171
 30
727.27274894714355
 11
-33.776760101318359
 21
33.773422241210952
 31
727.27274894714355
  0
LINE
  5
88
  8
0
 10
-34.914612770080574
 20
35.318613052368171
 30
727.27274894714355
 11
-31.029939651489261
 21
49.816608428955078
 31
727.27274894714355
  0
LINE
  5
89
  8
0
 10
-32.961726188659668
 20
42.60706901550293
 30
727.27274894714355
 11
-31.513690948486332
 21
42.218923568725593
 31
727.27274894714355
  0
LINE
  5
8A
  8
0
 10
-29.251337051391602
 20
50.662040710449219
 30
727.27274894714355
 11
-31.029939651489261
 21
49.816608428955078
 31
727.27274894714355
  0
LINE
  5
8B
  8
0
 10
-58.500409126281738
 20
0.0112056732177735
 30
727.27274894714355
 11
-58.657169342041023
 21
1.9741058349609371
 31
727.27274894714355
  0
LINE
  5
8C
  8
0
 10
-48.042178153991699
 20
12.58540153503418
 30
727.27274894714355
 11
-58.657169342041023
 21
1.9741058349609371
 31
727.27274894714355
  0
LINE
  5
8D
  8
0
 10
-48.042178153991699
 20
12.58540153503418
 30
727.27274894714355
 11
-46.135067939758301
 21
12.372493743896481
 31
727.27274894714355
  0
LINE
  5
8E
  8
0
 10
-47.896385192871101
 20
13.12971115112304
 30
727.27274894714355
 11
-46.138286590576172
 21
12.360334396362299
 31
727.27274894714355
  0
LINE
  5
8F
  8
0
 10
-47.896385192871101
 20
13.12971115112304
 30
727.27274894714355
 11
-51.781058311462409
 21
27.627706527709972
 31
727.27274894714355
  0
LINE
  5
90
  8
0
 10
-49.849271774291999
 20
20.417928695678722
 30
727.27274894714355
 11
-48.40135574340821
 21
20.806074142456058
 31
727.27274894714355
  0
LINE
  5
91
  8
0
 10
-50.663471221923828
 20
29.2489528656006
 30
727.27274894714355
 11
-51.781058311462409
 21
27.627706527709972
 31
727.27274894714355
  0
LINE
  5
92
  8
0
 10
-50.668478012084961
 20
-29.240608215332031
 30
727.27274894714355
 11
-51.78570747375489
 21
-27.6188850402832
 31
727.27274894714355
  0
LINE
  5
93
  8
0
 10
-47.898530960083008
 20
-13.12184333801269
 30
727.27274894714355
 11
-51.78570747375489
 21
-27.6188850402832
 31
727.27274894714355
  0
LINE
  5
94
  8
0
 10
-47.898530960083008
 20
-13.12184333801269
 30
727.27274894714355
 11
-46.140313148498528
 21
-12.352943420410149
 31
727.27274894714355
  0
LINE
  5
95
  8
0
 10
-48.04432392120362
 20
-12.57753372192383
 30
727.27274894714355
 11
-46.137213706970208
 21
-12.364864349365231
 31
727.27274894714355
  0
LINE
  5
96
  8
0
 10
-48.04432392120362
 20
-12.57753372192383
 30
727.27274894714355
 11
-58.657526969909668
 21
-1.964330673217773
 31
727.27274894714355
  0
LINE
  5
97
  8
0
 10
-53.37977409362793
 20
-7.24196434020996
 30
727.27274894714355
 11
-52.31976509094239
 21
-6.1821937561035147
 31
727.27274894714355
  0
LINE
  5
98
  8
0
 10
-58.500409126281738
 20
-0.0011920928955078
 30
727.27274894714355
 11
-58.657526969909668
 21
-1.964330673217773
 31
727.27274894714355
  0
LINE
  5
99
  8
0
 10
-29.259920120239261
 20
-50.657510757446282
 30
727.27274894714355
 11
-31.038284301757809
 21
-49.811601638793938
 31
727.27274894714355
  0
LINE
  5
9A
  8
0
 10
-34.920454025268548
 20
-35.313129425048821
 30
727.27274894714355
 11
-31.038284301757809
 21
-49.811601638793938
 31
727.27274894714355
  0
LINE
  5
9B
  8
0
 10
-34.920454025268548
 20
-35.313129425048821
 30
727.27274894714355
 11
-33.782362937927253
 21
-33.767938613891602
 31
727.27274894714355
  0
LINE
  5
9C
  8
0
 10
-35.318970680236824
 20
-34.91473197937011
 30
727.27274894714355
 11
-33.773660659790039
 21
-33.776760101318352
 31
727.27274894714355
  0
LINE
  5
9D
  8
0
 10
-35.318970680236824
 20
-34.91473197937011
 30
727.27274894714355
 11
-49.816727638244629
 21
-31.029939651489251
 31
727.27274894714355
  0
LINE
  5
9E
  8
0
 10
-42.60718822479248
 20
-32.96160697937011
 30
727.27274894714355
 11
-42.219281196594231
 21
-31.513690948486321
 31
727.27274894714355
  0
LINE
  5
9F
  8
0
 10
-50.66227912902832
 20
-29.251337051391602
 30
727.27274894714355
 11
-49.816727638244629
 21
-31.029939651489251
 31
727.27274894714355
  0
LINE
  5
A0
  8
0
 10
-0.0110864639282227
 20
-58.500409126281731
 30
727.27274894714355
 11
-1.9741058349609371
 21
-58.657169342041009
 31
727.27274894714355
  0
LINE
  5
A1
  8
0
 10
-12.58552074432373
 20
-48.042058944702141
 30
727.27274894714355
 11
-1.9741058349609371
 21
-58.657169342041009
 31
727.27274894714355
  0
LINE
  5
A2
  8
0
 10
-12.58552074432373
 20
-48.042058944702141
 30
727.27274894714355
 11
-12.372493743896481
 21
-46.135187149047837
 31
727.27274894714355
  0
LINE
  5
A3
  8
0
 10
-13.129830360412591
 20
-47.89638519287108
 30
727.27274894714355
 11
-12.360572814941399
 21
-46.138286590576158
 31
727.27274894714355
  0
LINE
  5
A4
  8
0
 10
-13.129830360412591
 20
-47.89638519287108
 30
727.27274894714355
 11
-27.627706527709961
 21
-51.781058311462402
 31
727.27274894714355
  0
LINE
  5
A5
  8
0
 10
-20.418167114257809
 20
-49.849271774291992
 30
727.27274894714355
 11
-20.806193351745598
 21
-48.401355743408203
 31
727.27274894714355
  0
LINE
  5
A6
  8
0
 10
-29.249191284179691
 20
-50.663709640502923
 30
727.27274894714355
 11
-27.627706527709961
 21
-51.781058311462402
 31
727.27274894714355
  0
LINE
  5
A7
  8
0
 10
29.240608215332031
 20
-50.668239593505852
 30
727.27274894714355
 11
27.6188850402832
 21
-51.785707473754883
 31
727.27274894714355
  0
LINE
  5
A8
  8
0
 10
13.12160491943359
 20
-47.898292541503892
 30
727.27274894714355
 11
27.6188850402832
 21
-51.785707473754883
 31
727.27274894714355
  0
LINE
  5
A9
  8
0
 10
13.12160491943359
 20
-47.898292541503892
 30
727.27274894714355
 11
12.352705001831049
 21
-46.14019393920897
 31
727.27274894714355
  0
LINE
  5
AA
  8
0
 10
12.577295303344719
 20
-48.044443130493157
 30
727.27274894714355
 11
12.364625930786129
 21
-46.13709449768065
 31
727.27274894714355
  0
LINE
  5
AB
  8
0
 10
12.577295303344719
 20
-48.044443130493157
 30
727.27274894714355
 11
1.964211463928222
 21
-58.657526969909661
 31
727.27274894714355
  0
LINE
  5
AC
  8
0
 10
7.2418451309204102
 20
-53.379774093627923
 30
727.27274894714355
 11
6.1819553375244141
 21
-52.319765090942383
 31
727.27274894714355
  0
LINE
  5
AD
  8
0
 10
0.0013113021850586
 20
-58.500409126281731
 30
727.27274894714355
 11
1.964211463928222
 21
-58.657526969909661
 31
727.27274894714355
  0
LINE
  5
AE
  8
0
 10
50.65727233886718
 20
-29.259920120239251
 30
727.27274894714355
 11
49.811482429504387
 21
-31.038045883178711
 31
727.27274894714355
  0
LINE
  5
AF
  8
0
 10
35.312771797180183
 20
-34.920454025268548
 30
727.27274894714355
 11
49.811482429504387
 21
-31.038045883178711
 31
727.27274894714355
  0
LINE
  5
B0
  8
0
 10
35.312771797180183
 20
-34.920454025268548
 30
727.27274894714355
 11
33.767819404602051
 21
-33.782243728637688
 31
727.27274894714355
  0
LINE
  5
B1
  8
0
 10
34.914374351501458
 20
-35.318851470947259
 30
727.27274894714355
 11
33.776521682739258
 21
-33.773660659790032
 31
727.27274894714355
  0
LINE
  5
B2
  8
0
 10
34.914374351501458
 20
-35.318851470947259
 30
727.27274894714355
 11
31.02970123291016
 21
-49.816846847534173
 31
727.27274894714355
  0
LINE
  5
B3
  8
0
 10
32.961487770080574
 20
-42.607069015502923
 30
727.27274894714355
 11
31.513571739196781
 21
-42.219161987304673
 31
727.27274894714355
  0
LINE
  5
B4
  8
0
 10
29.251337051391602
 20
-50.662040710449212
 30
727.27274894714355
 11
31.02970123291016
 21
-49.816846847534173
 31
727.27274894714355
  0
LINE
  5
B5
  8
0
 10
58.500409126281731
 20
-0.0112056732177735
 30
727.27274894714355
 11
58.657050132751458
 21
-1.9741058349609371
 31
727.27274894714355
  0
LINE
  5
B6
  8
0
 10
48.041939735412591
 20
-12.585639953613279
 30
727.27274894714355
 11
58.657050132751458
 21
-1.9741058349609371
 31
727.27274894714355
  0
LINE
  5
B7
  8
0
 10
48.041939735412591
 20
-12.585639953613279
 30
727.27274894714355
 11
46.13494873046875
 21
-12.372493743896481
 31
727.27274894714355
  0
LINE
  5
B8
  8
0
 10
47.896265983581543
 20
-13.12994956970215
 30
727.27274894714355
 11
46.138167381286621
 21
-12.360572814941399
 31
727.27274894714355
  0
LINE
  5
B9
  8
0
 10
47.896265983581543
 20
-13.12994956970215
 30
727.27274894714355
 11
51.780939102172852
 21
-27.627944946289059
 31
727.27274894714355
  0
LINE
  5
BA
  8
0
 10
49.849033355712891
 20
-20.418167114257809
 30
727.27274894714355
 11
48.401117324829102
 21
-20.806074142456051
 31
727.27274894714355
  0
LINE
  5
BB
  8
0
 10
50.663471221923821
 20
-29.24919128417968
 30
727.27274894714355
 11
51.780939102172852
 21
-27.627944946289059
 31
727.27274894714355
  0
LINE
  5
BC
  8
0
 10
50.668239593505852
 20
29.240608215332038
 30
727.27274894714355
 11
51.785588264465332
 21
27.61888504028321
 31
727.27274894714355
  0
LINE
  5
BD
  8
0
 10
47.89841175079345
 20
13.12160491943359
 30
727.27274894714355
 11
51.785588264465332
 21
27.61888504028321
 31
727.27274894714355
  0
LINE
  5
BE
  8
0
 10
47.89841175079345
 20
13.12160491943359
 30
727.27274894714355
 11
46.140193939208977
 21
12.352705001831049
 31
727.27274894714355
  0
LINE
  5
BF
  8
0
 10
48.044323921203613
 20
12.57753372192383
 30
727.27274894714355
 11
46.136975288391113
 21
12.364625930786129
 31
727.27274894714355
  0
LINE
  5
C0
  8
0
 10
48.044323921203613
 20
12.57753372192383
 30
727.27274894714355
 11
58.65740776062011
 21
1.964092254638671
 31
727.27274894714355
  0
LINE
  5
C1
  8
0
 10
53.379654884338372
 20
7.2417259216308594
 30
727.27274894714355
 11
52.319645881652832
 21
6.1821937561035147
 31
727.27274894714355
  0
LINE
  5
C2
  8
0
 10
58.500409126281731
 20
0.0011920928955078
 30
727.27274894714355
 11
58.65740776062011
 21
1.964092254638671
 31
727.27274894714355
  0
LINE
  5
C3
  8
0
 10
29.259681701660149
 20
50.657272338867188
 30
727.27274894714355
 11
31.038045883178711
 21
49.811601638793952
 31
727.27274894714355
  0
LINE
  5
C4
  8
0
 10
34.920454025268548
 20
35.312891006469727
 30
727.27274894714355
 11
31.038045883178711
 21
49.811601638793952
 31
727.27274894714355
  0
LINE
  5
C5
  8
0
 10
34.920454025268548
 20
35.312891006469727
 30
727.27274894714355
 11
33.782243728637688
 21
33.767700195312507
 31
727.27274894714355
  0
LINE
  5
C6
  8
0
 10
35.318851470947273
 20
34.914493560791023
 30
727.27274894714355
 11
33.773422241210938
 21
33.776521682739272
 31
727.27274894714355
  0
LINE
  5
C7
  8
0
 10
35.318851470947273
 20
34.914493560791023
 30
727.27274894714355
 11
49.816727638244622
 21
31.02970123291016
 31
727.27274894714355
  0
LINE
  5
C8
  8
0
 10
42.60718822479248
 20
32.961368560791023
 30
727.27274894714355
 11
42.21904277801513
 21
31.51345252990723
 31
727.27274894714355
  0
LINE
  5
C9
  8
0
 10
50.662040710449212
 20
29.251337051391609
 30
727.27274894714355
 11
49.816727638244622
 21
31.02970123291016
 31
727.27274894714355
  0
LINE
  5
CA
  8
0
 10
0.0109672546386719
 20
58.500289916992188
 30
727.27274894714355
 11
1.9739866256713861
 21
58.657169342041023
 31
727.27274894714355
  0
LINE
  5
CB
  8
0
 10
12.58540153503418
 20
48.041820526123047
 30
727.27274894714355
 11
1.9739866256713861
 21
58.657169342041023
 31
727.27274894714355
  0
LINE
  5
CC
  8
0
 10
12.58540153503418
 20
48.041820526123047
 30
727.27274894714355
 11
12.372255325317379
 21
46.13494873046875
 31
727.27274894714355
  0
LINE
  5
CD
  8
0
 10
13.12971115112304
 20
47.896146774291999
 30
727.27274894714355
 11
12.36045360565185
 21
46.138286590576179
 31
727.27274894714355
  0
LINE
  5
CE
  8
0
 10
13.12971115112304
 20
47.896146774291999
 30
727.27274894714355
 11
27.627706527709961
 21
51.780939102172859
 31
727.27274894714355
  0
LINE
  5
CF
  8
0
 10
20.418047904968262
 20
49.849271774291999
 30
727.27274894714355
 11
20.8059549331665
 21
48.401117324829109
 31
727.27274894714355
  0
LINE
  5
D0
  8
0
 10
29.248952865600579
 20
50.663471221923828
 30
727.27274894714355
 11
27.627706527709961
 21
51.780939102172859
 31
727.27274894714355
  0
LINE
  5
D1
  8
0
 10
-29.240727424621578
 20
50.668239593505859
 30
727.27274894714355
 11
-27.619123458862301
 21
51.785469055175788
 31
727.27274894714355
  0
LINE
  5
D2
  8
0
 10
-13.121724128723139
 20
47.898292541503913
 30
727.27274894714355
 11
-27.619123458862301
 21
51.785469055175788
 31
727.27274894714355
  0
LINE
  5
D3
  8
0
 10
-13.121724128723139
 20
47.898292541503913
 30
727.27274894714355
 11
-12.3528242111206
 21
46.140193939208991
 31
727.27274894714355
  0
LINE
  5
D4
  8
0
 10
-12.57753372192383
 20
48.04420471191407
 30
727.27274894714355
 11
-12.364625930786129
 21
46.137094497680671
 31
727.27274894714355
  0
LINE
  5
D5
  8
0
 10
-12.57753372192383
 20
48.04420471191407
 30
727.27274894714355
 11
-1.964330673217773
 21
58.657646179199219
 31
727.27274894714355
  0
LINE
  5
D6
  8
0
 10
-7.24196434020996
 20
53.379535675048828
 30
727.27274894714355
 11
-6.1821937561035147
 21
52.319526672363288
 31
727.27274894714355
  0
LINE
  5
D7
  8
0
 10
-0.0014305114746094
 20
58.500289916992188
 30
727.27274894714355
 11
-1.964330673217773
 21
58.657646179199219
 31
727.27274894714355
  0
LINE
  5
D8
  8
0
 10
-19.44077014923095
 20
30.179738998413089
 30
727.27274894714355
 11
-20.54691314697266
 21
30.818462371826179
 31
727.27274894714355
  0
LINE
  5
D9
  8
0
 10
-20.54691314697266
 20
30.818462371826179
 30
727.27274894714355
 11
-21.180629730224609
 21
31.921625137329109
 31
727.27274894714355
  0
LINE
  5
DA
  8
0
 10
-21.180629730224609
 20
31.921625137329109
 30
727.27274894714355
 11
-21.183967590332031
 21
33.195495605468757
 31
727.27274894714355
  0
LINE
  5
DB
  8
0
 10
-21.183967590332031
 20
33.195495605468757
 30
727.27274894714355
 11
-20.539164543151848
 21
34.306526184082038
 31
727.27274894714355
  0
LINE
  5
DC
  8
0
 10
-20.539164543151848
 20
34.306526184082038
 30
727.27274894714355
 11
-19.428133964538571
 21
34.956455230712898
 31
727.27274894714355
  0
LINE
  5
DD
  8
0
 10
-19.428133964538571
 20
34.956455230712898
 30
727.27274894714355
 11
-18.154382705688469
 21
34.954071044921882
 31
727.27274894714355
  0
LINE
  5
DE
  8
0
 10
-18.154382705688469
 20
34.954071044921882
 30
727.27274894714355
 11
-17.052054405212399
 21
34.31439399719239
 31
727.27274894714355
  0
LINE
  5
DF
  8
0
 10
-17.052054405212399
 20
34.31439399719239
 30
727.27274894714355
 11
-16.41285419464111
 21
33.21266174316407
 31
727.27274894714355
  0
LINE
  5
E0
  8
0
 10
-16.41285419464111
 20
33.21266174316407
 30
727.27274894714355
 11
-16.412615776062012
 21
31.935691833496101
 31
727.27274894714355
  0
LINE
  5
E1
  8
0
 10
-16.412615776062012
 20
31.935691833496101
 30
727.27274894714355
 11
-17.06397533416748
 21
30.818939208984379
 31
727.27274894714355
  0
LINE
  5
E2
  8
0
 10
-17.051100730895989
 20
30.829906463623061
 30
727.27274894714355
 11
-18.133401870727539
 21
30.19809722900391
 31
727.27274894714355
  0
LINE
  5
E3
  8
0
 10
-18.133401870727539
 20
30.19809722900391
 30
727.27274894714355
 11
-19.428849220275879
 21
30.194282531738288
 31
727.27274894714355
  0
INSERT
  5
E4
  8
0
  2
SIMPSON-STRONG-TIE
 10
25.707788224314921
 20
21.41560485719781
 30
727.27274894714355
  0
ENDSEC
  0
EOF
