  0
SECTION
  2
HEADER
  9
$ACADVER
  1
AC1009
  9
$INSBASE
 10
0.0
 20
0.0
 30
0.0
  9
$EXTMIN
 10
-58.499336242675788
 20
-14.696359634399411
 30
0.0
  9
$EXTMAX
 10
58.500409126281731
 20
14.695882797241209
 30
0.0
  9
$LIMMIN
 10
0.0
 20
0.0
  9
$LIMMAX
 10
12.0
 20
9.0
  9
$ORTHOMODE
 70
     0
  9
$REGENMODE
 70
     1
  9
$FILLMODE
 70
     1
  9
$QTEXTMODE
 70
     0
  9
$MIRRTEXT
 70
     0
  9
$DRAGMODE
 70
     2
  9
$LTSCALE
 40
1.0
  9
$OSMODE
 70
    47
  9
$ATTMODE
 70
     1
  9
$TEXTSIZE
 40
3.5
  9
$TRACEWID
 40
0.05
  9
$TEXTSTYLE
  7
SST
  9
$CLAYER
  8
0
  9
$CELTYPE
  6
BYLAYER
  9
$CECOLOR
 62
   256
  9
$DIMSCALE
 40
1.0
  9
$DIMASZ
 40
0.18
  9
$DIMEXO
 40
0.0625
  9
$DIMDLI
 40
0.38
  9
$DIMRND
 40
0.0
  9
$DIMDLE
 40
0.0
  9
$DIMEXE
 40
0.18
  9
$DIMTP
 40
0.0
  9
$DIMTM
 40
0.0
  9
$DIMTXT
 40
0.18
  9
$DIMCEN
 40
0.09
  9
$DIMTSZ
 40
0.0
  9
$DIMTOL
 70
     0
  9
$DIMLIM
 70
     0
  9
$DIMTIH
 70
     1
  9
$DIMTOH
 70
     1
  9
$DIMSE1
 70
     0
  9
$DIMSE2
 70
     0
  9
$DIMTAD
 70
     0
  9
$DIMZIN
 70
     0
  9
$DIMBLK
  1

  9
$DIMASO
 70
     1
  9
$DIMSHO
 70
     1
  9
$DIMPOST
  1

  9
$DIMAPOST
  1

  9
$DIMALT
 70
     0
  9
$DIMALTD
 70
     2
  9
$DIMALTF
 40
25.399999999999999
  9
$DIMLFAC
 40
1.0
  9
$DIMTOFL
 70
     0
  9
$DIMTVP
 40
0.0
  9
$DIMTIX
 70
     0
  9
$DIMSOXD
 70
     0
  9
$DIMSAH
 70
     0
  9
$DIMBLK1
  1

  9
$DIMBLK2
  1

  9
$DIMSTYLE
  2
STANDARD
  9
$DIMCLRD
 70
     0
  9
$DIMCLRE
 70
     0
  9
$DIMCLRT
 70
     0
  9
$DIMTFAC
 40
1.0
  9
$DIMGAP
 40
0.09
  9
$LUNITS
 70
     2
  9
$LUPREC
 70
     0
  9
$SKETCHINC
 40
0.1
  9
$FILLETRAD
 40
0.0
  9
$AUNITS
 70
     0
  9
$AUPREC
 70
     0
  9
$MENU
  1
acad
  9
$ELEVATION
 40
0.0
  9
$PELEVATION
 40
0.0
  9
$THICKNESS
 40
0.0
  9
$LIMCHECK
 70
     0
  9
$BLIPMODE
 70
     0
  9
$CHAMFERA
 40
0.0
  9
$CHAMFERB
 40
0.0
  9
$SKPOLY
 70
     0
  9
$TDCREATE
 40
2449631.7321383101
  9
$TDUPDATE
 40
2453443.5715440512
  9
$TDINDWG
 40
0.0193887963
  9
$TDUSRTIMER
 40
0.0193887963
  9
$USRTIMER
 70
     1
  9
$ANGBASE
 50
0.0
  9
$ANGDIR
 70
     0
  9
$PDMODE
 70
     0
  9
$PDSIZE
 40
0.0
  9
$PLINEWID
 40
0.0
  9
$COORDS
 70
     1
  9
$SPLFRAME
 70
     0
  9
$SPLINETYPE
 70
     6
  9
$SPLINESEGS
 70
     8
  9
$ATTDIA
 70
     0
  9
$ATTREQ
 70
     1
  9
$HANDLING
 70
     1
  9
$HANDSEED
  5
B4
  9
$SURFTAB1
 70
     6
  9
$SURFTAB2
 70
     6
  9
$SURFTYPE
 70
     6
  9
$SURFU
 70
     6
  9
$SURFV
 70
     6
  9
$UCSNAME
  2

  9
$UCSORG
 10
0.0
 20
0.0
 30
0.0
  9
$UCSXDIR
 10
1.0
 20
0.0
 30
0.0
  9
$UCSYDIR
 10
0.0
 20
1.0
 30
0.0
  9
$PUCSNAME
  2

  9
$PUCSORG
 10
0.0
 20
0.0
 30
0.0
  9
$PUCSXDIR
 10
1.0
 20
0.0
 30
0.0
  9
$PUCSYDIR
 10
0.0
 20
1.0
 30
0.0
  9
$USERI1
 70
     0
  9
$USERI2
 70
     0
  9
$USERI3
 70
     0
  9
$USERI4
 70
     0
  9
$USERI5
 70
     0
  9
$USERR1
 40
0.0
  9
$USERR2
 40
0.0
  9
$USERR3
 40
0.0
  9
$USERR4
 40
0.0
  9
$USERR5
 40
0.0
  9
$WORLDVIEW
 70
     1
  9
$SHADEDGE
 70
     3
  9
$SHADEDIF
 70
    70
  9
$TILEMODE
 70
     1
  9
$MAXACTVP
 70
    16
  9
$PLIMCHECK
 70
     0
  9
$PEXTMIN
 10
1.0000000000000000E+020
 20
1.0000000000000000E+020
 30
1.0000000000000000E+020
  9
$PEXTMAX
 10
-1.0000000000000000E+020
 20
-1.0000000000000000E+020
 30
-1.0000000000000000E+020
  9
$PLIMMIN
 10
0.0
 20
0.0
  9
$PLIMMAX
 10
12.0
 20
9.0
  9
$UNITMODE
 70
     0
  9
$VISRETAIN
 70
     0
  9
$PLINEGEN
 70
     0
  9
$PSLTSCALE
 70
     1
  0
ENDSEC
  0
SECTION
  2
TABLES
  0
TABLE
  2
VPORT
 70
     2
  0
VPORT
  2
*ACTIVE
 70
     0
 10
0.0
 20
0.0
 11
1.0
 21
1.0
 12
179.0585060985087
 22
13.257452752915521
 13
0.0
 23
0.0
 14
1.0
 24
1.0
 15
0.0
 25
0.0
 16
0.0
 26
0.0
 36
1.0
 17
0.0
 27
0.0
 37
0.0
 40
639.38317796830154
 41
1.4993646759847521
 42
50.0
 43
0.0
 44
0.0
 50
0.0
 51
0.0
 71
     0
 72
   100
 73
     1
 74
     1
 75
     0
 76
     0
 77
     0
 78
     0
  0
ENDTAB
  0
TABLE
  2
LTYPE
 70
     1
  0
LTYPE
  2
CONTINUOUS
 70
     0
  3
Solid line
 72
    65
 73
     0
 40
0.0
  0
ENDTAB
  0
TABLE
  2
LAYER
 70
     1
  0
LAYER
  2
0
 70
     0
 62
     7
  6
CONTINUOUS
  0
ENDTAB
  0
TABLE
  2
STYLE
 70
     2
  0
STYLE
  2
STANDARD
 70
     0
 40
0.0
 41
1.0
 50
0.0
 71
     0
 42
0.2
  3
txt
  4

  0
STYLE
  2
SST
 70
     0
 40
0.0
 41
1.0
 50
0.0
 71
     0
 42
3.5
  3
romans.shx
  4

  0
ENDTAB
  0
TABLE
  2
VIEW
 70
     0
  0
ENDTAB
  0
TABLE
  2
UCS
 70
     0
  0
ENDTAB
  0
TABLE
  2
APPID
 70
     1
  0
APPID
  2
ACAD
 70
     0
  0
ENDTAB
  0
TABLE
  2
DIMSTYLE
 70
     1
  0
DIMSTYLE
  2
STANDARD
 70
     0
  3

  4

  5

  6

  7

 40
1.0
 41
0.18
 42
0.0625
 43
0.38
 44
0.18
 45
0.0
 46
0.0
 47
0.0
 48
0.0
140
0.18
141
0.09
142
0.0
143
25.399999999999999
144
1.0
145
0.0
146
1.0
147
0.09
 71
     0
 72
     0
 73
     1
 74
     1
 75
     0
 76
     0
 77
     0
 78
     0
170
     0
171
     2
172
     0
173
     0
174
     0
175
     0
176
     0
177
     0
178
     0
  0
ENDTAB
  0
ENDSEC
  0
SECTION
  2
BLOCKS
  0
BLOCK
  8
0
  2
$MODEL_SPACE
 70
     0
 10
0.0
 20
0.0
 30
0.0
  3
$MODEL_SPACE
  1

  0
ENDBLK
  5
9
  8
0
  0
BLOCK
 67
     1
  8
0
  2
$PAPER_SPACE
 70
     0
 10
0.0
 20
0.0
 30
0.0
  3
$PAPER_SPACE
  1

  0
ENDBLK
  5
E
 67
     1
  8
0
  0
ENDSEC
  0
SECTION
  2
ENTITIES
  0
LINE
  5
29
  8
0
 62
     8
 10
-58.499336242675788
 20
-0.7493495941162111
 30
0.0
 11
-56.836843490600593
 21
0.7472038269042969
 31
0.0
  0
LINE
  5
2A
  8
0
 62
     8
 10
-56.69713020324707
 20
-0.7493495941162111
 30
0.0
 11
-55.034637451171882
 21
0.7472038269042969
 31
0.0
  0
LINE
  5
2B
  8
0
 62
     8
 10
-54.894804954528809
 20
-0.7493495941162111
 30
0.0
 11
-53.23231220245362
 21
0.7472038269042969
 31
0.0
  0
LINE
  5
2C
  8
0
 62
     8
 10
-53.092479705810547
 20
-0.7493495941162111
 30
0.0
 11
-51.429867744445801
 21
0.7472038269042969
 31
0.0
  0
LINE
  5
2D
  8
0
 62
     8
 10
-51.290154457092292
 20
-0.7493495941162111
 30
0.0
 11
-49.627542495727539
 21
0.7472038269042969
 31
0.0
  0
LINE
  5
2E
  8
0
 62
     8
 10
-49.48770999908448
 20
-0.7493495941162111
 30
0.0
 11
-47.825217247009277
 21
0.7472038269042969
 31
0.0
  0
LINE
  5
2F
  8
0
 62
     8
 10
-47.685384750366211
 20
-0.7493495941162111
 30
0.0
 11
-46.022891998291009
 21
0.7472038269042969
 31
0.0
  0
LINE
  5
30
  8
0
 62
     8
 10
-45.883059501647942
 20
-0.7493495941162111
 30
0.0
 11
-44.220566749572747
 21
0.7472038269042969
 31
0.0
  0
LINE
  5
31
  8
0
 62
     8
 10
-44.08073425292968
 20
-0.7493495941162111
 30
0.0
 11
-42.418241500854492
 21
0.7472038269042969
 31
0.0
  0
LINE
  5
32
  8
0
 62
     8
 10
-42.278528213500969
 20
-0.7493495941162111
 30
0.0
 11
-40.61591625213623
 21
0.7472038269042969
 31
0.0
  0
LINE
  5
33
  8
0
 62
     8
 10
-40.476202964782708
 20
-0.7493495941162111
 30
0.0
 11
-38.813591003417969
 21
0.7472038269042969
 31
0.0
  0
LINE
  5
34
  8
0
 62
     8
 10
-38.673877716064453
 20
-0.7493495941162111
 30
0.0
 11
-37.011265754699707
 21
0.7472038269042969
 31
0.0
  0
LINE
  5
35
  8
0
 62
     8
 10
-36.871433258056641
 20
-0.7493495941162111
 30
0.0
 11
-35.208940505981438
 21
0.7472038269042969
 31
0.0
  0
LINE
  5
36
  8
0
 62
     8
 10
-35.069108009338379
 20
-0.7493495941162111
 30
0.0
 11
-33.406615257263176
 21
0.7472038269042969
 31
0.0
  0
LINE
  5
37
  8
0
 62
     8
 10
-33.266782760620117
 20
-0.7493495941162111
 30
0.0
 11
-31.604290008544918
 21
0.7472038269042969
 31
0.0
  0
LINE
  5
38
  8
0
 62
     8
 10
-31.464457511901848
 20
-0.7493495941162111
 30
0.0
 11
-29.80196475982666
 21
0.7472038269042969
 31
0.0
  0
LINE
  5
39
  8
0
 62
     8
 10
-29.662251472473141
 20
-0.7493495941162111
 30
0.0
 11
-27.999639511108398
 21
0.7472038269042969
 31
0.0
  0
LINE
  5
3A
  8
0
 62
     8
 10
-27.859926223754879
 20
-0.7493495941162111
 30
0.0
 11
-26.19731426239014
 21
0.7472038269042969
 31
0.0
  0
LINE
  5
3B
  8
0
 62
     8
 10
-26.05748176574707
 20
-0.7493495941162111
 30
0.0
 11
-24.394989013671871
 21
0.7472038269042969
 31
0.0
  0
LINE
  5
3C
  8
0
 62
     8
 10
-24.255156517028809
 20
-0.7493495941162111
 30
0.0
 11
-22.59266376495361
 21
0.7472038269042969
 31
0.0
  0
LINE
  5
3D
  8
0
 62
     8
 10
-22.45283126831055
 20
-0.7493495941162111
 30
0.0
 11
-20.790338516235352
 21
0.7472038269042969
 31
0.0
  0
LINE
  5
3E
  8
0
 62
     8
 10
20.32172679901123
 20
-0.7483959197998047
 30
0.0
 11
21.984219551086429
 21
0.7479190826416016
 31
0.0
  0
LINE
  5
3F
  8
0
 62
     8
 10
22.123932838439941
 20
-0.7483959197998047
 30
0.0
 11
23.78642559051514
 21
0.7479190826416016
 31
0.0
  0
LINE
  5
40
  8
0
 62
     8
 10
23.9262580871582
 20
-0.7483959197998047
 30
0.0
 11
25.588870048522949
 21
0.7479190826416016
 31
0.0
  0
LINE
  5
41
  8
0
 62
     8
 10
25.728583335876461
 20
-0.7483959197998047
 30
0.0
 11
27.391195297241211
 21
0.7479190826416016
 31
0.0
  0
LINE
  5
42
  8
0
 62
     8
 10
27.531027793884281
 20
-0.7483959197998047
 30
0.0
 11
29.193520545959469
 21
0.7479190826416016
 31
0.0
  0
LINE
  5
43
  8
0
 62
     8
 10
29.333353042602539
 20
-0.7483959197998047
 30
0.0
 11
30.995845794677731
 21
0.7479190826416016
 31
0.0
  0
LINE
  5
44
  8
0
 62
     8
 10
31.135678291320801
 20
-0.7483959197998047
 30
0.0
 11
32.798171043396003
 21
0.7479190826416016
 31
0.0
  0
LINE
  5
45
  8
0
 62
     8
 10
32.938003540039063
 20
-0.7483959197998047
 30
0.0
 11
34.600496292114258
 21
0.7479190826416016
 31
0.0
  0
LINE
  5
46
  8
0
 62
     8
 10
34.740328788757317
 20
-0.7483959197998047
 30
0.0
 11
36.40282154083252
 21
0.7479190826416016
 31
0.0
  0
LINE
  5
47
  8
0
 62
     8
 10
36.542534828186028
 20
-0.7483959197998047
 30
0.0
 11
38.205146789550781
 21
0.7479190826416016
 31
0.0
  0
LINE
  5
48
  8
0
 62
     8
 10
38.344860076904297
 20
-0.7483959197998047
 30
0.0
 11
40.007472038269043
 21
0.7479190826416016
 31
0.0
  0
LINE
  5
49
  8
0
 62
     8
 10
40.147304534912102
 20
-0.7483959197998047
 30
0.0
 11
41.809797286987298
 21
0.7479190826416016
 31
0.0
  0
LINE
  5
4A
  8
0
 62
     8
 10
41.949629783630371
 20
-0.7483959197998047
 30
0.0
 11
43.612122535705559
 21
0.7479190826416016
 31
0.0
  0
LINE
  5
4B
  8
0
 62
     8
 10
43.751955032348633
 20
-0.7483959197998047
 30
0.0
 11
45.414447784423821
 21
0.7479190826416016
 31
0.0
  0
LINE
  5
4C
  8
0
 62
     8
 10
45.554280281066887
 20
-0.7483959197998047
 30
0.0
 11
47.216773033142083
 21
0.7479190826416016
 31
0.0
  0
LINE
  5
4D
  8
0
 62
     8
 10
47.356605529785149
 20
-0.7483959197998047
 30
0.0
 11
49.019098281860352
 21
0.7479190826416016
 31
0.0
  0
LINE
  5
4E
  8
0
 62
     8
 10
49.15881156921386
 20
-0.7483959197998047
 30
0.0
 11
50.821423530578613
 21
0.7479190826416016
 31
0.0
  0
LINE
  5
4F
  8
0
 62
     8
 10
50.961256027221673
 20
-0.7483959197998047
 30
0.0
 11
52.623748779296868
 21
0.7479190826416016
 31
0.0
  0
LINE
  5
50
  8
0
 62
     8
 10
52.763581275939941
 20
-0.7483959197998047
 30
0.0
 11
54.42607402801513
 21
0.7479190826416016
 31
0.0
  0
LINE
  5
51
  8
0
 62
     8
 10
54.565906524658203
 20
-0.7483959197998047
 30
0.0
 11
56.228399276733391
 21
0.7479190826416016
 31
0.0
  0
LINE
  5
52
  8
0
 62
     8
 10
56.368231773376458
 20
-0.7483959197998047
 30
0.0
 11
58.03072452545166
 21
0.7479190826416016
 31
0.0
  0
LINE
  5
53
  8
0
 10
29.904842376708981
 20
-14.696359634399411
 30
0.0
 11
31.510829925537109
 21
-14.696359634399411
 31
0.0
  0
LINE
  5
54
  8
0
 10
29.904842376708981
 20
-14.696359634399411
 30
0.0
 11
32.170295715332031
 21
-0.7483959197998047
 31
0.0
  0
LINE
  5
55
  8
0
 10
27.642369270324711
 20
-0.7483959197998047
 30
0.0
 11
29.904842376708981
 21
-14.696359634399411
 31
0.0
  0
LINE
  5
56
  8
0
 10
31.510829925537109
 20
-14.696359634399411
 30
0.0
 11
33.776283264160163
 21
-0.7483959197998047
 31
0.0
  0
LINE
  5
57
  8
0
 10
-21.23665809631348
 20
-14.696359634399411
 30
0.0
 11
-20.80631256103516
 21
-14.696359634399411
 31
0.0
  0
LINE
  5
58
  8
0
 10
-21.23665809631348
 20
-14.696359634399411
 30
0.0
 11
-12.79115676879883
 21
-0.7483959197998047
 31
0.0
  0
LINE
  5
59
  8
0
 10
-29.680609703063961
 20
-0.7483959197998047
 30
0.0
 11
-21.23665809631348
 21
-14.696359634399411
 31
0.0
  0
LINE
  5
5A
  8
0
 10
-20.80631256103516
 20
-14.696359634399411
 30
0.0
 11
-12.36081123352051
 21
-0.7483959197998047
 31
0.0
  0
LINE
  5
5B
  8
0
 10
-52.31666564941407
 20
-14.696359634399411
 30
0.0
 11
-51.140904426574707
 21
-14.696359634399411
 31
0.0
  0
LINE
  5
5C
  8
0
 10
-51.140904426574707
 20
-14.696359634399411
 30
0.0
 11
-44.958233833312981
 21
-0.7483959197998047
 31
0.0
  0
LINE
  5
5D
  8
0
 10
-57.323813438415527
 20
-0.7483959197998047
 30
0.0
 11
-51.140904426574707
 21
-14.696359634399411
 31
0.0
  0
LINE
  5
5E
  8
0
 10
-58.497786521911621
 20
-0.7524490356445313
 30
0.0
 11
-52.31666564941407
 21
-14.696359634399411
 31
0.0
  0
LINE
  5
5F
  8
0
 10
20.56634426116943
 20
11.0623836517334
 30
0.0
 11
18.960475921630859
 21
11.0623836517334
 31
0.0
  0
LINE
  5
60
  8
0
 10
21.927714347839348
 20
0.7483959197998047
 30
0.0
 11
20.56634426116943
 21
11.0623836517334
 31
0.0
  0
LINE
  5
61
  8
0
 10
20.32113075256348
 20
0.7526874542236329
 30
0.0
 11
18.960475921630859
 21
11.0623836517334
 31
0.0
  0
LINE
  5
62
  8
0
 10
18.960475921630859
 20
11.0623836517334
 30
0.0
 11
17.599225044250488
 21
0.7483959197998047
 31
0.0
  0
LINE
  5
63
  8
0
 10
5.5112838745117179
 20
11.0623836517334
 30
0.0
 11
5.0809383392333984
 21
11.0623836517334
 31
0.0
  0
LINE
  5
64
  8
0
 10
10.591506958007811
 20
0.7483959197998047
 30
0.0
 11
5.5112838745117179
 21
11.0623836517334
 31
0.0
  0
LINE
  5
65
  8
0
 10
10.16116142272949
 20
0.7483959197998047
 30
0.0
 11
5.0809383392333984
 21
11.0623836517334
 31
0.0
  0
LINE
  5
66
  8
0
 10
5.0809383392333984
 20
11.0623836517334
 30
0.0
 11
0.0005960464477539
 21
0.7483959197998047
 31
0.0
  0
LINE
  5
67
  8
0
 10
-13.8789415359497
 20
11.0623836517334
 30
0.0
 11
-15.05458354949951
 21
11.0623836517334
 31
0.0
  0
LINE
  5
68
  8
0
 10
-15.05458354949951
 20
11.0623836517334
 30
0.0
 11
-18.773555755615231
 21
0.7483959197998047
 31
0.0
  0
LINE
  5
69
  8
0
 10
-10.15985012054443
 20
0.7483959197998047
 30
0.0
 11
-13.8789415359497
 21
11.0623836517334
 31
0.0
  0
LINE
  5
6A
  8
0
 10
-13.8789415359497
 20
11.0623836517334
 30
0.0
 11
-17.59791374206543
 21
0.7483959197998047
 31
0.0
  0
LINE
  5
6B
  8
0
 10
46.792387962341301
 20
-14.696359634399411
 30
0.0
 11
48.398494720458977
 21
-14.696359634399411
 31
0.0
  0
LINE
  5
6C
  8
0
 10
44.52931880950927
 20
-0.7483959197998047
 30
0.0
 11
46.792387962341301
 21
-14.696359634399411
 31
0.0
  0
LINE
  5
6D
  8
0
 10
48.398494720458977
 20
-14.696359634399411
 30
0.0
 11
50.663232803344719
 21
-0.7483959197998047
 31
0.0
  0
LINE
  5
6E
  8
0
 10
46.135306358337402
 20
-0.7483959197998047
 30
0.0
 11
48.398494720458977
 21
-14.696359634399411
 31
0.0
  0
LINE
  5
6F
  8
0
 10
5.0045251846313468
 20
-14.696359634399411
 30
0.0
 11
6.1800479888916007
 21
-14.696359634399411
 31
0.0
  0
LINE
  5
70
  8
0
 10
5.0045251846313468
 20
-14.696359634399411
 30
0.0
 11
10.589599609375
 21
-2.0961761474609371
 31
0.0
  0
LINE
  5
71
  8
0
 10
-0.5812644958496094
 20
-2.0887851715087891
 30
0.0
 11
5.0045251846313468
 21
-14.696359634399411
 31
0.0
  0
LINE
  5
72
  8
0
 10
6.1800479888916007
 20
-14.696359634399411
 30
0.0
 11
11.08062267303467
 21
-3.64089012145996
 31
0.0
  0
LINE
  5
73
  8
0
 10
-42.21761226654052
 20
-14.696359634399411
 30
0.0
 11
-41.7872667312622
 21
-14.696359634399411
 31
0.0
  0
LINE
  5
74
  8
0
 10
-41.7872667312622
 20
-14.696359634399411
 30
0.0
 11
-33.341765403747559
 21
-0.7483959197998047
 31
0.0
  0
LINE
  5
75
  8
0
 10
-47.188639640808113
 20
-5.7744979858398429
 30
0.0
 11
-41.7872667312622
 21
-14.696359634399411
 31
0.0
  0
LINE
  5
76
  8
0
 10
-47.370433807373047
 20
-6.1850547790527344
 30
0.0
 11
-42.21761226654052
 21
-14.696359634399411
 31
0.0
  0
LINE
  5
77
  8
0
 10
42.219519615173333
 20
14.695882797241209
 30
0.0
 11
41.78929328918457
 21
14.695882797241209
 31
0.0
  0
LINE
  5
78
  8
0
 10
47.189831733703613
 20
5.7752132415771484
 30
0.0
 11
41.78929328918457
 21
14.695882797241209
 31
0.0
  0
LINE
  5
79
  8
0
 10
41.78929328918457
 20
14.695882797241209
 30
0.0
 11
33.343672752380371
 21
0.7479190826416016
 31
0.0
  0
LINE
  5
7A
  8
0
 10
47.371625900268548
 20
6.1855316162109366
 30
0.0
 11
42.219519615173333
 21
14.695882797241209
 31
0.0
  0
LINE
  5
7B
  8
0
 10
-5.0051212310791007
 20
14.695882797241209
 30
0.0
 11
-6.180882453918457
 21
14.695882797241209
 31
0.0
  0
LINE
  5
7C
  8
0
 10
0.5823373794555664
 20
2.0880699157714839
 30
0.0
 11
-5.0051212310791007
 21
14.695882797241209
 31
0.0
  0
LINE
  5
7D
  8
0
 10
-5.0051212310791007
 20
14.695882797241209
 30
0.0
 11
-10.589003562927241
 21
2.0983219146728511
 31
0.0
  0
LINE
  5
7E
  8
0
 10
-6.180882453918457
 20
14.695882797241209
 30
0.0
 11
-11.08014583587646
 21
3.643035888671875
 31
0.0
  0
LINE
  5
7F
  8
0
 10
-46.793818473815911
 20
14.695882797241209
 30
0.0
 11
-48.39980602264405
 21
14.695882797241209
 31
0.0
  0
LINE
  5
80
  8
0
 10
-44.53074932098388
 20
0.7479190826416016
 30
0.0
 11
-46.793818473815911
 21
14.695882797241209
 31
0.0
  0
LINE
  5
81
  8
0
 10
-46.136736869812012
 20
0.7479190826416016
 30
0.0
 11
-48.39980602264405
 21
14.695882797241209
 31
0.0
  0
LINE
  5
82
  8
0
 10
-48.39980602264405
 20
14.695882797241209
 30
0.0
 11
-50.662398338317871
 21
0.7479190826416016
 31
0.0
  0
LINE
  5
83
  8
0
 10
13.88013362884521
 20
-11.0626220703125
 30
0.0
 11
15.05577564239502
 21
-11.0626220703125
 31
0.0
  0
LINE
  5
84
  8
0
 10
15.05577564239502
 20
-11.0626220703125
 30
0.0
 11
18.774867057800289
 21
-0.7483959197998047
 31
0.0
  0
LINE
  5
85
  8
0
 10
13.88013362884521
 20
-11.0626220703125
 30
0.0
 11
17.599225044250488
 21
-0.7483959197998047
 31
0.0
  0
LINE
  5
86
  8
0
 10
10.16116142272949
 20
-0.7483959197998047
 30
0.0
 11
13.88013362884521
 21
-11.0626220703125
 31
0.0
  0
LINE
  5
87
  8
0
 10
-5.5098533630371094
 20
-11.0626220703125
 30
0.0
 11
-5.079627037048339
 21
-11.0626220703125
 31
0.0
  0
LINE
  5
88
  8
0
 10
-10.5900764465332
 20
-0.7483959197998047
 30
0.0
 11
-5.5098533630371094
 21
-11.0626220703125
 31
0.0
  0
LINE
  5
89
  8
0
 10
-5.079627037048339
 20
-11.0626220703125
 30
0.0
 11
0.0005960464477539
 21
-0.7483959197998047
 31
0.0
  0
LINE
  5
8A
  8
0
 10
-10.15985012054443
 20
-0.7483959197998047
 30
0.0
 11
-5.079627037048339
 21
-11.0626220703125
 31
0.0
  0
LINE
  5
8B
  8
0
 10
-20.565152168273929
 20
-11.0626220703125
 30
0.0
 11
-18.959164619445801
 21
-11.0626220703125
 31
0.0
  0
LINE
  5
8C
  8
0
 10
-21.9264030456543
 20
-0.7483959197998047
 30
0.0
 11
-20.565152168273929
 21
-11.0626220703125
 31
0.0
  0
LINE
  5
8D
  8
0
 10
-18.959164619445801
 20
-11.0626220703125
 30
0.0
 11
-17.59791374206543
 21
-0.7483959197998047
 31
0.0
  0
LINE
  5
8E
  8
0
 10
-20.32005786895752
 20
-0.7524490356445313
 30
0.0
 11
-18.959164619445801
 21
-11.0623836517334
 31
0.0
  0
LINE
  5
8F
  8
0
 10
52.319645881652832
 20
14.695882797241209
 30
0.0
 11
51.14400386810302
 21
14.695882797241209
 31
0.0
  0
LINE
  5
90
  8
0
 10
57.325482368469231
 20
0.7479190826416016
 30
0.0
 11
51.14400386810302
 21
14.695882797241209
 31
0.0
  0
LINE
  5
91
  8
0
 10
51.14400386810302
 20
14.695882797241209
 30
0.0
 11
44.961452484130852
 21
0.7479190826416016
 31
0.0
  0
LINE
  5
92
  8
0
 10
58.49921703338623
 20
0.7526874542236329
 30
0.0
 11
52.319645881652832
 21
14.695882797241209
 31
0.0
  0
LINE
  5
93
  8
0
 10
21.23725414276123
 20
14.695882797241209
 30
0.0
 11
20.80690860748291
 21
14.695882797241209
 31
0.0
  0
LINE
  5
94
  8
0
 10
29.681205749511719
 20
0.7479190826416016
 30
0.0
 11
21.23725414276123
 21
14.695882797241209
 31
0.0
  0
LINE
  5
95
  8
0
 10
21.23725414276123
 20
14.695882797241209
 30
0.0
 11
12.791633605957029
 21
0.7479190826416016
 31
0.0
  0
LINE
  5
96
  8
0
 10
20.80690860748291
 20
14.695882797241209
 30
0.0
 11
12.361288070678709
 21
0.7479190826416016
 31
0.0
  0
LINE
  5
97
  8
0
 10
-29.906153678894039
 20
14.695882797241209
 30
0.0
 11
-31.512141227722172
 21
14.695882797241209
 31
0.0
  0
LINE
  5
98
  8
0
 10
-27.643680572509769
 20
0.7479190826416016
 30
0.0
 11
-29.906153678894039
 21
14.695882797241209
 31
0.0
  0
LINE
  5
99
  8
0
 10
-29.906153678894039
 20
14.695882797241209
 30
0.0
 11
-32.169222831726067
 21
0.7479190826416016
 31
0.0
  0
LINE
  5
9A
  8
0
 10
-31.512141227722172
 20
14.695882797241209
 30
0.0
 11
-33.775210380554199
 21
0.7479190826416016
 31
0.0
  0
LINE
  5
9B
  8
0
 10
58.500409126281731
 20
-0.7483959197998047
 30
0.0
 11
58.500409126281731
 21
0.7481575012207032
 31
0.0
  0
LINE
  5
9C
  8
0
 10
-58.498382568359382
 20
0.7481575012207032
 30
0.0
 11
-58.498382568359382
 21
-0.7483959197998047
 31
0.0
  0
LINE
  5
9D
  8
0
 10
20.32172679901123
 20
-0.7483959197998047
 30
0.0
 11
20.32172679901123
 21
0.7483959197998047
 31
0.0
  0
LINE
  5
9E
  8
0
 10
-20.320415496826168
 20
0.7483959197998047
 30
0.0
 11
-20.320415496826168
 21
-0.7483959197998047
 31
0.0
  0
LINE
  5
9F
  8
0
 10
58.49921703338623
 20
-0.7483959197998047
 30
0.0
 11
-58.498382568359382
 21
-0.7483959197998047
 31
0.0
  0
LINE
  5
A0
  8
0
 10
58.49921703338623
 20
0.7481575012207032
 30
0.0
 11
-58.498382568359382
 21
0.7481575012207032
 31
0.0
  0
ENDSEC
  0
EOF
