  0
SECTION
  2
HEADER
  9
$ACADVER
  1
AC1009
  9
$INSBASE
 10
0.0
 20
0.0
 30
0.0
  9
$EXTMIN
 10
-58.86621362596383
 20
-182.47710896837191
 30
0.0
  9
$EXTMAX
 10
61.133786374036163
 20
110.0
 30
0.0
  9
$LIMMIN
 10
0.0
 20
0.0
  9
$LIMMAX
 10
12.0
 20
9.0
  9
$ORTHOMODE
 70
     0
  9
$REGENMODE
 70
     1
  9
$FILLMODE
 70
     1
  9
$QTEXTMODE
 70
     0
  9
$MIRRTEXT
 70
     1
  9
$DRAGMODE
 70
     2
  9
$LTSCALE
 40
1.0
  9
$OSMODE
 70
    47
  9
$ATTMODE
 70
     1
  9
$TEXTSIZE
 40
3.5
  9
$TRACEWID
 40
0.05
  9
$TEXTSTYLE
  7
SST
  9
$CLAYER
  8
0
  9
$CELTYPE
  6
BYLAYER
  9
$CECOLOR
 62
   256
  9
$DIMSCALE
 40
1.0
  9
$DIMASZ
 40
0.18
  9
$DIMEXO
 40
0.0625
  9
$DIMDLI
 40
0.38
  9
$DIMRND
 40
0.0
  9
$DIMDLE
 40
0.0
  9
$DIMEXE
 40
0.18
  9
$DIMTP
 40
0.0
  9
$DIMTM
 40
0.0
  9
$DIMTXT
 40
0.18
  9
$DIMCEN
 40
0.09
  9
$DIMTSZ
 40
0.0
  9
$DIMTOL
 70
     0
  9
$DIMLIM
 70
     0
  9
$DIMTIH
 70
     1
  9
$DIMTOH
 70
     1
  9
$DIMSE1
 70
     0
  9
$DIMSE2
 70
     0
  9
$DIMTAD
 70
     0
  9
$DIMZIN
 70
     0
  9
$DIMBLK
  1

  9
$DIMASO
 70
     1
  9
$DIMSHO
 70
     1
  9
$DIMPOST
  1

  9
$DIMAPOST
  1

  9
$DIMALT
 70
     0
  9
$DIMALTD
 70
     2
  9
$DIMALTF
 40
25.399999999999999
  9
$DIMLFAC
 40
1.0
  9
$DIMTOFL
 70
     0
  9
$DIMTVP
 40
0.0
  9
$DIMTIX
 70
     0
  9
$DIMSOXD
 70
     0
  9
$DIMSAH
 70
     0
  9
$DIMBLK1
  1

  9
$DIMBLK2
  1

  9
$DIMSTYLE
  2
STANDARD
  9
$DIMCLRD
 70
     0
  9
$DIMCLRE
 70
     0
  9
$DIMCLRT
 70
     0
  9
$DIMTFAC
 40
1.0
  9
$DIMGAP
 40
0.09
  9
$LUNITS
 70
     2
  9
$LUPREC
 70
     4
  9
$SKETCHINC
 40
0.1
  9
$FILLETRAD
 40
0.5
  9
$AUNITS
 70
     0
  9
$AUPREC
 70
     0
  9
$MENU
  1
.
  9
$ELEVATION
 40
0.0
  9
$PELEVATION
 40
0.0
  9
$THICKNESS
 40
0.0
  9
$LIMCHECK
 70
     0
  9
$BLIPMODE
 70
     0
  9
$CHAMFERA
 40
0.5
  9
$CHAMFERB
 40
0.5
  9
$SKPOLY
 70
     0
  9
$TDCREATE
 40
2453178.5116131371
  9
$TDUPDATE
 40
2453443.5708521418
  9
$TDINDWG
 40
0.0068807292
  9
$TDUSRTIMER
 40
0.0068807292
  9
$USRTIMER
 70
     1
  9
$ANGBASE
 50
0.0
  9
$ANGDIR
 70
     0
  9
$PDMODE
 70
     0
  9
$PDSIZE
 40
0.0
  9
$PLINEWID
 40
0.0
  9
$COORDS
 70
     1
  9
$SPLFRAME
 70
     0
  9
$SPLINETYPE
 70
     6
  9
$SPLINESEGS
 70
     8
  9
$ATTDIA
 70
     0
  9
$ATTREQ
 70
     1
  9
$HANDLING
 70
     1
  9
$HANDSEED
  5
16D
  9
$SURFTAB1
 70
     6
  9
$SURFTAB2
 70
     6
  9
$SURFTYPE
 70
     6
  9
$SURFU
 70
     6
  9
$SURFV
 70
     6
  9
$UCSNAME
  2

  9
$UCSORG
 10
0.0
 20
0.0
 30
0.0
  9
$UCSXDIR
 10
1.0
 20
0.0
 30
0.0
  9
$UCSYDIR
 10
0.0
 20
1.0
 30
0.0
  9
$PUCSNAME
  2

  9
$PUCSORG
 10
0.0
 20
0.0
 30
0.0
  9
$PUCSXDIR
 10
1.0
 20
0.0
 30
0.0
  9
$PUCSYDIR
 10
0.0
 20
1.0
 30
0.0
  9
$USERI1
 70
     0
  9
$USERI2
 70
     0
  9
$USERI3
 70
     0
  9
$USERI4
 70
     0
  9
$USERI5
 70
     0
  9
$USERR1
 40
0.0
  9
$USERR2
 40
0.0
  9
$USERR3
 40
0.0
  9
$USERR4
 40
0.0
  9
$USERR5
 40
0.0
  9
$WORLDVIEW
 70
     1
  9
$SHADEDGE
 70
     3
  9
$SHADEDIF
 70
    70
  9
$TILEMODE
 70
     1
  9
$MAXACTVP
 70
    64
  9
$PLIMCHECK
 70
     0
  9
$PEXTMIN
 10
1.0000000000000000E+020
 20
1.0000000000000000E+020
 30
1.0000000000000000E+020
  9
$PEXTMAX
 10
-1.0000000000000000E+020
 20
-1.0000000000000000E+020
 30
-1.0000000000000000E+020
  9
$PLIMMIN
 10
0.0
 20
0.0
  9
$PLIMMAX
 10
12.0
 20
9.0
  9
$UNITMODE
 70
     0
  9
$VISRETAIN
 70
     1
  9
$PLINEGEN
 70
     0
  9
$PSLTSCALE
 70
     1
  0
ENDSEC
  0
SECTION
  2
TABLES
  0
TABLE
  2
VPORT
 70
     2
  0
VPORT
  2
*ACTIVE
 70
     0
 10
0.0
 20
0.0
 11
1.0
 21
1.0
 12
-101.2269119323701
 22
-108.849013032697
 13
0.0
 23
0.0
 14
0.5
 24
0.5
 15
0.5
 25
0.5
 16
0.0
 26
0.0
 36
1.0
 17
0.0
 27
0.0
 37
0.0
 40
768.59115272284726
 41
1.4993646759847521
 42
50.0
 43
0.0
 44
0.0
 50
0.0
 51
0.0
 71
     0
 72
   100
 73
     1
 74
     3
 75
     0
 76
     0
 77
     0
 78
     0
  0
ENDTAB
  0
TABLE
  2
LTYPE
 70
     2
  0
LTYPE
  2
CONTINUOUS
 70
     0
  3
Solid line
 72
    65
 73
     0
 40
0.0
  0
LTYPE
  2
HIDDEN
 70
     0
  3
__ __ __ __ __ __ __ __ __ __ __ __ __ __ __ __
 72
    65
 73
     2
 40
0.375
 49
0.25
 49
-0.125
  0
ENDTAB
  0
TABLE
  2
LAYER
 70
     1
  0
LAYER
  2
0
 70
     0
 62
     7
  6
CONTINUOUS
  0
ENDTAB
  0
TABLE
  2
STYLE
 70
     2
  0
STYLE
  2
STANDARD
 70
     0
 40
0.0
 41
1.0
 50
0.0
 71
     0
 42
0.2
  3
txt
  4

  0
STYLE
  2
SST
 70
     0
 40
0.0
 41
1.0
 50
0.0
 71
     0
 42
3.5
  3
romans.shx
  4

  0
ENDTAB
  0
TABLE
  2
VIEW
 70
     0
  0
ENDTAB
  0
TABLE
  2
UCS
 70
     0
  0
ENDTAB
  0
TABLE
  2
APPID
 70
     1
  0
APPID
  2
ACAD
 70
     0
  0
ENDTAB
  0
TABLE
  2
DIMSTYLE
 70
     1
  0
DIMSTYLE
  2
STANDARD
 70
     0
  3

  4

  5

  6

  7

 40
1.0
 41
0.18
 42
0.0625
 43
0.38
 44
0.18
 45
0.0
 46
0.0
 47
0.0
 48
0.0
140
0.18
141
0.09
142
0.0
143
25.399999999999999
144
1.0
145
0.0
146
1.0
147
0.09
 71
     0
 72
     0
 73
     1
 74
     1
 75
     0
 76
     0
 77
     0
 78
     0
170
     0
171
     2
172
     0
173
     0
174
     0
175
     0
176
     0
177
     0
178
     0
  0
ENDTAB
  0
ENDSEC
  0
SECTION
  2
BLOCKS
  0
BLOCK
  8
0
  2
$MODEL_SPACE
 70
     0
 10
0.0
 20
0.0
 30
0.0
  3
$MODEL_SPACE
  1

  0
ENDBLK
  5
9
  8
0
  0
BLOCK
 67
     1
  8
0
  2
$PAPER_SPACE
 70
     0
 10
0.0
 20
0.0
 30
0.0
  3
$PAPER_SPACE
  1

  0
ENDBLK
  5
E
 67
     1
  8
0
  0
ENDSEC
  0
SECTION
  2
ENTITIES
  0
CIRCLE
  5
29
  8
0
 10
0.9852813742386388
 20
-53.959949980279077
 30
0.0
 40
2.5
  0
LINE
  5
2A
  8
0
  6
HIDDEN
 62
     8
 10
10.985281374238641
 20
-33.971550721219963
 30
0.0
 11
10.985281374238641
 21
-66.999999999999886
 31
0.0
  0
LINE
  5
2C
  8
0
  6
HIDDEN
 62
     8
 10
-9.0147186257609064
 20
-33.948322261279827
 30
0.0
 11
-9.0147186257609064
 21
-66.999999999999886
 31
0.0
  0
LINE
  5
2D
  8
0
 10
-14.64526862576167
 20
-132.9827999999998
 30
0.0
 11
-14.64526862576167
 21
-35.059199999999919
 31
0.0
  0
LINE
  5
2E
  8
0
 10
16.615831374238041
 20
-35.059199999999919
 30
0.0
 11
16.615831374238041
 21
-132.9827999999998
 31
0.0
  0
LINE
  5
2F
  8
0
 10
-6.8207291051398888
 20
-132.8021
 30
0.0
 11
-6.820729105138752
 21
-35.239900000000027
 31
0.0
  0
LINE
  5
30
  8
0
 10
8.7912918536148936
 20
-132.8021
 30
0.0
 11
8.7912918536160305
 21
-35.239900000000027
 31
0.0
  0
LINE
  5
31
  8
0
 10
-15.116213625963841
 20
-174.47710896837191
 30
0.0
 11
61.133786374036163
 21
-174.47710896837191
 31
0.0
  0
LINE
  5
32
  8
0
 10
14.13378637403571
 20
-174.47710896837191
 30
0.0
 11
61.133786374036163
 21
-174.47710896837191
 31
0.0
  0
LINE
  5
33
  8
0
 10
61.133786374036163
 20
-182.47710896837191
 30
0.0
 11
-58.86621362596383
 21
-182.47710896837191
 31
0.0
  0
LINE
  5
34
  8
0
 10
-8.8662136259642921
 20
-168.22710896837191
 30
0.0
 11
-15.116213625963841
 21
-174.47710896837191
 31
0.0
  0
POLYLINE
  5
35
  8
0
 66
     1
 10
0.0
 20
0.0
 30
0.0
  0
VERTEX
  5
AD
  8
0
 10
-7.5059595909635837
 20
-135.25210896837149
 30
0.0
 42
0.250327623522266
  0
VERTEX
  5
AE
  8
0
 10
-7.6947547918598502
 20
-134.8986430759326
 30
0.0
 42
0.0799961714157395
  0
VERTEX
  5
AF
  8
0
 10
-8.7742244309902162
 20
-134.4035808309477
 30
0.0
 42
0.0390332174113539
  0
VERTEX
  5
B0
  8
0
 10
-10.056336183615249
 20
-134.15392364819499
 30
0.0
 42
0.0285802753297458
  0
VERTEX
  5
B1
  8
0
 10
-11.836086608464029
 20
-134.05210896837181
 30
0.0
 42
0.0285802753297599
  0
VERTEX
  5
B2
  8
0
 10
-13.61583703331234
 20
-134.15392364819499
 30
0.0
 42
0.039033217411367
  0
VERTEX
  5
B3
  8
0
 10
-14.897948785937389
 20
-134.4035808309477
 30
0.0
 42
0.0799961714157395
  0
VERTEX
  5
B4
  8
0
 10
-15.97741842506775
 20
-134.8986430759326
 30
0.0
 42
0.2503276235222661
  0
VERTEX
  5
B5
  8
0
 10
-16.166213625963788
 20
-135.25210896837149
 30
0.0
 42
0.2503276235223326
  0
SEQEND
  5
B6
  8
0
  0
POLYLINE
  5
36
  8
0
 66
     1
 10
0.0
 20
0.0
 30
0.0
  0
VERTEX
  5
B7
  8
0
 10
-7.5059595909635837
 20
-135.25210896837149
 30
0.0
 42
0.250327623522266
  0
VERTEX
  5
B8
  8
0
 10
-7.6947547918598502
 20
-134.8986430759326
 30
0.0
 42
0.0799961714157395
  0
VERTEX
  5
B9
  8
0
 10
-8.7742244309902162
 20
-134.4035808309477
 30
0.0
 42
0.0390332174113539
  0
VERTEX
  5
BA
  8
0
 10
-10.056336183615031
 20
-134.15392364819499
 30
0.0
 42
0.0285802753297458
  0
VERTEX
  5
BB
  8
0
 10
-11.836086608464029
 20
-134.05210896837181
 30
0.0
 42
0.0285802753297599
  0
VERTEX
  5
BC
  8
0
 10
-13.61583703331234
 20
-134.15392364819499
 30
0.0
 42
0.039033217411367
  0
VERTEX
  5
BD
  8
0
 10
-14.89794878593716
 20
-134.4035808309477
 30
0.0
 42
0.0799961714157395
  0
VERTEX
  5
BE
  8
0
 10
-15.97741842506775
 20
-134.8986430759326
 30
0.0
 42
0.2503276235222661
  0
VERTEX
  5
BF
  8
0
 10
-16.166213625964019
 20
-135.25210896837149
 30
0.0
 42
0.2503276235223326
  0
SEQEND
  5
C0
  8
0
  0
POLYLINE
  5
37
  8
0
 66
     1
 10
0.0
 20
0.0
 30
0.0
  0
VERTEX
  5
C1
  8
0
 10
-16.166213625964019
 20
-148.8521089683716
 30
0.0
 42
0.2534364434840665
  0
VERTEX
  5
C2
  8
0
 10
-15.98068304643334
 20
-149.1946286594829
 30
0.0
 42
0.0786828100544145
  0
VERTEX
  5
C3
  8
0
 10
-14.89794878593716
 20
-149.67933408742431
 30
0.0
 42
0.0381250023077343
  0
VERTEX
  5
C4
  8
0
 10
-13.61650463854107
 20
-149.92267011714921
 30
0.0
 42
0.0278683718914965
  0
VERTEX
  5
C5
  8
0
 10
-11.836086608464029
 20
-150.0219819508718
 30
0.0
 42
0.027868371891505
  0
VERTEX
  5
C6
  8
0
 10
-10.05566857838744
 20
-149.92267011714921
 30
0.0
 42
0.0381250023077727
  0
VERTEX
  5
C7
  8
0
 10
-8.7742244309906692
 20
-149.67933408742431
 30
0.0
 42
0.0786828100544049
  0
VERTEX
  5
C8
  8
0
 10
-7.6914901704940339
 20
-149.1946286594829
 30
0.0
 42
0.2534364434840056
  0
VERTEX
  5
C9
  8
0
 10
-7.5059595909640393
 20
-148.8521089683716
 30
0.0
 42
0.2534364434839675
  0
SEQEND
  5
CA
  8
0
  0
LINE
  5
38
  8
0
 10
-58.86621362596383
 20
-174.47710896837191
 30
0.0
 11
-11.86621362596383
 21
-174.47710896837191
 31
0.0
  0
LINE
  5
39
  8
0
 10
-58.86621362596383
 20
-182.47710896837191
 30
0.0
 11
-58.86621362596383
 21
-174.47710896837191
 31
0.0
  0
LINE
  5
3A
  8
0
 10
-16.166213625964019
 20
-148.8521089683716
 30
0.0
 11
-16.166213625964019
 21
-135.2521089683718
 31
0.0
  0
LINE
  5
3B
  8
0
 10
-16.166213625964019
 20
-148.8521089683716
 30
0.0
 11
-16.166213625964019
 21
-135.2521089683718
 31
0.0
  0
LINE
  5
3C
  8
0
  6
HIDDEN
 62
     8
 10
-8.8662136259638373
 20
-150.06372319834151
 30
0.0
 11
-8.8662136259638373
 21
-101.22710896837179
 31
0.0
  0
LINE
  5
3D
  8
0
  6
HIDDEN
 62
     8
 10
11.133786374036159
 20
-150.04049473840169
 30
0.0
 11
11.133786374036159
 21
-101.22710896837179
 31
0.0
  0
POLYLINE
  5
3E
  8
0
 66
     1
 10
0.0
 20
0.0
 30
0.0
  0
VERTEX
  5
CB
  8
0
 10
9.7735323390361373
 20
-135.45210896837179
 30
0.0
 42
0.3087600251391162
  0
VERTEX
  5
CC
  8
0
 10
9.5231444462428954
 20
-135.08529055409929
 30
0.0
 42
0.0531135643178668
  0
VERTEX
  5
CD
  8
0
 10
7.2430093336170103
 20
-134.4621594747106
 30
0.0
 42
0.0234107934291695
  0
VERTEX
  5
CE
  8
0
 10
4.7028555385793416
 20
-134.1717521729704
 30
0.0
 42
0.0167564154642976
  0
VERTEX
  5
CF
  8
0
 10
1.13378637403639
 20
-134.05210896837181
 30
0.0
 42
0.0167564154642939
  0
VERTEX
  5
D0
  8
0
 10
-2.435282790505652
 20
-134.1717521729704
 30
0.0
 42
0.0234107934291787
  0
VERTEX
  5
D1
  8
0
 10
-4.9754365855442302
 20
-134.4621594747106
 30
0.0
 42
0.0531135643178467
  0
VERTEX
  5
D2
  8
0
 10
-7.2555716981707974
 20
-135.08529055409929
 30
0.0
 42
0.3087600251390752
  0
VERTEX
  5
D3
  8
0
 10
-7.5059595909635837
 20
-135.45210896837179
 30
0.0
 42
0.3087600251390838
  0
SEQEND
  5
D4
  8
0
  0
LINE
  5
3F
  8
0
 10
14.1036593565359
 20
-134.08223598587179
 30
0.0
 11
-11.836086608464029
 21
-134.05210896837181
 31
0.0
  0
LINE
  5
40
  8
0
 10
12.70356161392715
 20
-134.05339011984429
 30
0.0
 11
-10.732998865450551
 21
-134.08060988015541
 31
0.0
  0
POLYLINE
  5
41
  8
0
 66
     1
 10
0.0
 20
0.0
 30
0.0
  0
VERTEX
  5
D5
  8
0
 10
8.7912918536160305
 20
-132.8021
 30
0.0
 42
-0.3087600251391162
  0
VERTEX
  5
D6
  8
0
 10
8.5650663924770924
 20
-133.13352043729469
 30
0.0
 42
-0.0531135643178668
  0
VERTEX
  5
D7
  8
0
 10
6.5049643182196633
 20
-133.69651936752271
 30
0.0
 42
-0.0234107934291695
  0
VERTEX
  5
D8
  8
0
 10
4.2099353644027806
 20
-133.95890236464501
 30
0.0
 42
-0.0167564154642976
  0
VERTEX
  5
D9
  8
0
 10
0.9852813742386388
 20
-134.06699999999981
 30
0.0
 42
-0.0167564154642939
  0
VERTEX
  5
DA
  8
0
 10
-2.239372615925503
 20
-133.95890236464501
 30
0.0
 42
-0.0234107934291787
  0
VERTEX
  5
DB
  8
0
 10
-4.5344015697423847
 20
-133.69651936752271
 30
0.0
 42
-0.0531135643178467
  0
VERTEX
  5
DC
  8
0
 10
-6.594503644000496
 20
-133.133520437295
 30
0.0
 42
-0.3087600251390752
  0
VERTEX
  5
DD
  8
0
 10
-6.8207291051392067
 20
-132.8021
 30
0.0
 42
-0.3087600251390838
  0
SEQEND
  5
DE
  8
0
  0
LINE
  5
42
  8
0
 10
-8.049718625761443
 20
-134.06699999999981
 30
0.0
 11
10.02028137423849
 21
-134.06699999999981
 31
0.0
  0
LINE
  5
43
  8
0
 10
-8.049718625761443
 20
-134.06699999999981
 30
0.0
 11
10.02028137423849
 21
-134.06699999999981
 31
0.0
  0
POLYLINE
  5
44
  8
0
 66
     1
 10
0.0
 20
0.0
 30
0.0
  0
VERTEX
  5
DF
  8
0
 10
8.7912918536160305
 20
-132.8021
 30
0.0
 42
-0.3087600251391162
  0
VERTEX
  5
E0
  8
0
 10
8.5650663924770924
 20
-133.13352043729469
 30
0.0
 42
-0.0531135643178668
  0
VERTEX
  5
E1
  8
0
 10
6.5049643182196633
 20
-133.69651936752271
 30
0.0
 42
-0.0234107934291695
  0
VERTEX
  5
E2
  8
0
 10
4.2099353644027806
 20
-133.95890236464501
 30
0.0
 42
-0.0167564154642976
  0
VERTEX
  5
E3
  8
0
 10
0.9852813742386388
 20
-134.06699999999981
 30
0.0
 42
-0.0167564154642939
  0
VERTEX
  5
E4
  8
0
 10
-2.239372615925503
 20
-133.95890236464501
 30
0.0
 42
-0.0234107934291787
  0
VERTEX
  5
E5
  8
0
 10
-4.5344015697423847
 20
-133.69651936752271
 30
0.0
 42
-0.0531135643178467
  0
VERTEX
  5
E6
  8
0
 10
-6.594503644000496
 20
-133.133520437295
 30
0.0
 42
-0.3087600251390752
  0
VERTEX
  5
E7
  8
0
 10
-6.8207291051392067
 20
-132.8021
 30
0.0
 42
-0.3087600251390838
  0
SEQEND
  5
E8
  8
0
  0
LINE
  5
45
  8
0
 10
12.70356161392715
 20
-134.05339011984429
 30
0.0
 11
-10.732998865450551
 21
-134.08060988015541
 31
0.0
  0
LINE
  5
46
  8
0
 10
14.1036593565359
 20
-134.08223598587179
 30
0.0
 11
-11.836086608464029
 21
-134.05210896837181
 31
0.0
  0
POLYLINE
  5
47
  8
0
 66
     1
 10
0.0
 20
0.0
 30
0.0
  0
VERTEX
  5
E9
  8
0
 10
9.7735323390361373
 20
-135.45210896837179
 30
0.0
 42
0.3087600251391162
  0
VERTEX
  5
EA
  8
0
 10
9.5231444462428954
 20
-135.08529055409929
 30
0.0
 42
0.0531135643178668
  0
VERTEX
  5
EB
  8
0
 10
7.2430093336170103
 20
-134.4621594747106
 30
0.0
 42
0.0234107934291695
  0
VERTEX
  5
EC
  8
0
 10
4.7028555385793416
 20
-134.1717521729704
 30
0.0
 42
0.0167564154642976
  0
VERTEX
  5
ED
  8
0
 10
1.13378637403639
 20
-134.05210896837181
 30
0.0
 42
0.0167564154642939
  0
VERTEX
  5
EE
  8
0
 10
-2.435282790505652
 20
-134.1717521729704
 30
0.0
 42
0.0234107934291787
  0
VERTEX
  5
EF
  8
0
 10
-4.9754365855442302
 20
-134.4621594747106
 30
0.0
 42
0.0531135643178467
  0
VERTEX
  5
F0
  8
0
 10
-7.2555716981707974
 20
-135.08529055409929
 30
0.0
 42
0.3087600251390752
  0
VERTEX
  5
F1
  8
0
 10
-7.5059595909635837
 20
-135.45210896837179
 30
0.0
 42
0.3087600251390838
  0
SEQEND
  5
F2
  8
0
  0
LINE
  5
48
  8
0
 10
-8.8662136259642921
 20
-159.8111710038078
 30
0.0
 11
11.13378637403571
 21
-157.9107185151199
 31
0.0
  0
LINE
  5
49
  8
0
 10
-8.8662136259642921
 20
-161.31792776025441
 30
0.0
 11
11.13378637403571
 21
-159.41747527156659
 31
0.0
  0
LINE
  5
4A
  8
0
 10
-8.8662136259642921
 20
-162.8246845167011
 30
0.0
 11
11.13378637403571
 21
-160.92423202801319
 31
0.0
  0
LINE
  5
4B
  8
0
 10
-8.8662136259642921
 20
-164.6111710038077
 30
0.0
 11
11.13378637403571
 21
-162.71071851511991
 31
0.0
  0
LINE
  5
4C
  8
0
 10
-8.8662136259642921
 20
-168.52468451670109
 30
0.0
 11
11.13378637403571
 21
-166.62423202801321
 31
0.0
  0
LINE
  5
4D
  8
0
 10
-8.8662136259642921
 20
-167.01792776025439
 30
0.0
 11
11.13378637403571
 21
-165.1174752715666
 31
0.0
  0
LINE
  5
4E
  8
0
 10
-8.8662136259642921
 20
-165.71117100380781
 30
0.0
 11
11.13378637403571
 21
-163.8107185151199
 31
0.0
  0
POLYLINE
  5
4F
  8
0
 66
     1
 10
0.0
 20
0.0
 30
0.0
  0
VERTEX
  5
F3
  8
0
 10
9.7735323390361373
 20
-148.65210896837181
 30
0.0
 42
-0.3087600251391162
  0
VERTEX
  5
F4
  8
0
 10
9.5231444462428954
 20
-149.01892738264371
 30
0.0
 42
-0.0531135643178668
  0
VERTEX
  5
F5
  8
0
 10
7.2430093336170103
 20
-149.64205846203279
 30
0.0
 42
-0.0234107934291695
  0
VERTEX
  5
F6
  8
0
 10
4.7028555385788868
 20
-149.932465763773
 30
0.0
 42
-0.0167564154642976
  0
VERTEX
  5
F7
  8
0
 10
1.13378637403639
 20
-150.05210896837161
 30
0.0
 42
-0.0167564154642939
  0
VERTEX
  5
F8
  8
0
 10
-2.4352827905061072
 20
-149.932465763773
 30
0.0
 42
-0.0234107934291787
  0
VERTEX
  5
F9
  8
0
 10
-4.9754365855442302
 20
-149.64205846203279
 30
0.0
 42
-0.0531135643178467
  0
VERTEX
  5
FA
  8
0
 10
-7.2555716981707974
 20
-149.01892738264411
 30
0.0
 42
-0.3087600251390752
  0
VERTEX
  5
FB
  8
0
 10
-7.5059595909640393
 20
-148.65210896837181
 30
0.0
 42
-0.3087600251390838
  0
SEQEND
  5
FC
  8
0
  0
LINE
  5
50
  8
0
 10
-8.8662136259638373
 20
-150.05210896837161
 30
0.0
 11
11.133786374036159
 21
-150.05210896837161
 31
0.0
  0
LINE
  5
51
  8
0
 10
14.1036593565359
 20
-150.03704545962171
 30
0.0
 11
-11.836086608464029
 21
-150.0671724771216
 31
0.0
  0
LINE
  5
52
  8
0
 10
-8.8662136259642921
 20
-152.2638737086813
 30
0.0
 11
11.13378637403571
 21
-150.3634212199938
 31
0.0
  0
LINE
  5
53
  8
0
 10
-8.8662136259642921
 20
-156.78414397802121
 30
0.0
 11
11.13378637403571
 21
-154.88369148933339
 31
0.0
  0
LINE
  5
54
  8
0
 10
-8.8662136259642921
 20
-158.29090073446781
 30
0.0
 11
11.13378637403571
 21
-156.39044824577999
 31
0.0
  0
LINE
  5
55
  8
0
 10
-8.8662136259642921
 20
-155.2773872215746
 30
0.0
 11
11.13378637403571
 21
-153.37693473288709
 31
0.0
  0
LINE
  5
56
  8
0
 10
-8.8662136259642921
 20
-153.77063046512799
 30
0.0
 11
11.13378637403571
 21
-151.8701779764404
 31
0.0
  0
LINE
  5
57
  8
0
 10
-8.8662136259642921
 20
-168.22710896837191
 30
0.0
 11
11.133786374036159
 21
-168.22710896837191
 31
0.0
  0
LINE
  5
58
  8
0
 10
-6.9912136259638373
 20
-168.22710896837179
 30
0.0
 11
-6.9912136259638373
 21
-150.06154553022211
 31
0.0
  0
LINE
  5
59
  8
0
 10
-8.8662136259638373
 20
-168.22710896837179
 30
0.0
 11
-8.8662136259638373
 21
-150.06372319834151
 31
0.0
  0
LINE
  5
5A
  8
0
 10
-8.8662136259642921
 20
-150.7571169522347
 30
0.0
 11
-1.478776183500031
 21
-150.05514325860699
 31
0.0
  0
POLYLINE
  5
5B
  8
0
 66
     1
 10
0.0
 20
0.0
 30
0.0
  0
VERTEX
  5
FD
  8
0
 10
-7.5059595909635837
 20
-135.45210896837179
 30
0.0
  0
VERTEX
  5
FE
  8
0
 10
-7.5059595909642658
 20
-148.8521089683716
 30
0.0
  0
SEQEND
  5
FF
  8
0
  0
POLYLINE
  5
5C
  8
0
 66
     1
 10
0.0
 20
0.0
 30
0.0
  0
VERTEX
  5
100
  8
0
 10
-7.5059595909635837
 20
-135.45210896837179
 30
0.0
  0
VERTEX
  5
101
  8
0
 10
-7.5059595909640393
 20
-148.8521089683716
 30
0.0
  0
SEQEND
  5
102
  8
0
  0
POLYLINE
  5
5D
  8
0
 66
     1
 10
0.0
 20
0.0
 30
0.0
  0
VERTEX
  5
103
  8
0
 10
-14.64526862576167
 20
-132.9827999999998
 30
0.0
 42
0.2534364434840665
  0
VERTEX
  5
104
  8
0
 10
-14.47764174715576
 20
-133.29226654091889
 30
0.0
 42
0.0786828100544145
  0
VERTEX
  5
105
  8
0
 10
-13.49939134279748
 20
-133.73019789506401
 30
0.0
 42
0.0381250023077343
  0
VERTEX
  5
106
  8
0
 10
-12.34160655562505
 20
-133.95005199792041
 30
0.0
 42
0.0278683718914965
  0
VERTEX
  5
107
  8
0
 10
-10.73299886545032
 20
-134.03978023968881
 30
0.0
 42
0.027868371891505
  0
VERTEX
  5
108
  8
0
 10
-9.1243911752762852
 20
-133.95005199792041
 30
0.0
 42
0.0381250023077727
  0
VERTEX
  5
109
  8
0
 10
-7.9666063881031732
 20
-133.73019789506401
 30
0.0
 42
0.0786828100544049
  0
VERTEX
  5
10A
  8
0
 10
-6.9883559837446683
 20
-133.29226654091889
 30
0.0
 42
0.2534364434840056
  0
VERTEX
  5
10B
  8
0
 10
-6.8207291051392067
 20
-132.9827999999998
 30
0.0
 42
0.2534364434839675
  0
SEQEND
  5
10C
  8
0
  0
POLYLINE
  5
5E
  8
0
 66
     1
 10
0.0
 20
0.0
 30
0.0
  0
VERTEX
  5
10D
  8
0
 10
-14.64526862576167
 20
-132.9827999999998
 30
0.0
 42
0.2534364434840665
  0
VERTEX
  5
10E
  8
0
 10
-14.47764174715576
 20
-133.29226654091889
 30
0.0
 42
0.0786828100544145
  0
VERTEX
  5
10F
  8
0
 10
-13.49939134279748
 20
-133.73019789506401
 30
0.0
 42
0.0381250023077343
  0
VERTEX
  5
110
  8
0
 10
-12.34160655562505
 20
-133.95005199792041
 30
0.0
 42
0.0278683718914965
  0
VERTEX
  5
111
  8
0
 10
-10.73299886545032
 20
-134.03978023968881
 30
0.0
 42
0.027868371891505
  0
VERTEX
  5
112
  8
0
 10
-9.1243911752762852
 20
-133.95005199792041
 30
0.0
 42
0.0381250023077727
  0
VERTEX
  5
113
  8
0
 10
-7.9666063881031732
 20
-133.73019789506401
 30
0.0
 42
0.0786828100544049
  0
VERTEX
  5
114
  8
0
 10
-6.9883559837446683
 20
-133.29226654091889
 30
0.0
 42
0.2534364434840056
  0
VERTEX
  5
115
  8
0
 10
-6.8207291051392067
 20
-132.9827999999998
 30
0.0
 42
0.2534364434839675
  0
SEQEND
  5
116
  8
0
  0
LINE
  5
5F
  8
0
 10
9.2587863740359353
 20
-150.04267240652109
 30
0.0
 11
9.2587863740366174
 21
-168.22710896837179
 31
0.0
  0
LINE
  5
60
  8
0
 10
11.133786374036159
 20
-150.04049473840169
 30
0.0
 11
11.133786374036159
 21
-168.22710896837191
 31
0.0
  0
LINE
  5
61
  8
0
 10
11.133786374036159
 20
-168.22710896837191
 30
0.0
 11
17.383786374036159
 21
-174.47710896837191
 31
0.0
  0
LINE
  5
62
  8
0
 10
18.43378637403589
 20
-135.2521089683718
 30
0.0
 11
18.43378637403589
 21
-148.8521089683716
 31
0.0
  0
LINE
  5
63
  8
0
 10
18.43378637403589
 20
-135.2521089683718
 30
0.0
 11
18.43378637403589
 21
-148.8521089683716
 31
0.0
  0
POLYLINE
  5
64
  8
0
 66
     1
 10
0.0
 20
0.0
 30
0.0
  0
VERTEX
  5
117
  8
0
 10
9.7735323390361373
 20
-135.45210896837179
 30
0.0
  0
VERTEX
  5
118
  8
0
 10
9.7735323390361373
 20
-148.8521089683716
 30
0.0
  0
SEQEND
  5
119
  8
0
  0
POLYLINE
  5
65
  8
0
 66
     1
 10
0.0
 20
0.0
 30
0.0
  0
VERTEX
  5
11A
  8
0
 10
9.7735323390361373
 20
-135.45210896837179
 30
0.0
  0
VERTEX
  5
11B
  8
0
 10
9.7735323390361373
 20
-148.8521089683716
 30
0.0
  0
SEQEND
  5
11C
  8
0
  0
POLYLINE
  5
66
  8
0
 66
     1
 10
0.0
 20
0.0
 30
0.0
  0
VERTEX
  5
11D
  8
0
 10
18.43378637403589
 20
-148.8521089683716
 30
0.0
 42
-0.2534364434840665
  0
VERTEX
  5
11E
  8
0
 10
18.24825579450544
 20
-149.1946286594829
 30
0.0
 42
-0.0786828100544145
  0
VERTEX
  5
11F
  8
0
 10
17.165521534009251
 20
-149.67933408742431
 30
0.0
 42
-0.0381250023077343
  0
VERTEX
  5
120
  8
0
 10
15.88407738661385
 20
-149.92267011714921
 30
0.0
 42
-0.0278683718914965
  0
VERTEX
  5
121
  8
0
 10
14.103659356536131
 20
-150.0219819508718
 30
0.0
 42
-0.027868371891505
  0
VERTEX
  5
122
  8
0
 10
12.32324132645954
 20
-149.92267011714921
 30
0.0
 42
-0.0381250023077727
  0
VERTEX
  5
123
  8
0
 10
11.041797179062771
 20
-149.67933408742431
 30
0.0
 42
-0.0786828100544049
  0
VERTEX
  5
124
  8
0
 10
9.9590629185668131
 20
-149.1946286594829
 30
0.0
 42
-0.2534364434840056
  0
VERTEX
  5
125
  8
0
 10
9.7735323390361373
 20
-148.8521089683716
 30
0.0
 42
-0.2534364434839675
  0
SEQEND
  5
126
  8
0
  0
POLYLINE
  5
67
  8
0
 66
     1
 10
0.0
 20
0.0
 30
0.0
  0
VERTEX
  5
127
  8
0
 10
18.43378637403589
 20
-135.2521089683718
 30
0.0
 42
0.2534364434840665
  0
VERTEX
  5
128
  8
0
 10
18.248255794505891
 20
-134.90958927726049
 30
0.0
 42
0.0786828100544145
  0
VERTEX
  5
129
  8
0
 10
17.165521534009251
 20
-134.42488384931909
 30
0.0
 42
0.0381250023077343
  0
VERTEX
  5
12A
  8
0
 10
15.884077386613621
 20
-134.18154781959419
 30
0.0
 42
0.0278683718914965
  0
VERTEX
  5
12B
  8
0
 10
14.1036593565359
 20
-134.08223598587179
 30
0.0
 42
0.027868371891505
  0
VERTEX
  5
12C
  8
0
 10
12.32324132645954
 20
-134.18154781959419
 30
0.0
 42
0.0381250023077727
  0
VERTEX
  5
12D
  8
0
 10
11.041797179062771
 20
-134.42488384931909
 30
0.0
 42
0.0786828100544049
  0
VERTEX
  5
12E
  8
0
 10
9.9590629185668131
 20
-134.90958927726049
 30
0.0
 42
0.2534364434840056
  0
VERTEX
  5
12F
  8
0
 10
9.7735323390361373
 20
-135.2521089683718
 30
0.0
 42
0.2534364434839675
  0
SEQEND
  5
130
  8
0
  0
POLYLINE
  5
68
  8
0
 66
     1
 10
0.0
 20
0.0
 30
0.0
  0
VERTEX
  5
131
  8
0
 10
16.615831374238269
 20
-132.9827999999998
 30
0.0
 42
-0.2534364434840665
  0
VERTEX
  5
132
  8
0
 10
16.44820449563235
 20
-133.29226654091889
 30
0.0
 42
-0.0786828100544145
  0
VERTEX
  5
133
  8
0
 10
15.4699540912743
 20
-133.73019789506401
 30
0.0
 42
-0.0381250023077343
  0
VERTEX
  5
134
  8
0
 10
14.312169304102319
 20
-133.95005199792041
 30
0.0
 42
-0.0278683718914965
  0
VERTEX
  5
135
  8
0
 10
12.70356161392715
 20
-134.03978023968881
 30
0.0
 42
-0.027868371891505
  0
VERTEX
  5
136
  8
0
 10
11.094953923752881
 20
-133.95005199792041
 30
0.0
 42
-0.0381250023077727
  0
VERTEX
  5
137
  8
0
 10
9.9371691365799961
 20
-133.73019789506401
 30
0.0
 42
-0.0786828100544049
  0
VERTEX
  5
138
  8
0
 10
8.9589187322219441
 20
-133.29226654091889
 30
0.0
 42
-0.2534364434840056
  0
VERTEX
  5
139
  8
0
 10
8.7912918536160305
 20
-132.9827999999998
 30
0.0
 42
-0.2534364434839675
  0
SEQEND
  5
13A
  8
0
  0
POLYLINE
  5
69
  8
0
 66
     1
 10
0.0
 20
0.0
 30
0.0
  0
VERTEX
  5
13B
  8
0
 10
16.615831374238269
 20
-132.9827999999998
 30
0.0
 42
-0.2534364434840665
  0
VERTEX
  5
13C
  8
0
 10
16.44820449563235
 20
-133.29226654091889
 30
0.0
 42
-0.0786828100544145
  0
VERTEX
  5
13D
  8
0
 10
15.4699540912743
 20
-133.73019789506401
 30
0.0
 42
-0.0381250023077343
  0
VERTEX
  5
13E
  8
0
 10
14.312169304102319
 20
-133.95005199792041
 30
0.0
 42
-0.0278683718914965
  0
VERTEX
  5
13F
  8
0
 10
12.70356161392715
 20
-134.03978023968881
 30
0.0
 42
-0.027868371891505
  0
VERTEX
  5
140
  8
0
 10
11.094953923752881
 20
-133.95005199792041
 30
0.0
 42
-0.0381250023077727
  0
VERTEX
  5
141
  8
0
 10
9.9371691365799961
 20
-133.73019789506401
 30
0.0
 42
-0.0786828100544049
  0
VERTEX
  5
142
  8
0
 10
8.9589187322219441
 20
-133.29226654091889
 30
0.0
 42
-0.2534364434840056
  0
VERTEX
  5
143
  8
0
 10
8.7912918536160305
 20
-132.9827999999998
 30
0.0
 42
-0.2534364434839675
  0
SEQEND
  5
144
  8
0
  0
POLYLINE
  5
6A
  8
0
 66
     1
 10
0.0
 20
0.0
 30
0.0
  0
VERTEX
  5
145
  8
0
 10
18.43378637403589
 20
-135.2521089683718
 30
0.0
 42
0.2534364434840665
  0
VERTEX
  5
146
  8
0
 10
18.248255794505891
 20
-134.90958927726049
 30
0.0
 42
0.0786828100544145
  0
VERTEX
  5
147
  8
0
 10
17.165521534009251
 20
-134.42488384931909
 30
0.0
 42
0.0381250023077343
  0
VERTEX
  5
148
  8
0
 10
15.88407738661385
 20
-134.18154781959419
 30
0.0
 42
0.0278683718914965
  0
VERTEX
  5
149
  8
0
 10
14.103659356536131
 20
-134.08223598587179
 30
0.0
 42
0.027868371891505
  0
VERTEX
  5
14A
  8
0
 10
12.32324132645954
 20
-134.18154781959419
 30
0.0
 42
0.0381250023077727
  0
VERTEX
  5
14B
  8
0
 10
11.041797179062771
 20
-134.42488384931909
 30
0.0
 42
0.0786828100544049
  0
VERTEX
  5
14C
  8
0
 10
9.9590629185668131
 20
-134.90958927726049
 30
0.0
 42
0.2534364434840056
  0
VERTEX
  5
14D
  8
0
 10
9.7735323390361373
 20
-135.2521089683718
 30
0.0
 42
0.2534364434839675
  0
SEQEND
  5
14E
  8
0
  0
LINE
  5
6B
  8
0
  6
HIDDEN
 62
     8
 10
8.1337863740361627
 20
-98.227108968371866
 30
0.0
 11
11.133786374036159
 21
-101.22710896837179
 31
0.0
  0
LINE
  5
6C
  8
0
  6
HIDDEN
 62
     8
 10
7.9852813742386379
 20
-69.999999999999886
 30
0.0
 11
10.985281374238641
 21
-66.999999999999886
 31
0.0
  0
LINE
  5
6D
  8
0
  6
HIDDEN
 62
     8
 10
8.1337863740361627
 20
-98.227108968371866
 30
0.0
 11
-5.8662136259638373
 21
-98.227108968371795
 31
0.0
  0
LINE
  5
6E
  8
0
  6
HIDDEN
 62
     8
 10
-8.8662136259638373
 20
-101.22710896837179
 30
0.0
 11
-5.8662136259638373
 21
-98.227108968371795
 31
0.0
  0
CIRCLE
  5
6F
  8
0
 10
0.9852813742386388
 20
-114.06699999999979
 30
0.0
 40
2.5
  0
LINE
  5
70
  8
0
  6
HIDDEN
 62
     8
 10
-6.0147186257609064
 20
-69.999999999999886
 30
0.0
 11
7.9852813742386379
 21
-69.999999999999886
 31
0.0
  0
LINE
  5
71
  8
0
  6
HIDDEN
 62
     8
 10
-9.0147186257609064
 20
-66.999999999999886
 30
0.0
 11
-6.0147186257609064
 21
-69.999999999999886
 31
0.0
  0
LINE
  5
72
  8
0
 10
61.133786374036163
 20
-174.47710896837191
 30
0.0
 11
61.133786374036163
 21
-182.47710896837191
 31
0.0
  0
LINE
  5
73
  8
0
 10
4.0
 20
0.0000000000002274
 30
0.0
 11
4.0
 21
110.0
 31
0.0
  0
LINE
  5
74
  8
0
 10
-4.0
 20
0.0000000000002274
 30
0.0
 11
-4.0
 21
110.0
 31
0.0
  0
LINE
  5
75
  8
0
 10
-30.0
 20
0.0
 30
0.0
 11
-9.0
 21
0.0
 31
0.0
  0
LINE
  5
76
  8
0
 10
30.0
 20
-10.0
 30
0.0
 11
-28.029437251522719
 21
-10.0
 31
0.0
  0
LINE
  5
77
  8
0
 10
-15.264718625761359
 20
-10.0
 30
0.0
 11
17.235281374238639
 21
-10.0
 31
0.0
  0
LINE
  5
78
  8
0
 10
-9.0147186257613612
 20
-16.25
 30
0.0
 11
-15.264718625761359
 21
-10.0
 31
0.0
  0
LINE
  5
79
  8
0
 10
17.235281374238639
 20
-10.0
 30
0.0
 11
-15.264718625761359
 21
-10.0
 31
0.0
  0
LINE
  5
7A
  8
0
 10
-30.0
 20
-10.0
 30
0.0
 11
-30.0
 21
0.0
 31
0.0
  0
LINE
  5
7B
  8
0
 10
-30.0
 20
-10.0
 30
0.0
 11
-28.029437251522719
 21
-10.0
 31
0.0
  0
LINE
  5
7C
  8
0
 10
4.0
 20
5.0
 30
0.0
 11
9.0
 21
0.0
 31
0.0
  0
LINE
  5
7D
  8
0
 10
-9.0
 20
0.0
 30
0.0
 11
9.0
 21
0.0
 31
0.0
  0
LINE
  5
7E
  8
0
 10
-9.0147186257618142
 20
-10.0
 30
0.0
 11
10.985281374238641
 21
-10.0
 31
0.0
  0
LINE
  5
7F
  8
0
 10
10.985281374238641
 20
-10.0
 30
0.0
 11
-9.0147186257618142
 21
-10.0
 31
0.0
  0
LINE
  5
80
  8
0
 10
-9.0147186257620433
 20
-17.40242445167064
 30
0.0
 11
10.98528137423795
 21
-19.30287694035837
 31
0.0
  0
LINE
  5
81
  8
0
 10
10.98528137423909
 20
-16.25
 30
0.0
 11
-9.0147186257613612
 21
-16.25
 31
0.0
  0
LINE
  5
82
  8
0
 10
-5.2857929421702456
 20
-16.25
 30
0.0
 11
10.98528137423795
 21
-17.796120183911849
 31
0.0
  0
LINE
  5
83
  8
0
 10
-9.0147186257620433
 20
-20.415937964563909
 30
0.0
 11
10.98528137423795
 21
-22.316390453251639
 31
0.0
  0
LINE
  5
84
  8
0
 10
-9.0147186257620433
 20
-30.96323525969024
 30
0.0
 11
10.98528137423795
 21
-32.86368774837797
 31
0.0
  0
LINE
  5
85
  8
0
 10
-9.0147186257620433
 20
-21.92269472101043
 30
0.0
 11
10.98528137423795
 21
-23.823147209698391
 31
0.0
  0
LINE
  5
86
  8
0
 10
-9.0147186257620433
 20
-23.429451477457182
 30
0.0
 11
10.98528137423795
 21
-25.329903966144911
 31
0.0
  0
LINE
  5
87
  8
0
 10
-9.0147186257620433
 20
-26.44296499035045
 30
0.0
 11
10.98528137423795
 21
-28.34341747903818
 31
0.0
  0
LINE
  5
88
  8
0
 10
-9.0147186257620433
 20
-24.936208233903699
 30
0.0
 11
10.98528137423795
 21
-26.83666072259166
 31
0.0
  0
LINE
  5
89
  8
0
 10
-9.0147186257620433
 20
-27.949721746796971
 30
0.0
 11
10.98528137423795
 21
-29.850174235484701
 31
0.0
  0
LINE
  5
8A
  8
0
 10
-9.0147186257620433
 20
-29.456478503243719
 30
0.0
 11
10.98528137423795
 21
-31.356930991931218
 31
0.0
  0
LINE
  5
8B
  8
0
 10
-11.98459160826132
 20
-33.944872982499881
 30
0.0
 11
13.955154356738831
 21
-33.974999999999909
 31
0.0
  0
POLYLINE
  5
8C
  8
0
 66
     1
 10
0.0
 20
0.0
 30
0.0
  0
VERTEX
  5
14F
  8
0
 10
8.7912918536160305
 20
-35.239900000000027
 30
0.0
 42
0.3087600251391162
  0
VERTEX
  5
150
  8
0
 10
8.5650663924770924
 20
-34.90847956270477
 30
0.0
 42
0.0531135643178668
  0
VERTEX
  5
151
  8
0
 10
6.5049643182196633
 20
-34.34548063247712
 30
0.0
 42
0.0234107934291695
  0
VERTEX
  5
152
  8
0
 10
4.2099353644032362
 20
-34.083097635354761
 30
0.0
 42
0.0167564154642976
  0
VERTEX
  5
153
  8
0
 10
0.9852813742386388
 20
-33.974999999999909
 30
0.0
 42
0.0167564154642939
  0
VERTEX
  5
154
  8
0
 10
-2.2393726159250491
 20
-34.083097635354761
 30
0.0
 42
0.0234107934291787
  0
VERTEX
  5
155
  8
0
 10
-4.5344015697423847
 20
-34.34548063247712
 30
0.0
 42
0.0531135643178467
  0
VERTEX
  5
156
  8
0
 10
-6.594503644000496
 20
-34.90847956270477
 30
0.0
 42
0.3087600251390752
  0
VERTEX
  5
157
  8
0
 10
-6.820729105138752
 20
-35.239900000000027
 30
0.0
 42
0.3087600251390838
  0
SEQEND
  5
158
  8
0
  0
LINE
  5
8D
  8
0
 10
-9.0147186257620433
 20
-18.909181208117161
 30
0.0
 11
10.98528137423795
 21
-20.809633696805118
 31
0.0
  0
LINE
  5
8E
  8
0
 10
-7.1397186257609064
 20
-33.950499929399257
 30
0.0
 11
-7.1397186257613612
 21
-16.25
 31
0.0
  0
LINE
  5
8F
  8
0
 10
-9.0147186257615886
 20
-33.948322261279827
 30
0.0
 11
-9.0147186257613612
 21
-16.25
 31
0.0
  0
LINE
  5
90
  8
0
 10
-9.0147186257620433
 20
-32.469992016136992
 30
0.0
 11
6.7354552746746768
 21
-33.966614875454752
 31
0.0
  0
POLYLINE
  5
91
  8
0
 66
     1
 10
0.0
 20
0.0
 30
0.0
  0
VERTEX
  5
159
  8
0
 10
-6.820729105138752
 20
-35.059199999999691
 30
0.0
 42
0.250327623522266
  0
VERTEX
  5
15A
  8
0
 10
-6.991305569148607
 20
-34.739843566181207
 30
0.0
 42
0.0799961714157395
  0
VERTEX
  5
15B
  8
0
 10
-7.9666063881027176
 20
-34.292554827837421
 30
0.0
 42
0.0390332174113539
  0
VERTEX
  5
15C
  8
0
 10
-9.1249943565994727
 20
-34.066989563220211
 30
0.0
 42
0.0285802753297458
  0
VERTEX
  5
15D
  8
0
 10
-10.732998865450551
 20
-33.974999999999909
 30
0.0
 42
0.0285802753297599
  0
VERTEX
  5
15E
  8
0
 10
-12.34100337430095
 20
-34.066989563220211
 30
0.0
 42
0.039033217411367
  0
VERTEX
  5
15F
  8
0
 10
-13.49939134279748
 20
-34.292554827837421
 30
0.0
 42
0.0799961714157395
  0
VERTEX
  5
160
  8
0
 10
-14.47469216175182
 20
-34.739843566181207
 30
0.0
 42
0.2503276235222661
  0
VERTEX
  5
161
  8
0
 10
-14.64526862576167
 20
-35.059199999999691
 30
0.0
 42
0.2503276235223326
  0
SEQEND
  5
162
  8
0
  0
LINE
  5
92
  8
0
 10
-9.0
 20
0.0
 30
0.0
 11
-4.0
 21
5.0
 31
0.0
  0
LINE
  5
93
  8
0
 10
10.985281374238641
 20
-16.25
 30
0.0
 11
10.98528137423841
 21
-33.971550721219963
 31
0.0
  0
LINE
  5
94
  8
0
 10
9.1102813742386388
 20
-16.25
 30
0.0
 11
9.1102813742384114
 21
-33.969373053100533
 31
0.0
  0
POLYLINE
  5
95
  8
0
 66
     1
 10
0.0
 20
0.0
 30
0.0
  0
VERTEX
  5
163
  8
0
 10
16.615831374238269
 20
-35.059199999999919
 30
0.0
 42
0.2534364434840665
  0
VERTEX
  5
164
  8
0
 10
16.448204495632812
 20
-34.749733459080971
 30
0.0
 42
0.0786828100544145
  0
VERTEX
  5
165
  8
0
 10
15.4699540912743
 20
-34.31180210493585
 30
0.0
 42
0.0381250023077343
  0
VERTEX
  5
166
  8
0
 10
14.312169304102319
 20
-34.091948002079327
 30
0.0
 42
0.0278683718914965
  0
VERTEX
  5
167
  8
0
 10
12.70356161392715
 20
-34.002219760311156
 30
0.0
 42
0.027868371891505
  0
VERTEX
  5
168
  8
0
 10
11.094953923752881
 20
-34.091948002079327
 30
0.0
 42
0.0381250023077727
  0
VERTEX
  5
169
  8
0
 10
9.9371691365799961
 20
-34.31180210493585
 30
0.0
 42
0.0786828100544049
  0
VERTEX
  5
16A
  8
0
 10
8.9589187322217185
 20
-34.749733459080971
 30
0.0
 42
0.2534364434840056
  0
VERTEX
  5
16B
  8
0
 10
8.7912918536160305
 20
-35.059199999999919
 30
0.0
 42
0.2534364434839675
  0
SEQEND
  5
16C
  8
0
  0
LINE
  5
96
  8
0
 10
9.0
 20
0.0
 30
0.0
 11
30.0
 21
0.0
 31
0.0
  0
LINE
  5
97
  8
0
 10
10.98528137423909
 20
-16.25
 30
0.0
 11
17.235281374238639
 21
-10.0
 31
0.0
  0
LINE
  5
98
  8
0
 10
30.0
 20
0.0
 30
0.0
 11
30.0
 21
-10.0
 31
0.0
  0
LINE
  5
99
  8
0
 10
-4.0
 20
110.0
 30
0.0
 11
4.0
 21
110.0
 31
0.0
  0
ENDSEC
  0
EOF
