  0
SECTION
  2
HEADER
  9
$ACADVER
  1
AC1009
  9
$INSBASE
 10
0.0
 20
0.0
 30
0.0
  9
$EXTMIN
 10
-40.0
 20
-40.000000000000107
 30
0.0
  9
$EXTMAX
 10
40.0
 20
40.000000000000107
 30
0.0
  9
$LIMMIN
 10
0.0
 20
0.0
  9
$LIMMAX
 10
12.0
 20
9.0
  9
$ORTHOMODE
 70
     0
  9
$REGENMODE
 70
     1
  9
$FILLMODE
 70
     1
  9
$QTEXTMODE
 70
     0
  9
$MIRRTEXT
 70
     1
  9
$DRAGMODE
 70
     2
  9
$LTSCALE
 40
1.0
  9
$OSMODE
 70
    47
  9
$ATTMODE
 70
     1
  9
$TEXTSIZE
 40
3.5
  9
$TRACEWID
 40
0.05
  9
$TEXTSTYLE
  7
SST
  9
$CLAYER
  8
0
  9
$CELTYPE
  6
BYLAYER
  9
$CECOLOR
 62
   256
  9
$DIMSCALE
 40
1.0
  9
$DIMASZ
 40
0.18
  9
$DIMEXO
 40
0.0625
  9
$DIMDLI
 40
0.38
  9
$DIMRND
 40
0.0
  9
$DIMDLE
 40
0.0
  9
$DIMEXE
 40
0.18
  9
$DIMTP
 40
0.0
  9
$DIMTM
 40
0.0
  9
$DIMTXT
 40
0.18
  9
$DIMCEN
 40
0.09
  9
$DIMTSZ
 40
0.0
  9
$DIMTOL
 70
     0
  9
$DIMLIM
 70
     0
  9
$DIMTIH
 70
     1
  9
$DIMTOH
 70
     1
  9
$DIMSE1
 70
     0
  9
$DIMSE2
 70
     0
  9
$DIMTAD
 70
     0
  9
$DIMZIN
 70
     0
  9
$DIMBLK
  1

  9
$DIMASO
 70
     1
  9
$DIMSHO
 70
     1
  9
$DIMPOST
  1

  9
$DIMAPOST
  1

  9
$DIMALT
 70
     0
  9
$DIMALTD
 70
     2
  9
$DIMALTF
 40
25.399999999999999
  9
$DIMLFAC
 40
1.0
  9
$DIMTOFL
 70
     0
  9
$DIMTVP
 40
0.0
  9
$DIMTIX
 70
     0
  9
$DIMSOXD
 70
     0
  9
$DIMSAH
 70
     0
  9
$DIMBLK1
  1

  9
$DIMBLK2
  1

  9
$DIMSTYLE
  2
STANDARD
  9
$DIMCLRD
 70
     0
  9
$DIMCLRE
 70
     0
  9
$DIMCLRT
 70
     0
  9
$DIMTFAC
 40
1.0
  9
$DIMGAP
 40
0.09
  9
$LUNITS
 70
     2
  9
$LUPREC
 70
     4
  9
$SKETCHINC
 40
0.1
  9
$FILLETRAD
 40
0.5
  9
$AUNITS
 70
     0
  9
$AUPREC
 70
     0
  9
$MENU
  1
.
  9
$ELEVATION
 40
0.0
  9
$PELEVATION
 40
0.0
  9
$THICKNESS
 40
0.0
  9
$LIMCHECK
 70
     0
  9
$BLIPMODE
 70
     0
  9
$CHAMFERA
 40
0.5
  9
$CHAMFERB
 40
0.5
  9
$SKPOLY
 70
     0
  9
$TDCREATE
 40
2453178.4907919099
  9
$TDUPDATE
 40
2453443.5709293522
  9
$TDINDWG
 40
0.0035540741
  9
$TDUSRTIMER
 40
0.0035540741
  9
$USRTIMER
 70
     1
  9
$ANGBASE
 50
0.0
  9
$ANGDIR
 70
     0
  9
$PDMODE
 70
     0
  9
$PDSIZE
 40
0.0
  9
$PLINEWID
 40
0.0
  9
$COORDS
 70
     1
  9
$SPLFRAME
 70
     0
  9
$SPLINETYPE
 70
     6
  9
$SPLINESEGS
 70
     8
  9
$ATTDIA
 70
     0
  9
$ATTREQ
 70
     1
  9
$HANDLING
 70
     1
  9
$HANDSEED
  5
25D
  9
$SURFTAB1
 70
     6
  9
$SURFTAB2
 70
     6
  9
$SURFTYPE
 70
     6
  9
$SURFU
 70
     6
  9
$SURFV
 70
     6
  9
$UCSNAME
  2

  9
$UCSORG
 10
0.0
 20
0.0
 30
0.0
  9
$UCSXDIR
 10
1.0
 20
0.0
 30
0.0
  9
$UCSYDIR
 10
0.0
 20
1.0
 30
0.0
  9
$PUCSNAME
  2

  9
$PUCSORG
 10
0.0
 20
0.0
 30
0.0
  9
$PUCSXDIR
 10
1.0
 20
0.0
 30
0.0
  9
$PUCSYDIR
 10
0.0
 20
1.0
 30
0.0
  9
$USERI1
 70
     0
  9
$USERI2
 70
     0
  9
$USERI3
 70
     0
  9
$USERI4
 70
     0
  9
$USERI5
 70
     0
  9
$USERR1
 40
0.0
  9
$USERR2
 40
0.0
  9
$USERR3
 40
0.0
  9
$USERR4
 40
0.0
  9
$USERR5
 40
0.0
  9
$WORLDVIEW
 70
     1
  9
$SHADEDGE
 70
     3
  9
$SHADEDIF
 70
    70
  9
$TILEMODE
 70
     1
  9
$MAXACTVP
 70
    64
  9
$PLIMCHECK
 70
     0
  9
$PEXTMIN
 10
1.0000000000000000E+020
 20
1.0000000000000000E+020
 30
1.0000000000000000E+020
  9
$PEXTMAX
 10
-1.0000000000000000E+020
 20
-1.0000000000000000E+020
 30
-1.0000000000000000E+020
  9
$PLIMMIN
 10
0.0
 20
0.0
  9
$PLIMMAX
 10
12.0
 20
9.0
  9
$UNITMODE
 70
     0
  9
$VISRETAIN
 70
     1
  9
$PLINEGEN
 70
     0
  9
$PSLTSCALE
 70
     1
  0
ENDSEC
  0
SECTION
  2
TABLES
  0
TABLE
  2
VPORT
 70
     2
  0
VPORT
  2
*ACTIVE
 70
     0
 10
0.0
 20
0.0
 11
1.0
 21
1.0
 12
-3.742398488400112
 22
-2.0457056235324411
 13
0.0
 23
0.0
 14
0.5
 24
0.5
 15
0.5
 25
0.5
 16
0.0
 26
0.0
 36
1.0
 17
0.0
 27
0.0
 37
0.0
 40
174.79417194928789
 41
1.4993646759847521
 42
50.0
 43
0.0
 44
0.0
 50
0.0
 51
0.0
 71
     0
 72
   100
 73
     1
 74
     3
 75
     0
 76
     0
 77
     0
 78
     0
  0
ENDTAB
  0
TABLE
  2
LTYPE
 70
     2
  0
LTYPE
  2
CONTINUOUS
 70
     0
  3
Solid line
 72
    65
 73
     0
 40
0.0
  0
LTYPE
  2
HIDDEN
 70
     0
  3
__ __ __ __ __ __ __ __ __ __ __ __ __ __ __ __
 72
    65
 73
     2
 40
0.375
 49
0.25
 49
-0.125
  0
ENDTAB
  0
TABLE
  2
LAYER
 70
     2
  0
LAYER
  2
0
 70
     0
 62
     7
  6
CONTINUOUS
  0
LAYER
  2
DIM
 70
     0
 62
     4
  6
CONTINUOUS
  0
ENDTAB
  0
TABLE
  2
STYLE
 70
     2
  0
STYLE
  2
STANDARD
 70
     0
 40
0.0
 41
1.0
 50
0.0
 71
     0
 42
0.2
  3
txt
  4

  0
STYLE
  2
SST
 70
     0
 40
0.0
 41
1.0
 50
0.0
 71
     0
 42
3.5
  3
romans.shx
  4

  0
ENDTAB
  0
TABLE
  2
VIEW
 70
     0
  0
ENDTAB
  0
TABLE
  2
UCS
 70
     0
  0
ENDTAB
  0
TABLE
  2
APPID
 70
     1
  0
APPID
  2
ACAD
 70
     0
  0
ENDTAB
  0
TABLE
  2
DIMSTYLE
 70
     1
  0
DIMSTYLE
  2
STANDARD
 70
     0
  3

  4

  5

  6

  7

 40
1.0
 41
0.18
 42
0.0625
 43
0.38
 44
0.18
 45
0.0
 46
0.0
 47
0.0
 48
0.0
140
0.18
141
0.09
142
0.0
143
25.399999999999999
144
1.0
145
0.0
146
1.0
147
0.09
 71
     0
 72
     0
 73
     1
 74
     1
 75
     0
 76
     0
 77
     0
 78
     0
170
     0
171
     2
172
     0
173
     0
174
     0
175
     0
176
     0
177
     0
178
     0
  0
ENDTAB
  0
ENDSEC
  0
SECTION
  2
BLOCKS
  0
BLOCK
  8
0
  2
$MODEL_SPACE
 70
     0
 10
0.0
 20
0.0
 30
0.0
  3
$MODEL_SPACE
  1

  0
ENDBLK
  5
9
  8
0
  0
BLOCK
 67
     1
  8
0
  2
$PAPER_SPACE
 70
     0
 10
0.0
 20
0.0
 30
0.0
  3
$PAPER_SPACE
  1

  0
ENDBLK
  5
E
 67
     1
  8
0
  0
BLOCK
  8
0
  2
SIMPSON-STRONG-TIE
 70
     0
 10
0.0
 20
0.0
 30
0.0
  3
SIMPSON-STRONG-TIE
  1

  0
TEXT
  5
3E
  8
0
  6
CONTINUOUS
 10
-4.7318727780691416
 20
4.4215860385237811
 30
0.0
 40
2.0
  1
SIMPSON
 50
316.94148639091338
  7
SST
 72
     1
 11
0.0
 21
0.0
 31
0.0
  0
TEXT
  5
3F
  8
0
  6
CONTINUOUS
 10
-7.9648409725863862
 20
3.4769825481547749
 30
0.0
 40
2.0
  1
Strong-Tie
 50
316.94148639091338
  7
SST
 72
     1
 11
-2.0499999999999541
 21
-2.0499999999999541
 31
0.0
  0
ENDBLK
  5
40
  8
0
  0
ENDSEC
  0
SECTION
  2
ENTITIES
  0
POLYLINE
  5
29
  8
0
 10
21.643389299489439
 20
-28.714457111354594
 30
0.0
 66
     1
 70
     8
  0
VERTEX
  8
0
  5
55
 10
21.6434
 20
-28.7145
 30
0.000000
  70
    32
  0
VERTEX
  8
0
  5
56
 10
21.5600
 20
-28.8045
 30
0.000000
  70
    32
  0
VERTEX
  8
0
  5
57
 10
21.4834
 20
-28.9010
 30
0.000000
  70
    32
  0
VERTEX
  8
0
  5
58
 10
21.4138
 20
-29.0036
 30
0.000000
  70
    32
  0
VERTEX
  8
0
  5
59
 10
21.3514
 20
-29.1122
 30
0.000000
  70
    32
  0
VERTEX
  8
0
  5
5A
 10
21.2963
 20
-29.2264
 30
0.000000
  70
    32
  0
VERTEX
  8
0
  5
5B
 10
21.2486
 20
-29.3460
 30
0.000000
  70
    32
  0
VERTEX
  8
0
  5
5C
 10
21.2086
 20
-29.4708
 30
0.000000
  70
    32
  0
VERTEX
  8
0
  5
5D
 10
21.1762
 20
-29.6003
 30
0.000000
  70
    32
  0
VERTEX
  8
0
  5
5E
 10
21.1516
 20
-29.7343
 30
0.000000
  70
    32
  0
VERTEX
  8
0
  5
5F
 10
21.1348
 20
-29.8725
 30
0.000000
  70
    32
  0
VERTEX
  8
0
  5
60
 10
21.1258
 20
-30.0145
 30
0.000000
  70
    32
  0
VERTEX
  8
0
  5
61
 10
21.1247
 20
-30.1600
 30
0.000000
  70
    32
  0
VERTEX
  8
0
  5
62
 10
21.1315
 20
-30.3087
 30
0.000000
  70
    32
  0
VERTEX
  8
0
  5
63
 10
21.1462
 20
-30.4601
 30
0.000000
  70
    32
  0
VERTEX
  8
0
  5
64
 10
21.1686
 20
-30.6140
 30
0.000000
  70
    32
  0
VERTEX
  8
0
  5
65
 10
21.1988
 20
-30.7699
 30
0.000000
  70
    32
  0
VERTEX
  8
0
  5
66
 10
21.2368
 20
-30.9275
 30
0.000000
  70
    32
  0
VERTEX
  8
0
  5
67
 10
21.2823
 20
-31.0864
 30
0.000000
  70
    32
  0
VERTEX
  8
0
  5
68
 10
21.3353
 20
-31.2462
 30
0.000000
  70
    32
  0
VERTEX
  8
0
  5
69
 10
21.3957
 20
-31.4065
 30
0.000000
  70
    32
  0
VERTEX
  8
0
  5
6A
 10
21.4633
 20
-31.5669
 30
0.000000
  70
    32
  0
VERTEX
  8
0
  5
6B
 10
21.5380
 20
-31.7272
 30
0.000000
  70
    32
  0
VERTEX
  8
0
  5
6C
 10
21.6196
 20
-31.8867
 30
0.000000
  70
    32
  0
VERTEX
  8
0
  5
6D
 10
21.7078
 20
-32.0453
 30
0.000000
  70
    32
  0
VERTEX
  8
0
  5
6E
 10
21.8025
 20
-32.2024
 30
0.000000
  70
    32
  0
VERTEX
  8
0
  5
6F
 10
21.9035
 20
-32.3578
 30
0.000000
  70
    32
  0
VERTEX
  8
0
  5
70
 10
22.0104
 20
-32.5111
 30
0.000000
  70
    32
  0
VERTEX
  8
0
  5
71
 10
22.1231
 20
-32.6618
 30
0.000000
  70
    32
  0
VERTEX
  8
0
  5
72
 10
22.2413
 20
-32.8096
 30
0.000000
  70
    32
  0
VERTEX
  8
0
  5
73
 10
22.3646
 20
-32.9542
 30
0.000000
  70
    32
  0
VERTEX
  8
0
  5
74
 10
22.4928
 20
-33.0952
 30
0.000000
  70
    32
  0
VERTEX
  8
0
  5
75
 10
22.6256
 20
-33.2322
 30
0.000000
  70
    32
  0
VERTEX
  8
0
  5
76
 10
22.7627
 20
-33.3650
 30
0.000000
  70
    32
  0
VERTEX
  8
0
  5
77
 10
22.9037
 20
-33.4933
 30
0.000000
  70
    32
  0
VERTEX
  8
0
  5
78
 10
23.0483
 20
-33.6166
 30
0.000000
  70
    32
  0
VERTEX
  8
0
  5
79
 10
23.1961
 20
-33.7348
 30
0.000000
  70
    32
  0
VERTEX
  8
0
  5
7A
 10
23.3468
 20
-33.8475
 30
0.000000
  70
    32
  0
VERTEX
  8
0
  5
7B
 10
23.5000
 20
-33.9544
 30
0.000000
  70
    32
  0
VERTEX
  8
0
  5
7C
 10
23.6554
 20
-34.0553
 30
0.000000
  70
    32
  0
VERTEX
  8
0
  5
7D
 10
23.8126
 20
-34.1501
 30
0.000000
  70
    32
  0
VERTEX
  8
0
  5
7E
 10
23.9711
 20
-34.2383
 30
0.000000
  70
    32
  0
VERTEX
  8
0
  5
7F
 10
24.1307
 20
-34.3198
 30
0.000000
  70
    32
  0
VERTEX
  8
0
  5
80
 10
24.2909
 20
-34.3945
 30
0.000000
  70
    32
  0
VERTEX
  8
0
  5
81
 10
24.4514
 20
-34.4621
 30
0.000000
  70
    32
  0
VERTEX
  8
0
  5
82
 10
24.6117
 20
-34.5225
 30
0.000000
  70
    32
  0
VERTEX
  8
0
  5
83
 10
24.7715
 20
-34.5756
 30
0.000000
  70
    32
  0
VERTEX
  8
0
  5
84
 10
24.9304
 20
-34.6211
 30
0.000000
  70
    32
  0
VERTEX
  8
0
  5
85
 10
25.0879
 20
-34.6590
 30
0.000000
  70
    32
  0
VERTEX
  8
0
  5
86
 10
25.2439
 20
-34.6892
 30
0.000000
  70
    32
  0
VERTEX
  8
0
  5
87
 10
25.3977
 20
-34.7117
 30
0.000000
  70
    32
  0
VERTEX
  8
0
  5
88
 10
25.5492
 20
-34.7264
 30
0.000000
  70
    32
  0
VERTEX
  8
0
  5
89
 10
25.6978
 20
-34.7331
 30
0.000000
  70
    32
  0
VERTEX
  8
0
  5
8A
 10
25.8433
 20
-34.7320
 30
0.000000
  70
    32
  0
VERTEX
  8
0
  5
8B
 10
25.9854
 20
-34.7231
 30
0.000000
  70
    32
  0
VERTEX
  8
0
  5
8C
 10
26.1236
 20
-34.7063
 30
0.000000
  70
    32
  0
VERTEX
  8
0
  5
8D
 10
26.2576
 20
-34.6816
 30
0.000000
  70
    32
  0
VERTEX
  8
0
  5
8E
 10
26.3871
 20
-34.6493
 30
0.000000
  70
    32
  0
VERTEX
  8
0
  5
8F
 10
26.5118
 20
-34.6092
 30
0.000000
  70
    32
  0
VERTEX
  8
0
  5
90
 10
26.6315
 20
-34.5616
 30
0.000000
  70
    32
  0
VERTEX
  8
0
  5
91
 10
26.7457
 20
-34.5065
 30
0.000000
  70
    32
  0
VERTEX
  8
0
  5
92
 10
26.8543
 20
-34.4441
 30
0.000000
  70
    32
  0
VERTEX
  8
0
  5
93
 10
26.9569
 20
-34.3745
 30
0.000000
  70
    32
  0
VERTEX
  8
0
  5
94
 10
27.0534
 20
-34.2979
 30
0.000000
  70
    32
  0
VERTEX
  8
0
  5
95
 10
27.1434
 20
-34.2145
 30
0.000000
  70
    32
  0
VERTEX
  8
0
  5
96
 10
27.2268
 20
-34.1244
 30
0.000000
  70
    32
  0
VERTEX
  8
0
  5
97
 10
27.3034
 20
-34.0280
 30
0.000000
  70
    32
  0
VERTEX
  8
0
  5
98
 10
27.3730
 20
-33.9253
 30
0.000000
  70
    32
  0
VERTEX
  8
0
  5
99
 10
27.4354
 20
-33.8168
 30
0.000000
  70
    32
  0
VERTEX
  8
0
  5
9A
 10
27.4905
 20
-33.7025
 30
0.000000
  70
    32
  0
VERTEX
  8
0
  5
9B
 10
27.5381
 20
-33.5829
 30
0.000000
  70
    32
  0
VERTEX
  8
0
  5
9C
 10
27.5782
 20
-33.4582
 30
0.000000
  70
    32
  0
VERTEX
  8
0
  5
9D
 10
27.6106
 20
-33.3286
 30
0.000000
  70
    32
  0
VERTEX
  8
0
  5
9E
 10
27.6352
 20
-33.1946
 30
0.000000
  70
    32
  0
VERTEX
  8
0
  5
9F
 10
27.6520
 20
-33.0564
 30
0.000000
  70
    32
  0
VERTEX
  8
0
  5
A0
 10
27.6610
 20
-32.9144
 30
0.000000
  70
    32
  0
VERTEX
  8
0
  5
A1
 10
27.6621
 20
-32.7689
 30
0.000000
  70
    32
  0
VERTEX
  8
0
  5
A2
 10
27.6553
 20
-32.6202
 30
0.000000
  70
    32
  0
VERTEX
  8
0
  5
A3
 10
27.6406
 20
-32.4688
 30
0.000000
  70
    32
  0
VERTEX
  8
0
  5
A4
 10
27.6182
 20
-32.3149
 30
0.000000
  70
    32
  0
VERTEX
  8
0
  5
A5
 10
27.5879
 20
-32.1590
 30
0.000000
  70
    32
  0
VERTEX
  8
0
  5
A6
 10
27.5500
 20
-32.0014
 30
0.000000
  70
    32
  0
VERTEX
  8
0
  5
A7
 10
27.5045
 20
-31.8426
 30
0.000000
  70
    32
  0
VERTEX
  8
0
  5
A8
 10
27.4515
 20
-31.6828
 30
0.000000
  70
    32
  0
VERTEX
  8
0
  5
A9
 10
27.3911
 20
-31.5224
 30
0.000000
  70
    32
  0
VERTEX
  8
0
  5
AA
 10
27.3234
 20
-31.3620
 30
0.000000
  70
    32
  0
VERTEX
  8
0
  5
AB
 10
27.2488
 20
-31.2018
 30
0.000000
  70
    32
  0
VERTEX
  8
0
  5
AC
 10
27.1672
 20
-31.0422
 30
0.000000
  70
    32
  0
VERTEX
  8
0
  5
AD
 10
27.0790
 20
-30.8836
 30
0.000000
  70
    32
  0
VERTEX
  8
0
  5
AE
 10
26.9843
 20
-30.7265
 30
0.000000
  70
    32
  0
VERTEX
  8
0
  5
AF
 10
26.8833
 20
-30.5711
 30
0.000000
  70
    32
  0
VERTEX
  8
0
  5
B0
 10
26.7764
 20
-30.4179
 30
0.000000
  70
    32
  0
VERTEX
  8
0
  5
B1
 10
26.6637
 20
-30.2672
 30
0.000000
  70
    32
  0
VERTEX
  8
0
  5
B2
 10
26.5455
 20
-30.1193
 30
0.000000
  70
    32
  0
VERTEX
  8
0
  5
B3
 10
26.4222
 20
-29.9748
 30
0.000000
  70
    32
  0
VERTEX
  8
0
  5
B4
 10
26.2940
 20
-29.8338
 30
0.000000
  70
    32
  0
VERTEX
  8
0
  5
B5
 10
26.1612
 20
-29.6967
 30
0.000000
  70
    32
  0
VERTEX
  8
0
  5
B6
 10
26.0241
 20
-29.5639
 30
0.000000
  70
    32
  0
VERTEX
  8
0
  5
B7
 10
25.8831
 20
-29.4357
 30
0.000000
  70
    32
  0
VERTEX
  8
0
  5
B8
 10
25.7385
 20
-29.3123
 30
0.000000
  70
    32
  0
VERTEX
  8
0
  5
B9
 10
25.5907
 20
-29.1942
 30
0.000000
  70
    32
  0
VERTEX
  8
0
  5
BA
 10
25.4400
 20
-29.0815
 30
0.000000
  70
    32
  0
VERTEX
  8
0
  5
BB
 10
25.2868
 20
-28.9745
 30
0.000000
  70
    32
  0
VERTEX
  8
0
  5
BC
 10
25.1314
 20
-28.8736
 30
0.000000
  70
    32
  0
VERTEX
  8
0
  5
BD
 10
24.9742
 20
-28.7789
 30
0.000000
  70
    32
  0
VERTEX
  8
0
  5
BE
 10
24.8157
 20
-28.6906
 30
0.000000
  70
    32
  0
VERTEX
  8
0
  5
BF
 10
24.6561
 20
-28.6091
 30
0.000000
  70
    32
  0
VERTEX
  8
0
  5
C0
 10
24.4959
 20
-28.5344
 30
0.000000
  70
    32
  0
VERTEX
  8
0
  5
C1
 10
24.3354
 20
-28.4668
 30
0.000000
  70
    32
  0
VERTEX
  8
0
  5
C2
 10
24.1751
 20
-28.4064
 30
0.000000
  70
    32
  0
VERTEX
  8
0
  5
C3
 10
24.0153
 20
-28.3534
 30
0.000000
  70
    32
  0
VERTEX
  8
0
  5
C4
 10
23.8564
 20
-28.3078
 30
0.000000
  70
    32
  0
VERTEX
  8
0
  5
C5
 10
23.6988
 20
-28.2699
 30
0.000000
  70
    32
  0
VERTEX
  8
0
  5
C6
 10
23.5429
 20
-28.2397
 30
0.000000
  70
    32
  0
VERTEX
  8
0
  5
C7
 10
23.3891
 20
-28.2172
 30
0.000000
  70
    32
  0
VERTEX
  8
0
  5
C8
 10
23.2376
 20
-28.2026
 30
0.000000
  70
    32
  0
VERTEX
  8
0
  5
C9
 10
23.0890
 20
-28.1958
 30
0.000000
  70
    32
  0
VERTEX
  8
0
  5
CA
 10
22.9435
 20
-28.1969
 30
0.000000
  70
    32
  0
VERTEX
  8
0
  5
CB
 10
22.8014
 20
-28.2059
 30
0.000000
  70
    32
  0
VERTEX
  8
0
  5
CC
 10
22.6632
 20
-28.2227
 30
0.000000
  70
    32
  0
VERTEX
  8
0
  5
CD
 10
22.5292
 20
-28.2473
 30
0.000000
  70
    32
  0
VERTEX
  8
0
  5
CE
 10
22.3997
 20
-28.2797
 30
0.000000
  70
    32
  0
VERTEX
  8
0
  5
CF
 10
22.2750
 20
-28.3197
 30
0.000000
  70
    32
  0
VERTEX
  8
0
  5
D0
 10
22.1553
 20
-28.3673
 30
0.000000
  70
    32
  0
VERTEX
  8
0
  5
D1
 10
22.0411
 20
-28.4224
 30
0.000000
  70
    32
  0
VERTEX
  8
0
  5
D2
 10
21.9325
 20
-28.4848
 30
0.000000
  70
    32
  0
VERTEX
  8
0
  5
D3
 10
21.8299
 20
-28.5544
 30
0.000000
  70
    32
  0
VERTEX
  8
0
  5
D4
 10
21.7334
 20
-28.6310
 30
0.000000
  70
    32
  0
VERTEX
  8
0
  5
D5
 10
21.6434
 20
-28.7145
 30
0.000000
  70
    32
  0
SEQEND
  8
0
  5
D6
  0
POLYLINE
  5
2A
  8
0
 10
28.714457111354534
 20
21.643389299489389
 30
0.0
 66
     1
 70
     8
  0
VERTEX
  8
0
  5
D7
 10
28.7145
 20
21.6434
 30
0.000000
  70
    32
  0
VERTEX
  8
0
  5
D8
 10
28.8045
 20
21.5600
 30
0.000000
  70
    32
  0
VERTEX
  8
0
  5
D9
 10
28.9010
 20
21.4834
 30
0.000000
  70
    32
  0
VERTEX
  8
0
  5
DA
 10
29.0036
 20
21.4138
 30
0.000000
  70
    32
  0
VERTEX
  8
0
  5
DB
 10
29.1122
 20
21.3514
 30
0.000000
  70
    32
  0
VERTEX
  8
0
  5
DC
 10
29.2264
 20
21.2963
 30
0.000000
  70
    32
  0
VERTEX
  8
0
  5
DD
 10
29.3460
 20
21.2486
 30
0.000000
  70
    32
  0
VERTEX
  8
0
  5
DE
 10
29.4708
 20
21.2086
 30
0.000000
  70
    32
  0
VERTEX
  8
0
  5
DF
 10
29.6003
 20
21.1762
 30
0.000000
  70
    32
  0
VERTEX
  8
0
  5
E0
 10
29.7343
 20
21.1516
 30
0.000000
  70
    32
  0
VERTEX
  8
0
  5
E1
 10
29.8725
 20
21.1348
 30
0.000000
  70
    32
  0
VERTEX
  8
0
  5
E2
 10
30.0145
 20
21.1258
 30
0.000000
  70
    32
  0
VERTEX
  8
0
  5
E3
 10
30.1600
 20
21.1247
 30
0.000000
  70
    32
  0
VERTEX
  8
0
  5
E4
 10
30.3087
 20
21.1315
 30
0.000000
  70
    32
  0
VERTEX
  8
0
  5
E5
 10
30.4601
 20
21.1462
 30
0.000000
  70
    32
  0
VERTEX
  8
0
  5
E6
 10
30.6140
 20
21.1686
 30
0.000000
  70
    32
  0
VERTEX
  8
0
  5
E7
 10
30.7699
 20
21.1988
 30
0.000000
  70
    32
  0
VERTEX
  8
0
  5
E8
 10
30.9275
 20
21.2368
 30
0.000000
  70
    32
  0
VERTEX
  8
0
  5
E9
 10
31.0864
 20
21.2823
 30
0.000000
  70
    32
  0
VERTEX
  8
0
  5
EA
 10
31.2462
 20
21.3353
 30
0.000000
  70
    32
  0
VERTEX
  8
0
  5
EB
 10
31.4065
 20
21.3957
 30
0.000000
  70
    32
  0
VERTEX
  8
0
  5
EC
 10
31.5669
 20
21.4633
 30
0.000000
  70
    32
  0
VERTEX
  8
0
  5
ED
 10
31.7272
 20
21.5380
 30
0.000000
  70
    32
  0
VERTEX
  8
0
  5
EE
 10
31.8867
 20
21.6196
 30
0.000000
  70
    32
  0
VERTEX
  8
0
  5
EF
 10
32.0453
 20
21.7078
 30
0.000000
  70
    32
  0
VERTEX
  8
0
  5
F0
 10
32.2024
 20
21.8025
 30
0.000000
  70
    32
  0
VERTEX
  8
0
  5
F1
 10
32.3578
 20
21.9035
 30
0.000000
  70
    32
  0
VERTEX
  8
0
  5
F2
 10
32.5111
 20
22.0104
 30
0.000000
  70
    32
  0
VERTEX
  8
0
  5
F3
 10
32.6618
 20
22.1231
 30
0.000000
  70
    32
  0
VERTEX
  8
0
  5
F4
 10
32.8096
 20
22.2413
 30
0.000000
  70
    32
  0
VERTEX
  8
0
  5
F5
 10
32.9542
 20
22.3646
 30
0.000000
  70
    32
  0
VERTEX
  8
0
  5
F6
 10
33.0952
 20
22.4928
 30
0.000000
  70
    32
  0
VERTEX
  8
0
  5
F7
 10
33.2322
 20
22.6256
 30
0.000000
  70
    32
  0
VERTEX
  8
0
  5
F8
 10
33.3650
 20
22.7627
 30
0.000000
  70
    32
  0
VERTEX
  8
0
  5
F9
 10
33.4933
 20
22.9037
 30
0.000000
  70
    32
  0
VERTEX
  8
0
  5
FA
 10
33.6166
 20
23.0483
 30
0.000000
  70
    32
  0
VERTEX
  8
0
  5
FB
 10
33.7348
 20
23.1961
 30
0.000000
  70
    32
  0
VERTEX
  8
0
  5
FC
 10
33.8475
 20
23.3468
 30
0.000000
  70
    32
  0
VERTEX
  8
0
  5
FD
 10
33.9544
 20
23.5000
 30
0.000000
  70
    32
  0
VERTEX
  8
0
  5
FE
 10
34.0553
 20
23.6554
 30
0.000000
  70
    32
  0
VERTEX
  8
0
  5
FF
 10
34.1501
 20
23.8126
 30
0.000000
  70
    32
  0
VERTEX
  8
0
  5
100
 10
34.2383
 20
23.9711
 30
0.000000
  70
    32
  0
VERTEX
  8
0
  5
101
 10
34.3198
 20
24.1307
 30
0.000000
  70
    32
  0
VERTEX
  8
0
  5
102
 10
34.3945
 20
24.2909
 30
0.000000
  70
    32
  0
VERTEX
  8
0
  5
103
 10
34.4621
 20
24.4514
 30
0.000000
  70
    32
  0
VERTEX
  8
0
  5
104
 10
34.5225
 20
24.6117
 30
0.000000
  70
    32
  0
VERTEX
  8
0
  5
105
 10
34.5756
 20
24.7715
 30
0.000000
  70
    32
  0
VERTEX
  8
0
  5
106
 10
34.6211
 20
24.9304
 30
0.000000
  70
    32
  0
VERTEX
  8
0
  5
107
 10
34.6590
 20
25.0879
 30
0.000000
  70
    32
  0
VERTEX
  8
0
  5
108
 10
34.6892
 20
25.2439
 30
0.000000
  70
    32
  0
VERTEX
  8
0
  5
109
 10
34.7117
 20
25.3977
 30
0.000000
  70
    32
  0
VERTEX
  8
0
  5
10A
 10
34.7264
 20
25.5492
 30
0.000000
  70
    32
  0
VERTEX
  8
0
  5
10B
 10
34.7331
 20
25.6978
 30
0.000000
  70
    32
  0
VERTEX
  8
0
  5
10C
 10
34.7320
 20
25.8433
 30
0.000000
  70
    32
  0
VERTEX
  8
0
  5
10D
 10
34.7231
 20
25.9854
 30
0.000000
  70
    32
  0
VERTEX
  8
0
  5
10E
 10
34.7063
 20
26.1236
 30
0.000000
  70
    32
  0
VERTEX
  8
0
  5
10F
 10
34.6816
 20
26.2576
 30
0.000000
  70
    32
  0
VERTEX
  8
0
  5
110
 10
34.6493
 20
26.3871
 30
0.000000
  70
    32
  0
VERTEX
  8
0
  5
111
 10
34.6092
 20
26.5118
 30
0.000000
  70
    32
  0
VERTEX
  8
0
  5
112
 10
34.5616
 20
26.6315
 30
0.000000
  70
    32
  0
VERTEX
  8
0
  5
113
 10
34.5065
 20
26.7457
 30
0.000000
  70
    32
  0
VERTEX
  8
0
  5
114
 10
34.4441
 20
26.8543
 30
0.000000
  70
    32
  0
VERTEX
  8
0
  5
115
 10
34.3745
 20
26.9569
 30
0.000000
  70
    32
  0
VERTEX
  8
0
  5
116
 10
34.2979
 20
27.0534
 30
0.000000
  70
    32
  0
VERTEX
  8
0
  5
117
 10
34.2145
 20
27.1434
 30
0.000000
  70
    32
  0
VERTEX
  8
0
  5
118
 10
34.1244
 20
27.2268
 30
0.000000
  70
    32
  0
VERTEX
  8
0
  5
119
 10
34.0280
 20
27.3034
 30
0.000000
  70
    32
  0
VERTEX
  8
0
  5
11A
 10
33.9253
 20
27.3730
 30
0.000000
  70
    32
  0
VERTEX
  8
0
  5
11B
 10
33.8168
 20
27.4354
 30
0.000000
  70
    32
  0
VERTEX
  8
0
  5
11C
 10
33.7025
 20
27.4905
 30
0.000000
  70
    32
  0
VERTEX
  8
0
  5
11D
 10
33.5829
 20
27.5381
 30
0.000000
  70
    32
  0
VERTEX
  8
0
  5
11E
 10
33.4582
 20
27.5782
 30
0.000000
  70
    32
  0
VERTEX
  8
0
  5
11F
 10
33.3286
 20
27.6106
 30
0.000000
  70
    32
  0
VERTEX
  8
0
  5
120
 10
33.1946
 20
27.6352
 30
0.000000
  70
    32
  0
VERTEX
  8
0
  5
121
 10
33.0564
 20
27.6520
 30
0.000000
  70
    32
  0
VERTEX
  8
0
  5
122
 10
32.9144
 20
27.6610
 30
0.000000
  70
    32
  0
VERTEX
  8
0
  5
123
 10
32.7689
 20
27.6621
 30
0.000000
  70
    32
  0
VERTEX
  8
0
  5
124
 10
32.6202
 20
27.6553
 30
0.000000
  70
    32
  0
VERTEX
  8
0
  5
125
 10
32.4688
 20
27.6406
 30
0.000000
  70
    32
  0
VERTEX
  8
0
  5
126
 10
32.3149
 20
27.6182
 30
0.000000
  70
    32
  0
VERTEX
  8
0
  5
127
 10
32.1590
 20
27.5879
 30
0.000000
  70
    32
  0
VERTEX
  8
0
  5
128
 10
32.0014
 20
27.5500
 30
0.000000
  70
    32
  0
VERTEX
  8
0
  5
129
 10
31.8426
 20
27.5045
 30
0.000000
  70
    32
  0
VERTEX
  8
0
  5
12A
 10
31.6828
 20
27.4515
 30
0.000000
  70
    32
  0
VERTEX
  8
0
  5
12B
 10
31.5224
 20
27.3911
 30
0.000000
  70
    32
  0
VERTEX
  8
0
  5
12C
 10
31.3620
 20
27.3234
 30
0.000000
  70
    32
  0
VERTEX
  8
0
  5
12D
 10
31.2018
 20
27.2488
 30
0.000000
  70
    32
  0
VERTEX
  8
0
  5
12E
 10
31.0422
 20
27.1672
 30
0.000000
  70
    32
  0
VERTEX
  8
0
  5
12F
 10
30.8836
 20
27.0790
 30
0.000000
  70
    32
  0
VERTEX
  8
0
  5
130
 10
30.7265
 20
26.9843
 30
0.000000
  70
    32
  0
VERTEX
  8
0
  5
131
 10
30.5711
 20
26.8833
 30
0.000000
  70
    32
  0
VERTEX
  8
0
  5
132
 10
30.4179
 20
26.7764
 30
0.000000
  70
    32
  0
VERTEX
  8
0
  5
133
 10
30.2672
 20
26.6637
 30
0.000000
  70
    32
  0
VERTEX
  8
0
  5
134
 10
30.1193
 20
26.5455
 30
0.000000
  70
    32
  0
VERTEX
  8
0
  5
135
 10
29.9748
 20
26.4222
 30
0.000000
  70
    32
  0
VERTEX
  8
0
  5
136
 10
29.8338
 20
26.2940
 30
0.000000
  70
    32
  0
VERTEX
  8
0
  5
137
 10
29.6967
 20
26.1612
 30
0.000000
  70
    32
  0
VERTEX
  8
0
  5
138
 10
29.5639
 20
26.0241
 30
0.000000
  70
    32
  0
VERTEX
  8
0
  5
139
 10
29.4357
 20
25.8831
 30
0.000000
  70
    32
  0
VERTEX
  8
0
  5
13A
 10
29.3123
 20
25.7385
 30
0.000000
  70
    32
  0
VERTEX
  8
0
  5
13B
 10
29.1942
 20
25.5907
 30
0.000000
  70
    32
  0
VERTEX
  8
0
  5
13C
 10
29.0815
 20
25.4400
 30
0.000000
  70
    32
  0
VERTEX
  8
0
  5
13D
 10
28.9745
 20
25.2868
 30
0.000000
  70
    32
  0
VERTEX
  8
0
  5
13E
 10
28.8736
 20
25.1314
 30
0.000000
  70
    32
  0
VERTEX
  8
0
  5
13F
 10
28.7789
 20
24.9742
 30
0.000000
  70
    32
  0
VERTEX
  8
0
  5
140
 10
28.6906
 20
24.8157
 30
0.000000
  70
    32
  0
VERTEX
  8
0
  5
141
 10
28.6091
 20
24.6561
 30
0.000000
  70
    32
  0
VERTEX
  8
0
  5
142
 10
28.5344
 20
24.4959
 30
0.000000
  70
    32
  0
VERTEX
  8
0
  5
143
 10
28.4668
 20
24.3354
 30
0.000000
  70
    32
  0
VERTEX
  8
0
  5
144
 10
28.4064
 20
24.1751
 30
0.000000
  70
    32
  0
VERTEX
  8
0
  5
145
 10
28.3534
 20
24.0153
 30
0.000000
  70
    32
  0
VERTEX
  8
0
  5
146
 10
28.3078
 20
23.8564
 30
0.000000
  70
    32
  0
VERTEX
  8
0
  5
147
 10
28.2699
 20
23.6988
 30
0.000000
  70
    32
  0
VERTEX
  8
0
  5
148
 10
28.2397
 20
23.5429
 30
0.000000
  70
    32
  0
VERTEX
  8
0
  5
149
 10
28.2172
 20
23.3891
 30
0.000000
  70
    32
  0
VERTEX
  8
0
  5
14A
 10
28.2026
 20
23.2376
 30
0.000000
  70
    32
  0
VERTEX
  8
0
  5
14B
 10
28.1958
 20
23.0890
 30
0.000000
  70
    32
  0
VERTEX
  8
0
  5
14C
 10
28.1969
 20
22.9435
 30
0.000000
  70
    32
  0
VERTEX
  8
0
  5
14D
 10
28.2059
 20
22.8014
 30
0.000000
  70
    32
  0
VERTEX
  8
0
  5
14E
 10
28.2227
 20
22.6632
 30
0.000000
  70
    32
  0
VERTEX
  8
0
  5
14F
 10
28.2473
 20
22.5292
 30
0.000000
  70
    32
  0
VERTEX
  8
0
  5
150
 10
28.2797
 20
22.3997
 30
0.000000
  70
    32
  0
VERTEX
  8
0
  5
151
 10
28.3197
 20
22.2750
 30
0.000000
  70
    32
  0
VERTEX
  8
0
  5
152
 10
28.3673
 20
22.1553
 30
0.000000
  70
    32
  0
VERTEX
  8
0
  5
153
 10
28.4224
 20
22.0411
 30
0.000000
  70
    32
  0
VERTEX
  8
0
  5
154
 10
28.4848
 20
21.9325
 30
0.000000
  70
    32
  0
VERTEX
  8
0
  5
155
 10
28.5544
 20
21.8299
 30
0.000000
  70
    32
  0
VERTEX
  8
0
  5
156
 10
28.6310
 20
21.7334
 30
0.000000
  70
    32
  0
VERTEX
  8
0
  5
157
 10
28.7145
 20
21.6434
 30
0.000000
  70
    32
  0
SEQEND
  8
0
  5
158
  0
POLYLINE
  5
2B
  8
0
 10
-21.643389299489439
 20
28.714457111354644
 30
0.0
 66
     1
 70
     8
  0
VERTEX
  8
0
  5
159
 10
-21.6434
 20
28.7145
 30
0.000000
  70
    32
  0
VERTEX
  8
0
  5
15A
 10
-21.5600
 20
28.8045
 30
0.000000
  70
    32
  0
VERTEX
  8
0
  5
15B
 10
-21.4834
 20
28.9010
 30
0.000000
  70
    32
  0
VERTEX
  8
0
  5
15C
 10
-21.4138
 20
29.0036
 30
0.000000
  70
    32
  0
VERTEX
  8
0
  5
15D
 10
-21.3514
 20
29.1122
 30
0.000000
  70
    32
  0
VERTEX
  8
0
  5
15E
 10
-21.2963
 20
29.2264
 30
0.000000
  70
    32
  0
VERTEX
  8
0
  5
15F
 10
-21.2486
 20
29.3460
 30
0.000000
  70
    32
  0
VERTEX
  8
0
  5
160
 10
-21.2086
 20
29.4708
 30
0.000000
  70
    32
  0
VERTEX
  8
0
  5
161
 10
-21.1762
 20
29.6003
 30
0.000000
  70
    32
  0
VERTEX
  8
0
  5
162
 10
-21.1516
 20
29.7343
 30
0.000000
  70
    32
  0
VERTEX
  8
0
  5
163
 10
-21.1348
 20
29.8725
 30
0.000000
  70
    32
  0
VERTEX
  8
0
  5
164
 10
-21.1258
 20
30.0145
 30
0.000000
  70
    32
  0
VERTEX
  8
0
  5
165
 10
-21.1247
 20
30.1600
 30
0.000000
  70
    32
  0
VERTEX
  8
0
  5
166
 10
-21.1315
 20
30.3087
 30
0.000000
  70
    32
  0
VERTEX
  8
0
  5
167
 10
-21.1462
 20
30.4601
 30
0.000000
  70
    32
  0
VERTEX
  8
0
  5
168
 10
-21.1686
 20
30.6140
 30
0.000000
  70
    32
  0
VERTEX
  8
0
  5
169
 10
-21.1988
 20
30.7699
 30
0.000000
  70
    32
  0
VERTEX
  8
0
  5
16A
 10
-21.2368
 20
30.9275
 30
0.000000
  70
    32
  0
VERTEX
  8
0
  5
16B
 10
-21.2823
 20
31.0864
 30
0.000000
  70
    32
  0
VERTEX
  8
0
  5
16C
 10
-21.3353
 20
31.2462
 30
0.000000
  70
    32
  0
VERTEX
  8
0
  5
16D
 10
-21.3957
 20
31.4065
 30
0.000000
  70
    32
  0
VERTEX
  8
0
  5
16E
 10
-21.4633
 20
31.5669
 30
0.000000
  70
    32
  0
VERTEX
  8
0
  5
16F
 10
-21.5380
 20
31.7272
 30
0.000000
  70
    32
  0
VERTEX
  8
0
  5
170
 10
-21.6196
 20
31.8867
 30
0.000000
  70
    32
  0
VERTEX
  8
0
  5
171
 10
-21.7078
 20
32.0453
 30
0.000000
  70
    32
  0
VERTEX
  8
0
  5
172
 10
-21.8025
 20
32.2024
 30
0.000000
  70
    32
  0
VERTEX
  8
0
  5
173
 10
-21.9035
 20
32.3578
 30
0.000000
  70
    32
  0
VERTEX
  8
0
  5
174
 10
-22.0104
 20
32.5111
 30
0.000000
  70
    32
  0
VERTEX
  8
0
  5
175
 10
-22.1231
 20
32.6618
 30
0.000000
  70
    32
  0
VERTEX
  8
0
  5
176
 10
-22.2413
 20
32.8096
 30
0.000000
  70
    32
  0
VERTEX
  8
0
  5
177
 10
-22.3646
 20
32.9542
 30
0.000000
  70
    32
  0
VERTEX
  8
0
  5
178
 10
-22.4928
 20
33.0952
 30
0.000000
  70
    32
  0
VERTEX
  8
0
  5
179
 10
-22.6256
 20
33.2322
 30
0.000000
  70
    32
  0
VERTEX
  8
0
  5
17A
 10
-22.7627
 20
33.3650
 30
0.000000
  70
    32
  0
VERTEX
  8
0
  5
17B
 10
-22.9037
 20
33.4933
 30
0.000000
  70
    32
  0
VERTEX
  8
0
  5
17C
 10
-23.0483
 20
33.6166
 30
0.000000
  70
    32
  0
VERTEX
  8
0
  5
17D
 10
-23.1961
 20
33.7348
 30
0.000000
  70
    32
  0
VERTEX
  8
0
  5
17E
 10
-23.3468
 20
33.8475
 30
0.000000
  70
    32
  0
VERTEX
  8
0
  5
17F
 10
-23.5000
 20
33.9544
 30
0.000000
  70
    32
  0
VERTEX
  8
0
  5
180
 10
-23.6554
 20
34.0553
 30
0.000000
  70
    32
  0
VERTEX
  8
0
  5
181
 10
-23.8126
 20
34.1501
 30
0.000000
  70
    32
  0
VERTEX
  8
0
  5
182
 10
-23.9711
 20
34.2383
 30
0.000000
  70
    32
  0
VERTEX
  8
0
  5
183
 10
-24.1307
 20
34.3198
 30
0.000000
  70
    32
  0
VERTEX
  8
0
  5
184
 10
-24.2909
 20
34.3945
 30
0.000000
  70
    32
  0
VERTEX
  8
0
  5
185
 10
-24.4514
 20
34.4621
 30
0.000000
  70
    32
  0
VERTEX
  8
0
  5
186
 10
-24.6117
 20
34.5225
 30
0.000000
  70
    32
  0
VERTEX
  8
0
  5
187
 10
-24.7715
 20
34.5756
 30
0.000000
  70
    32
  0
VERTEX
  8
0
  5
188
 10
-24.9304
 20
34.6211
 30
0.000000
  70
    32
  0
VERTEX
  8
0
  5
189
 10
-25.0879
 20
34.6590
 30
0.000000
  70
    32
  0
VERTEX
  8
0
  5
18A
 10
-25.2439
 20
34.6892
 30
0.000000
  70
    32
  0
VERTEX
  8
0
  5
18B
 10
-25.3977
 20
34.7117
 30
0.000000
  70
    32
  0
VERTEX
  8
0
  5
18C
 10
-25.5492
 20
34.7264
 30
0.000000
  70
    32
  0
VERTEX
  8
0
  5
18D
 10
-25.6978
 20
34.7331
 30
0.000000
  70
    32
  0
VERTEX
  8
0
  5
18E
 10
-25.8433
 20
34.7320
 30
0.000000
  70
    32
  0
VERTEX
  8
0
  5
18F
 10
-25.9854
 20
34.7231
 30
0.000000
  70
    32
  0
VERTEX
  8
0
  5
190
 10
-26.1236
 20
34.7063
 30
0.000000
  70
    32
  0
VERTEX
  8
0
  5
191
 10
-26.2576
 20
34.6816
 30
0.000000
  70
    32
  0
VERTEX
  8
0
  5
192
 10
-26.3871
 20
34.6493
 30
0.000000
  70
    32
  0
VERTEX
  8
0
  5
193
 10
-26.5118
 20
34.6092
 30
0.000000
  70
    32
  0
VERTEX
  8
0
  5
194
 10
-26.6315
 20
34.5616
 30
0.000000
  70
    32
  0
VERTEX
  8
0
  5
195
 10
-26.7457
 20
34.5065
 30
0.000000
  70
    32
  0
VERTEX
  8
0
  5
196
 10
-26.8543
 20
34.4441
 30
0.000000
  70
    32
  0
VERTEX
  8
0
  5
197
 10
-26.9569
 20
34.3745
 30
0.000000
  70
    32
  0
VERTEX
  8
0
  5
198
 10
-27.0534
 20
34.2979
 30
0.000000
  70
    32
  0
VERTEX
  8
0
  5
199
 10
-27.1434
 20
34.2145
 30
0.000000
  70
    32
  0
VERTEX
  8
0
  5
19A
 10
-27.2268
 20
34.1244
 30
0.000000
  70
    32
  0
VERTEX
  8
0
  5
19B
 10
-27.3034
 20
34.0280
 30
0.000000
  70
    32
  0
VERTEX
  8
0
  5
19C
 10
-27.3730
 20
33.9253
 30
0.000000
  70
    32
  0
VERTEX
  8
0
  5
19D
 10
-27.4354
 20
33.8168
 30
0.000000
  70
    32
  0
VERTEX
  8
0
  5
19E
 10
-27.4905
 20
33.7025
 30
0.000000
  70
    32
  0
VERTEX
  8
0
  5
19F
 10
-27.5381
 20
33.5829
 30
0.000000
  70
    32
  0
VERTEX
  8
0
  5
1A0
 10
-27.5782
 20
33.4582
 30
0.000000
  70
    32
  0
VERTEX
  8
0
  5
1A1
 10
-27.6106
 20
33.3286
 30
0.000000
  70
    32
  0
VERTEX
  8
0
  5
1A2
 10
-27.6352
 20
33.1946
 30
0.000000
  70
    32
  0
VERTEX
  8
0
  5
1A3
 10
-27.6520
 20
33.0564
 30
0.000000
  70
    32
  0
VERTEX
  8
0
  5
1A4
 10
-27.6610
 20
32.9144
 30
0.000000
  70
    32
  0
VERTEX
  8
0
  5
1A5
 10
-27.6621
 20
32.7689
 30
0.000000
  70
    32
  0
VERTEX
  8
0
  5
1A6
 10
-27.6553
 20
32.6202
 30
0.000000
  70
    32
  0
VERTEX
  8
0
  5
1A7
 10
-27.6406
 20
32.4688
 30
0.000000
  70
    32
  0
VERTEX
  8
0
  5
1A8
 10
-27.6182
 20
32.3149
 30
0.000000
  70
    32
  0
VERTEX
  8
0
  5
1A9
 10
-27.5879
 20
32.1590
 30
0.000000
  70
    32
  0
VERTEX
  8
0
  5
1AA
 10
-27.5500
 20
32.0014
 30
0.000000
  70
    32
  0
VERTEX
  8
0
  5
1AB
 10
-27.5045
 20
31.8426
 30
0.000000
  70
    32
  0
VERTEX
  8
0
  5
1AC
 10
-27.4515
 20
31.6828
 30
0.000000
  70
    32
  0
VERTEX
  8
0
  5
1AD
 10
-27.3911
 20
31.5224
 30
0.000000
  70
    32
  0
VERTEX
  8
0
  5
1AE
 10
-27.3234
 20
31.3620
 30
0.000000
  70
    32
  0
VERTEX
  8
0
  5
1AF
 10
-27.2488
 20
31.2018
 30
0.000000
  70
    32
  0
VERTEX
  8
0
  5
1B0
 10
-27.1672
 20
31.0422
 30
0.000000
  70
    32
  0
VERTEX
  8
0
  5
1B1
 10
-27.0790
 20
30.8836
 30
0.000000
  70
    32
  0
VERTEX
  8
0
  5
1B2
 10
-26.9843
 20
30.7265
 30
0.000000
  70
    32
  0
VERTEX
  8
0
  5
1B3
 10
-26.8833
 20
30.5711
 30
0.000000
  70
    32
  0
VERTEX
  8
0
  5
1B4
 10
-26.7764
 20
30.4179
 30
0.000000
  70
    32
  0
VERTEX
  8
0
  5
1B5
 10
-26.6637
 20
30.2672
 30
0.000000
  70
    32
  0
VERTEX
  8
0
  5
1B6
 10
-26.5455
 20
30.1193
 30
0.000000
  70
    32
  0
VERTEX
  8
0
  5
1B7
 10
-26.4222
 20
29.9748
 30
0.000000
  70
    32
  0
VERTEX
  8
0
  5
1B8
 10
-26.2940
 20
29.8338
 30
0.000000
  70
    32
  0
VERTEX
  8
0
  5
1B9
 10
-26.1612
 20
29.6967
 30
0.000000
  70
    32
  0
VERTEX
  8
0
  5
1BA
 10
-26.0241
 20
29.5639
 30
0.000000
  70
    32
  0
VERTEX
  8
0
  5
1BB
 10
-25.8831
 20
29.4357
 30
0.000000
  70
    32
  0
VERTEX
  8
0
  5
1BC
 10
-25.7385
 20
29.3123
 30
0.000000
  70
    32
  0
VERTEX
  8
0
  5
1BD
 10
-25.5907
 20
29.1942
 30
0.000000
  70
    32
  0
VERTEX
  8
0
  5
1BE
 10
-25.4400
 20
29.0815
 30
0.000000
  70
    32
  0
VERTEX
  8
0
  5
1BF
 10
-25.2868
 20
28.9745
 30
0.000000
  70
    32
  0
VERTEX
  8
0
  5
1C0
 10
-25.1314
 20
28.8736
 30
0.000000
  70
    32
  0
VERTEX
  8
0
  5
1C1
 10
-24.9742
 20
28.7789
 30
0.000000
  70
    32
  0
VERTEX
  8
0
  5
1C2
 10
-24.8157
 20
28.6906
 30
0.000000
  70
    32
  0
VERTEX
  8
0
  5
1C3
 10
-24.6561
 20
28.6091
 30
0.000000
  70
    32
  0
VERTEX
  8
0
  5
1C4
 10
-24.4959
 20
28.5344
 30
0.000000
  70
    32
  0
VERTEX
  8
0
  5
1C5
 10
-24.3354
 20
28.4668
 30
0.000000
  70
    32
  0
VERTEX
  8
0
  5
1C6
 10
-24.1751
 20
28.4064
 30
0.000000
  70
    32
  0
VERTEX
  8
0
  5
1C7
 10
-24.0153
 20
28.3534
 30
0.000000
  70
    32
  0
VERTEX
  8
0
  5
1C8
 10
-23.8564
 20
28.3078
 30
0.000000
  70
    32
  0
VERTEX
  8
0
  5
1C9
 10
-23.6988
 20
28.2699
 30
0.000000
  70
    32
  0
VERTEX
  8
0
  5
1CA
 10
-23.5429
 20
28.2397
 30
0.000000
  70
    32
  0
VERTEX
  8
0
  5
1CB
 10
-23.3891
 20
28.2172
 30
0.000000
  70
    32
  0
VERTEX
  8
0
  5
1CC
 10
-23.2376
 20
28.2026
 30
0.000000
  70
    32
  0
VERTEX
  8
0
  5
1CD
 10
-23.0890
 20
28.1958
 30
0.000000
  70
    32
  0
VERTEX
  8
0
  5
1CE
 10
-22.9435
 20
28.1969
 30
0.000000
  70
    32
  0
VERTEX
  8
0
  5
1CF
 10
-22.8014
 20
28.2059
 30
0.000000
  70
    32
  0
VERTEX
  8
0
  5
1D0
 10
-22.6632
 20
28.2227
 30
0.000000
  70
    32
  0
VERTEX
  8
0
  5
1D1
 10
-22.5292
 20
28.2473
 30
0.000000
  70
    32
  0
VERTEX
  8
0
  5
1D2
 10
-22.3997
 20
28.2797
 30
0.000000
  70
    32
  0
VERTEX
  8
0
  5
1D3
 10
-22.2750
 20
28.3197
 30
0.000000
  70
    32
  0
VERTEX
  8
0
  5
1D4
 10
-22.1553
 20
28.3673
 30
0.000000
  70
    32
  0
VERTEX
  8
0
  5
1D5
 10
-22.0411
 20
28.4224
 30
0.000000
  70
    32
  0
VERTEX
  8
0
  5
1D6
 10
-21.9325
 20
28.4848
 30
0.000000
  70
    32
  0
VERTEX
  8
0
  5
1D7
 10
-21.8299
 20
28.5544
 30
0.000000
  70
    32
  0
VERTEX
  8
0
  5
1D8
 10
-21.7334
 20
28.6310
 30
0.000000
  70
    32
  0
VERTEX
  8
0
  5
1D9
 10
-21.6434
 20
28.7145
 30
0.000000
  70
    32
  0
SEQEND
  8
0
  5
1DA
  0
POLYLINE
  5
2C
  8
0
 10
-28.714457111354765
 20
-21.643389299489328
 30
0.0
 66
     1
 70
     8
  0
VERTEX
  8
0
  5
1DB
 10
-28.7145
 20
-21.6434
 30
0.000000
  70
    32
  0
VERTEX
  8
0
  5
1DC
 10
-28.8045
 20
-21.5600
 30
0.000000
  70
    32
  0
VERTEX
  8
0
  5
1DD
 10
-28.9010
 20
-21.4834
 30
0.000000
  70
    32
  0
VERTEX
  8
0
  5
1DE
 10
-29.0036
 20
-21.4138
 30
0.000000
  70
    32
  0
VERTEX
  8
0
  5
1DF
 10
-29.1122
 20
-21.3514
 30
0.000000
  70
    32
  0
VERTEX
  8
0
  5
1E0
 10
-29.2264
 20
-21.2963
 30
0.000000
  70
    32
  0
VERTEX
  8
0
  5
1E1
 10
-29.3460
 20
-21.2486
 30
0.000000
  70
    32
  0
VERTEX
  8
0
  5
1E2
 10
-29.4708
 20
-21.2086
 30
0.000000
  70
    32
  0
VERTEX
  8
0
  5
1E3
 10
-29.6003
 20
-21.1762
 30
0.000000
  70
    32
  0
VERTEX
  8
0
  5
1E4
 10
-29.7343
 20
-21.1516
 30
0.000000
  70
    32
  0
VERTEX
  8
0
  5
1E5
 10
-29.8725
 20
-21.1348
 30
0.000000
  70
    32
  0
VERTEX
  8
0
  5
1E6
 10
-30.0145
 20
-21.1258
 30
0.000000
  70
    32
  0
VERTEX
  8
0
  5
1E7
 10
-30.1600
 20
-21.1247
 30
0.000000
  70
    32
  0
VERTEX
  8
0
  5
1E8
 10
-30.3087
 20
-21.1315
 30
0.000000
  70
    32
  0
VERTEX
  8
0
  5
1E9
 10
-30.4601
 20
-21.1462
 30
0.000000
  70
    32
  0
VERTEX
  8
0
  5
1EA
 10
-30.6140
 20
-21.1686
 30
0.000000
  70
    32
  0
VERTEX
  8
0
  5
1EB
 10
-30.7699
 20
-21.1988
 30
0.000000
  70
    32
  0
VERTEX
  8
0
  5
1EC
 10
-30.9275
 20
-21.2368
 30
0.000000
  70
    32
  0
VERTEX
  8
0
  5
1ED
 10
-31.0864
 20
-21.2823
 30
0.000000
  70
    32
  0
VERTEX
  8
0
  5
1EE
 10
-31.2462
 20
-21.3353
 30
0.000000
  70
    32
  0
VERTEX
  8
0
  5
1EF
 10
-31.4065
 20
-21.3957
 30
0.000000
  70
    32
  0
VERTEX
  8
0
  5
1F0
 10
-31.5669
 20
-21.4633
 30
0.000000
  70
    32
  0
VERTEX
  8
0
  5
1F1
 10
-31.7272
 20
-21.5380
 30
0.000000
  70
    32
  0
VERTEX
  8
0
  5
1F2
 10
-31.8867
 20
-21.6196
 30
0.000000
  70
    32
  0
VERTEX
  8
0
  5
1F3
 10
-32.0453
 20
-21.7078
 30
0.000000
  70
    32
  0
VERTEX
  8
0
  5
1F4
 10
-32.2024
 20
-21.8025
 30
0.000000
  70
    32
  0
VERTEX
  8
0
  5
1F5
 10
-32.3578
 20
-21.9035
 30
0.000000
  70
    32
  0
VERTEX
  8
0
  5
1F6
 10
-32.5111
 20
-22.0104
 30
0.000000
  70
    32
  0
VERTEX
  8
0
  5
1F7
 10
-32.6618
 20
-22.1231
 30
0.000000
  70
    32
  0
VERTEX
  8
0
  5
1F8
 10
-32.8096
 20
-22.2413
 30
0.000000
  70
    32
  0
VERTEX
  8
0
  5
1F9
 10
-32.9542
 20
-22.3646
 30
0.000000
  70
    32
  0
VERTEX
  8
0
  5
1FA
 10
-33.0952
 20
-22.4928
 30
0.000000
  70
    32
  0
VERTEX
  8
0
  5
1FB
 10
-33.2322
 20
-22.6256
 30
0.000000
  70
    32
  0
VERTEX
  8
0
  5
1FC
 10
-33.3650
 20
-22.7627
 30
0.000000
  70
    32
  0
VERTEX
  8
0
  5
1FD
 10
-33.4933
 20
-22.9037
 30
0.000000
  70
    32
  0
VERTEX
  8
0
  5
1FE
 10
-33.6166
 20
-23.0483
 30
0.000000
  70
    32
  0
VERTEX
  8
0
  5
1FF
 10
-33.7348
 20
-23.1961
 30
0.000000
  70
    32
  0
VERTEX
  8
0
  5
200
 10
-33.8475
 20
-23.3468
 30
0.000000
  70
    32
  0
VERTEX
  8
0
  5
201
 10
-33.9544
 20
-23.5000
 30
0.000000
  70
    32
  0
VERTEX
  8
0
  5
202
 10
-34.0553
 20
-23.6554
 30
0.000000
  70
    32
  0
VERTEX
  8
0
  5
203
 10
-34.1501
 20
-23.8126
 30
0.000000
  70
    32
  0
VERTEX
  8
0
  5
204
 10
-34.2383
 20
-23.9711
 30
0.000000
  70
    32
  0
VERTEX
  8
0
  5
205
 10
-34.3198
 20
-24.1307
 30
0.000000
  70
    32
  0
VERTEX
  8
0
  5
206
 10
-34.3945
 20
-24.2909
 30
0.000000
  70
    32
  0
VERTEX
  8
0
  5
207
 10
-34.4621
 20
-24.4514
 30
0.000000
  70
    32
  0
VERTEX
  8
0
  5
208
 10
-34.5225
 20
-24.6117
 30
0.000000
  70
    32
  0
VERTEX
  8
0
  5
209
 10
-34.5756
 20
-24.7715
 30
0.000000
  70
    32
  0
VERTEX
  8
0
  5
20A
 10
-34.6211
 20
-24.9304
 30
0.000000
  70
    32
  0
VERTEX
  8
0
  5
20B
 10
-34.6590
 20
-25.0879
 30
0.000000
  70
    32
  0
VERTEX
  8
0
  5
20C
 10
-34.6892
 20
-25.2439
 30
0.000000
  70
    32
  0
VERTEX
  8
0
  5
20D
 10
-34.7117
 20
-25.3977
 30
0.000000
  70
    32
  0
VERTEX
  8
0
  5
20E
 10
-34.7264
 20
-25.5492
 30
0.000000
  70
    32
  0
VERTEX
  8
0
  5
20F
 10
-34.7331
 20
-25.6978
 30
0.000000
  70
    32
  0
VERTEX
  8
0
  5
210
 10
-34.7320
 20
-25.8433
 30
0.000000
  70
    32
  0
VERTEX
  8
0
  5
211
 10
-34.7231
 20
-25.9854
 30
0.000000
  70
    32
  0
VERTEX
  8
0
  5
212
 10
-34.7063
 20
-26.1236
 30
0.000000
  70
    32
  0
VERTEX
  8
0
  5
213
 10
-34.6816
 20
-26.2576
 30
0.000000
  70
    32
  0
VERTEX
  8
0
  5
214
 10
-34.6493
 20
-26.3871
 30
0.000000
  70
    32
  0
VERTEX
  8
0
  5
215
 10
-34.6092
 20
-26.5118
 30
0.000000
  70
    32
  0
VERTEX
  8
0
  5
216
 10
-34.5616
 20
-26.6315
 30
0.000000
  70
    32
  0
VERTEX
  8
0
  5
217
 10
-34.5065
 20
-26.7457
 30
0.000000
  70
    32
  0
VERTEX
  8
0
  5
218
 10
-34.4441
 20
-26.8543
 30
0.000000
  70
    32
  0
VERTEX
  8
0
  5
219
 10
-34.3745
 20
-26.9569
 30
0.000000
  70
    32
  0
VERTEX
  8
0
  5
21A
 10
-34.2979
 20
-27.0534
 30
0.000000
  70
    32
  0
VERTEX
  8
0
  5
21B
 10
-34.2145
 20
-27.1434
 30
0.000000
  70
    32
  0
VERTEX
  8
0
  5
21C
 10
-34.1244
 20
-27.2268
 30
0.000000
  70
    32
  0
VERTEX
  8
0
  5
21D
 10
-34.0280
 20
-27.3034
 30
0.000000
  70
    32
  0
VERTEX
  8
0
  5
21E
 10
-33.9253
 20
-27.3730
 30
0.000000
  70
    32
  0
VERTEX
  8
0
  5
21F
 10
-33.8168
 20
-27.4354
 30
0.000000
  70
    32
  0
VERTEX
  8
0
  5
220
 10
-33.7025
 20
-27.4905
 30
0.000000
  70
    32
  0
VERTEX
  8
0
  5
221
 10
-33.5829
 20
-27.5381
 30
0.000000
  70
    32
  0
VERTEX
  8
0
  5
222
 10
-33.4582
 20
-27.5782
 30
0.000000
  70
    32
  0
VERTEX
  8
0
  5
223
 10
-33.3286
 20
-27.6106
 30
0.000000
  70
    32
  0
VERTEX
  8
0
  5
224
 10
-33.1946
 20
-27.6352
 30
0.000000
  70
    32
  0
VERTEX
  8
0
  5
225
 10
-33.0564
 20
-27.6520
 30
0.000000
  70
    32
  0
VERTEX
  8
0
  5
226
 10
-32.9144
 20
-27.6610
 30
0.000000
  70
    32
  0
VERTEX
  8
0
  5
227
 10
-32.7689
 20
-27.6621
 30
0.000000
  70
    32
  0
VERTEX
  8
0
  5
228
 10
-32.6202
 20
-27.6553
 30
0.000000
  70
    32
  0
VERTEX
  8
0
  5
229
 10
-32.4688
 20
-27.6406
 30
0.000000
  70
    32
  0
VERTEX
  8
0
  5
22A
 10
-32.3149
 20
-27.6182
 30
0.000000
  70
    32
  0
VERTEX
  8
0
  5
22B
 10
-32.1590
 20
-27.5879
 30
0.000000
  70
    32
  0
VERTEX
  8
0
  5
22C
 10
-32.0014
 20
-27.5500
 30
0.000000
  70
    32
  0
VERTEX
  8
0
  5
22D
 10
-31.8426
 20
-27.5045
 30
0.000000
  70
    32
  0
VERTEX
  8
0
  5
22E
 10
-31.6828
 20
-27.4515
 30
0.000000
  70
    32
  0
VERTEX
  8
0
  5
22F
 10
-31.5224
 20
-27.3911
 30
0.000000
  70
    32
  0
VERTEX
  8
0
  5
230
 10
-31.3620
 20
-27.3234
 30
0.000000
  70
    32
  0
VERTEX
  8
0
  5
231
 10
-31.2018
 20
-27.2488
 30
0.000000
  70
    32
  0
VERTEX
  8
0
  5
232
 10
-31.0422
 20
-27.1672
 30
0.000000
  70
    32
  0
VERTEX
  8
0
  5
233
 10
-30.8836
 20
-27.0790
 30
0.000000
  70
    32
  0
VERTEX
  8
0
  5
234
 10
-30.7265
 20
-26.9843
 30
0.000000
  70
    32
  0
VERTEX
  8
0
  5
235
 10
-30.5711
 20
-26.8833
 30
0.000000
  70
    32
  0
VERTEX
  8
0
  5
236
 10
-30.4179
 20
-26.7764
 30
0.000000
  70
    32
  0
VERTEX
  8
0
  5
237
 10
-30.2672
 20
-26.6637
 30
0.000000
  70
    32
  0
VERTEX
  8
0
  5
238
 10
-30.1193
 20
-26.5455
 30
0.000000
  70
    32
  0
VERTEX
  8
0
  5
239
 10
-29.9748
 20
-26.4222
 30
0.000000
  70
    32
  0
VERTEX
  8
0
  5
23A
 10
-29.8338
 20
-26.2940
 30
0.000000
  70
    32
  0
VERTEX
  8
0
  5
23B
 10
-29.6967
 20
-26.1612
 30
0.000000
  70
    32
  0
VERTEX
  8
0
  5
23C
 10
-29.5639
 20
-26.0241
 30
0.000000
  70
    32
  0
VERTEX
  8
0
  5
23D
 10
-29.4357
 20
-25.8831
 30
0.000000
  70
    32
  0
VERTEX
  8
0
  5
23E
 10
-29.3123
 20
-25.7385
 30
0.000000
  70
    32
  0
VERTEX
  8
0
  5
23F
 10
-29.1942
 20
-25.5907
 30
0.000000
  70
    32
  0
VERTEX
  8
0
  5
240
 10
-29.0815
 20
-25.4400
 30
0.000000
  70
    32
  0
VERTEX
  8
0
  5
241
 10
-28.9745
 20
-25.2868
 30
0.000000
  70
    32
  0
VERTEX
  8
0
  5
242
 10
-28.8736
 20
-25.1314
 30
0.000000
  70
    32
  0
VERTEX
  8
0
  5
243
 10
-28.7789
 20
-24.9742
 30
0.000000
  70
    32
  0
VERTEX
  8
0
  5
244
 10
-28.6906
 20
-24.8157
 30
0.000000
  70
    32
  0
VERTEX
  8
0
  5
245
 10
-28.6091
 20
-24.6561
 30
0.000000
  70
    32
  0
VERTEX
  8
0
  5
246
 10
-28.5344
 20
-24.4959
 30
0.000000
  70
    32
  0
VERTEX
  8
0
  5
247
 10
-28.4668
 20
-24.3354
 30
0.000000
  70
    32
  0
VERTEX
  8
0
  5
248
 10
-28.4064
 20
-24.1751
 30
0.000000
  70
    32
  0
VERTEX
  8
0
  5
249
 10
-28.3534
 20
-24.0153
 30
0.000000
  70
    32
  0
VERTEX
  8
0
  5
24A
 10
-28.3078
 20
-23.8564
 30
0.000000
  70
    32
  0
VERTEX
  8
0
  5
24B
 10
-28.2699
 20
-23.6988
 30
0.000000
  70
    32
  0
VERTEX
  8
0
  5
24C
 10
-28.2397
 20
-23.5429
 30
0.000000
  70
    32
  0
VERTEX
  8
0
  5
24D
 10
-28.2172
 20
-23.3891
 30
0.000000
  70
    32
  0
VERTEX
  8
0
  5
24E
 10
-28.2026
 20
-23.2376
 30
0.000000
  70
    32
  0
VERTEX
  8
0
  5
24F
 10
-28.1958
 20
-23.0890
 30
0.000000
  70
    32
  0
VERTEX
  8
0
  5
250
 10
-28.1969
 20
-22.9435
 30
0.000000
  70
    32
  0
VERTEX
  8
0
  5
251
 10
-28.2059
 20
-22.8014
 30
0.000000
  70
    32
  0
VERTEX
  8
0
  5
252
 10
-28.2227
 20
-22.6632
 30
0.000000
  70
    32
  0
VERTEX
  8
0
  5
253
 10
-28.2473
 20
-22.5292
 30
0.000000
  70
    32
  0
VERTEX
  8
0
  5
254
 10
-28.2797
 20
-22.3997
 30
0.000000
  70
    32
  0
VERTEX
  8
0
  5
255
 10
-28.3197
 20
-22.2750
 30
0.000000
  70
    32
  0
VERTEX
  8
0
  5
256
 10
-28.3673
 20
-22.1553
 30
0.000000
  70
    32
  0
VERTEX
  8
0
  5
257
 10
-28.4224
 20
-22.0411
 30
0.000000
  70
    32
  0
VERTEX
  8
0
  5
258
 10
-28.4848
 20
-21.9325
 30
0.000000
  70
    32
  0
VERTEX
  8
0
  5
259
 10
-28.5544
 20
-21.8299
 30
0.000000
  70
    32
  0
VERTEX
  8
0
  5
25A
 10
-28.6310
 20
-21.7334
 30
0.000000
  70
    32
  0
VERTEX
  8
0
  5
25B
 10
-28.7145
 20
-21.6434
 30
0.000000
  70
    32
  0
SEQEND
  8
0
  5
25C
  0
LINE
  5
2D
  8
0
 10
30.0
 20
40.000000000000107
 30
0.0
 11
40.0
 21
30.00000000000011
 31
0.0
  0
LINE
  5
2E
  8
0
 10
30.0
 20
-40.000000000000107
 30
0.0
 11
40.0
 21
-30.00000000000011
 31
0.0
  0
LINE
  5
2F
  8
0
 10
-30.0
 20
-40.000000000000107
 30
0.0
 11
-40.0
 21
-30.00000000000011
 31
0.0
  0
LINE
  5
30
  8
0
 10
30.0
 20
-40.000000000000107
 30
0.0
 11
-30.000000000000231
 21
-40.0
 31
0.0
  0
CIRCLE
  5
31
  8
0
 10
-16.0
 20
-31.0
 30
0.0
 40
2.5
  0
LINE
  5
32
  8
0
 10
-30.0
 20
40.000000000000107
 30
0.0
 11
30.000000000000231
 21
40.0
 31
0.0
  0
LINE
  5
33
  8
0
 10
-40.0
 20
-30.00000000000011
 30
0.0
 11
-39.999999999999773
 21
30.00000000000011
 31
0.0
  0
LINE
  5
34
  8
0
 10
-30.0
 20
40.000000000000107
 30
0.0
 11
-40.0
 21
30.00000000000011
 31
0.0
  0
CIRCLE
  5
35
  8
0
 10
16.0
 20
31.0
 30
0.0
 40
2.5
  0
LINE
  5
36
  8
DIM
  6
HIDDEN
 10
30.000000000000231
 20
40.0
 30
0.0
 11
30.0
 21
40.0
 31
0.0
  0
LINE
  5
39
  8
0
 10
40.0
 20
30.00000000000011
 30
0.0
 11
40.0
 21
-30.00000000000011
 31
0.0
  0
LINE
  5
3A
  8
DIM
  6
HIDDEN
 10
40.0
 20
30.00000000000011
 30
0.0
 11
40.0
 21
30.0
 31
0.0
  0
INSERT
  5
3B
  8
0
  2
SIMPSON-STRONG-TIE
 10
-26.873296984556081
 20
13.30667967582999
 30
0.0
  0
ENDSEC
  0
EOF
