  0
SECTION
  2
HEADER
  9
$ACADVER
  1
AC1009
  9
$INSBASE
 10
0.0
 20
0.0
 30
0.0
  9
$EXTMIN
 10
-40.0
 20
-398.21205894865108
 30
0.0
  9
$EXTMAX
 10
40.0
 20
0.0
 30
0.0
  9
$LIMMIN
 10
0.0
 20
0.0
  9
$LIMMAX
 10
12.0
 20
9.0
  9
$ORTHOMODE
 70
     0
  9
$REGENMODE
 70
     1
  9
$FILLMODE
 70
     1
  9
$QTEXTMODE
 70
     0
  9
$MIRRTEXT
 70
     1
  9
$DRAGMODE
 70
     2
  9
$LTSCALE
 40
1.0
  9
$OSMODE
 70
    47
  9
$ATTMODE
 70
     1
  9
$TEXTSIZE
 40
3.5
  9
$TRACEWID
 40
0.05
  9
$TEXTSTYLE
  7
SST
  9
$CLAYER
  8
0
  9
$CELTYPE
  6
BYLAYER
  9
$CECOLOR
 62
   256
  9
$DIMSCALE
 40
1.0
  9
$DIMASZ
 40
0.18
  9
$DIMEXO
 40
0.0625
  9
$DIMDLI
 40
0.38
  9
$DIMRND
 40
0.0
  9
$DIMDLE
 40
0.0
  9
$DIMEXE
 40
0.18
  9
$DIMTP
 40
0.0
  9
$DIMTM
 40
0.0
  9
$DIMTXT
 40
0.18
  9
$DIMCEN
 40
0.09
  9
$DIMTSZ
 40
0.0
  9
$DIMTOL
 70
     0
  9
$DIMLIM
 70
     0
  9
$DIMTIH
 70
     1
  9
$DIMTOH
 70
     1
  9
$DIMSE1
 70
     0
  9
$DIMSE2
 70
     0
  9
$DIMTAD
 70
     0
  9
$DIMZIN
 70
     0
  9
$DIMBLK
  1

  9
$DIMASO
 70
     1
  9
$DIMSHO
 70
     1
  9
$DIMPOST
  1

  9
$DIMAPOST
  1

  9
$DIMALT
 70
     0
  9
$DIMALTD
 70
     2
  9
$DIMALTF
 40
25.399999999999999
  9
$DIMLFAC
 40
1.0
  9
$DIMTOFL
 70
     0
  9
$DIMTVP
 40
0.0
  9
$DIMTIX
 70
     0
  9
$DIMSOXD
 70
     0
  9
$DIMSAH
 70
     0
  9
$DIMBLK1
  1

  9
$DIMBLK2
  1

  9
$DIMSTYLE
  2
STANDARD
  9
$DIMCLRD
 70
     0
  9
$DIMCLRE
 70
     0
  9
$DIMCLRT
 70
     0
  9
$DIMTFAC
 40
1.0
  9
$DIMGAP
 40
0.09
  9
$LUNITS
 70
     2
  9
$LUPREC
 70
     4
  9
$SKETCHINC
 40
0.1
  9
$FILLETRAD
 40
0.5
  9
$AUNITS
 70
     0
  9
$AUPREC
 70
     0
  9
$MENU
  1
.
  9
$ELEVATION
 40
0.0
  9
$PELEVATION
 40
0.0
  9
$THICKNESS
 40
0.0
  9
$LIMCHECK
 70
     0
  9
$BLIPMODE
 70
     0
  9
$CHAMFERA
 40
0.5
  9
$CHAMFERB
 40
0.5
  9
$SKPOLY
 70
     0
  9
$TDCREATE
 40
2453178.4907919099
  9
$TDUPDATE
 40
2453443.5709136231
  9
$TDINDWG
 40
0.0054205324
  9
$TDUSRTIMER
 40
0.0054205324
  9
$USRTIMER
 70
     1
  9
$ANGBASE
 50
0.0
  9
$ANGDIR
 70
     0
  9
$PDMODE
 70
     0
  9
$PDSIZE
 40
0.0
  9
$PLINEWID
 40
0.0
  9
$COORDS
 70
     1
  9
$SPLFRAME
 70
     0
  9
$SPLINETYPE
 70
     6
  9
$SPLINESEGS
 70
     8
  9
$ATTDIA
 70
     0
  9
$ATTREQ
 70
     1
  9
$HANDLING
 70
     1
  9
$HANDSEED
  5
40A
  9
$SURFTAB1
 70
     6
  9
$SURFTAB2
 70
     6
  9
$SURFTYPE
 70
     6
  9
$SURFU
 70
     6
  9
$SURFV
 70
     6
  9
$UCSNAME
  2

  9
$UCSORG
 10
0.0
 20
0.0
 30
0.0
  9
$UCSXDIR
 10
1.0
 20
0.0
 30
0.0
  9
$UCSYDIR
 10
0.0
 20
1.0
 30
0.0
  9
$PUCSNAME
  2

  9
$PUCSORG
 10
0.0
 20
0.0
 30
0.0
  9
$PUCSXDIR
 10
1.0
 20
0.0
 30
0.0
  9
$PUCSYDIR
 10
0.0
 20
1.0
 30
0.0
  9
$USERI1
 70
     0
  9
$USERI2
 70
     0
  9
$USERI3
 70
     0
  9
$USERI4
 70
     0
  9
$USERI5
 70
     0
  9
$USERR1
 40
0.0
  9
$USERR2
 40
0.0
  9
$USERR3
 40
0.0
  9
$USERR4
 40
0.0
  9
$USERR5
 40
0.0
  9
$WORLDVIEW
 70
     1
  9
$SHADEDGE
 70
     3
  9
$SHADEDIF
 70
    70
  9
$TILEMODE
 70
     1
  9
$MAXACTVP
 70
    64
  9
$PLIMCHECK
 70
     0
  9
$PEXTMIN
 10
1.0000000000000000E+020
 20
1.0000000000000000E+020
 30
1.0000000000000000E+020
  9
$PEXTMAX
 10
-1.0000000000000000E+020
 20
-1.0000000000000000E+020
 30
-1.0000000000000000E+020
  9
$PLIMMIN
 10
0.0
 20
0.0
  9
$PLIMMAX
 10
12.0
 20
9.0
  9
$UNITMODE
 70
     0
  9
$VISRETAIN
 70
     1
  9
$PLINEGEN
 70
     0
  9
$PSLTSCALE
 70
     1
  0
ENDSEC
  0
SECTION
  2
TABLES
  0
TABLE
  2
VPORT
 70
     2
  0
VPORT
  2
*ACTIVE
 70
     0
 10
0.0
 20
0.0
 11
1.0
 21
1.0
 12
0.0045542971085979
 22
-199.1011250305738
 13
0.0
 23
0.0
 14
0.5
 24
0.5
 15
0.5
 25
0.5
 16
0.0
 26
0.0
 36
1.0
 17
0.0
 27
0.0
 37
0.0
 40
501.642588424422
 41
1.4993646759847521
 42
50.0
 43
0.0
 44
0.0
 50
0.0
 51
0.0
 71
     0
 72
   100
 73
     1
 74
     3
 75
     0
 76
     0
 77
     0
 78
     0
  0
ENDTAB
  0
TABLE
  2
LTYPE
 70
     2
  0
LTYPE
  2
CONTINUOUS
 70
     0
  3
Solid line
 72
    65
 73
     0
 40
0.0
  0
LTYPE
  2
HIDDEN
 70
     0
  3
__ __ __ __ __ __ __ __ __ __ __ __ __ __ __ __
 72
    65
 73
     2
 40
0.375
 49
0.25
 49
-0.125
  0
ENDTAB
  0
TABLE
  2
LAYER
 70
     1
  0
LAYER
  2
0
 70
     0
 62
     7
  6
CONTINUOUS
  0
ENDTAB
  0
TABLE
  2
STYLE
 70
     2
  0
STYLE
  2
STANDARD
 70
     0
 40
0.0
 41
1.0
 50
0.0
 71
     0
 42
0.2
  3
txt
  4

  0
STYLE
  2
SST
 70
     0
 40
0.0
 41
1.0
 50
0.0
 71
     0
 42
3.5
  3
romans.shx
  4

  0
ENDTAB
  0
TABLE
  2
VIEW
 70
     0
  0
ENDTAB
  0
TABLE
  2
UCS
 70
     0
  0
ENDTAB
  0
TABLE
  2
APPID
 70
     1
  0
APPID
  2
ACAD
 70
     0
  0
ENDTAB
  0
TABLE
  2
DIMSTYLE
 70
     1
  0
DIMSTYLE
  2
STANDARD
 70
     0
  3

  4

  5

  6

  7

 40
1.0
 41
0.18
 42
0.0625
 43
0.38
 44
0.18
 45
0.0
 46
0.0
 47
0.0
 48
0.0
140
0.18
141
0.09
142
0.0
143
25.399999999999999
144
1.0
145
0.0
146
1.0
147
0.09
 71
     0
 72
     0
 73
     1
 74
     1
 75
     0
 76
     0
 77
     0
 78
     0
170
     0
171
     2
172
     0
173
     0
174
     0
175
     0
176
     0
177
     0
178
     0
  0
ENDTAB
  0
ENDSEC
  0
SECTION
  2
BLOCKS
  0
BLOCK
  8
0
  2
$MODEL_SPACE
 70
     0
 10
0.0
 20
0.0
 30
0.0
  3
$MODEL_SPACE
  1

  0
ENDBLK
  5
9
  8
0
  0
BLOCK
 67
     1
  8
0
  2
$PAPER_SPACE
 70
     0
 10
0.0
 20
0.0
 30
0.0
  3
$PAPER_SPACE
  1

  0
ENDBLK
  5
E
 67
     1
  8
0
  0
BLOCK
  8
0
  2
SIMPSON-STRONG-TIE
 70
     0
 10
0.0
 20
0.0
 30
0.0
  3
SIMPSON-STRONG-TIE
  1

  0
TEXT
  5
12B
  8
0
  6
CONTINUOUS
 10
-4.7318727780691416
 20
4.4215860385237811
 30
0.0
 40
2.0
  1
SIMPSON
 50
316.94148639091338
  7
SST
 72
     1
 11
0.0
 21
0.0
 31
0.0
  0
TEXT
  5
12C
  8
0
  6
CONTINUOUS
 10
-7.9648409725863862
 20
3.4769825481547749
 30
0.0
 40
2.0
  1
Strong-Tie
 50
316.94148639091338
  7
SST
 72
     1
 11
-2.0499999999999541
 21
-2.0499999999999541
 31
0.0
  0
ENDBLK
  5
12D
  8
0
  0
ENDSEC
  0
SECTION
  2
ENTITIES
  0
LINE
  5
29
  8
0
 10
-15.630550000000079
 20
-132.9827999999998
 30
0.0
 11
-15.630550000000079
 21
-35.059199999999919
 31
0.0
  0
LINE
  5
2A
  8
0
 10
15.63054999999963
 20
-35.059199999999919
 30
0.0
 11
15.63054999999963
 21
-132.9827999999998
 31
0.0
  0
LINE
  5
2B
  8
0
 10
-7.8060104793783012
 20
-132.8021
 30
0.0
 11
-7.8060104793771643
 21
-35.239900000000027
 31
0.0
  0
LINE
  5
2C
  8
0
 10
7.8060104793764822
 20
-132.8021
 30
0.0
 11
7.806010479377619
 21
-35.239900000000027
 31
0.0
  0
LINE
  5
2D
  8
0
 62
     8
 10
-9.8514950002024761
 20
-375.80287774053357
 30
0.0
 11
10.14850499979752
 21
-373.90242525184578
 31
0.0
  0
LINE
  5
2E
  8
0
 10
10.14850499979798
 20
-150.02544471868089
 30
0.0
 11
10.14850499979798
 21
-398.21205894865102
 31
0.0
  0
LINE
  5
2F
  8
0
 62
     8
 10
8.2735049997979786
 20
-150.02762238680029
 30
0.0
 11
8.2735049998002523
 21
-398.21205894865102
 31
0.0
  0
LINE
  5
30
  8
0
 62
     8
 10
-7.9764950002020214
 20
-398.21205894865102
 30
0.0
 11
-7.9764950002020214
 21
-150.0464955105013
 31
0.0
  0
LINE
  5
31
  8
0
 10
-9.8514950002020214
 20
-398.21205894865102
 30
0.0
 11
-9.8514950002020214
 21
-150.0486731786207
 31
0.0
  0
LINE
  5
32
  8
0
 62
     8
 10
-9.8514950002024761
 20
-377.30963449698032
 30
0.0
 11
10.14850499979752
 21
-375.40918200829242
 31
0.0
  0
LINE
  5
33
  8
0
 62
     8
 10
-9.8514950002024761
 20
-379.09612098408689
 30
0.0
 11
10.14850499979752
 21
-377.1956684953991
 31
0.0
  0
LINE
  5
34
  8
0
 62
     8
 10
-9.8514950002024761
 20
-380.60287774053359
 30
0.0
 11
10.14850499979752
 21
-378.70242525184568
 31
0.0
  0
LINE
  5
35
  8
0
 62
     8
 10
-9.8514950002024761
 20
-382.10963449698022
 30
0.0
 11
10.14850499979752
 21
-380.20918200829237
 31
0.0
  0
LINE
  5
36
  8
0
 62
     8
 10
-9.8514950002024761
 20
-388.10963449698022
 30
0.0
 11
10.14850499979752
 21
-386.20918200829237
 31
0.0
  0
LINE
  5
37
  8
0
 62
     8
 10
-9.8514950002024761
 20
-392.80963449698021
 30
0.0
 11
10.14850499979752
 21
-390.90918200829242
 31
0.0
  0
LINE
  5
38
  8
0
 62
     8
 10
-9.8514950002024761
 20
-389.796120984087
 30
0.0
 11
10.14850499979752
 21
-387.89566849539909
 31
0.0
  0
LINE
  5
39
  8
0
 62
     8
 10
-9.8514950002024761
 20
-391.30287774053357
 30
0.0
 11
10.14850499979752
 21
-389.40242525184578
 31
0.0
  0
LINE
  5
3A
  8
0
 62
     8
 10
-9.8514950002024761
 20
-386.60287774053359
 30
0.0
 11
10.14850499979752
 21
-384.70242525184568
 31
0.0
  0
LINE
  5
3B
  8
0
 62
     8
 10
-9.8514950002024761
 20
-385.0096344969802
 30
0.0
 11
10.14850499979752
 21
-383.10918200829241
 31
0.0
  0
LINE
  5
3C
  8
0
 62
     8
 10
-9.8514950002024761
 20
-383.50287774053351
 30
0.0
 11
10.14850499979752
 21
-381.60242525184572
 31
0.0
  0
LINE
  5
3D
  8
0
 10
-9.8514950002020214
 20
-398.21205894865102
 30
0.0
 11
10.14850499979798
 21
-398.21205894865102
 31
0.0
  0
LINE
  5
3E
  8
0
 62
     8
 10
-9.8514950002024761
 20
-397.60963449698022
 30
0.0
 11
10.14850499979752
 21
-395.70918200829237
 31
0.0
  0
LINE
  5
3F
  8
0
 62
     8
 10
-9.8514950002024761
 20
-396.10287774053359
 30
0.0
 11
10.14850499979752
 21
-394.2024252518458
 31
0.0
  0
LINE
  5
40
  8
0
 62
     8
 10
-2.510342801119577
 20
-398.21205894865108
 30
0.0
 11
10.14850499979752
 21
-397.00918200829233
 31
0.0
  0
LINE
  5
41
  8
0
 62
     8
 10
-9.8514950002024761
 20
-394.59612098408701
 30
0.0
 11
10.14850499979752
 21
-392.6956684953991
 31
0.0
  0
LINE
  5
42
  8
0
 62
     8
 10
-9.8514950002024761
 20
-241.10963449698019
 30
0.0
 11
10.14850499979752
 21
-239.2091820082924
 31
0.0
  0
LINE
  5
43
  8
0
 62
     8
 10
-9.8514950002024761
 20
-308.296120984087
 30
0.0
 11
10.14850499979752
 21
-306.39566849539909
 31
0.0
  0
LINE
  5
44
  8
0
 62
     8
 10
-9.8514950002024761
 20
-309.80287774053357
 30
0.0
 11
10.14850499979752
 21
-307.90242525184578
 31
0.0
  0
LINE
  5
45
  8
0
 62
     8
 10
-9.8514950002024761
 20
-311.30963449698032
 30
0.0
 11
10.14850499979752
 21
-309.40918200829242
 31
0.0
  0
LINE
  5
46
  8
0
 62
     8
 10
-9.8514950002024761
 20
-312.9028777405336
 30
0.0
 11
10.14850499979752
 21
-311.00242525184569
 31
0.0
  0
LINE
  5
47
  8
0
 62
     8
 10
-9.8514950002024761
 20
-314.40963449698017
 30
0.0
 11
10.14850499979752
 21
-312.50918200829238
 31
0.0
  0
LINE
  5
48
  8
0
 62
     8
 10
-9.8514950002024761
 20
-316.09612098408701
 30
0.0
 11
10.14850499979752
 21
-314.19566849539922
 31
0.0
  0
LINE
  5
49
  8
0
 62
     8
 10
-9.8514950002024761
 20
-317.6028777405337
 30
0.0
 11
10.14850499979752
 21
-315.7024252518458
 31
0.0
  0
LINE
  5
4A
  8
0
 62
     8
 10
-9.8514950002024761
 20
-319.10963449698028
 30
0.0
 11
10.14850499979752
 21
-317.20918200829237
 31
0.0
  0
LINE
  5
4B
  8
0
 62
     8
 10
-9.8514950002024761
 20
-320.89612098408691
 30
0.0
 11
10.14850499979752
 21
-318.99566849539912
 31
0.0
  0
LINE
  5
4C
  8
0
 62
     8
 10
-9.8514950002024761
 20
-322.4028777405336
 30
0.0
 11
10.14850499979752
 21
-320.50242525184581
 31
0.0
  0
LINE
  5
4D
  8
0
 62
     8
 10
-9.8514950002024761
 20
-323.90963449698017
 30
0.0
 11
10.14850499979752
 21
-322.00918200829238
 31
0.0
  0
LINE
  5
4E
  8
0
 62
     8
 10
-9.8514950002024761
 20
-325.39612098408702
 30
0.0
 11
10.14850499979752
 21
-323.49566849539912
 31
0.0
  0
LINE
  5
4F
  8
0
 62
     8
 10
-9.8514950002024761
 20
-374.296120984087
 30
0.0
 11
10.14850499979752
 21
-372.39566849539921
 31
0.0
  0
LINE
  5
50
  8
0
 62
     8
 10
-9.8514950002024761
 20
-341.0096344969802
 30
0.0
 11
10.14850499979752
 21
-339.10918200829241
 31
0.0
  0
LINE
  5
51
  8
0
 62
     8
 10
-9.8514950002024761
 20
-328.40963449698017
 30
0.0
 11
10.14850499979752
 21
-326.50918200829238
 31
0.0
  0
LINE
  5
52
  8
0
 62
     8
 10
-9.8514950002024761
 20
-331.5096344969802
 30
0.0
 11
10.14850499979752
 21
-329.60918200829229
 31
0.0
  0
LINE
  5
53
  8
0
 62
     8
 10
-9.8514950002024761
 20
-330.00287774053362
 30
0.0
 11
10.14850499979752
 21
-328.10242525184572
 31
0.0
  0
LINE
  5
54
  8
0
 62
     8
 10
-9.8514950002024761
 20
-333.19612098408697
 30
0.0
 11
10.14850499979752
 21
-331.29566849539913
 31
0.0
  0
LINE
  5
55
  8
0
 62
     8
 10
-9.8514950002024761
 20
-334.70287774053361
 30
0.0
 11
10.14850499979752
 21
-332.80242525184582
 31
0.0
  0
LINE
  5
56
  8
0
 62
     8
 10
-9.8514950002024761
 20
-336.2096344969803
 30
0.0
 11
10.14850499979752
 21
-334.3091820082924
 31
0.0
  0
LINE
  5
57
  8
0
 62
     8
 10
-9.8514950002024761
 20
-337.99612098408687
 30
0.0
 11
10.14850499979752
 21
-336.09566849539908
 31
0.0
  0
LINE
  5
58
  8
0
 62
     8
 10
-9.8514950002024761
 20
-339.50287774053362
 30
0.0
 11
10.14850499979752
 21
-337.60242525184572
 31
0.0
  0
LINE
  5
59
  8
0
 62
     8
 10
-9.8514950002024761
 20
-342.9028777405336
 30
0.0
 11
10.14850499979752
 21
-341.00242525184581
 31
0.0
  0
LINE
  5
5A
  8
0
 62
     8
 10
-9.8514950002024761
 20
-344.40963449698017
 30
0.0
 11
10.14850499979752
 21
-342.50918200829238
 31
0.0
  0
LINE
  5
5B
  8
0
 62
     8
 10
-9.8514950002024761
 20
-346.1028777405337
 30
0.0
 11
10.14850499979752
 21
-344.20242525184591
 31
0.0
  0
LINE
  5
5C
  8
0
 62
     8
 10
-9.8514950002024761
 20
-347.60963449698028
 30
0.0
 11
10.14850499979752
 21
-345.70918200829249
 31
0.0
  0
LINE
  5
5D
  8
0
 62
     8
 10
-9.8514950002024761
 20
-349.39612098408702
 30
0.0
 11
10.14850499979752
 21
-347.49566849539917
 31
0.0
  0
LINE
  5
5E
  8
0
 62
     8
 10
-9.8514950002024761
 20
-350.90287774053371
 30
0.0
 11
10.14850499979752
 21
-349.00242525184581
 31
0.0
  0
LINE
  5
5F
  8
0
 62
     8
 10
-9.8514950002024761
 20
-352.40963449698029
 30
0.0
 11
10.14850499979752
 21
-350.50918200829238
 31
0.0
  0
LINE
  5
60
  8
0
 62
     8
 10
-9.8514950002024761
 20
-355.5096344969802
 30
0.0
 11
10.14850499979752
 21
-353.60918200829241
 31
0.0
  0
LINE
  5
61
  8
0
 62
     8
 10
-9.8514950002024761
 20
-354.00287774053362
 30
0.0
 11
10.14850499979752
 21
-352.10242525184572
 31
0.0
  0
LINE
  5
62
  8
0
 62
     8
 10
-9.8514950002024761
 20
-357.19612098408697
 30
0.0
 11
10.14850499979752
 21
-355.29566849539913
 31
0.0
  0
LINE
  5
63
  8
0
 62
     8
 10
-9.8514950002024761
 20
-360.20963449698019
 30
0.0
 11
10.14850499979752
 21
-358.3091820082924
 31
0.0
  0
LINE
  5
64
  8
0
 62
     8
 10
-9.8514950002024761
 20
-358.70287774053361
 30
0.0
 11
10.14850499979752
 21
-356.80242525184582
 31
0.0
  0
LINE
  5
65
  8
0
 62
     8
 10
-9.8514950002024761
 20
-361.99612098408687
 30
0.0
 11
10.14850499979752
 21
-360.09566849539908
 31
0.0
  0
LINE
  5
66
  8
0
 62
     8
 10
-9.8514950002024761
 20
-363.50287774053362
 30
0.0
 11
10.14850499979752
 21
-361.60242525184572
 31
0.0
  0
LINE
  5
67
  8
0
 62
     8
 10
-9.8514950002024761
 20
-365.0096344969802
 30
0.0
 11
10.14850499979752
 21
-363.10918200829229
 31
0.0
  0
LINE
  5
68
  8
0
 62
     8
 10
-9.8514950002024761
 20
-366.49612098408687
 30
0.0
 11
10.14850499979752
 21
-364.59566849539908
 31
0.0
  0
LINE
  5
69
  8
0
 62
     8
 10
-9.8514950002024761
 20
-368.00287774053362
 30
0.0
 11
10.14850499979752
 21
-366.10242525184572
 31
0.0
  0
LINE
  5
6A
  8
0
 62
     8
 10
-9.8514950002024761
 20
-369.5096344969802
 30
0.0
 11
10.14850499979752
 21
-367.60918200829241
 31
0.0
  0
LINE
  5
6B
  8
0
 62
     8
 10
-9.8514950002024761
 20
-371.10287774053359
 30
0.0
 11
10.14850499979752
 21
-369.2024252518458
 31
0.0
  0
LINE
  5
6C
  8
0
 62
     8
 10
-9.8514950002024761
 20
-372.60963449698022
 30
0.0
 11
10.14850499979752
 21
-370.70918200829237
 31
0.0
  0
LINE
  5
6D
  8
0
 62
     8
 10
-9.8514950002024761
 20
-326.9028777405336
 30
0.0
 11
10.14850499979752
 21
-325.00242525184569
 31
0.0
  0
LINE
  5
6E
  8
0
 62
     8
 10
-9.8514950002024761
 20
-242.80963449698021
 30
0.0
 11
10.14850499979752
 21
-240.90918200829239
 31
0.0
  0
LINE
  5
6F
  8
0
 62
     8
 10
-9.8514950002024761
 20
-244.59612098408689
 30
0.0
 11
10.14850499979752
 21
-242.69566849539899
 31
0.0
  0
LINE
  5
70
  8
0
 62
     8
 10
-9.8514950002024761
 20
-247.60963449698019
 30
0.0
 11
10.14850499979752
 21
-245.70918200829229
 31
0.0
  0
LINE
  5
71
  8
0
 62
     8
 10
-9.8514950002024761
 20
-246.1028777405335
 30
0.0
 11
10.14850499979752
 21
-244.20242525184571
 31
0.0
  0
LINE
  5
72
  8
0
 62
     8
 10
-9.8514950002024761
 20
-249.3028777405336
 30
0.0
 11
10.14850499979752
 21
-247.40242525184581
 31
0.0
  0
LINE
  5
73
  8
0
 62
     8
 10
-9.8514950002024761
 20
-250.80963449698029
 30
0.0
 11
10.14850499979752
 21
-248.90918200829239
 31
0.0
  0
LINE
  5
74
  8
0
 62
     8
 10
-9.8514950002024761
 20
-255.60963449698019
 30
0.0
 11
10.14850499979752
 21
-253.7091820082924
 31
0.0
  0
LINE
  5
75
  8
0
 62
     8
 10
-9.8514950002024761
 20
-254.10287774053359
 30
0.0
 11
10.14850499979752
 21
-252.20242525184571
 31
0.0
  0
LINE
  5
76
  8
0
 62
     8
 10
-9.8514950002024761
 20
-252.59612098408701
 30
0.0
 11
10.14850499979752
 21
-250.6956684953991
 31
0.0
  0
LINE
  5
77
  8
0
 62
     8
 10
-9.8514950002024761
 20
-257.20287774053361
 30
0.0
 11
10.14850499979752
 21
-255.3024252518457
 31
0.0
  0
LINE
  5
78
  8
0
 62
     8
 10
-9.8514950002024761
 20
-274.30287774053352
 30
0.0
 11
10.14850499979752
 21
-272.40242525184573
 31
0.0
  0
LINE
  5
79
  8
0
 62
     8
 10
-9.8514950002024761
 20
-269.69612098408692
 30
0.0
 11
10.14850499979752
 21
-267.79566849539913
 31
0.0
  0
LINE
  5
7A
  8
0
 62
     8
 10
-9.8514950002024761
 20
-271.20287774053361
 30
0.0
 11
10.14850499979752
 21
-269.3024252518457
 31
0.0
  0
LINE
  5
7B
  8
0
 62
     8
 10
-9.8514950002024761
 20
-272.70963449698019
 30
0.0
 11
10.14850499979752
 21
-270.80918200829228
 31
0.0
  0
LINE
  5
7C
  8
0
 62
     8
 10
-9.8514950002024761
 20
-280.5096344969802
 30
0.0
 11
10.14850499979752
 21
-278.60918200829241
 31
0.0
  0
LINE
  5
7D
  8
0
 62
     8
 10
-9.8514950002024761
 20
-282.29612098408688
 30
0.0
 11
10.14850499979752
 21
-280.39566849539898
 31
0.0
  0
LINE
  5
7E
  8
0
 62
     8
 10
-9.8514950002024761
 20
-285.3096344969801
 30
0.0
 11
10.14850499979752
 21
-283.4091820082923
 31
0.0
  0
LINE
  5
7F
  8
0
 62
     8
 10
-9.8514950002024761
 20
-283.80287774053352
 30
0.0
 11
10.14850499979752
 21
-281.90242525184561
 31
0.0
  0
LINE
  5
80
  8
0
 62
     8
 10
-9.8514950002024761
 20
-277.49612098408687
 30
0.0
 11
10.14850499979752
 21
-275.59566849539908
 31
0.0
  0
LINE
  5
81
  8
0
 62
     8
 10
-9.8514950002024761
 20
-279.00287774053362
 30
0.0
 11
10.14850499979752
 21
-277.10242525184572
 31
0.0
  0
LINE
  5
82
  8
0
 62
     8
 10
-9.8514950002024761
 20
-275.80963449698021
 30
0.0
 11
10.14850499979752
 21
-273.9091820082923
 31
0.0
  0
LINE
  5
83
  8
0
 62
     8
 10
-9.8514950002024761
 20
-261.9028777405336
 30
0.0
 11
10.14850499979752
 21
-260.00242525184581
 31
0.0
  0
LINE
  5
84
  8
0
 62
     8
 10
-9.8514950002024761
 20
-260.39612098408691
 30
0.0
 11
10.14850499979752
 21
-258.49566849539912
 31
0.0
  0
LINE
  5
85
  8
0
 62
     8
 10
-9.8514950002024761
 20
-266.70287774053349
 30
0.0
 11
10.14850499979752
 21
-264.8024252518457
 31
0.0
  0
LINE
  5
86
  8
0
 62
     8
 10
-9.8514950002024761
 20
-268.20963449698019
 30
0.0
 11
10.14850499979752
 21
-266.30918200829228
 31
0.0
  0
LINE
  5
87
  8
0
 62
     8
 10
-9.8514950002024761
 20
-265.19612098408692
 30
0.0
 11
10.14850499979752
 21
-263.29566849539913
 31
0.0
  0
LINE
  5
88
  8
0
 62
     8
 10
-9.8514950002024761
 20
-263.40963449698017
 30
0.0
 11
10.14850499979752
 21
-261.50918200829238
 31
0.0
  0
LINE
  5
89
  8
0
 62
     8
 10
-9.8514950002024761
 20
-287.30963449698032
 30
0.0
 11
10.14850499979752
 21
-285.40918200829242
 31
0.0
  0
LINE
  5
8A
  8
0
 62
     8
 10
-9.8514950002024761
 20
-288.99612098408699
 30
0.0
 11
10.14850499979752
 21
-287.0956684953992
 31
0.0
  0
LINE
  5
8B
  8
0
 62
     8
 10
-9.8514950002024761
 20
-290.50287774053368
 30
0.0
 11
10.14850499979752
 21
-288.60242525184577
 31
0.0
  0
LINE
  5
8C
  8
0
 62
     8
 10
-9.8514950002024761
 20
-292.00963449698031
 30
0.0
 11
10.14850499979752
 21
-290.10918200829252
 31
0.0
  0
LINE
  5
8D
  8
0
 62
     8
 10
-9.8514950002024761
 20
-295.30287774053357
 30
0.0
 11
10.14850499979752
 21
-293.40242525184578
 31
0.0
  0
LINE
  5
8E
  8
0
 62
     8
 10
-9.8514950002024761
 20
-293.796120984087
 30
0.0
 11
10.14850499979752
 21
-291.89566849539909
 31
0.0
  0
LINE
  5
8F
  8
0
 62
     8
 10
-9.8514950002024761
 20
-296.80963449698032
 30
0.0
 11
10.14850499979752
 21
-294.90918200829242
 31
0.0
  0
LINE
  5
90
  8
0
 62
     8
 10
-9.8514950002024761
 20
-298.5096344969802
 30
0.0
 11
10.14850499979752
 21
-296.60918200829241
 31
0.0
  0
LINE
  5
91
  8
0
 62
     8
 10
-9.8514950002024761
 20
-300.296120984087
 30
0.0
 11
10.14850499979752
 21
-298.39566849539909
 31
0.0
  0
LINE
  5
92
  8
0
 62
     8
 10
-9.8514950002024761
 20
-301.80287774053357
 30
0.0
 11
10.14850499979752
 21
-299.90242525184573
 31
0.0
  0
LINE
  5
93
  8
0
 62
     8
 10
-9.8514950002024761
 20
-303.30963449698021
 30
0.0
 11
10.14850499979752
 21
-301.40918200829242
 31
0.0
  0
LINE
  5
94
  8
0
 62
     8
 10
-9.8514950002024761
 20
-306.50963449698031
 30
0.0
 11
10.14850499979752
 21
-304.60918200829252
 31
0.0
  0
LINE
  5
95
  8
0
 62
     8
 10
-9.8514950002024761
 20
-305.00287774053368
 30
0.0
 11
10.14850499979752
 21
-303.10242525184577
 31
0.0
  0
LINE
  5
96
  8
0
 62
     8
 10
-9.8514950002024761
 20
-258.70963449698019
 30
0.0
 11
10.14850499979752
 21
-256.80918200829228
 31
0.0
  0
POLYLINE
  5
97
  8
0
 66
     1
 10
0.0
 20
0.0
 30
0.0
  0
VERTEX
  5
142
  8
0
 10
-17.1514950002022
 20
-148.83705894865079
 30
0.0
 42
0.2534364434840665
  0
VERTEX
  5
143
  8
0
 10
-16.965964420671519
 20
-149.1795786397621
 30
0.0
 42
0.0786828100544145
  0
VERTEX
  5
144
  8
0
 10
-15.883230160175341
 20
-149.66428406770351
 30
0.0
 42
0.0381250023077343
  0
VERTEX
  5
145
  8
0
 10
-14.601786012779259
 20
-149.90762009742841
 30
0.0
 42
0.0278683718914965
  0
VERTEX
  5
146
  8
0
 10
-12.821367982701981
 20
-150.006931931151
 30
0.0
 42
0.027868371891505
  0
VERTEX
  5
147
  8
0
 10
-11.040949952625621
 20
-149.90762009742841
 30
0.0
 42
0.0381250023077727
  0
VERTEX
  5
148
  8
0
 10
-9.7595058052286277
 20
-149.66428406770351
 30
0.0
 42
0.0786828100544049
  0
VERTEX
  5
149
  8
0
 10
-8.6767715447319915
 20
-149.1795786397621
 30
0.0
 42
0.2534364434840056
  0
VERTEX
  5
14A
  8
0
 10
-8.4912409652022234
 20
-148.83705894865079
 30
0.0
 42
0.2534364434839675
  0
SEQEND
  5
14B
  8
0
  0
POLYLINE
  5
98
  8
0
 66
     1
 10
0.0
 20
0.0
 30
0.0
  0
VERTEX
  5
14C
  8
0
 10
-8.4912409652017686
 20
-135.2370589486506
 30
0.0
 42
0.250327623522266
  0
VERTEX
  5
14D
  8
0
 10
-8.6800361660978052
 20
-134.88359305621179
 30
0.0
 42
0.0799961714157395
  0
VERTEX
  5
14E
  8
0
 10
-9.7595058052281711
 20
-134.3885308112269
 30
0.0
 42
0.0390332174113539
  0
VERTEX
  5
14F
  8
0
 10
-11.041617557853209
 20
-134.13887362847419
 30
0.0
 42
0.0285802753297458
  0
VERTEX
  5
150
  8
0
 10
-12.821367982701981
 20
-134.03705894865089
 30
0.0
 42
0.0285802753297599
  0
VERTEX
  5
151
  8
0
 10
-14.601118407550301
 20
-134.13887362847419
 30
0.0
 42
0.039033217411367
  0
VERTEX
  5
152
  8
0
 10
-15.883230160175341
 20
-134.3885308112269
 30
0.0
 42
0.0799961714157395
  0
VERTEX
  5
153
  8
0
 10
-16.96269979930571
 20
-134.88359305621179
 30
0.0
 42
0.2503276235222661
  0
VERTEX
  5
154
  8
0
 10
-17.1514950002022
 20
-135.2370589486506
 30
0.0
 42
0.2503276235223326
  0
SEQEND
  5
155
  8
0
  0
POLYLINE
  5
99
  8
0
 66
     1
 10
0.0
 20
0.0
 30
0.0
  0
VERTEX
  5
156
  8
0
 10
-8.4912409652017686
 20
-135.2370589486506
 30
0.0
 42
0.250327623522266
  0
VERTEX
  5
157
  8
0
 10
-8.6800361660978052
 20
-134.88359305621179
 30
0.0
 42
0.0799961714157395
  0
VERTEX
  5
158
  8
0
 10
-9.7595058052281711
 20
-134.3885308112269
 30
0.0
 42
0.0390332174113539
  0
VERTEX
  5
159
  8
0
 10
-11.041617557853209
 20
-134.13887362847419
 30
0.0
 42
0.0285802753297458
  0
VERTEX
  5
15A
  8
0
 10
-12.821367982701981
 20
-134.03705894865089
 30
0.0
 42
0.0285802753297599
  0
VERTEX
  5
15B
  8
0
 10
-14.601118407550301
 20
-134.13887362847419
 30
0.0
 42
0.039033217411367
  0
VERTEX
  5
15C
  8
0
 10
-15.883230160175341
 20
-134.3885308112269
 30
0.0
 42
0.0799961714157395
  0
VERTEX
  5
15D
  8
0
 10
-16.96269979930571
 20
-134.88359305621179
 30
0.0
 42
0.2503276235222661
  0
VERTEX
  5
15E
  8
0
 10
-17.1514950002022
 20
-135.2370589486506
 30
0.0
 42
0.2503276235223326
  0
SEQEND
  5
15F
  8
0
  0
LINE
  5
9A
  8
0
 10
-17.1514950002022
 20
-148.83705894865079
 30
0.0
 11
-17.1514950002022
 21
-135.237058948651
 31
0.0
  0
LINE
  5
9B
  8
0
 10
-17.1514950002022
 20
-148.83705894865079
 30
0.0
 11
-17.1514950002022
 21
-135.237058948651
 31
0.0
  0
LINE
  5
9C
  8
0
 62
     8
 10
-9.8514950002024761
 20
-173.30963449698021
 30
0.0
 11
10.14850499979752
 21
-171.4091820082923
 31
0.0
  0
LINE
  5
9D
  8
0
 62
     8
 10
-9.8514950002024761
 20
-184.40287774053351
 30
0.0
 11
10.14850499979752
 21
-182.50242525184569
 31
0.0
  0
LINE
  5
9E
  8
0
 62
     8
 10
-9.8514950002024761
 20
-185.90963449698009
 30
0.0
 11
10.14850499979752
 21
-184.0091820082923
 31
0.0
  0
LINE
  5
9F
  8
0
 62
     8
 10
-9.8514950002024761
 20
-187.59612098408689
 30
0.0
 11
10.14850499979752
 21
-185.6956684953991
 31
0.0
  0
LINE
  5
A0
  8
0
 62
     8
 10
-9.8514950002024761
 20
-189.10287774053359
 30
0.0
 11
10.14850499979752
 21
-187.20242525184571
 31
0.0
  0
LINE
  5
A1
  8
0
 62
     8
 10
-9.8514950002024761
 20
-179.79612098408691
 30
0.0
 11
10.14850499979752
 21
-177.89566849539909
 31
0.0
  0
LINE
  5
A2
  8
0
 62
     8
 10
-9.8514950002024761
 20
-181.30287774053349
 30
0.0
 11
10.14850499979752
 21
-179.4024252518457
 31
0.0
  0
LINE
  5
A3
  8
0
 62
     8
 10
-9.8514950002024761
 20
-182.80963449698021
 30
0.0
 11
10.14850499979752
 21
-180.9091820082923
 31
0.0
  0
LINE
  5
A4
  8
0
 62
     8
 10
-9.8514950002024761
 20
-178.0096344969802
 30
0.0
 11
10.14850499979752
 21
-176.10918200829241
 31
0.0
  0
LINE
  5
A5
  8
0
 62
     8
 10
-9.8514950002024761
 20
-176.50287774053359
 30
0.0
 11
10.14850499979752
 21
-174.60242525184569
 31
0.0
  0
LINE
  5
A6
  8
0
 62
     8
 10
-9.8514950002024761
 20
-174.99612098408701
 30
0.0
 11
10.14850499979752
 21
-173.09566849539911
 31
0.0
  0
LINE
  5
A7
  8
0
 62
     8
 10
-9.8514950002024761
 20
-239.60287774053359
 30
0.0
 11
10.14850499979752
 21
-237.70242525184571
 31
0.0
  0
LINE
  5
A8
  8
0
 62
     8
 10
-9.8514950002024761
 20
-192.39612098408691
 30
0.0
 11
10.14850499979752
 21
-190.495668495399
 31
0.0
  0
LINE
  5
A9
  8
0
 62
     8
 10
-9.8514950002024761
 20
-230.10287774053359
 30
0.0
 11
10.14850499979752
 21
-228.20242525184571
 31
0.0
  0
LINE
  5
AA
  8
0
 62
     8
 10
-9.8514950002024761
 20
-231.60963449698019
 30
0.0
 11
10.14850499979752
 21
-229.7091820082924
 31
0.0
  0
LINE
  5
AB
  8
0
 62
     8
 10
-9.8514950002024761
 20
-233.296120984087
 30
0.0
 11
10.14850499979752
 21
-231.39566849539909
 31
0.0
  0
LINE
  5
AC
  8
0
 62
     8
 10
-9.8514950002024761
 20
-234.8028777405336
 30
0.0
 11
10.14850499979752
 21
-232.90242525184581
 31
0.0
  0
LINE
  5
AD
  8
0
 62
     8
 10
-9.8514950002024761
 20
-225.49612098408701
 30
0.0
 11
10.14850499979752
 21
-223.5956684953992
 31
0.0
  0
LINE
  5
AE
  8
0
 62
     8
 10
-9.8514950002024761
 20
-227.00287774053359
 30
0.0
 11
10.14850499979752
 21
-225.1024252518458
 31
0.0
  0
LINE
  5
AF
  8
0
 62
     8
 10
-9.8514950002024761
 20
-228.50963449698031
 30
0.0
 11
10.14850499979752
 21
-226.60918200829241
 31
0.0
  0
LINE
  5
B0
  8
0
 62
     8
 10
-9.8514950002024761
 20
-223.7096344969803
 30
0.0
 11
10.14850499979752
 21
-221.8091820082924
 31
0.0
  0
LINE
  5
B1
  8
0
 62
     8
 10
-9.8514950002024761
 20
-222.20287774053369
 30
0.0
 11
10.14850499979752
 21
-220.30242525184579
 31
0.0
  0
LINE
  5
B2
  8
0
 62
     8
 10
-9.8514950002024761
 20
-196.9028777405336
 30
0.0
 11
10.14850499979752
 21
-195.00242525184569
 31
0.0
  0
LINE
  5
B3
  8
0
 62
     8
 10
-9.8514950002024761
 20
-198.4096344969802
 30
0.0
 11
10.14850499979752
 21
-196.50918200829241
 31
0.0
  0
LINE
  5
B4
  8
0
 62
     8
 10
-9.8514950002024761
 20
-200.09612098408701
 30
0.0
 11
10.14850499979752
 21
-198.1956684953991
 31
0.0
  0
LINE
  5
B5
  8
0
 62
     8
 10
-9.8514950002024761
 20
-201.60287774053359
 30
0.0
 11
10.14850499979752
 21
-199.7024252518458
 31
0.0
  0
LINE
  5
B6
  8
0
 62
     8
 10
-9.8514950002024761
 20
-203.10963449698031
 30
0.0
 11
10.14850499979752
 21
-201.2091820082924
 31
0.0
  0
LINE
  5
B7
  8
0
 62
     8
 10
-9.8514950002024761
 20
-207.9096344969802
 30
0.0
 11
10.14850499979752
 21
-206.00918200829241
 31
0.0
  0
LINE
  5
B8
  8
0
 62
     8
 10
-9.8514950002024761
 20
-206.4028777405336
 30
0.0
 11
10.14850499979752
 21
-204.50242525184569
 31
0.0
  0
LINE
  5
B9
  8
0
 62
     8
 10
-9.8514950002024761
 20
-204.89612098408699
 30
0.0
 11
10.14850499979752
 21
-202.99566849539909
 31
0.0
  0
LINE
  5
BA
  8
0
 62
     8
 10
-9.8514950002024761
 20
-214.20287774053361
 30
0.0
 11
10.14850499979752
 21
-212.30242525184579
 31
0.0
  0
LINE
  5
BB
  8
0
 62
     8
 10
-9.8514950002024761
 20
-212.696120984087
 30
0.0
 11
10.14850499979752
 21
-210.7956684953991
 31
0.0
  0
LINE
  5
BC
  8
0
 62
     8
 10
-9.8514950002024761
 20
-211.0096344969802
 30
0.0
 11
10.14850499979752
 21
-209.10918200829229
 31
0.0
  0
LINE
  5
BD
  8
0
 62
     8
 10
-9.8514950002024761
 20
-209.50287774053359
 30
0.0
 11
10.14850499979752
 21
-207.60242525184569
 31
0.0
  0
LINE
  5
BE
  8
0
 62
     8
 10
-9.8514950002024761
 20
-219.00287774053351
 30
0.0
 11
10.14850499979752
 21
-217.10242525184569
 31
0.0
  0
LINE
  5
BF
  8
0
 62
     8
 10
-9.8514950002024761
 20
-220.5096344969802
 30
0.0
 11
10.14850499979752
 21
-218.60918200829241
 31
0.0
  0
LINE
  5
C0
  8
0
 62
     8
 10
-9.8514950002024761
 20
-217.4961209840869
 30
0.0
 11
10.14850499979752
 21
-215.59566849539911
 31
0.0
  0
LINE
  5
C1
  8
0
 62
     8
 10
-9.8514950002024761
 20
-215.7096344969803
 30
0.0
 11
10.14850499979752
 21
-213.8091820082924
 31
0.0
  0
LINE
  5
C2
  8
0
 62
     8
 10
-9.8514950002024761
 20
-195.4096344969802
 30
0.0
 11
10.14850499979752
 21
-193.5091820082923
 31
0.0
  0
LINE
  5
C3
  8
0
 62
     8
 10
-9.8514950002024761
 20
-193.90287774053351
 30
0.0
 11
10.14850499979752
 21
-192.00242525184569
 31
0.0
  0
LINE
  5
C4
  8
0
 62
     8
 10
-9.8514950002024761
 20
-238.09612098408701
 30
0.0
 11
10.14850499979752
 21
-236.1956684953991
 31
0.0
  0
LINE
  5
C5
  8
0
 62
     8
 10
-9.8514950002024761
 20
-236.30963449698029
 30
0.0
 11
10.14850499979752
 21
-234.40918200829239
 31
0.0
  0
LINE
  5
C6
  8
0
 62
     8
 10
-9.8514950002024761
 20
-190.60963449698019
 30
0.0
 11
10.14850499979752
 21
-188.7091820082924
 31
0.0
  0
LINE
  5
C7
  8
0
  6
HIDDEN
 62
     8
 10
7.1485049997979777
 20
-113.21205894865101
 30
0.0
 11
10.14850499979798
 21
-116.21205894865101
 31
0.0
  0
POLYLINE
  5
C9
  8
0
 66
     1
 10
0.0
 20
0.0
 30
0.0
  0
VERTEX
  5
160
  8
0
 10
8.7882509647981806
 20
-135.43705894865101
 30
0.0
 42
0.3087600251391162
  0
VERTEX
  5
161
  8
0
 10
8.5378630720049387
 20
-135.07024053437851
 30
0.0
 42
0.0531135643178668
  0
VERTEX
  5
162
  8
0
 10
6.2577279593790527
 20
-134.4471094549898
 30
0.0
 42
0.0234107934291695
  0
VERTEX
  5
163
  8
0
 10
3.7175741643411579
 20
-134.1567021532496
 30
0.0
 42
0.0167564154642976
  0
VERTEX
  5
164
  8
0
 10
0.1485049997984333
 20
-134.03705894865089
 30
0.0
 42
0.0167564154642939
  0
VERTEX
  5
165
  8
0
 10
-3.4205641647438361
 20
-134.1567021532496
 30
0.0
 42
0.0234107934291787
  0
VERTEX
  5
166
  8
0
 10
-5.960717959782186
 20
-134.4471094549898
 30
0.0
 42
0.0531135643178467
  0
VERTEX
  5
167
  8
0
 10
-8.2408530724089815
 20
-135.07024053437851
 30
0.0
 42
0.3087600251390752
  0
VERTEX
  5
168
  8
0
 10
-8.4912409652017686
 20
-135.43705894865101
 30
0.0
 42
0.3087600251390838
  0
SEQEND
  5
169
  8
0
  0
LINE
  5
CA
  8
0
 10
13.11837798229794
 20
-134.06718596615099
 30
0.0
 11
-12.821367982701981
 21
-134.03705894865089
 31
0.0
  0
LINE
  5
CB
  8
0
 10
11.71828023968896
 20
-134.03834010012349
 30
0.0
 11
-11.718280239688511
 21
-134.0655598604346
 31
0.0
  0
POLYLINE
  5
CC
  8
0
 66
     1
 10
0.0
 20
0.0
 30
0.0
  0
VERTEX
  5
16A
  8
0
 10
7.8060104793778464
 20
-132.78704998027919
 30
0.0
 42
-0.3087600251391162
  0
VERTEX
  5
16B
  8
0
 10
7.5797850182391349
 20
-133.11847041757389
 30
0.0
 42
-0.0531135643178668
  0
VERTEX
  5
16C
  8
0
 10
5.5196829439817057
 20
-133.68146934780191
 30
0.0
 42
-0.0234107934291695
  0
VERTEX
  5
16D
  8
0
 10
3.224653990164597
 20
-133.9438523449241
 30
0.0
 42
-0.0167564154642976
  0
VERTEX
  5
16E
  8
0
 10
0.0000000000006821
 20
-134.05194998027901
 30
0.0
 42
-0.0167564154642939
  0
VERTEX
  5
16F
  8
0
 10
-3.224653990163687
 20
-133.9438523449241
 30
0.0
 42
-0.0234107934291787
  0
VERTEX
  5
170
  8
0
 10
-5.5196829439803423
 20
-133.68146934780191
 30
0.0
 42
-0.0531135643178467
  0
VERTEX
  5
171
  8
0
 10
-7.579785018238681
 20
-133.11847041757409
 30
0.0
 42
-0.3087600251390752
  0
VERTEX
  5
172
  8
0
 10
-7.8060104793773908
 20
-132.78704998027919
 30
0.0
 42
-0.3087600251390838
  0
SEQEND
  5
173
  8
0
  0
LINE
  5
CD
  8
0
 10
-9.0349999999996271
 20
-134.05194998027901
 30
0.0
 11
9.0350000000005366
 21
-134.05194998027901
 31
0.0
  0
LINE
  5
CE
  8
0
 10
-9.0349999999996271
 20
-134.05194998027901
 30
0.0
 11
9.0350000000005366
 21
-134.05194998027901
 31
0.0
  0
POLYLINE
  5
CF
  8
0
 66
     1
 10
0.0
 20
0.0
 30
0.0
  0
VERTEX
  5
174
  8
0
 10
7.8060104793778464
 20
-132.78704998027919
 30
0.0
 42
-0.3087600251391162
  0
VERTEX
  5
175
  8
0
 10
7.5797850182391349
 20
-133.11847041757389
 30
0.0
 42
-0.0531135643178668
  0
VERTEX
  5
176
  8
0
 10
5.5196829439817057
 20
-133.68146934780191
 30
0.0
 42
-0.0234107934291695
  0
VERTEX
  5
177
  8
0
 10
3.224653990164597
 20
-133.9438523449241
 30
0.0
 42
-0.0167564154642976
  0
VERTEX
  5
178
  8
0
 10
0.0000000000006821
 20
-134.05194998027901
 30
0.0
 42
-0.0167564154642939
  0
VERTEX
  5
179
  8
0
 10
-3.224653990163687
 20
-133.9438523449241
 30
0.0
 42
-0.0234107934291787
  0
VERTEX
  5
17A
  8
0
 10
-5.5196829439803423
 20
-133.68146934780191
 30
0.0
 42
-0.0531135643178467
  0
VERTEX
  5
17B
  8
0
 10
-7.579785018238681
 20
-133.11847041757409
 30
0.0
 42
-0.3087600251390752
  0
VERTEX
  5
17C
  8
0
 10
-7.8060104793773908
 20
-132.78704998027919
 30
0.0
 42
-0.3087600251390838
  0
SEQEND
  5
17D
  8
0
  0
LINE
  5
D0
  8
0
 10
11.71828023968896
 20
-134.03834010012349
 30
0.0
 11
-11.718280239688511
 21
-134.0655598604346
 31
0.0
  0
LINE
  5
D1
  8
0
 10
13.11837798229794
 20
-134.06718596615099
 30
0.0
 11
-12.821367982701981
 21
-134.03705894865089
 31
0.0
  0
LINE
  5
D2
  8
0
 62
     8
 10
-9.8514950002024761
 20
-153.75558044540711
 30
0.0
 11
10.14850499979752
 21
-151.8551279567196
 31
0.0
  0
LINE
  5
D3
  8
0
 62
     8
 10
-9.8514950002024761
 20
-155.26233720185371
 30
0.0
 11
10.14850499979752
 21
-153.36188471316629
 31
0.0
  0
LINE
  5
D4
  8
0
 62
     8
 10
-9.8514950002024761
 20
-158.27585071474701
 30
0.0
 11
10.14850499979752
 21
-156.37539822605919
 31
0.0
  0
LINE
  5
D5
  8
0
 62
     8
 10
-9.8514950002024761
 20
-156.7690939583004
 30
0.0
 11
10.14850499979752
 21
-154.8686414696125
 31
0.0
  0
LINE
  5
D6
  8
0
 62
     8
 10
-9.8514950002024761
 20
-152.2488236889605
 30
0.0
 11
10.14850499979752
 21
-150.34837120027299
 31
0.0
  0
LINE
  5
D7
  8
0
 10
13.11837798229794
 20
-150.02199543990091
 30
0.0
 11
-12.821367982701981
 21
-150.05212245740071
 31
0.0
  0
LINE
  5
D8
  8
0
 10
-9.8514950002020214
 20
-150.03705894865081
 30
0.0
 11
10.14850499979798
 21
-150.03705894865081
 31
0.0
  0
POLYLINE
  5
D9
  8
0
 66
     1
 10
0.0
 20
0.0
 30
0.0
  0
VERTEX
  5
17E
  8
0
 10
8.7882509647981806
 20
-148.637058948651
 30
0.0
 42
-0.3087600251391162
  0
VERTEX
  5
17F
  8
0
 10
8.5378630720049387
 20
-149.00387736292291
 30
0.0
 42
-0.0531135643178668
  0
VERTEX
  5
180
  8
0
 10
6.2577279593790527
 20
-149.62700844231199
 30
0.0
 42
-0.0234107934291695
  0
VERTEX
  5
181
  8
0
 10
3.7175741643407032
 20
-149.91741574405211
 30
0.0
 42
-0.0167564154642976
  0
VERTEX
  5
182
  8
0
 10
0.1485049997984333
 20
-150.03705894865081
 30
0.0
 42
-0.0167564154642939
  0
VERTEX
  5
183
  8
0
 10
-3.4205641647442908
 20
-149.91741574405211
 30
0.0
 42
-0.0234107934291787
  0
VERTEX
  5
184
  8
0
 10
-5.960717959782186
 20
-149.62700844231199
 30
0.0
 42
-0.0531135643178467
  0
VERTEX
  5
185
  8
0
 10
-8.2408530724089815
 20
-149.0038773629233
 30
0.0
 42
-0.3087600251390752
  0
VERTEX
  5
186
  8
0
 10
-8.4912409652022234
 20
-148.637058948651
 30
0.0
 42
-0.3087600251390838
  0
SEQEND
  5
187
  8
0
  0
LINE
  5
DA
  8
0
 62
     8
 10
-9.8514950002024761
 20
-165.69612098408689
 30
0.0
 11
10.14850499979752
 21
-163.7956684953991
 31
0.0
  0
LINE
  5
DB
  8
0
 62
     8
 10
-9.8514950002024761
 20
-167.00287774053359
 30
0.0
 11
10.14850499979752
 21
-165.1024252518458
 31
0.0
  0
LINE
  5
DC
  8
0
 62
     8
 10
-9.8514950002024761
 20
-164.59612098408689
 30
0.0
 11
10.14850499979752
 21
-162.6956684953991
 31
0.0
  0
LINE
  5
DD
  8
0
 62
     8
 10
-9.8514950002024761
 20
-162.80963449698021
 30
0.0
 11
10.14850499979752
 21
-160.90918200829239
 31
0.0
  0
LINE
  5
DE
  8
0
 62
     8
 10
-9.8514950002024761
 20
-161.3028777405336
 30
0.0
 11
10.14850499979752
 21
-159.4024252518457
 31
0.0
  0
LINE
  5
DF
  8
0
 62
     8
 10
-9.8514950002024761
 20
-159.796120984087
 30
0.0
 11
10.14850499979752
 21
-157.89566849539909
 31
0.0
  0
POLYLINE
  5
E0
  8
0
 66
     1
 10
0.0
 20
0.0
 30
0.0
  0
VERTEX
  5
188
  8
0
 10
8.7882509647981806
 20
-135.43705894865101
 30
0.0
 42
0.3087600251391162
  0
VERTEX
  5
189
  8
0
 10
8.5378630720049387
 20
-135.07024053437851
 30
0.0
 42
0.0531135643178668
  0
VERTEX
  5
18A
  8
0
 10
6.2577279593790527
 20
-134.4471094549898
 30
0.0
 42
0.0234107934291695
  0
VERTEX
  5
18B
  8
0
 10
3.7175741643411579
 20
-134.1567021532496
 30
0.0
 42
0.0167564154642976
  0
VERTEX
  5
18C
  8
0
 10
0.1485049997984333
 20
-134.03705894865089
 30
0.0
 42
0.0167564154642939
  0
VERTEX
  5
18D
  8
0
 10
-3.4205641647438361
 20
-134.1567021532496
 30
0.0
 42
0.0234107934291787
  0
VERTEX
  5
18E
  8
0
 10
-5.960717959782186
 20
-134.4471094549898
 30
0.0
 42
0.0531135643178467
  0
VERTEX
  5
18F
  8
0
 10
-8.2408530724089815
 20
-135.07024053437851
 30
0.0
 42
0.3087600251390752
  0
VERTEX
  5
190
  8
0
 10
-8.4912409652017686
 20
-135.43705894865101
 30
0.0
 42
0.3087600251390838
  0
SEQEND
  5
191
  8
0
  0
LINE
  5
E1
  8
0
 62
     8
 10
-9.8514950002024761
 20
-171.80287774053349
 30
0.0
 11
10.14850499979752
 21
-169.9024252518457
 31
0.0
  0
LINE
  5
E2
  8
0
 62
     8
 10
-9.8514950002024761
 20
-168.5096344969802
 30
0.0
 11
10.14850499979752
 21
-166.60918200829241
 31
0.0
  0
LINE
  5
E3
  8
0
 62
     8
 10
-9.8514950002024761
 20
-170.29612098408691
 30
0.0
 11
10.14850499979752
 21
-168.39566849539909
 31
0.0
  0
POLYLINE
  5
E4
  8
0
 66
     1
 10
0.0
 20
0.0
 30
0.0
  0
VERTEX
  5
192
  8
0
 10
-8.4912409652017686
 20
-135.43705894865101
 30
0.0
  0
VERTEX
  5
193
  8
0
 10
-8.4912409652022234
 20
-148.83705894865079
 30
0.0
  0
SEQEND
  5
194
  8
0
  0
POLYLINE
  5
E5
  8
0
 66
     1
 10
0.0
 20
0.0
 30
0.0
  0
VERTEX
  5
195
  8
0
 10
-8.4912409652017686
 20
-135.43705894865101
 30
0.0
  0
VERTEX
  5
196
  8
0
 10
-8.4912409652022234
 20
-148.83705894865079
 30
0.0
  0
SEQEND
  5
197
  8
0
  0
LINE
  5
E6
  8
0
  6
HIDDEN
 62
     8
 10
-9.8514950002020214
 20
-150.0486731786207
 30
0.0
 11
-9.8514950002020214
 21
-116.21205894865091
 31
0.0
  0
LINE
  5
E7
  8
0
 62
     8
 10
-9.8514950002024761
 20
-150.74206693251381
 30
0.0
 11
-2.4640575577379868
 21
-150.04009323888619
 31
0.0
  0
LINE
  5
E8
  8
0
  6
HIDDEN
 62
     8
 10
7.1485049997979777
 20
-113.21205894865101
 30
0.0
 11
-6.8514950002020214
 21
-113.21205894865091
 31
0.0
  0
POLYLINE
  5
E9
  8
0
 66
     1
 10
0.0
 20
0.0
 30
0.0
  0
VERTEX
  5
198
  8
0
 10
-15.63054999999963
 20
-132.967749980279
 30
0.0
 42
0.2534364434840665
  0
VERTEX
  5
199
  8
0
 10
-15.462923121393709
 20
-133.277216521198
 30
0.0
 42
0.0786828100544145
  0
VERTEX
  5
19A
  8
0
 10
-14.484672717035441
 20
-133.71514787534309
 30
0.0
 42
0.0381250023077343
  0
VERTEX
  5
19B
  8
0
 10
-13.326887929863229
 20
-133.93500197819961
 30
0.0
 42
0.0278683718914965
  0
VERTEX
  5
19C
  8
0
 10
-11.718280239688511
 20
-134.02473021996801
 30
0.0
 42
0.027868371891505
  0
VERTEX
  5
19D
  8
0
 10
-10.10967254951424
 20
-133.93500197819961
 30
0.0
 42
0.0381250023077727
  0
VERTEX
  5
19E
  8
0
 10
-8.9518877623415847
 20
-133.71514787534309
 30
0.0
 42
0.0786828100544049
  0
VERTEX
  5
19F
  8
0
 10
-7.9736373579828523
 20
-133.277216521198
 30
0.0
 42
0.2534364434840056
  0
VERTEX
  5
1A0
  8
0
 10
-7.8060104793773908
 20
-132.967749980279
 30
0.0
 42
0.2534364434839675
  0
SEQEND
  5
1A1
  8
0
  0
POLYLINE
  5
EA
  8
0
 66
     1
 10
0.0
 20
0.0
 30
0.0
  0
VERTEX
  5
1A2
  8
0
 10
-15.63054999999963
 20
-132.967749980279
 30
0.0
 42
0.2534364434840665
  0
VERTEX
  5
1A3
  8
0
 10
-15.462923121393709
 20
-133.277216521198
 30
0.0
 42
0.0786828100544145
  0
VERTEX
  5
1A4
  8
0
 10
-14.484672717035441
 20
-133.71514787534309
 30
0.0
 42
0.0381250023077343
  0
VERTEX
  5
1A5
  8
0
 10
-13.326887929863229
 20
-133.93500197819961
 30
0.0
 42
0.0278683718914965
  0
VERTEX
  5
1A6
  8
0
 10
-11.718280239688511
 20
-134.02473021996801
 30
0.0
 42
0.027868371891505
  0
VERTEX
  5
1A7
  8
0
 10
-10.10967254951424
 20
-133.93500197819961
 30
0.0
 42
0.0381250023077727
  0
VERTEX
  5
1A8
  8
0
 10
-8.9518877623415847
 20
-133.71514787534309
 30
0.0
 42
0.0786828100544049
  0
VERTEX
  5
1A9
  8
0
 10
-7.9736373579828523
 20
-133.277216521198
 30
0.0
 42
0.2534364434840056
  0
VERTEX
  5
1AA
  8
0
 10
-7.8060104793773908
 20
-132.967749980279
 30
0.0
 42
0.2534364434839675
  0
SEQEND
  5
1AB
  8
0
  0
LINE
  5
EB
  8
0
  6
HIDDEN
 62
     8
 10
-9.8514950002020214
 20
-116.21205894865091
 30
0.0
 11
-6.8514950002020214
 21
-113.21205894865091
 31
0.0
  0
CIRCLE
  5
EC
  8
0
 10
0.0000000000006821
 20
-114.0519499802792
 30
0.0
 40
2.5
  0
LINE
  5
ED
  8
0
 10
17.448504999797699
 20
-135.237058948651
 30
0.0
 11
17.448504999797699
 21
-148.83705894865079
 31
0.0
  0
LINE
  5
EE
  8
0
 10
17.448504999797699
 20
-135.237058948651
 30
0.0
 11
17.448504999797699
 21
-148.83705894865079
 31
0.0
  0
POLYLINE
  5
EF
  8
0
 66
     1
 10
0.0
 20
0.0
 30
0.0
  0
VERTEX
  5
1AC
  8
0
 10
8.7882509647981806
 20
-135.43705894865101
 30
0.0
  0
VERTEX
  5
1AD
  8
0
 10
8.7882509647981806
 20
-148.83705894865079
 30
0.0
  0
SEQEND
  5
1AE
  8
0
  0
POLYLINE
  5
F0
  8
0
 66
     1
 10
0.0
 20
0.0
 30
0.0
  0
VERTEX
  5
1AF
  8
0
 10
8.7882509647981806
 20
-135.43705894865101
 30
0.0
  0
VERTEX
  5
1B0
  8
0
 10
8.7882509647981806
 20
-148.83705894865079
 30
0.0
  0
SEQEND
  5
1B1
  8
0
  0
LINE
  5
F1
  8
0
  6
HIDDEN
 62
     8
 10
10.14850499979798
 20
-150.02544471868089
 30
0.0
 11
10.14850499979798
 21
-116.21205894865101
 31
0.0
  0
POLYLINE
  5
F2
  8
0
 66
     1
 10
0.0
 20
0.0
 30
0.0
  0
VERTEX
  5
1B2
  8
0
 10
17.448504999797699
 20
-148.83705894865079
 30
0.0
 42
-0.2534364434840665
  0
VERTEX
  5
1B3
  8
0
 10
17.262974420267479
 20
-149.1795786397621
 30
0.0
 42
-0.0786828100544145
  0
VERTEX
  5
1B4
  8
0
 10
16.180240159771301
 20
-149.66428406770351
 30
0.0
 42
-0.0381250023077343
  0
VERTEX
  5
1B5
  8
0
 10
14.898796012375669
 20
-149.90762009742841
 30
0.0
 42
-0.0278683718914965
  0
VERTEX
  5
1B6
  8
0
 10
13.11837798229794
 20
-150.006931931151
 30
0.0
 42
-0.027868371891505
  0
VERTEX
  5
1B7
  8
0
 10
11.337959952221579
 20
-149.90762009742841
 30
0.0
 42
-0.0381250023077727
  0
VERTEX
  5
1B8
  8
0
 10
10.05651580482458
 20
-149.66428406770351
 30
0.0
 42
-0.0786828100544049
  0
VERTEX
  5
1B9
  8
0
 10
8.9737815443288582
 20
-149.1795786397621
 30
0.0
 42
-0.2534364434840056
  0
VERTEX
  5
1BA
  8
0
 10
8.7882509647981806
 20
-148.83705894865079
 30
0.0
 42
-0.2534364434839675
  0
SEQEND
  5
1BB
  8
0
  0
POLYLINE
  5
F3
  8
0
 66
     1
 10
0.0
 20
0.0
 30
0.0
  0
VERTEX
  5
1BC
  8
0
 10
15.630550000000079
 20
-132.967749980279
 30
0.0
 42
-0.2534364434840665
  0
VERTEX
  5
1BD
  8
0
 10
15.462923121394169
 20
-133.277216521198
 30
0.0
 42
-0.0786828100544145
  0
VERTEX
  5
1BE
  8
0
 10
14.484672717036339
 20
-133.71514787534309
 30
0.0
 42
-0.0381250023077343
  0
VERTEX
  5
1BF
  8
0
 10
13.326887929864141
 20
-133.93500197819961
 30
0.0
 42
-0.0278683718914965
  0
VERTEX
  5
1C0
  8
0
 10
11.71828023968896
 20
-134.02473021996801
 30
0.0
 42
-0.027868371891505
  0
VERTEX
  5
1C1
  8
0
 10
10.1096725495147
 20
-133.93500197819961
 30
0.0
 42
-0.0381250023077727
  0
VERTEX
  5
1C2
  8
0
 10
8.9518877623420394
 20
-133.71514787534309
 30
0.0
 42
-0.0786828100544049
  0
VERTEX
  5
1C3
  8
0
 10
7.9736373579837609
 20
-133.277216521198
 30
0.0
 42
-0.2534364434840056
  0
VERTEX
  5
1C4
  8
0
 10
7.8060104793778464
 20
-132.967749980279
 30
0.0
 42
-0.2534364434839675
  0
SEQEND
  5
1C5
  8
0
  0
POLYLINE
  5
F4
  8
0
 66
     1
 10
0.0
 20
0.0
 30
0.0
  0
VERTEX
  5
1C6
  8
0
 10
15.630550000000079
 20
-132.967749980279
 30
0.0
 42
-0.2534364434840665
  0
VERTEX
  5
1C7
  8
0
 10
15.462923121394169
 20
-133.277216521198
 30
0.0
 42
-0.0786828100544145
  0
VERTEX
  5
1C8
  8
0
 10
14.484672717036339
 20
-133.71514787534309
 30
0.0
 42
-0.0381250023077343
  0
VERTEX
  5
1C9
  8
0
 10
13.326887929864141
 20
-133.93500197819961
 30
0.0
 42
-0.0278683718914965
  0
VERTEX
  5
1CA
  8
0
 10
11.71828023968896
 20
-134.02473021996801
 30
0.0
 42
-0.027868371891505
  0
VERTEX
  5
1CB
  8
0
 10
10.1096725495147
 20
-133.93500197819961
 30
0.0
 42
-0.0381250023077727
  0
VERTEX
  5
1CC
  8
0
 10
8.9518877623420394
 20
-133.71514787534309
 30
0.0
 42
-0.0786828100544049
  0
VERTEX
  5
1CD
  8
0
 10
7.9736373579837609
 20
-133.277216521198
 30
0.0
 42
-0.2534364434840056
  0
VERTEX
  5
1CE
  8
0
 10
7.8060104793778464
 20
-132.967749980279
 30
0.0
 42
-0.2534364434839675
  0
SEQEND
  5
1CF
  8
0
  0
POLYLINE
  5
F5
  8
0
 66
     1
 10
0.0
 20
0.0
 30
0.0
  0
VERTEX
  5
1D0
  8
0
 10
17.448504999797699
 20
-135.237058948651
 30
0.0
 42
0.2534364434840665
  0
VERTEX
  5
1D1
  8
0
 10
17.262974420267941
 20
-134.89453925753969
 30
0.0
 42
0.0786828100544145
  0
VERTEX
  5
1D2
  8
0
 10
16.180240159771301
 20
-134.4098338295982
 30
0.0
 42
0.0381250023077343
  0
VERTEX
  5
1D3
  8
0
 10
14.898796012375669
 20
-134.1664977998733
 30
0.0
 42
0.0278683718914965
  0
VERTEX
  5
1D4
  8
0
 10
13.11837798229794
 20
-134.06718596615099
 30
0.0
 42
0.027868371891505
  0
VERTEX
  5
1D5
  8
0
 10
11.337959952221579
 20
-134.1664977998733
 30
0.0
 42
0.0381250023077727
  0
VERTEX
  5
1D6
  8
0
 10
10.05651580482458
 20
-134.4098338295982
 30
0.0
 42
0.0786828100544049
  0
VERTEX
  5
1D7
  8
0
 10
8.9737815443288582
 20
-134.89453925753969
 30
0.0
 42
0.2534364434840056
  0
VERTEX
  5
1D8
  8
0
 10
8.7882509647981806
 20
-135.237058948651
 30
0.0
 42
0.2534364434839675
  0
SEQEND
  5
1D9
  8
0
  0
POLYLINE
  5
F6
  8
0
 66
     1
 10
0.0
 20
0.0
 30
0.0
  0
VERTEX
  5
1DA
  8
0
 10
17.448504999797699
 20
-135.237058948651
 30
0.0
 42
0.2534364434840665
  0
VERTEX
  5
1DB
  8
0
 10
17.262974420267941
 20
-134.89453925753969
 30
0.0
 42
0.0786828100544145
  0
VERTEX
  5
1DC
  8
0
 10
16.180240159771301
 20
-134.4098338295982
 30
0.0
 42
0.0381250023077343
  0
VERTEX
  5
1DD
  8
0
 10
14.898796012375669
 20
-134.1664977998733
 30
0.0
 42
0.0278683718914965
  0
VERTEX
  5
1DE
  8
0
 10
13.11837798229794
 20
-134.06718596615099
 30
0.0
 42
0.027868371891505
  0
VERTEX
  5
1DF
  8
0
 10
11.337959952221579
 20
-134.1664977998733
 30
0.0
 42
0.0381250023077727
  0
VERTEX
  5
1E0
  8
0
 10
10.05651580482458
 20
-134.4098338295982
 30
0.0
 42
0.0786828100544049
  0
VERTEX
  5
1E1
  8
0
 10
8.9737815443288582
 20
-134.89453925753969
 30
0.0
 42
0.2534364434840056
  0
VERTEX
  5
1E2
  8
0
 10
8.7882509647981806
 20
-135.237058948651
 30
0.0
 42
0.2534364434839675
  0
SEQEND
  5
1E3
  8
0
  0
POLYLINE
  5
F7
  8
0
 10
28.928141417748865
 20
-2.2660950864730021
 30
0.0
 66
     1
 70
     8
  0
VERTEX
  8
0
  5
202
 10
28.9281
 20
-2.26610
 30
0.000000
  70
    32
  0
VERTEX
  8
0
  5
203
 10
28.9810
 20
-2.32360
 30
0.000000
  70
    32
  0
VERTEX
  8
0
  5
204
 10
29.0292
 20
-2.38556
 30
0.000000
  70
    32
  0
VERTEX
  8
0
  5
205
 10
29.0726
 20
-2.45183
 30
0.000000
  70
    32
  0
VERTEX
  8
0
  5
206
 10
29.1109
 20
-2.52226
 30
0.000000
  70
    32
  0
VERTEX
  8
0
  5
207
 10
29.1443
 20
-2.59667
 30
0.000000
  70
    32
  0
VERTEX
  8
0
  5
208
 10
29.1725
 20
-2.67488
 30
0.000000
  70
    32
  0
VERTEX
  8
0
  5
209
 10
29.1955
 20
-2.75670
 30
0.000000
  70
    32
  0
VERTEX
  8
0
  5
20A
 10
29.2133
 20
-2.84194
 30
0.000000
  70
    32
  0
VERTEX
  8
0
  5
20B
 10
29.2258
 20
-2.93040
 30
0.000000
  70
    32
  0
VERTEX
  8
0
  5
20C
 10
29.2330
 20
-3.02185
 30
0.000000
  70
    32
  0
VERTEX
  8
0
  5
20D
 10
29.2349
 20
-3.11609
 30
0.000000
  70
    32
  0
VERTEX
  8
0
  5
20E
 10
29.2314
 20
-3.21287
 30
0.000000
  70
    32
  0
VERTEX
  8
0
  5
20F
 10
29.2226
 20
-3.31197
 30
0.000000
  70
    32
  0
VERTEX
  8
0
  5
210
 10
29.2085
 20
-3.41316
 30
0.000000
  70
    32
  0
VERTEX
  8
0
  5
211
 10
29.1891
 20
-3.51618
 30
0.000000
  70
    32
  0
VERTEX
  8
0
  5
212
 10
29.1645
 20
-3.62078
 30
0.000000
  70
    32
  0
VERTEX
  8
0
  5
213
 10
29.1347
 20
-3.72673
 30
0.000000
  70
    32
  0
VERTEX
  8
0
  5
214
 10
29.0998
 20
-3.83375
 30
0.000000
  70
    32
  0
VERTEX
  8
0
  5
215
 10
29.0599
 20
-3.94160
 30
0.000000
  70
    32
  0
VERTEX
  8
0
  5
216
 10
29.0151
 20
-4.05000
 30
0.000000
  70
    32
  0
VERTEX
  8
0
  5
217
 10
28.9654
 20
-4.15872
 30
0.000000
  70
    32
  0
VERTEX
  8
0
  5
218
 10
28.9111
 20
-4.26747
 30
0.000000
  70
    32
  0
VERTEX
  8
0
  5
219
 10
28.8522
 20
-4.37599
 30
0.000000
  70
    32
  0
VERTEX
  8
0
  5
21A
 10
28.7889
 20
-4.48404
 30
0.000000
  70
    32
  0
VERTEX
  8
0
  5
21B
 10
28.7214
 20
-4.59134
 30
0.000000
  70
    32
  0
VERTEX
  8
0
  5
21C
 10
28.6497
 20
-4.69764
 30
0.000000
  70
    32
  0
VERTEX
  8
0
  5
21D
 10
28.5741
 20
-4.80268
 30
0.000000
  70
    32
  0
VERTEX
  8
0
  5
21E
 10
28.4948
 20
-4.90621
 30
0.000000
  70
    32
  0
VERTEX
  8
0
  5
21F
 10
28.4119
 20
-5.00798
 30
0.000000
  70
    32
  0
VERTEX
  8
0
  5
220
 10
28.3257
 20
-5.10774
 30
0.000000
  70
    32
  0
VERTEX
  8
0
  5
221
 10
28.2363
 20
-5.20526
 30
0.000000
  70
    32
  0
VERTEX
  8
0
  5
222
 10
28.1440
 20
-5.30029
 30
0.000000
  70
    32
  0
VERTEX
  8
0
  5
223
 10
28.0489
 20
-5.39261
 30
0.000000
  70
    32
  0
VERTEX
  8
0
  5
224
 10
27.9514
 20
-5.48201
 30
0.000000
  70
    32
  0
VERTEX
  8
0
  5
225
 10
27.8516
 20
-5.56825
 30
0.000000
  70
    32
  0
VERTEX
  8
0
  5
226
 10
27.7499
 20
-5.65114
 30
0.000000
  70
    32
  0
VERTEX
  8
0
  5
227
 10
27.6464
 20
-5.73047
 30
0.000000
  70
    32
  0
VERTEX
  8
0
  5
228
 10
27.5413
 20
-5.80606
 30
0.000000
  70
    32
  0
VERTEX
  8
0
  5
229
 10
27.4350
 20
-5.87771
 30
0.000000
  70
    32
  0
VERTEX
  8
0
  5
22A
 10
27.3277
 20
-5.94527
 30
0.000000
  70
    32
  0
VERTEX
  8
0
  5
22B
 10
27.2197
 20
-6.00856
 30
0.000000
  70
    32
  0
VERTEX
  8
0
  5
22C
 10
27.1111
 20
-6.06744
 30
0.000000
  70
    32
  0
VERTEX
  8
0
  5
22D
 10
27.0024
 20
-6.12175
 30
0.000000
  70
    32
  0
VERTEX
  8
0
  5
22E
 10
26.8937
 20
-6.17138
 30
0.000000
  70
    32
  0
VERTEX
  8
0
  5
22F
 10
26.7853
 20
-6.21620
 30
0.000000
  70
    32
  0
VERTEX
  8
0
  5
230
 10
26.6774
 20
-6.25610
 30
0.000000
  70
    32
  0
VERTEX
  8
0
  5
231
 10
26.5704
 20
-6.29099
 30
0.000000
  70
    32
  0
VERTEX
  8
0
  5
232
 10
26.4645
 20
-6.32078
 30
0.000000
  70
    32
  0
VERTEX
  8
0
  5
233
 10
26.3598
 20
-6.34541
 30
0.000000
  70
    32
  0
VERTEX
  8
0
  5
234
 10
26.2568
 20
-6.36480
 30
0.000000
  70
    32
  0
VERTEX
  8
0
  5
235
 10
26.1556
 20
-6.37892
 30
0.000000
  70
    32
  0
VERTEX
  8
0
  5
236
 10
26.0565
 20
-6.38774
 30
0.000000
  70
    32
  0
VERTEX
  8
0
  5
237
 10
25.9598
 20
-6.39122
 30
0.000000
  70
    32
  0
VERTEX
  8
0
  5
238
 10
25.8655
 20
-6.38936
 30
0.000000
  70
    32
  0
VERTEX
  8
0
  5
239
 10
25.7741
 20
-6.38217
 30
0.000000
  70
    32
  0
VERTEX
  8
0
  5
23A
 10
25.6856
 20
-6.36966
 30
0.000000
  70
    32
  0
VERTEX
  8
0
  5
23B
 10
25.6004
 20
-6.35187
 30
0.000000
  70
    32
  0
VERTEX
  8
0
  5
23C
 10
25.5185
 20
-6.32883
 30
0.000000
  70
    32
  0
VERTEX
  8
0
  5
23D
 10
25.4403
 20
-6.30061
 30
0.000000
  70
    32
  0
VERTEX
  8
0
  5
23E
 10
25.3659
 20
-6.26727
 30
0.000000
  70
    32
  0
VERTEX
  8
0
  5
23F
 10
25.2955
 20
-6.22888
 30
0.000000
  70
    32
  0
VERTEX
  8
0
  5
240
 10
25.2292
 20
-6.18555
 30
0.000000
  70
    32
  0
VERTEX
  8
0
  5
241
 10
25.1673
 20
-6.13737
 30
0.000000
  70
    32
  0
VERTEX
  8
0
  5
242
 10
25.1098
 20
-6.08447
 30
0.000000
  70
    32
  0
VERTEX
  8
0
  5
243
 10
25.0569
 20
-6.02697
 30
0.000000
  70
    32
  0
VERTEX
  8
0
  5
244
 10
25.0087
 20
-5.96501
 30
0.000000
  70
    32
  0
VERTEX
  8
0
  5
245
 10
24.9654
 20
-5.89873
 30
0.000000
  70
    32
  0
VERTEX
  8
0
  5
246
 10
24.9270
 20
-5.82831
 30
0.000000
  70
    32
  0
VERTEX
  8
0
  5
247
 10
24.8936
 20
-5.75390
 30
0.000000
  70
    32
  0
VERTEX
  8
0
  5
248
 10
24.8654
 20
-5.67569
 30
0.000000
  70
    32
  0
VERTEX
  8
0
  5
249
 10
24.8424
 20
-5.59386
 30
0.000000
  70
    32
  0
VERTEX
  8
0
  5
24A
 10
24.8246
 20
-5.50862
 30
0.000000
  70
    32
  0
VERTEX
  8
0
  5
24B
 10
24.8121
 20
-5.42017
 30
0.000000
  70
    32
  0
VERTEX
  8
0
  5
24C
 10
24.8049
 20
-5.32871
 30
0.000000
  70
    32
  0
VERTEX
  8
0
  5
24D
 10
24.8030
 20
-5.23448
 30
0.000000
  70
    32
  0
VERTEX
  8
0
  5
24E
 10
24.8065
 20
-5.13770
 30
0.000000
  70
    32
  0
VERTEX
  8
0
  5
24F
 10
24.8153
 20
-5.03859
 30
0.000000
  70
    32
  0
VERTEX
  8
0
  5
250
 10
24.8294
 20
-4.93741
 30
0.000000
  70
    32
  0
VERTEX
  8
0
  5
251
 10
24.8488
 20
-4.83439
 30
0.000000
  70
    32
  0
VERTEX
  8
0
  5
252
 10
24.8735
 20
-4.72978
 30
0.000000
  70
    32
  0
VERTEX
  8
0
  5
253
 10
24.9032
 20
-4.62384
 30
0.000000
  70
    32
  0
VERTEX
  8
0
  5
254
 10
24.9381
 20
-4.51682
 30
0.000000
  70
    32
  0
VERTEX
  8
0
  5
255
 10
24.9780
 20
-4.40897
 30
0.000000
  70
    32
  0
VERTEX
  8
0
  5
256
 10
25.0229
 20
-4.30056
 30
0.000000
  70
    32
  0
VERTEX
  8
0
  5
257
 10
25.0725
 20
-4.19185
 30
0.000000
  70
    32
  0
VERTEX
  8
0
  5
258
 10
25.1268
 20
-4.08310
 30
0.000000
  70
    32
  0
VERTEX
  8
0
  5
259
 10
25.1857
 20
-3.97457
 30
0.000000
  70
    32
  0
VERTEX
  8
0
  5
25A
 10
25.2490
 20
-3.86653
 30
0.000000
  70
    32
  0
VERTEX
  8
0
  5
25B
 10
25.3165
 20
-3.75923
 30
0.000000
  70
    32
  0
VERTEX
  8
0
  5
25C
 10
25.3882
 20
-3.65293
 30
0.000000
  70
    32
  0
VERTEX
  8
0
  5
25D
 10
25.4638
 20
-3.54789
 30
0.000000
  70
    32
  0
VERTEX
  8
0
  5
25E
 10
25.5431
 20
-3.44436
 30
0.000000
  70
    32
  0
VERTEX
  8
0
  5
25F
 10
25.6260
 20
-3.34259
 30
0.000000
  70
    32
  0
VERTEX
  8
0
  5
260
 10
25.7122
 20
-3.24283
 30
0.000000
  70
    32
  0
VERTEX
  8
0
  5
261
 10
25.8016
 20
-3.14531
 30
0.000000
  70
    32
  0
VERTEX
  8
0
  5
262
 10
25.8939
 20
-3.05028
 30
0.000000
  70
    32
  0
VERTEX
  8
0
  5
263
 10
25.9890
 20
-2.95795
 30
0.000000
  70
    32
  0
VERTEX
  8
0
  5
264
 10
26.0865
 20
-2.86856
 30
0.000000
  70
    32
  0
VERTEX
  8
0
  5
265
 10
26.1863
 20
-2.78232
 30
0.000000
  70
    32
  0
VERTEX
  8
0
  5
266
 10
26.2880
 20
-2.69943
 30
0.000000
  70
    32
  0
VERTEX
  8
0
  5
267
 10
26.3916
 20
-2.62010
 30
0.000000
  70
    32
  0
VERTEX
  8
0
  5
268
 10
26.4966
 20
-2.54451
 30
0.000000
  70
    32
  0
VERTEX
  8
0
  5
269
 10
26.6029
 20
-2.47285
 30
0.000000
  70
    32
  0
VERTEX
  8
0
  5
26A
 10
26.7102
 20
-2.40530
 30
0.000000
  70
    32
  0
VERTEX
  8
0
  5
26B
 10
26.8182
 20
-2.34201
 30
0.000000
  70
    32
  0
VERTEX
  8
0
  5
26C
 10
26.9268
 20
-2.28313
 30
0.000000
  70
    32
  0
VERTEX
  8
0
  5
26D
 10
27.0355
 20
-2.22881
 30
0.000000
  70
    32
  0
VERTEX
  8
0
  5
26E
 10
27.1442
 20
-2.17919
 30
0.000000
  70
    32
  0
VERTEX
  8
0
  5
26F
 10
27.2526
 20
-2.13437
 30
0.000000
  70
    32
  0
VERTEX
  8
0
  5
270
 10
27.3605
 20
-2.09447
 30
0.000000
  70
    32
  0
VERTEX
  8
0
  5
271
 10
27.4675
 20
-2.05958
 30
0.000000
  70
    32
  0
VERTEX
  8
0
  5
272
 10
27.5735
 20
-2.02978
 30
0.000000
  70
    32
  0
VERTEX
  8
0
  5
273
 10
27.6781
 20
-2.00516
 30
0.000000
  70
    32
  0
VERTEX
  8
0
  5
274
 10
27.7811
 20
-1.98576
 30
0.000000
  70
    32
  0
VERTEX
  8
0
  5
275
 10
27.8823
 20
-1.97164
 30
0.000000
  70
    32
  0
VERTEX
  8
0
  5
276
 10
27.9814
 20
-1.96283
 30
0.000000
  70
    32
  0
VERTEX
  8
0
  5
277
 10
28.0781
 20
-1.95935
 30
0.000000
  70
    32
  0
VERTEX
  8
0
  5
278
 10
28.1724
 20
-1.96121
 30
0.000000
  70
    32
  0
VERTEX
  8
0
  5
279
 10
28.2638
 20
-1.96840
 30
0.000000
  70
    32
  0
VERTEX
  8
0
  5
27A
 10
28.3523
 20
-1.98090
 30
0.000000
  70
    32
  0
VERTEX
  8
0
  5
27B
 10
28.4375
 20
-1.99870
 30
0.000000
  70
    32
  0
VERTEX
  8
0
  5
27C
 10
28.5194
 20
-2.02173
 30
0.000000
  70
    32
  0
VERTEX
  8
0
  5
27D
 10
28.5976
 20
-2.04996
 30
0.000000
  70
    32
  0
VERTEX
  8
0
  5
27E
 10
28.6720
 20
-2.08330
 30
0.000000
  70
    32
  0
VERTEX
  8
0
  5
27F
 10
28.7424
 20
-2.12169
 30
0.000000
  70
    32
  0
VERTEX
  8
0
  5
280
 10
28.8087
 20
-2.16502
 30
0.000000
  70
    32
  0
VERTEX
  8
0
  5
281
 10
28.8706
 20
-2.21319
 30
0.000000
  70
    32
  0
VERTEX
  8
0
  5
282
 10
28.9281
 20
-2.26610
 30
0.000000
  70
    32
  0
SEQEND
  8
0
  5
283
  0
POLYLINE
  5
F8
  8
0
 10
31.929456150495227
 20
-2.0147186257612879
 30
0.0
 66
     1
 70
     8
  0
VERTEX
  8
0
  5
284
 10
31.9295
 20
-2.01472
 30
0.000000
  70
    32
  0
VERTEX
  8
0
  5
285
 10
32.0479
 20
-2.14165
 30
0.000000
  70
    32
  0
VERTEX
  8
0
  5
286
 10
32.1575
 20
-2.27678
 30
0.000000
  70
    32
  0
VERTEX
  8
0
  5
287
 10
32.2580
 20
-2.41981
 30
0.000000
  70
    32
  0
VERTEX
  8
0
  5
288
 10
32.3492
 20
-2.57037
 30
0.000000
  70
    32
  0
VERTEX
  8
0
  5
289
 10
32.4309
 20
-2.72812
 30
0.000000
  70
    32
  0
VERTEX
  8
0
  5
28A
 10
32.5029
 20
-2.89266
 30
0.000000
  70
    32
  0
VERTEX
  8
0
  5
28B
 10
32.5650
 20
-3.06361
 30
0.000000
  70
    32
  0
VERTEX
  8
0
  5
28C
 10
32.6170
 20
-3.24054
 30
0.000000
  70
    32
  0
VERTEX
  8
0
  5
28D
 10
32.6589
 20
-3.42305
 30
0.000000
  70
    32
  0
VERTEX
  8
0
  5
28E
 10
32.6905
 20
-3.61067
 30
0.000000
  70
    32
  0
VERTEX
  8
0
  5
28F
 10
32.7117
 20
-3.80297
 30
0.000000
  70
    32
  0
VERTEX
  8
0
  5
290
 10
32.7225
 20
-3.99948
 30
0.000000
  70
    32
  0
VERTEX
  8
0
  5
291
 10
32.7229
 20
-4.19972
 30
0.000000
  70
    32
  0
VERTEX
  8
0
  5
292
 10
32.7129
 20
-4.40322
 30
0.000000
  70
    32
  0
VERTEX
  8
0
  5
293
 10
32.6925
 20
-4.60948
 30
0.000000
  70
    32
  0
VERTEX
  8
0
  5
294
 10
32.6617
 20
-4.81800
 30
0.000000
  70
    32
  0
VERTEX
  8
0
  5
295
 10
32.6206
 20
-5.02829
 30
0.000000
  70
    32
  0
VERTEX
  8
0
  5
296
 10
32.5693
 20
-5.23984
 30
0.000000
  70
    32
  0
VERTEX
  8
0
  5
297
 10
32.5080
 20
-5.45214
 30
0.000000
  70
    32
  0
VERTEX
  8
0
  5
298
 10
32.4368
 20
-5.66467
 30
0.000000
  70
    32
  0
VERTEX
  8
0
  5
299
 10
32.3559
 20
-5.87693
 30
0.000000
  70
    32
  0
VERTEX
  8
0
  5
29A
 10
32.2653
 20
-6.08840
 30
0.000000
  70
    32
  0
VERTEX
  8
0
  5
29B
 10
32.1655
 20
-6.29857
 30
0.000000
  70
    32
  0
VERTEX
  8
0
  5
29C
 10
32.0566
 20
-6.50694
 30
0.000000
  70
    32
  0
VERTEX
  8
0
  5
29D
 10
31.9388
 20
-6.71300
 30
0.000000
  70
    32
  0
VERTEX
  8
0
  5
29E
 10
31.8126
 20
-6.91627
 30
0.000000
  70
    32
  0
VERTEX
  8
0
  5
29F
 10
31.6780
 20
-7.11624
 30
0.000000
  70
    32
  0
VERTEX
  8
0
  5
2A0
 10
31.5356
 20
-7.31244
 30
0.000000
  70
    32
  0
VERTEX
  8
0
  5
2A1
 10
31.3856
 20
-7.50440
 30
0.000000
  70
    32
  0
VERTEX
  8
0
  5
2A2
 10
31.2284
 20
-7.69165
 30
0.000000
  70
    32
  0
VERTEX
  8
0
  5
2A3
 10
31.0644
 20
-7.87374
 30
0.000000
  70
    32
  0
VERTEX
  8
0
  5
2A4
 10
30.8939
 20
-8.05023
 30
0.000000
  70
    32
  0
VERTEX
  8
0
  5
2A5
 10
30.7174
 20
-8.22070
 30
0.000000
  70
    32
  0
VERTEX
  8
0
  5
2A6
 10
30.5353
 20
-8.38473
 30
0.000000
  70
    32
  0
VERTEX
  8
0
  5
2A7
 10
30.3481
 20
-8.54194
 30
0.000000
  70
    32
  0
VERTEX
  8
0
  5
2A8
 10
30.1561
 20
-8.69194
 30
0.000000
  70
    32
  0
VERTEX
  8
0
  5
2A9
 10
29.9599
 20
-8.83437
 30
0.000000
  70
    32
  0
VERTEX
  8
0
  5
2AA
 10
29.7599
 20
-8.96889
 30
0.000000
  70
    32
  0
VERTEX
  8
0
  5
2AB
 10
29.5567
 20
-9.09518
 30
0.000000
  70
    32
  0
VERTEX
  8
0
  5
2AC
 10
29.3506
 20
-9.21292
 30
0.000000
  70
    32
  0
VERTEX
  8
0
  5
2AD
 10
29.1422
 20
-9.32184
 30
0.000000
  70
    32
  0
VERTEX
  8
0
  5
2AE
 10
28.9321
 20
-9.42167
 30
0.000000
  70
    32
  0
VERTEX
  8
0
  5
2AF
 10
28.7206
 20
-9.51218
 30
0.000000
  70
    32
  0
VERTEX
  8
0
  5
2B0
 10
28.5083
 20
-9.59314
 30
0.000000
  70
    32
  0
VERTEX
  8
0
  5
2B1
 10
28.2958
 20
-9.66437
 30
0.000000
  70
    32
  0
VERTEX
  8
0
  5
2B2
 10
28.0835
 20
-9.72568
 30
0.000000
  70
    32
  0
VERTEX
  8
0
  5
2B3
 10
27.8720
 20
-9.77693
 30
0.000000
  70
    32
  0
VERTEX
  8
0
  5
2B4
 10
27.6617
 20
-9.81800
 30
0.000000
  70
    32
  0
VERTEX
  8
0
  5
2B5
 10
27.4531
 20
-9.84879
 30
0.000000
  70
    32
  0
VERTEX
  8
0
  5
2B6
 10
27.2469
 20
-9.86923
 30
0.000000
  70
    32
  0
VERTEX
  8
0
  5
2B7
 10
27.0434
 20
-9.87925
 30
0.000000
  70
    32
  0
VERTEX
  8
0
  5
2B8
 10
26.8431
 20
-9.87885
 30
0.000000
  70
    32
  0
VERTEX
  8
0
  5
2B9
 10
26.6466
 20
-9.86803
 30
0.000000
  70
    32
  0
VERTEX
  8
0
  5
2BA
 10
26.4543
 20
-9.84680
 30
0.000000
  70
    32
  0
VERTEX
  8
0
  5
2BB
 10
26.2667
 20
-9.81521
 30
0.000000
  70
    32
  0
VERTEX
  8
0
  5
2BC
 10
26.0842
 20
-9.77336
 30
0.000000
  70
    32
  0
VERTEX
  8
0
  5
2BD
 10
25.9073
 20
-9.72133
 30
0.000000
  70
    32
  0
VERTEX
  8
0
  5
2BE
 10
25.7363
 20
-9.65925
 30
0.000000
  70
    32
  0
VERTEX
  8
0
  5
2BF
 10
25.5718
 20
-9.58728
 30
0.000000
  70
    32
  0
VERTEX
  8
0
  5
2C0
 10
25.4140
 20
-9.50557
 30
0.000000
  70
    32
  0
VERTEX
  8
0
  5
2C1
 10
25.2635
 20
-9.41434
 30
0.000000
  70
    32
  0
VERTEX
  8
0
  5
2C2
 10
25.1205
 20
-9.31380
 30
0.000000
  70
    32
  0
VERTEX
  8
0
  5
2C3
 10
24.9853
 20
-9.20420
 30
0.000000
  70
    32
  0
VERTEX
  8
0
  5
2C4
 10
24.8584
 20
-9.08579
 30
0.000000
  70
    32
  0
VERTEX
  8
0
  5
2C5
 10
24.7400
 20
-8.95886
 30
0.000000
  70
    32
  0
VERTEX
  8
0
  5
2C6
 10
24.6304
 20
-8.82372
 30
0.000000
  70
    32
  0
VERTEX
  8
0
  5
2C7
 10
24.5298
 20
-8.68070
 30
0.000000
  70
    32
  0
VERTEX
  8
0
  5
2C8
 10
24.4386
 20
-8.53013
 30
0.000000
  70
    32
  0
VERTEX
  8
0
  5
2C9
 10
24.3569
 20
-8.37239
 30
0.000000
  70
    32
  0
VERTEX
  8
0
  5
2CA
 10
24.2849
 20
-8.20784
 30
0.000000
  70
    32
  0
VERTEX
  8
0
  5
2CB
 10
24.2228
 20
-8.03690
 30
0.000000
  70
    32
  0
VERTEX
  8
0
  5
2CC
 10
24.1708
 20
-7.85996
 30
0.000000
  70
    32
  0
VERTEX
  8
0
  5
2CD
 10
24.1290
 20
-7.67746
 30
0.000000
  70
    32
  0
VERTEX
  8
0
  5
2CE
 10
24.0974
 20
-7.48983
 30
0.000000
  70
    32
  0
VERTEX
  8
0
  5
2CF
 10
24.0761
 20
-7.29754
 30
0.000000
  70
    32
  0
VERTEX
  8
0
  5
2D0
 10
24.0653
 20
-7.10103
 30
0.000000
  70
    32
  0
VERTEX
  8
0
  5
2D1
 10
24.0649
 20
-6.90079
 30
0.000000
  70
    32
  0
VERTEX
  8
0
  5
2D2
 10
24.0749
 20
-6.69729
 30
0.000000
  70
    32
  0
VERTEX
  8
0
  5
2D3
 10
24.0954
 20
-6.49103
 30
0.000000
  70
    32
  0
VERTEX
  8
0
  5
2D4
 10
24.1262
 20
-6.28250
 30
0.000000
  70
    32
  0
VERTEX
  8
0
  5
2D5
 10
24.1672
 20
-6.07221
 30
0.000000
  70
    32
  0
VERTEX
  8
0
  5
2D6
 10
24.2185
 20
-5.86066
 30
0.000000
  70
    32
  0
VERTEX
  8
0
  5
2D7
 10
24.2798
 20
-5.64837
 30
0.000000
  70
    32
  0
VERTEX
  8
0
  5
2D8
 10
24.3510
 20
-5.43584
 30
0.000000
  70
    32
  0
VERTEX
  8
0
  5
2D9
 10
24.4320
 20
-5.22358
 30
0.000000
  70
    32
  0
VERTEX
  8
0
  5
2DA
 10
24.5225
 20
-5.01211
 30
0.000000
  70
    32
  0
VERTEX
  8
0
  5
2DB
 10
24.6223
 20
-4.80194
 30
0.000000
  70
    32
  0
VERTEX
  8
0
  5
2DC
 10
24.7313
 20
-4.59357
 30
0.000000
  70
    32
  0
VERTEX
  8
0
  5
2DD
 10
24.8490
 20
-4.38750
 30
0.000000
  70
    32
  0
VERTEX
  8
0
  5
2DE
 10
24.9753
 20
-4.18424
 30
0.000000
  70
    32
  0
VERTEX
  8
0
  5
2DF
 10
25.1098
 20
-3.98426
 30
0.000000
  70
    32
  0
VERTEX
  8
0
  5
2E0
 10
25.2522
 20
-3.78806
 30
0.000000
  70
    32
  0
VERTEX
  8
0
  5
2E1
 10
25.4022
 20
-3.59611
 30
0.000000
  70
    32
  0
VERTEX
  8
0
  5
2E2
 10
25.5594
 20
-3.40886
 30
0.000000
  70
    32
  0
VERTEX
  8
0
  5
2E3
 10
25.7235
 20
-3.22677
 30
0.000000
  70
    32
  0
VERTEX
  8
0
  5
2E4
 10
25.8939
 20
-3.05028
 30
0.000000
  70
    32
  0
VERTEX
  8
0
  5
2E5
 10
26.0704
 20
-2.87981
 30
0.000000
  70
    32
  0
VERTEX
  8
0
  5
2E6
 10
26.2525
 20
-2.71577
 30
0.000000
  70
    32
  0
VERTEX
  8
0
  5
2E7
 10
26.4398
 20
-2.55856
 30
0.000000
  70
    32
  0
VERTEX
  8
0
  5
2E8
 10
26.6317
 20
-2.40856
 30
0.000000
  70
    32
  0
VERTEX
  8
0
  5
2E9
 10
26.8279
 20
-2.26613
 30
0.000000
  70
    32
  0
VERTEX
  8
0
  5
2EA
 10
27.0279
 20
-2.13161
 30
0.000000
  70
    32
  0
VERTEX
  8
0
  5
2EB
 10
27.2312
 20
-2.00533
 30
0.000000
  70
    32
  0
VERTEX
  8
0
  5
2EC
 10
27.4372
 20
-1.88759
 30
0.000000
  70
    32
  0
VERTEX
  8
0
  5
2ED
 10
27.6456
 20
-1.77867
 30
0.000000
  70
    32
  0
VERTEX
  8
0
  5
2EE
 10
27.8558
 20
-1.67883
 30
0.000000
  70
    32
  0
VERTEX
  8
0
  5
2EF
 10
28.0672
 20
-1.58832
 30
0.000000
  70
    32
  0
VERTEX
  8
0
  5
2F0
 10
28.2795
 20
-1.50736
 30
0.000000
  70
    32
  0
VERTEX
  8
0
  5
2F1
 10
28.4920
 20
-1.43614
 30
0.000000
  70
    32
  0
VERTEX
  8
0
  5
2F2
 10
28.7043
 20
-1.37483
 30
0.000000
  70
    32
  0
VERTEX
  8
0
  5
2F3
 10
28.9159
 20
-1.32357
 30
0.000000
  70
    32
  0
VERTEX
  8
0
  5
2F4
 10
29.1262
 20
-1.28250
 30
0.000000
  70
    32
  0
VERTEX
  8
0
  5
2F5
 10
29.3347
 20
-1.25171
 30
0.000000
  70
    32
  0
VERTEX
  8
0
  5
2F6
 10
29.5410
 20
-1.23128
 30
0.000000
  70
    32
  0
VERTEX
  8
0
  5
2F7
 10
29.7445
 20
-1.22125
 30
0.000000
  70
    32
  0
VERTEX
  8
0
  5
2F8
 10
29.9447
 20
-1.22165
 30
0.000000
  70
    32
  0
VERTEX
  8
0
  5
2F9
 10
30.1412
 20
-1.23248
 30
0.000000
  70
    32
  0
VERTEX
  8
0
  5
2FA
 10
30.3335
 20
-1.25371
 30
0.000000
  70
    32
  0
VERTEX
  8
0
  5
2FB
 10
30.5211
 20
-1.28529
 30
0.000000
  70
    32
  0
VERTEX
  8
0
  5
2FC
 10
30.7036
 20
-1.32715
 30
0.000000
  70
    32
  0
VERTEX
  8
0
  5
2FD
 10
30.8806
 20
-1.37918
 30
0.000000
  70
    32
  0
VERTEX
  8
0
  5
2FE
 10
31.0515
 20
-1.44125
 30
0.000000
  70
    32
  0
VERTEX
  8
0
  5
2FF
 10
31.2161
 20
-1.51323
 30
0.000000
  70
    32
  0
VERTEX
  8
0
  5
300
 10
31.3738
 20
-1.59493
 30
0.000000
  70
    32
  0
VERTEX
  8
0
  5
301
 10
31.5244
 20
-1.68616
 30
0.000000
  70
    32
  0
VERTEX
  8
0
  5
302
 10
31.6674
 20
-1.78670
 30
0.000000
  70
    32
  0
VERTEX
  8
0
  5
303
 10
31.8025
 20
-1.89631
 30
0.000000
  70
    32
  0
VERTEX
  8
0
  5
304
 10
31.9295
 20
-2.01472
 30
0.000000
  70
    32
  0
SEQEND
  8
0
  5
305
  0
POLYLINE
  5
F9
  8
0
 10
-38.729456150495182
 20
-2.0147186257612866
 30
0.0
 66
     1
 70
     8
  0
VERTEX
  8
0
  5
306
 10
-38.7295
 20
-2.01472
 30
0.000000
  70
    32
  0
VERTEX
  8
0
  5
307
 10
-38.8479
 20
-2.14165
 30
0.000000
  70
    32
  0
VERTEX
  8
0
  5
308
 10
-38.9575
 20
-2.27678
 30
0.000000
  70
    32
  0
VERTEX
  8
0
  5
309
 10
-39.0580
 20
-2.41981
 30
0.000000
  70
    32
  0
VERTEX
  8
0
  5
30A
 10
-39.1492
 20
-2.57037
 30
0.000000
  70
    32
  0
VERTEX
  8
0
  5
30B
 10
-39.2309
 20
-2.72812
 30
0.000000
  70
    32
  0
VERTEX
  8
0
  5
30C
 10
-39.3029
 20
-2.89266
 30
0.000000
  70
    32
  0
VERTEX
  8
0
  5
30D
 10
-39.3650
 20
-3.06361
 30
0.000000
  70
    32
  0
VERTEX
  8
0
  5
30E
 10
-39.4170
 20
-3.24054
 30
0.000000
  70
    32
  0
VERTEX
  8
0
  5
30F
 10
-39.4589
 20
-3.42305
 30
0.000000
  70
    32
  0
VERTEX
  8
0
  5
310
 10
-39.4905
 20
-3.61067
 30
0.000000
  70
    32
  0
VERTEX
  8
0
  5
311
 10
-39.5117
 20
-3.80297
 30
0.000000
  70
    32
  0
VERTEX
  8
0
  5
312
 10
-39.5225
 20
-3.99948
 30
0.000000
  70
    32
  0
VERTEX
  8
0
  5
313
 10
-39.5229
 20
-4.19972
 30
0.000000
  70
    32
  0
VERTEX
  8
0
  5
314
 10
-39.5129
 20
-4.40322
 30
0.000000
  70
    32
  0
VERTEX
  8
0
  5
315
 10
-39.4925
 20
-4.60948
 30
0.000000
  70
    32
  0
VERTEX
  8
0
  5
316
 10
-39.4617
 20
-4.81800
 30
0.000000
  70
    32
  0
VERTEX
  8
0
  5
317
 10
-39.4206
 20
-5.02829
 30
0.000000
  70
    32
  0
VERTEX
  8
0
  5
318
 10
-39.3693
 20
-5.23984
 30
0.000000
  70
    32
  0
VERTEX
  8
0
  5
319
 10
-39.3080
 20
-5.45214
 30
0.000000
  70
    32
  0
VERTEX
  8
0
  5
31A
 10
-39.2368
 20
-5.66467
 30
0.000000
  70
    32
  0
VERTEX
  8
0
  5
31B
 10
-39.1559
 20
-5.87693
 30
0.000000
  70
    32
  0
VERTEX
  8
0
  5
31C
 10
-39.0653
 20
-6.08840
 30
0.000000
  70
    32
  0
VERTEX
  8
0
  5
31D
 10
-38.9655
 20
-6.29857
 30
0.000000
  70
    32
  0
VERTEX
  8
0
  5
31E
 10
-38.8566
 20
-6.50694
 30
0.000000
  70
    32
  0
VERTEX
  8
0
  5
31F
 10
-38.7388
 20
-6.71300
 30
0.000000
  70
    32
  0
VERTEX
  8
0
  5
320
 10
-38.6126
 20
-6.91627
 30
0.000000
  70
    32
  0
VERTEX
  8
0
  5
321
 10
-38.4780
 20
-7.11624
 30
0.000000
  70
    32
  0
VERTEX
  8
0
  5
322
 10
-38.3356
 20
-7.31244
 30
0.000000
  70
    32
  0
VERTEX
  8
0
  5
323
 10
-38.1856
 20
-7.50440
 30
0.000000
  70
    32
  0
VERTEX
  8
0
  5
324
 10
-38.0284
 20
-7.69165
 30
0.000000
  70
    32
  0
VERTEX
  8
0
  5
325
 10
-37.8644
 20
-7.87374
 30
0.000000
  70
    32
  0
VERTEX
  8
0
  5
326
 10
-37.6939
 20
-8.05023
 30
0.000000
  70
    32
  0
VERTEX
  8
0
  5
327
 10
-37.5174
 20
-8.22070
 30
0.000000
  70
    32
  0
VERTEX
  8
0
  5
328
 10
-37.3353
 20
-8.38473
 30
0.000000
  70
    32
  0
VERTEX
  8
0
  5
329
 10
-37.1481
 20
-8.54194
 30
0.000000
  70
    32
  0
VERTEX
  8
0
  5
32A
 10
-36.9561
 20
-8.69194
 30
0.000000
  70
    32
  0
VERTEX
  8
0
  5
32B
 10
-36.7599
 20
-8.83437
 30
0.000000
  70
    32
  0
VERTEX
  8
0
  5
32C
 10
-36.5599
 20
-8.96889
 30
0.000000
  70
    32
  0
VERTEX
  8
0
  5
32D
 10
-36.3567
 20
-9.09518
 30
0.000000
  70
    32
  0
VERTEX
  8
0
  5
32E
 10
-36.1506
 20
-9.21292
 30
0.000000
  70
    32
  0
VERTEX
  8
0
  5
32F
 10
-35.9422
 20
-9.32184
 30
0.000000
  70
    32
  0
VERTEX
  8
0
  5
330
 10
-35.7321
 20
-9.42167
 30
0.000000
  70
    32
  0
VERTEX
  8
0
  5
331
 10
-35.5206
 20
-9.51218
 30
0.000000
  70
    32
  0
VERTEX
  8
0
  5
332
 10
-35.3083
 20
-9.59314
 30
0.000000
  70
    32
  0
VERTEX
  8
0
  5
333
 10
-35.0958
 20
-9.66437
 30
0.000000
  70
    32
  0
VERTEX
  8
0
  5
334
 10
-34.8835
 20
-9.72568
 30
0.000000
  70
    32
  0
VERTEX
  8
0
  5
335
 10
-34.6720
 20
-9.77693
 30
0.000000
  70
    32
  0
VERTEX
  8
0
  5
336
 10
-34.4617
 20
-9.81800
 30
0.000000
  70
    32
  0
VERTEX
  8
0
  5
337
 10
-34.2531
 20
-9.84879
 30
0.000000
  70
    32
  0
VERTEX
  8
0
  5
338
 10
-34.0469
 20
-9.86923
 30
0.000000
  70
    32
  0
VERTEX
  8
0
  5
339
 10
-33.8434
 20
-9.87925
 30
0.000000
  70
    32
  0
VERTEX
  8
0
  5
33A
 10
-33.6431
 20
-9.87885
 30
0.000000
  70
    32
  0
VERTEX
  8
0
  5
33B
 10
-33.4466
 20
-9.86803
 30
0.000000
  70
    32
  0
VERTEX
  8
0
  5
33C
 10
-33.2543
 20
-9.84680
 30
0.000000
  70
    32
  0
VERTEX
  8
0
  5
33D
 10
-33.0667
 20
-9.81521
 30
0.000000
  70
    32
  0
VERTEX
  8
0
  5
33E
 10
-32.8842
 20
-9.77336
 30
0.000000
  70
    32
  0
VERTEX
  8
0
  5
33F
 10
-32.7073
 20
-9.72133
 30
0.000000
  70
    32
  0
VERTEX
  8
0
  5
340
 10
-32.5363
 20
-9.65925
 30
0.000000
  70
    32
  0
VERTEX
  8
0
  5
341
 10
-32.3718
 20
-9.58728
 30
0.000000
  70
    32
  0
VERTEX
  8
0
  5
342
 10
-32.2140
 20
-9.50557
 30
0.000000
  70
    32
  0
VERTEX
  8
0
  5
343
 10
-32.0635
 20
-9.41434
 30
0.000000
  70
    32
  0
VERTEX
  8
0
  5
344
 10
-31.9205
 20
-9.31380
 30
0.000000
  70
    32
  0
VERTEX
  8
0
  5
345
 10
-31.7853
 20
-9.20420
 30
0.000000
  70
    32
  0
VERTEX
  8
0
  5
346
 10
-31.6584
 20
-9.08579
 30
0.000000
  70
    32
  0
VERTEX
  8
0
  5
347
 10
-31.5400
 20
-8.95886
 30
0.000000
  70
    32
  0
VERTEX
  8
0
  5
348
 10
-31.4304
 20
-8.82372
 30
0.000000
  70
    32
  0
VERTEX
  8
0
  5
349
 10
-31.3298
 20
-8.68070
 30
0.000000
  70
    32
  0
VERTEX
  8
0
  5
34A
 10
-31.2386
 20
-8.53013
 30
0.000000
  70
    32
  0
VERTEX
  8
0
  5
34B
 10
-31.1569
 20
-8.37239
 30
0.000000
  70
    32
  0
VERTEX
  8
0
  5
34C
 10
-31.0849
 20
-8.20784
 30
0.000000
  70
    32
  0
VERTEX
  8
0
  5
34D
 10
-31.0228
 20
-8.03690
 30
0.000000
  70
    32
  0
VERTEX
  8
0
  5
34E
 10
-30.9708
 20
-7.85996
 30
0.000000
  70
    32
  0
VERTEX
  8
0
  5
34F
 10
-30.9290
 20
-7.67746
 30
0.000000
  70
    32
  0
VERTEX
  8
0
  5
350
 10
-30.8974
 20
-7.48983
 30
0.000000
  70
    32
  0
VERTEX
  8
0
  5
351
 10
-30.8761
 20
-7.29754
 30
0.000000
  70
    32
  0
VERTEX
  8
0
  5
352
 10
-30.8653
 20
-7.10103
 30
0.000000
  70
    32
  0
VERTEX
  8
0
  5
353
 10
-30.8649
 20
-6.90079
 30
0.000000
  70
    32
  0
VERTEX
  8
0
  5
354
 10
-30.8749
 20
-6.69729
 30
0.000000
  70
    32
  0
VERTEX
  8
0
  5
355
 10
-30.8954
 20
-6.49103
 30
0.000000
  70
    32
  0
VERTEX
  8
0
  5
356
 10
-30.9262
 20
-6.28250
 30
0.000000
  70
    32
  0
VERTEX
  8
0
  5
357
 10
-30.9672
 20
-6.07221
 30
0.000000
  70
    32
  0
VERTEX
  8
0
  5
358
 10
-31.0185
 20
-5.86066
 30
0.000000
  70
    32
  0
VERTEX
  8
0
  5
359
 10
-31.0798
 20
-5.64837
 30
0.000000
  70
    32
  0
VERTEX
  8
0
  5
35A
 10
-31.1510
 20
-5.43584
 30
0.000000
  70
    32
  0
VERTEX
  8
0
  5
35B
 10
-31.2320
 20
-5.22358
 30
0.000000
  70
    32
  0
VERTEX
  8
0
  5
35C
 10
-31.3225
 20
-5.01211
 30
0.000000
  70
    32
  0
VERTEX
  8
0
  5
35D
 10
-31.4223
 20
-4.80194
 30
0.000000
  70
    32
  0
VERTEX
  8
0
  5
35E
 10
-31.5313
 20
-4.59357
 30
0.000000
  70
    32
  0
VERTEX
  8
0
  5
35F
 10
-31.6490
 20
-4.38750
 30
0.000000
  70
    32
  0
VERTEX
  8
0
  5
360
 10
-31.7753
 20
-4.18424
 30
0.000000
  70
    32
  0
VERTEX
  8
0
  5
361
 10
-31.9098
 20
-3.98426
 30
0.000000
  70
    32
  0
VERTEX
  8
0
  5
362
 10
-32.0522
 20
-3.78806
 30
0.000000
  70
    32
  0
VERTEX
  8
0
  5
363
 10
-32.2022
 20
-3.59611
 30
0.000000
  70
    32
  0
VERTEX
  8
0
  5
364
 10
-32.3594
 20
-3.40886
 30
0.000000
  70
    32
  0
VERTEX
  8
0
  5
365
 10
-32.5235
 20
-3.22677
 30
0.000000
  70
    32
  0
VERTEX
  8
0
  5
366
 10
-32.6939
 20
-3.05028
 30
0.000000
  70
    32
  0
VERTEX
  8
0
  5
367
 10
-32.8704
 20
-2.87981
 30
0.000000
  70
    32
  0
VERTEX
  8
0
  5
368
 10
-33.0525
 20
-2.71577
 30
0.000000
  70
    32
  0
VERTEX
  8
0
  5
369
 10
-33.2398
 20
-2.55856
 30
0.000000
  70
    32
  0
VERTEX
  8
0
  5
36A
 10
-33.4317
 20
-2.40856
 30
0.000000
  70
    32
  0
VERTEX
  8
0
  5
36B
 10
-33.6279
 20
-2.26613
 30
0.000000
  70
    32
  0
VERTEX
  8
0
  5
36C
 10
-33.8279
 20
-2.13161
 30
0.000000
  70
    32
  0
VERTEX
  8
0
  5
36D
 10
-34.0312
 20
-2.00533
 30
0.000000
  70
    32
  0
VERTEX
  8
0
  5
36E
 10
-34.2372
 20
-1.88759
 30
0.000000
  70
    32
  0
VERTEX
  8
0
  5
36F
 10
-34.4456
 20
-1.77867
 30
0.000000
  70
    32
  0
VERTEX
  8
0
  5
370
 10
-34.6558
 20
-1.67883
 30
0.000000
  70
    32
  0
VERTEX
  8
0
  5
371
 10
-34.8672
 20
-1.58832
 30
0.000000
  70
    32
  0
VERTEX
  8
0
  5
372
 10
-35.0795
 20
-1.50736
 30
0.000000
  70
    32
  0
VERTEX
  8
0
  5
373
 10
-35.2920
 20
-1.43614
 30
0.000000
  70
    32
  0
VERTEX
  8
0
  5
374
 10
-35.5043
 20
-1.37483
 30
0.000000
  70
    32
  0
VERTEX
  8
0
  5
375
 10
-35.7159
 20
-1.32357
 30
0.000000
  70
    32
  0
VERTEX
  8
0
  5
376
 10
-35.9262
 20
-1.28250
 30
0.000000
  70
    32
  0
VERTEX
  8
0
  5
377
 10
-36.1347
 20
-1.25171
 30
0.000000
  70
    32
  0
VERTEX
  8
0
  5
378
 10
-36.3410
 20
-1.23128
 30
0.000000
  70
    32
  0
VERTEX
  8
0
  5
379
 10
-36.5445
 20
-1.22125
 30
0.000000
  70
    32
  0
VERTEX
  8
0
  5
37A
 10
-36.7447
 20
-1.22165
 30
0.000000
  70
    32
  0
VERTEX
  8
0
  5
37B
 10
-36.9412
 20
-1.23248
 30
0.000000
  70
    32
  0
VERTEX
  8
0
  5
37C
 10
-37.1335
 20
-1.25371
 30
0.000000
  70
    32
  0
VERTEX
  8
0
  5
37D
 10
-37.3211
 20
-1.28529
 30
0.000000
  70
    32
  0
VERTEX
  8
0
  5
37E
 10
-37.5036
 20
-1.32715
 30
0.000000
  70
    32
  0
VERTEX
  8
0
  5
37F
 10
-37.6806
 20
-1.37918
 30
0.000000
  70
    32
  0
VERTEX
  8
0
  5
380
 10
-37.8515
 20
-1.44125
 30
0.000000
  70
    32
  0
VERTEX
  8
0
  5
381
 10
-38.0161
 20
-1.51323
 30
0.000000
  70
    32
  0
VERTEX
  8
0
  5
382
 10
-38.1738
 20
-1.59493
 30
0.000000
  70
    32
  0
VERTEX
  8
0
  5
383
 10
-38.3244
 20
-1.68616
 30
0.000000
  70
    32
  0
VERTEX
  8
0
  5
384
 10
-38.4674
 20
-1.78670
 30
0.000000
  70
    32
  0
VERTEX
  8
0
  5
385
 10
-38.6025
 20
-1.89631
 30
0.000000
  70
    32
  0
VERTEX
  8
0
  5
386
 10
-38.7295
 20
-2.01472
 30
0.000000
  70
    32
  0
SEQEND
  8
0
  5
387
  0
POLYLINE
  5
FA
  8
0
 10
-35.728141417748816
 20
-2.2660950864730012
 30
0.0
 66
     1
 70
     8
  0
VERTEX
  8
0
  5
388
 10
-35.7281
 20
-2.26610
 30
0.000000
  70
    32
  0
VERTEX
  8
0
  5
389
 10
-35.7810
 20
-2.32360
 30
0.000000
  70
    32
  0
VERTEX
  8
0
  5
38A
 10
-35.8292
 20
-2.38556
 30
0.000000
  70
    32
  0
VERTEX
  8
0
  5
38B
 10
-35.8726
 20
-2.45183
 30
0.000000
  70
    32
  0
VERTEX
  8
0
  5
38C
 10
-35.9109
 20
-2.52226
 30
0.000000
  70
    32
  0
VERTEX
  8
0
  5
38D
 10
-35.9443
 20
-2.59667
 30
0.000000
  70
    32
  0
VERTEX
  8
0
  5
38E
 10
-35.9725
 20
-2.67488
 30
0.000000
  70
    32
  0
VERTEX
  8
0
  5
38F
 10
-35.9955
 20
-2.75670
 30
0.000000
  70
    32
  0
VERTEX
  8
0
  5
390
 10
-36.0133
 20
-2.84194
 30
0.000000
  70
    32
  0
VERTEX
  8
0
  5
391
 10
-36.0258
 20
-2.93040
 30
0.000000
  70
    32
  0
VERTEX
  8
0
  5
392
 10
-36.0330
 20
-3.02185
 30
0.000000
  70
    32
  0
VERTEX
  8
0
  5
393
 10
-36.0349
 20
-3.11609
 30
0.000000
  70
    32
  0
VERTEX
  8
0
  5
394
 10
-36.0314
 20
-3.21287
 30
0.000000
  70
    32
  0
VERTEX
  8
0
  5
395
 10
-36.0226
 20
-3.31197
 30
0.000000
  70
    32
  0
VERTEX
  8
0
  5
396
 10
-36.0085
 20
-3.41316
 30
0.000000
  70
    32
  0
VERTEX
  8
0
  5
397
 10
-35.9891
 20
-3.51618
 30
0.000000
  70
    32
  0
VERTEX
  8
0
  5
398
 10
-35.9645
 20
-3.62078
 30
0.000000
  70
    32
  0
VERTEX
  8
0
  5
399
 10
-35.9347
 20
-3.72673
 30
0.000000
  70
    32
  0
VERTEX
  8
0
  5
39A
 10
-35.8998
 20
-3.83375
 30
0.000000
  70
    32
  0
VERTEX
  8
0
  5
39B
 10
-35.8599
 20
-3.94160
 30
0.000000
  70
    32
  0
VERTEX
  8
0
  5
39C
 10
-35.8151
 20
-4.05000
 30
0.000000
  70
    32
  0
VERTEX
  8
0
  5
39D
 10
-35.7654
 20
-4.15872
 30
0.000000
  70
    32
  0
VERTEX
  8
0
  5
39E
 10
-35.7111
 20
-4.26747
 30
0.000000
  70
    32
  0
VERTEX
  8
0
  5
39F
 10
-35.6522
 20
-4.37599
 30
0.000000
  70
    32
  0
VERTEX
  8
0
  5
3A0
 10
-35.5889
 20
-4.48404
 30
0.000000
  70
    32
  0
VERTEX
  8
0
  5
3A1
 10
-35.5214
 20
-4.59134
 30
0.000000
  70
    32
  0
VERTEX
  8
0
  5
3A2
 10
-35.4497
 20
-4.69764
 30
0.000000
  70
    32
  0
VERTEX
  8
0
  5
3A3
 10
-35.3741
 20
-4.80268
 30
0.000000
  70
    32
  0
VERTEX
  8
0
  5
3A4
 10
-35.2948
 20
-4.90621
 30
0.000000
  70
    32
  0
VERTEX
  8
0
  5
3A5
 10
-35.2119
 20
-5.00798
 30
0.000000
  70
    32
  0
VERTEX
  8
0
  5
3A6
 10
-35.1257
 20
-5.10774
 30
0.000000
  70
    32
  0
VERTEX
  8
0
  5
3A7
 10
-35.0363
 20
-5.20526
 30
0.000000
  70
    32
  0
VERTEX
  8
0
  5
3A8
 10
-34.9440
 20
-5.30029
 30
0.000000
  70
    32
  0
VERTEX
  8
0
  5
3A9
 10
-34.8489
 20
-5.39261
 30
0.000000
  70
    32
  0
VERTEX
  8
0
  5
3AA
 10
-34.7514
 20
-5.48201
 30
0.000000
  70
    32
  0
VERTEX
  8
0
  5
3AB
 10
-34.6516
 20
-5.56825
 30
0.000000
  70
    32
  0
VERTEX
  8
0
  5
3AC
 10
-34.5499
 20
-5.65114
 30
0.000000
  70
    32
  0
VERTEX
  8
0
  5
3AD
 10
-34.4464
 20
-5.73047
 30
0.000000
  70
    32
  0
VERTEX
  8
0
  5
3AE
 10
-34.3413
 20
-5.80606
 30
0.000000
  70
    32
  0
VERTEX
  8
0
  5
3AF
 10
-34.2350
 20
-5.87771
 30
0.000000
  70
    32
  0
VERTEX
  8
0
  5
3B0
 10
-34.1277
 20
-5.94527
 30
0.000000
  70
    32
  0
VERTEX
  8
0
  5
3B1
 10
-34.0197
 20
-6.00856
 30
0.000000
  70
    32
  0
VERTEX
  8
0
  5
3B2
 10
-33.9111
 20
-6.06744
 30
0.000000
  70
    32
  0
VERTEX
  8
0
  5
3B3
 10
-33.8024
 20
-6.12175
 30
0.000000
  70
    32
  0
VERTEX
  8
0
  5
3B4
 10
-33.6937
 20
-6.17138
 30
0.000000
  70
    32
  0
VERTEX
  8
0
  5
3B5
 10
-33.5853
 20
-6.21620
 30
0.000000
  70
    32
  0
VERTEX
  8
0
  5
3B6
 10
-33.4774
 20
-6.25610
 30
0.000000
  70
    32
  0
VERTEX
  8
0
  5
3B7
 10
-33.3704
 20
-6.29099
 30
0.000000
  70
    32
  0
VERTEX
  8
0
  5
3B8
 10
-33.2645
 20
-6.32078
 30
0.000000
  70
    32
  0
VERTEX
  8
0
  5
3B9
 10
-33.1598
 20
-6.34541
 30
0.000000
  70
    32
  0
VERTEX
  8
0
  5
3BA
 10
-33.0568
 20
-6.36480
 30
0.000000
  70
    32
  0
VERTEX
  8
0
  5
3BB
 10
-32.9556
 20
-6.37892
 30
0.000000
  70
    32
  0
VERTEX
  8
0
  5
3BC
 10
-32.8565
 20
-6.38774
 30
0.000000
  70
    32
  0
VERTEX
  8
0
  5
3BD
 10
-32.7598
 20
-6.39122
 30
0.000000
  70
    32
  0
VERTEX
  8
0
  5
3BE
 10
-32.6655
 20
-6.38936
 30
0.000000
  70
    32
  0
VERTEX
  8
0
  5
3BF
 10
-32.5741
 20
-6.38217
 30
0.000000
  70
    32
  0
VERTEX
  8
0
  5
3C0
 10
-32.4856
 20
-6.36966
 30
0.000000
  70
    32
  0
VERTEX
  8
0
  5
3C1
 10
-32.4004
 20
-6.35187
 30
0.000000
  70
    32
  0
VERTEX
  8
0
  5
3C2
 10
-32.3185
 20
-6.32883
 30
0.000000
  70
    32
  0
VERTEX
  8
0
  5
3C3
 10
-32.2403
 20
-6.30061
 30
0.000000
  70
    32
  0
VERTEX
  8
0
  5
3C4
 10
-32.1659
 20
-6.26727
 30
0.000000
  70
    32
  0
VERTEX
  8
0
  5
3C5
 10
-32.0955
 20
-6.22888
 30
0.000000
  70
    32
  0
VERTEX
  8
0
  5
3C6
 10
-32.0292
 20
-6.18555
 30
0.000000
  70
    32
  0
VERTEX
  8
0
  5
3C7
 10
-31.9673
 20
-6.13737
 30
0.000000
  70
    32
  0
VERTEX
  8
0
  5
3C8
 10
-31.9098
 20
-6.08447
 30
0.000000
  70
    32
  0
VERTEX
  8
0
  5
3C9
 10
-31.8569
 20
-6.02697
 30
0.000000
  70
    32
  0
VERTEX
  8
0
  5
3CA
 10
-31.8087
 20
-5.96501
 30
0.000000
  70
    32
  0
VERTEX
  8
0
  5
3CB
 10
-31.7654
 20
-5.89873
 30
0.000000
  70
    32
  0
VERTEX
  8
0
  5
3CC
 10
-31.7270
 20
-5.82831
 30
0.000000
  70
    32
  0
VERTEX
  8
0
  5
3CD
 10
-31.6936
 20
-5.75390
 30
0.000000
  70
    32
  0
VERTEX
  8
0
  5
3CE
 10
-31.6654
 20
-5.67569
 30
0.000000
  70
    32
  0
VERTEX
  8
0
  5
3CF
 10
-31.6424
 20
-5.59386
 30
0.000000
  70
    32
  0
VERTEX
  8
0
  5
3D0
 10
-31.6246
 20
-5.50862
 30
0.000000
  70
    32
  0
VERTEX
  8
0
  5
3D1
 10
-31.6121
 20
-5.42017
 30
0.000000
  70
    32
  0
VERTEX
  8
0
  5
3D2
 10
-31.6049
 20
-5.32871
 30
0.000000
  70
    32
  0
VERTEX
  8
0
  5
3D3
 10
-31.6030
 20
-5.23448
 30
0.000000
  70
    32
  0
VERTEX
  8
0
  5
3D4
 10
-31.6065
 20
-5.13770
 30
0.000000
  70
    32
  0
VERTEX
  8
0
  5
3D5
 10
-31.6153
 20
-5.03859
 30
0.000000
  70
    32
  0
VERTEX
  8
0
  5
3D6
 10
-31.6294
 20
-4.93741
 30
0.000000
  70
    32
  0
VERTEX
  8
0
  5
3D7
 10
-31.6488
 20
-4.83439
 30
0.000000
  70
    32
  0
VERTEX
  8
0
  5
3D8
 10
-31.6735
 20
-4.72978
 30
0.000000
  70
    32
  0
VERTEX
  8
0
  5
3D9
 10
-31.7032
 20
-4.62384
 30
0.000000
  70
    32
  0
VERTEX
  8
0
  5
3DA
 10
-31.7381
 20
-4.51682
 30
0.000000
  70
    32
  0
VERTEX
  8
0
  5
3DB
 10
-31.7780
 20
-4.40897
 30
0.000000
  70
    32
  0
VERTEX
  8
0
  5
3DC
 10
-31.8229
 20
-4.30056
 30
0.000000
  70
    32
  0
VERTEX
  8
0
  5
3DD
 10
-31.8725
 20
-4.19185
 30
0.000000
  70
    32
  0
VERTEX
  8
0
  5
3DE
 10
-31.9268
 20
-4.08310
 30
0.000000
  70
    32
  0
VERTEX
  8
0
  5
3DF
 10
-31.9857
 20
-3.97457
 30
0.000000
  70
    32
  0
VERTEX
  8
0
  5
3E0
 10
-32.0490
 20
-3.86653
 30
0.000000
  70
    32
  0
VERTEX
  8
0
  5
3E1
 10
-32.1165
 20
-3.75923
 30
0.000000
  70
    32
  0
VERTEX
  8
0
  5
3E2
 10
-32.1882
 20
-3.65293
 30
0.000000
  70
    32
  0
VERTEX
  8
0
  5
3E3
 10
-32.2638
 20
-3.54789
 30
0.000000
  70
    32
  0
VERTEX
  8
0
  5
3E4
 10
-32.3431
 20
-3.44436
 30
0.000000
  70
    32
  0
VERTEX
  8
0
  5
3E5
 10
-32.4260
 20
-3.34259
 30
0.000000
  70
    32
  0
VERTEX
  8
0
  5
3E6
 10
-32.5122
 20
-3.24283
 30
0.000000
  70
    32
  0
VERTEX
  8
0
  5
3E7
 10
-32.6016
 20
-3.14531
 30
0.000000
  70
    32
  0
VERTEX
  8
0
  5
3E8
 10
-32.6939
 20
-3.05028
 30
0.000000
  70
    32
  0
VERTEX
  8
0
  5
3E9
 10
-32.7890
 20
-2.95795
 30
0.000000
  70
    32
  0
VERTEX
  8
0
  5
3EA
 10
-32.8865
 20
-2.86856
 30
0.000000
  70
    32
  0
VERTEX
  8
0
  5
3EB
 10
-32.9863
 20
-2.78232
 30
0.000000
  70
    32
  0
VERTEX
  8
0
  5
3EC
 10
-33.0880
 20
-2.69943
 30
0.000000
  70
    32
  0
VERTEX
  8
0
  5
3ED
 10
-33.1916
 20
-2.62010
 30
0.000000
  70
    32
  0
VERTEX
  8
0
  5
3EE
 10
-33.2966
 20
-2.54451
 30
0.000000
  70
    32
  0
VERTEX
  8
0
  5
3EF
 10
-33.4029
 20
-2.47285
 30
0.000000
  70
    32
  0
VERTEX
  8
0
  5
3F0
 10
-33.5102
 20
-2.40530
 30
0.000000
  70
    32
  0
VERTEX
  8
0
  5
3F1
 10
-33.6182
 20
-2.34201
 30
0.000000
  70
    32
  0
VERTEX
  8
0
  5
3F2
 10
-33.7268
 20
-2.28313
 30
0.000000
  70
    32
  0
VERTEX
  8
0
  5
3F3
 10
-33.8355
 20
-2.22881
 30
0.000000
  70
    32
  0
VERTEX
  8
0
  5
3F4
 10
-33.9442
 20
-2.17919
 30
0.000000
  70
    32
  0
VERTEX
  8
0
  5
3F5
 10
-34.0526
 20
-2.13437
 30
0.000000
  70
    32
  0
VERTEX
  8
0
  5
3F6
 10
-34.1605
 20
-2.09447
 30
0.000000
  70
    32
  0
VERTEX
  8
0
  5
3F7
 10
-34.2675
 20
-2.05958
 30
0.000000
  70
    32
  0
VERTEX
  8
0
  5
3F8
 10
-34.3735
 20
-2.02978
 30
0.000000
  70
    32
  0
VERTEX
  8
0
  5
3F9
 10
-34.4781
 20
-2.00516
 30
0.000000
  70
    32
  0
VERTEX
  8
0
  5
3FA
 10
-34.5811
 20
-1.98576
 30
0.000000
  70
    32
  0
VERTEX
  8
0
  5
3FB
 10
-34.6823
 20
-1.97164
 30
0.000000
  70
    32
  0
VERTEX
  8
0
  5
3FC
 10
-34.7814
 20
-1.96283
 30
0.000000
  70
    32
  0
VERTEX
  8
0
  5
3FD
 10
-34.8781
 20
-1.95935
 30
0.000000
  70
    32
  0
VERTEX
  8
0
  5
3FE
 10
-34.9724
 20
-1.96121
 30
0.000000
  70
    32
  0
VERTEX
  8
0
  5
3FF
 10
-35.0638
 20
-1.96840
 30
0.000000
  70
    32
  0
VERTEX
  8
0
  5
400
 10
-35.1523
 20
-1.98090
 30
0.000000
  70
    32
  0
VERTEX
  8
0
  5
401
 10
-35.2375
 20
-1.99870
 30
0.000000
  70
    32
  0
VERTEX
  8
0
  5
402
 10
-35.3194
 20
-2.02173
 30
0.000000
  70
    32
  0
VERTEX
  8
0
  5
403
 10
-35.3976
 20
-2.04996
 30
0.000000
  70
    32
  0
VERTEX
  8
0
  5
404
 10
-35.4720
 20
-2.08330
 30
0.000000
  70
    32
  0
VERTEX
  8
0
  5
405
 10
-35.5424
 20
-2.12169
 30
0.000000
  70
    32
  0
VERTEX
  8
0
  5
406
 10
-35.6087
 20
-2.16502
 30
0.000000
  70
    32
  0
VERTEX
  8
0
  5
407
 10
-35.6706
 20
-2.21319
 30
0.000000
  70
    32
  0
VERTEX
  8
0
  5
408
 10
-35.7281
 20
-2.26610
 30
0.000000
  70
    32
  0
SEQEND
  8
0
  5
409
  0
LINE
  5
FB
  8
0
 10
40.0
 20
0.0
 30
0.0
 11
9.0
 21
0.0
 31
0.0
  0
LINE
  5
FC
  8
0
 10
-40.0
 20
-10.0
 30
0.0
 11
40.0
 21
-10.0
 31
0.0
  0
LINE
  5
FD
  8
0
 10
-9.0
 20
0.0
 30
0.0
 11
-40.0
 21
0.0
 31
0.0
  0
LINE
  5
FE
  8
0
 10
-15.85786437626893
 20
-10.0
 30
0.0
 11
-30.0
 21
0.0
 31
0.0
  0
LINE
  5
FF
  8
0
 10
-16.25
 20
-10.0
 30
0.0
 11
16.25
 21
-10.0
 31
0.0
  0
LINE
  5
100
  8
0
 10
16.25
 20
-10.0
 30
0.0
 11
-16.25
 21
-10.0
 31
0.0
  0
LINE
  5
101
  8
0
 10
-16.249999999999769
 20
-10.0
 30
0.0
 11
16.250000000000231
 21
-10.0
 31
0.0
  0
LINE
  5
102
  8
0
 10
-9.9999999999997726
 20
-16.25
 30
0.0
 11
-16.249999999999769
 21
-10.0
 31
0.0
  0
LINE
  5
103
  8
0
 10
16.250000000000231
 20
-10.0
 30
0.0
 11
-16.249999999999769
 21
-10.0
 31
0.0
  0
LINE
  5
104
  8
0
 10
-40.0
 20
0.0
 30
0.0
 11
-40.0
 21
-10.0
 31
0.0
  0
LINE
  5
105
  8
0
  6
HIDDEN
 62
     8
 10
10.000000000000229
 20
-33.971550721219963
 30
0.0
 11
10.000000000000229
 21
-66.999999999999886
 31
0.0
  0
LINE
  5
106
  8
0
  6
HIDDEN
 62
     8
 10
-9.9999999999993179
 20
-33.948322261279827
 30
0.0
 11
-9.9999999999993179
 21
-66.999999999999886
 31
0.0
  0
LINE
  5
107
  8
0
  6
HIDDEN
 62
     8
 10
7.0000000000002274
 20
-69.999999999999886
 30
0.0
 11
10.000000000000229
 21
-66.999999999999886
 31
0.0
  0
LINE
  5
108
  8
0
  6
HIDDEN
 62
     8
 10
-6.999999999999317
 20
-69.999999999999886
 30
0.0
 11
7.0000000000002274
 21
-69.999999999999886
 31
0.0
  0
LINE
  5
109
  8
0
  6
HIDDEN
 62
     8
 10
-9.9999999999993179
 20
-66.999999999999886
 30
0.0
 11
-6.999999999999317
 21
-69.999999999999886
 31
0.0
  0
CIRCLE
  5
10A
  8
0
 10
0.0000000000002274
 20
-53.959949980279021
 30
0.0
 40
2.5
  0
LINE
  5
10B
  8
0
 10
-10.000000000000229
 20
-10.0
 30
0.0
 11
10.000000000000229
 21
-10.0
 31
0.0
  0
LINE
  5
10C
  8
0
 10
10.000000000000229
 20
-10.0
 30
0.0
 11
-10.000000000000229
 21
-10.0
 31
0.0
  0
LINE
  5
10D
  8
0
 10
9.0
 20
0.0
 30
0.0
 11
-9.0
 21
0.0
 31
0.0
  0
LINE
  5
10E
  8
0
 10
-10.000000000000229
 20
-10.0
 30
0.0
 11
10.000000000000229
 21
-10.0
 31
0.0
  0
LINE
  5
10F
  8
0
 10
10.000000000000229
 20
-10.0
 30
0.0
 11
-10.000000000000229
 21
-10.0
 31
0.0
  0
LINE
  5
110
  8
0
 62
     8
 10
-10.000000000000449
 20
-17.40242445167064
 30
0.0
 11
9.9999999999995453
 21
-19.30287694035837
 31
0.0
  0
LINE
  5
111
  8
0
 10
10.00000000000068
 20
-16.25
 30
0.0
 11
-9.9999999999997726
 21
-16.25
 31
0.0
  0
LINE
  5
112
  8
0
 62
     8
 10
-6.2710743164086571
 20
-16.25
 30
0.0
 11
9.9999999999995453
 21
-17.796120183911849
 31
0.0
  0
LINE
  5
113
  8
0
 62
     8
 10
-10.000000000000449
 20
-20.415937964563909
 30
0.0
 11
9.9999999999995453
 21
-22.316390453251639
 31
0.0
  0
LINE
  5
114
  8
0
 62
     8
 10
-10.000000000000449
 20
-30.96323525969024
 30
0.0
 11
9.9999999999995453
 21
-32.86368774837797
 31
0.0
  0
LINE
  5
115
  8
0
 62
     8
 10
-10.000000000000449
 20
-21.92269472101043
 30
0.0
 11
9.9999999999995453
 21
-23.823147209698391
 31
0.0
  0
LINE
  5
116
  8
0
 62
     8
 10
-10.000000000000449
 20
-23.429451477457182
 30
0.0
 11
9.9999999999995453
 21
-25.329903966144911
 31
0.0
  0
LINE
  5
117
  8
0
 62
     8
 10
-10.000000000000449
 20
-26.44296499035045
 30
0.0
 11
9.9999999999995453
 21
-28.34341747903818
 31
0.0
  0
LINE
  5
118
  8
0
 62
     8
 10
-10.000000000000449
 20
-24.936208233903699
 30
0.0
 11
9.9999999999995453
 21
-26.83666072259166
 31
0.0
  0
LINE
  5
119
  8
0
 62
     8
 10
-10.000000000000449
 20
-27.949721746796971
 30
0.0
 11
9.9999999999995453
 21
-29.850174235484701
 31
0.0
  0
LINE
  5
11A
  8
0
 62
     8
 10
-10.000000000000449
 20
-29.456478503243719
 30
0.0
 11
9.9999999999995453
 21
-31.356930991931218
 31
0.0
  0
LINE
  5
11B
  8
0
 10
-12.96987298249973
 20
-33.944872982499881
 30
0.0
 11
12.969872982500419
 21
-33.974999999999909
 31
0.0
  0
POLYLINE
  5
11C
  8
0
 66
     1
 10
0.0
 20
0.0
 30
0.0
  0
VERTEX
  5
1E4
  8
0
 10
7.806010479377619
 20
-35.239900000000027
 30
0.0
 42
0.3087600251391162
  0
VERTEX
  5
1E5
  8
0
 10
7.579785018238681
 20
-34.90847956270477
 30
0.0
 42
0.0531135643178668
  0
VERTEX
  5
1E6
  8
0
 10
5.5196829439812509
 20
-34.34548063247712
 30
0.0
 42
0.0234107934291695
  0
VERTEX
  5
1E7
  8
0
 10
3.2246539901648239
 20
-34.083097635354761
 30
0.0
 42
0.0167564154642976
  0
VERTEX
  5
1E8
  8
0
 10
0.0000000000002274
 20
-33.974999999999909
 30
0.0
 42
0.0167564154642939
  0
VERTEX
  5
1E9
  8
0
 10
-3.2246539901634601
 20
-34.083097635354761
 30
0.0
 42
0.0234107934291787
  0
VERTEX
  5
1EA
  8
0
 10
-5.5196829439807971
 20
-34.34548063247712
 30
0.0
 42
0.0531135643178467
  0
VERTEX
  5
1EB
  8
0
 10
-7.5797850182389084
 20
-34.90847956270477
 30
0.0
 42
0.3087600251390752
  0
VERTEX
  5
1EC
  8
0
 10
-7.8060104793771643
 20
-35.239900000000027
 30
0.0
 42
0.3087600251390838
  0
SEQEND
  5
1ED
  8
0
  0
LINE
  5
11D
  8
0
 62
     8
 10
-10.000000000000449
 20
-18.909181208117161
 30
0.0
 11
9.9999999999995453
 21
-20.809633696805118
 31
0.0
  0
LINE
  5
11E
  8
0
 62
     8
 10
-10.000000000000449
 20
-32.469992016136992
 30
0.0
 11
5.7501739004362662
 21
-33.966614875454752
 31
0.0
  0
LINE
  5
11F
  8
0
 62
     8
 10
-8.1249999999993179
 20
-33.950499929399257
 30
0.0
 11
-8.1249999999997726
 21
-16.25
 31
0.0
  0
LINE
  5
120
  8
0
 10
-10.0
 20
-33.948322261279827
 30
0.0
 11
-9.9999999999997726
 21
-16.25
 31
0.0
  0
POLYLINE
  5
121
  8
0
 66
     1
 10
0.0
 20
0.0
 30
0.0
  0
VERTEX
  5
1EE
  8
0
 10
-7.8060104793771643
 20
-35.059199999999691
 30
0.0
 42
0.250327623522266
  0
VERTEX
  5
1EF
  8
0
 10
-7.9765869433870193
 20
-34.739843566181207
 30
0.0
 42
0.0799961714157395
  0
VERTEX
  5
1F0
  8
0
 10
-8.9518877623411282
 20
-34.292554827837421
 30
0.0
 42
0.0390332174113539
  0
VERTEX
  5
1F1
  8
0
 10
-10.110275730837881
 20
-34.066989563220211
 30
0.0
 42
0.0285802753297458
  0
VERTEX
  5
1F2
  8
0
 10
-11.71828023968896
 20
-33.974999999999909
 30
0.0
 42
0.0285802753297599
  0
VERTEX
  5
1F3
  8
0
 10
-13.32628474853936
 20
-34.066989563220211
 30
0.0
 42
0.039033217411367
  0
VERTEX
  5
1F4
  8
0
 10
-14.48467271703589
 20
-34.292554827837421
 30
0.0
 42
0.0799961714157395
  0
VERTEX
  5
1F5
  8
0
 10
-15.45997353599023
 20
-34.739843566181207
 30
0.0
 42
0.2503276235222661
  0
VERTEX
  5
1F6
  8
0
 10
-15.630550000000079
 20
-35.059199999999691
 30
0.0
 42
0.2503276235223326
  0
SEQEND
  5
1F7
  8
0
  0
LINE
  5
122
  8
0
 10
15.857864376269159
 20
-10.0
 30
0.0
 11
30.0
 21
0.0
 31
0.0
  0
LINE
  5
123
  8
0
 10
10.000000000000229
 20
-16.25
 30
0.0
 11
10.0
 21
-33.971550721219963
 31
0.0
  0
LINE
  5
124
  8
0
 62
     8
 10
8.1250000000002274
 20
-16.25
 30
0.0
 11
8.125
 21
-33.969373053100533
 31
0.0
  0
POLYLINE
  5
125
  8
0
 66
     1
 10
0.0
 20
0.0
 30
0.0
  0
VERTEX
  5
1F8
  8
0
 10
15.630549999999859
 20
-35.059199999999919
 30
0.0
 42
0.2534364434840665
  0
VERTEX
  5
1F9
  8
0
 10
15.4629231213944
 20
-34.749733459080971
 30
0.0
 42
0.0786828100544145
  0
VERTEX
  5
1FA
  8
0
 10
14.48467271703589
 20
-34.31180210493585
 30
0.0
 42
0.0381250023077343
  0
VERTEX
  5
1FB
  8
0
 10
13.32688792986391
 20
-34.091948002079327
 30
0.0
 42
0.0278683718914965
  0
VERTEX
  5
1FC
  8
0
 10
11.71828023968874
 20
-34.002219760311156
 30
0.0
 42
0.027868371891505
  0
VERTEX
  5
1FD
  8
0
 10
10.109672549514469
 20
-34.091948002079327
 30
0.0
 42
0.0381250023077727
  0
VERTEX
  5
1FE
  8
0
 10
8.9518877623415847
 20
-34.31180210493585
 30
0.0
 42
0.0786828100544049
  0
VERTEX
  5
1FF
  8
0
 10
7.9736373579833071
 20
-34.749733459080971
 30
0.0
 42
0.2534364434840056
  0
VERTEX
  5
200
  8
0
 10
7.806010479377619
 20
-35.059199999999919
 30
0.0
 42
0.2534364434839675
  0
SEQEND
  5
201
  8
0
  0
LINE
  5
126
  8
0
 10
10.00000000000068
 20
-16.25
 30
0.0
 11
16.250000000000231
 21
-10.0
 31
0.0
  0
LINE
  5
127
  8
0
 10
40.0
 20
0.0
 30
0.0
 11
40.0
 21
-10.0
 31
0.0
  0
INSERT
  5
128
  8
0
  2
SIMPSON-STRONG-TIE
 10
0.6912622579802701
 20
-89.608145884695446
 30
0.0
  0
ENDSEC
  0
EOF
