  0
SECTION
  2
HEADER
  9
$ACADVER
  1
AC1009
  9
$INSBASE
 10
0.0
 20
0.0
 30
0.0
  9
$EXTMIN
 10
-35.0
 20
-146.0
 30
0.0
  9
$EXTMAX
 10
35.0
 20
110.0000000000001
 30
0.0
  9
$LIMMIN
 10
0.0
 20
0.0
  9
$LIMMAX
 10
420.0
 20
297.0
  9
$ORTHOMODE
 70
     0
  9
$REGENMODE
 70
     1
  9
$FILLMODE
 70
     1
  9
$QTEXTMODE
 70
     0
  9
$MIRRTEXT
 70
     1
  9
$DRAGMODE
 70
     2
  9
$LTSCALE
 40
1.0
  9
$OSMODE
 70
    47
  9
$ATTMODE
 70
     1
  9
$TEXTSIZE
 40
3.5
  9
$TRACEWID
 40
0.05
  9
$TEXTSTYLE
  7
SST
  9
$CLAYER
  8
0
  9
$CELTYPE
  6
BYLAYER
  9
$CECOLOR
 62
   256
  9
$DIMSCALE
 40
1.0
  9
$DIMASZ
 40
0.18
  9
$DIMEXO
 40
0.0625
  9
$DIMDLI
 40
0.38
  9
$DIMRND
 40
0.0
  9
$DIMDLE
 40
0.0
  9
$DIMEXE
 40
0.18
  9
$DIMTP
 40
0.0
  9
$DIMTM
 40
0.0
  9
$DIMTXT
 40
0.18
  9
$DIMCEN
 40
0.09
  9
$DIMTSZ
 40
0.0
  9
$DIMTOL
 70
     0
  9
$DIMLIM
 70
     0
  9
$DIMTIH
 70
     1
  9
$DIMTOH
 70
     1
  9
$DIMSE1
 70
     0
  9
$DIMSE2
 70
     0
  9
$DIMTAD
 70
     0
  9
$DIMZIN
 70
     0
  9
$DIMBLK
  1

  9
$DIMASO
 70
     1
  9
$DIMSHO
 70
     1
  9
$DIMPOST
  1

  9
$DIMAPOST
  1

  9
$DIMALT
 70
     0
  9
$DIMALTD
 70
     2
  9
$DIMALTF
 40
25.399999999999999
  9
$DIMLFAC
 40
1.0
  9
$DIMTOFL
 70
     0
  9
$DIMTVP
 40
0.0
  9
$DIMTIX
 70
     0
  9
$DIMSOXD
 70
     0
  9
$DIMSAH
 70
     0
  9
$DIMBLK1
  1

  9
$DIMBLK2
  1

  9
$DIMSTYLE
  2
STANDARD
  9
$DIMCLRD
 70
     0
  9
$DIMCLRE
 70
     0
  9
$DIMCLRT
 70
     0
  9
$DIMTFAC
 40
1.0
  9
$DIMGAP
 40
0.09
  9
$LUNITS
 70
     2
  9
$LUPREC
 70
     4
  9
$SKETCHINC
 40
0.1
  9
$FILLETRAD
 40
10.0
  9
$AUNITS
 70
     0
  9
$AUPREC
 70
     2
  9
$MENU
  1
acad
  9
$ELEVATION
 40
0.0
  9
$PELEVATION
 40
0.0
  9
$THICKNESS
 40
0.0
  9
$LIMCHECK
 70
     0
  9
$BLIPMODE
 70
     0
  9
$CHAMFERA
 40
10.0
  9
$CHAMFERB
 40
10.0
  9
$SKPOLY
 70
     0
  9
$TDCREATE
 40
2449450.4197234958
  9
$TDUPDATE
 40
2453443.5681329509
  9
$TDINDWG
 40
1.3729180324000001
  9
$TDUSRTIMER
 40
1.3729180324000001
  9
$USRTIMER
 70
     1
  9
$ANGBASE
 50
0.0
  9
$ANGDIR
 70
     0
  9
$PDMODE
 70
     0
  9
$PDSIZE
 40
0.0
  9
$PLINEWID
 40
0.0
  9
$COORDS
 70
     1
  9
$SPLFRAME
 70
     0
  9
$SPLINETYPE
 70
     6
  9
$SPLINESEGS
 70
     8
  9
$ATTDIA
 70
     0
  9
$ATTREQ
 70
     1
  9
$HANDLING
 70
     1
  9
$HANDSEED
  5
D6
  9
$SURFTAB1
 70
     6
  9
$SURFTAB2
 70
     6
  9
$SURFTYPE
 70
     6
  9
$SURFU
 70
     6
  9
$SURFV
 70
     6
  9
$UCSNAME
  2

  9
$UCSORG
 10
0.0
 20
0.0
 30
0.0
  9
$UCSXDIR
 10
1.0
 20
0.0
 30
0.0
  9
$UCSYDIR
 10
0.0
 20
1.0
 30
0.0
  9
$PUCSNAME
  2

  9
$PUCSORG
 10
0.0
 20
0.0
 30
0.0
  9
$PUCSXDIR
 10
1.0
 20
0.0
 30
0.0
  9
$PUCSYDIR
 10
0.0
 20
1.0
 30
0.0
  9
$USERI1
 70
     0
  9
$USERI2
 70
     0
  9
$USERI3
 70
     0
  9
$USERI4
 70
     0
  9
$USERI5
 70
     0
  9
$USERR1
 40
0.0
  9
$USERR2
 40
0.0
  9
$USERR3
 40
0.0
  9
$USERR4
 40
0.0
  9
$USERR5
 40
0.0
  9
$WORLDVIEW
 70
     1
  9
$SHADEDGE
 70
     3
  9
$SHADEDIF
 70
    70
  9
$TILEMODE
 70
     1
  9
$MAXACTVP
 70
    16
  9
$PLIMCHECK
 70
     0
  9
$PEXTMIN
 10
1.0000000000000000E+020
 20
1.0000000000000000E+020
 30
1.0000000000000000E+020
  9
$PEXTMAX
 10
-1.0000000000000000E+020
 20
-1.0000000000000000E+020
 30
-1.0000000000000000E+020
  9
$PLIMMIN
 10
0.0
 20
0.0
  9
$PLIMMAX
 10
420.0
 20
297.0
  9
$UNITMODE
 70
     0
  9
$VISRETAIN
 70
     0
  9
$PLINEGEN
 70
     0
  9
$PSLTSCALE
 70
     1
  0
ENDSEC
  0
SECTION
  2
TABLES
  0
TABLE
  2
VPORT
 70
     2
  0
VPORT
  2
*ACTIVE
 70
     0
 10
0.0
 20
0.0
 11
1.0
 21
1.0
 12
11.425006638565719
 22
-27.437775463191201
 13
0.0
 23
0.0
 14
0.1
 24
0.1
 15
10.0
 25
10.0
 16
0.0
 26
0.0
 36
1.0
 17
0.0
 27
0.0
 37
0.0
 40
322.5379752638982
 41
1.4993646759847521
 42
50.0
 43
0.0
 44
0.0
 50
0.0
 51
0.0
 71
     0
 72
   100
 73
     1
 74
     1
 75
     1
 76
     0
 77
     0
 78
     0
  0
ENDTAB
  0
TABLE
  2
LTYPE
 70
     2
  0
LTYPE
  2
CONTINUOUS
 70
     0
  3
Solid line
 72
    65
 73
     0
 40
0.0
  0
LTYPE
  2
HIDDEN
 70
     0
  3
__ __ __ __ __ __ __ __ __ __ __ __ __ __ __ __
 72
    65
 73
     2
 40
0.375
 49
0.25
 49
-0.125
  0
ENDTAB
  0
TABLE
  2
LAYER
 70
     1
  0
LAYER
  2
0
 70
     0
 62
     7
  6
CONTINUOUS
  0
ENDTAB
  0
TABLE
  2
STYLE
 70
     2
  0
STYLE
  2
STANDARD
 70
     0
 40
0.0
 41
1.0
 50
0.0
 71
     0
 42
3.0
  3
txt
  4

  0
STYLE
  2
SST
 70
     0
 40
0.0
 41
1.0
 50
0.0
 71
     0
 42
3.5
  3
romans.shx
  4

  0
ENDTAB
  0
TABLE
  2
VIEW
 70
     0
  0
ENDTAB
  0
TABLE
  2
UCS
 70
     0
  0
ENDTAB
  0
TABLE
  2
APPID
 70
     1
  0
APPID
  2
ACAD
 70
     0
  0
ENDTAB
  0
TABLE
  2
DIMSTYLE
 70
     1
  0
DIMSTYLE
  2
STANDARD
 70
     0
  3

  4

  5

  6

  7

 40
1.0
 41
0.18
 42
0.0625
 43
0.38
 44
0.18
 45
0.0
 46
0.0
 47
0.0
 48
0.0
140
0.18
141
0.09
142
0.0
143
25.399999999999999
144
1.0
145
0.0
146
1.0
147
0.09
 71
     0
 72
     0
 73
     1
 74
     1
 75
     0
 76
     0
 77
     0
 78
     0
170
     0
171
     2
172
     0
173
     0
174
     0
175
     0
176
     0
177
     0
178
     0
  0
ENDTAB
  0
ENDSEC
  0
SECTION
  2
BLOCKS
  0
BLOCK
  8
0
  2
$MODEL_SPACE
 70
     0
 10
0.0
 20
0.0
 30
0.0
  3
$MODEL_SPACE
  1

  0
ENDBLK
  5
9
  8
0
  0
BLOCK
 67
     1
  8
0
  2
$PAPER_SPACE
 70
     0
 10
0.0
 20
0.0
 30
0.0
  3
$PAPER_SPACE
  1

  0
ENDBLK
  5
E
 67
     1
  8
0
  0
ENDSEC
  0
SECTION
  2
ENTITIES
  0
LINE
  5
29
  8
0
 62
     8
 10
4.0
 20
94.250000000000114
 30
0.0
 11
-1.0
 21
94.250000000000114
 31
0.0
  0
LINE
  5
2A
  8
0
 62
     8
 10
-4.0
 20
85.750000000000114
 30
0.0
 11
0.0
 21
85.750000000000114
 31
0.0
  0
LINE
  5
2B
  8
0
 62
     8
 10
-4.0
 20
45.750000000000107
 30
0.0
 11
0.0
 21
45.750000000000107
 31
0.0
  0
LINE
  5
2C
  8
0
 62
     8
 10
4.0
 20
54.250000000000107
 30
0.0
 11
-1.0
 21
54.250000000000107
 31
0.0
  0
LINE
  5
2D
  8
0
 10
-35.0
 20
-146.0
 30
0.0
 11
-35.0
 21
-138.0
 31
0.0
  0
LINE
  5
2E
  8
0
 10
-35.0
 20
-138.0
 30
0.0
 11
-18.5
 21
-138.0
 31
0.0
  0
LINE
  5
2F
  8
0
 10
35.0
 20
-138.0
 30
0.0
 11
35.0
 21
-146.0
 31
0.0
  0
LINE
  5
30
  8
0
 10
35.0
 20
-146.0
 30
0.0
 11
-35.0
 21
-146.0
 31
0.0
  0
LINE
  5
31
  8
0
 10
18.5
 20
-138.0
 30
0.0
 11
35.0
 21
-138.0
 31
0.0
  0
LINE
  5
32
  8
0
 10
-18.5
 20
-138.0
 30
0.0
 11
18.5
 21
-138.0
 31
0.0
  0
LINE
  5
33
  8
0
 10
9.9999999999998863
 20
-42.026677738719961
 30
0.0
 11
9.9999999999998863
 21
-14.0
 31
0.0
  0
LINE
  5
34
  8
0
 10
8.4664999999999662
 20
-42.024896696554087
 30
0.0
 11
8.4664999999999964
 21
-14.0
 31
0.0
  0
LINE
  5
35
  8
0
 10
-10.00000000000014
 20
-42.003449278780117
 30
0.0
 11
-10.00000000000011
 21
-14.0
 31
0.0
  0
LINE
  5
36
  8
0
 10
-8.4665000000001385
 20
-42.005230320945941
 30
0.0
 11
-8.46650000000011
 21
-14.0
 31
0.0
  0
LINE
  5
37
  8
0
 62
     8
 10
-10.00000000000011
 20
-40.155007983863122
 30
0.0
 11
9.9999999999998863
 21
-38.254555495175509
 31
0.0
  0
LINE
  5
38
  8
0
 62
     8
 10
-10.00000000000011
 20
-38.648251227416488
 30
0.0
 11
9.9999999999998863
 21
-36.747798738728882
 31
0.0
  0
LINE
  5
39
  8
0
 10
13.5
 20
-88.176809447023061
 30
0.0
 11
13.5
 21
-133.0
 31
0.0
  0
LINE
  5
3A
  8
0
 10
-13.49999999999994
 20
-88.176809447023061
 30
0.0
 11
-13.5
 21
-133.0
 31
0.0
  0
LINE
  5
3B
  8
0
  6
HIDDEN
 62
     8
 10
9.9999999999997442
 20
-98.999999999999943
 30
0.0
 11
9.9999999999997726
 21
-57.98838577003005
 31
0.0
  0
LINE
  5
3D
  8
0
  6
HIDDEN
 62
     8
 10
8.4664999999997406
 20
-99.0
 30
0.0
 11
8.4664999999997672
 21
-57.990166812195874
 31
0.0
  0
LINE
  5
3E
  8
0
  6
HIDDEN
 62
     8
 10
-10.00000000000025
 20
-99.0
 30
0.0
 11
-10.00000000000062
 21
-58.01161422996995
 31
0.0
  0
LINE
  5
3F
  8
0
  6
HIDDEN
 62
     8
 10
-8.4665000000003658
 20
-98.999999999999943
 30
0.0
 11
-8.4665000000002806
 21
-58.00983318780402
 31
0.0
  0
LINE
  5
40
  8
0
 10
-18.5
 20
-138.0
 30
0.0
 11
18.5
 21
-138.0
 31
0.0
  0
LINE
  5
41
  8
0
 10
-13.5
 20
-133.0
 30
0.0
 11
-18.5
 21
-138.0
 31
0.0
  0
LINE
  5
42
  8
0
 10
-13.5
 20
-133.0
 30
0.0
 11
13.5
 21
-133.0
 31
0.0
  0
LINE
  5
43
  8
0
 10
13.5
 20
-133.0
 30
0.0
 11
18.5
 21
-138.0
 31
0.0
  0
LINE
  5
44
  8
0
  6
HIDDEN
 62
     8
 10
9.9999999999997726
 20
-99.0
 30
0.0
 11
-10.000000000000339
 21
-99.0
 31
0.0
  0
LINE
  5
45
  8
0
  6
HIDDEN
 62
     8
 10
6.9999999999997717
 20
-102.0
 30
0.0
 11
-7.0000000000002274
 21
-102.0
 31
0.0
  0
LINE
  5
46
  8
0
  6
HIDDEN
 62
     8
 10
-7.0000000000002274
 20
-102.0
 30
0.0
 11
-10.000000000000229
 21
-99.0
 31
0.0
  0
LINE
  5
47
  8
0
  6
HIDDEN
 62
     8
 10
9.9999999999997726
 20
-99.0
 30
0.0
 11
6.9999999999997717
 21
-102.0
 31
0.0
  0
POLYLINE
  5
48
  8
0
 66
     1
 10
0.0
 20
0.0
 30
0.0
  0
VERTEX
  5
94
  8
0
 10
-8.6397459649998591
 20
-43.199999999999932
 30
0.0
 42
0.250327623522266
  0
VERTEX
  5
95
  8
0
 10
-8.8285411658958992
 20
-42.846534107560728
 30
0.0
 42
0.0799961714157395
  0
VERTEX
  5
96
  8
0
 10
-9.9080108050264926
 20
-42.351471862576084
 30
0.0
 42
0.0390332174113539
  0
VERTEX
  5
97
  8
0
 10
-11.1901225576513
 20
-42.101814679823399
 30
0.0
 42
0.0285802753297458
  0
VERTEX
  5
98
  8
0
 10
-12.969872982499851
 20
-42.0
 30
0.0
 42
0.0285802753297599
  0
VERTEX
  5
99
  8
0
 10
-14.74962340734862
 20
-42.101814679823399
 30
0.0
 42
0.039033217411367
  0
VERTEX
  5
9A
  8
0
 10
-16.031735159973209
 20
-42.351471862576084
 30
0.0
 42
0.0799961714157395
  0
VERTEX
  5
9B
  8
0
 10
-17.111204799103799
 20
-42.846534107560728
 30
0.0
 42
0.2503276235222661
  0
VERTEX
  5
9C
  8
0
 10
-17.299999999999841
 20
-43.199999999999932
 30
0.0
 42
0.2503276235223326
  0
SEQEND
  5
9D
  8
0
  0
POLYLINE
  5
49
  8
0
 66
     1
 10
0.0
 20
0.0
 30
0.0
  0
VERTEX
  5
9E
  8
0
 10
-17.299999999999951
 20
-56.799999999999962
 30
0.0
 42
0.2534364434840665
  0
VERTEX
  5
9F
  8
0
 10
-17.114469420469501
 20
-57.14251969111114
 30
0.0
 42
0.0786828100544145
  0
VERTEX
  5
A0
  8
0
 10
-16.031735159973319
 20
-57.627225119052703
 30
0.0
 42
0.0381250023077343
  0
VERTEX
  5
A1
  8
0
 10
-14.75029101257746
 20
-57.870561148777483
 30
0.0
 42
0.0278683718914965
  0
VERTEX
  5
A2
  8
0
 10
-12.969872982499959
 20
-57.969872982499957
 30
0.0
 42
0.027868371891505
  0
VERTEX
  5
A3
  8
0
 10
-11.18945495242337
 20
-57.870561148777483
 30
0.0
 42
0.0381250023077727
  0
VERTEX
  5
A4
  8
0
 10
-9.9080108050268336
 20
-57.627225119052703
 30
0.0
 42
0.0786828100544049
  0
VERTEX
  5
A5
  8
0
 10
-8.8252765445304249
 20
-57.14251969111114
 30
0.0
 42
0.2534364434840056
  0
VERTEX
  5
A6
  8
0
 10
-8.6397459649999746
 20
-56.799999999999962
 30
0.0
 42
0.2534364434839675
  0
SEQEND
  5
A7
  8
0
  0
LINE
  5
4A
  8
0
 10
-17.299999999999951
 20
-56.800000000000061
 30
0.0
 11
-17.299999999999809
 21
-43.200000000000038
 31
0.0
  0
LINE
  5
4B
  8
0
 10
12.50000000000005
 20
-57.98548221253759
 30
0.0
 11
12.50000000000005
 21
-81.737189318075707
 31
0.0
  0
LINE
  5
4C
  8
0
 10
-12.5
 20
-58.014517787462403
 30
0.0
 11
-12.5
 21
-81.737189318075934
 31
0.0
  0
ARC
  5
4D
  8
0
 10
-22.5
 20
-81.737189318075934
 30
0.0
 40
10.0
 50
345.7690384900406
 51
0.0
  0
LINE
  5
4E
  8
0
 10
-12.806873509190551
 20
-84.195501510041822
 30
0.0
 11
-13.19312649080927
 21
-85.718497255056846
 31
0.0
  0
ARC
  5
4F
  8
0
 10
-3.4999999999999432
 20
-88.176809447023061
 30
0.0
 40
10.0
 50
165.76903849003841
 51
180.0
  0
ARC
  5
50
  8
0
 10
22.50000000000006
 20
-81.737189318075707
 30
0.0
 40
10.0
 50
179.9999999999998
 51
194.23096150996091
  0
LINE
  5
51
  8
0
 10
12.806873509190661
 20
-84.195501510041822
 30
0.0
 11
13.19312649080933
 21
-85.718497255056846
 31
0.0
  0
ARC
  5
52
  8
0
 10
3.5
 20
-88.176809447023061
 30
0.0
 40
10.0
 50
0.0
 51
14.23096150996161
  0
LINE
  5
53
  8
0
 10
17.3000000000001
 20
-43.200000000000038
 30
0.0
 11
17.299999999999951
 21
-56.799999999999962
 31
0.0
  0
POLYLINE
  5
54
  8
0
 66
     1
 10
0.0
 20
0.0
 30
0.0
  0
VERTEX
  5
A8
  8
0
 10
-8.6397459649998325
 20
-43.399999999999977
 30
0.0
  0
VERTEX
  5
A9
  8
0
 10
-8.6397459649999746
 20
-56.799999999999962
 30
0.0
  0
SEQEND
  5
AA
  8
0
  0
POLYLINE
  5
55
  8
0
 66
     1
 10
0.0
 20
0.0
 30
0.0
  0
VERTEX
  5
AB
  8
0
 10
8.6397459650001167
 20
-43.399999999999977
 30
0.0
  0
VERTEX
  5
AC
  8
0
 10
8.6397459649999746
 20
-56.799999999999962
 30
0.0
  0
SEQEND
  5
AD
  8
0
  0
POLYLINE
  5
56
  8
0
 66
     1
 10
0.0
 20
0.0
 30
0.0
  0
VERTEX
  5
AE
  8
0
 10
8.6397459649999746
 20
-56.600000000000023
 30
0.0
 42
-0.3087600251391162
  0
VERTEX
  5
AF
  8
0
 10
8.3893580722067327
 20
-56.966818414272211
 30
0.0
 42
-0.0531135643178668
  0
VERTEX
  5
B0
  8
0
 10
6.1092229595806202
 20
-57.589949493661152
 30
0.0
 42
-0.0234107934291695
  0
VERTEX
  5
B1
  8
0
 10
3.569069164542952
 20
-57.880356795401212
 30
0.0
 42
-0.0167564154642976
  0
VERTEX
  5
B2
  8
0
 10
0.0
 20
-58.0
 30
0.0
 42
-0.0167564154642939
  0
VERTEX
  5
B3
  8
0
 10
-3.569069164542042
 20
-57.880356795401212
 30
0.0
 42
-0.0234107934291787
  0
VERTEX
  5
B4
  8
0
 10
-6.1092229595806202
 20
-57.589949493661152
 30
0.0
 42
-0.0531135643178467
  0
VERTEX
  5
B5
  8
0
 10
-8.3893580722067327
 20
-56.966818414272318
 30
0.0
 42
-0.3087600251390752
  0
VERTEX
  5
B6
  8
0
 10
-8.6397459649999746
 20
-56.600000000000023
 30
0.0
 42
-0.3087600251390838
  0
SEQEND
  5
B7
  8
0
  0
LINE
  5
57
  8
0
 10
12.96987298250002
 20
-57.984936491249982
 30
0.0
 11
-12.96987298250002
 21
-58.015063508750011
 31
0.0
  0
LINE
  5
58
  8
0
 10
-10.0
 20
-58.0
 30
0.0
 11
10.0
 21
-58.0
 31
0.0
  0
POLYLINE
  5
59
  8
0
 66
     1
 10
0.0
 20
0.0
 30
0.0
  0
VERTEX
  5
B8
  8
0
 10
17.299999999999951
 20
-56.799999999999962
 30
0.0
 42
-0.2534364434840665
  0
VERTEX
  5
B9
  8
0
 10
17.114469420469501
 20
-57.14251969111114
 30
0.0
 42
-0.0786828100544145
  0
VERTEX
  5
BA
  8
0
 10
16.031735159973319
 20
-57.627225119052703
 30
0.0
 42
-0.0381250023077343
  0
VERTEX
  5
BB
  8
0
 10
14.75029101257746
 20
-57.870561148777483
 30
0.0
 42
-0.0278683718914965
  0
VERTEX
  5
BC
  8
0
 10
12.969872982499959
 20
-57.969872982499957
 30
0.0
 42
-0.027868371891505
  0
VERTEX
  5
BD
  8
0
 10
11.18945495242337
 20
-57.870561148777483
 30
0.0
 42
-0.0381250023077727
  0
VERTEX
  5
BE
  8
0
 10
9.9080108050268336
 20
-57.627225119052703
 30
0.0
 42
-0.0786828100544049
  0
VERTEX
  5
BF
  8
0
 10
8.8252765445304249
 20
-57.14251969111114
 30
0.0
 42
-0.2534364434840056
  0
VERTEX
  5
C0
  8
0
 10
8.6397459649999746
 20
-56.799999999999962
 30
0.0
 42
-0.2534364434839675
  0
SEQEND
  5
C1
  8
0
  0
POLYLINE
  5
5A
  8
0
 66
     1
 10
0.0
 20
0.0
 30
0.0
  0
VERTEX
  5
C2
  8
0
 10
8.6397459650000883
 20
-43.399999999999977
 30
0.0
 42
0.3087600251391162
  0
VERTEX
  5
C3
  8
0
 10
8.3893580722068464
 20
-43.033181585727668
 30
0.0
 42
0.0531135643178668
  0
VERTEX
  5
C4
  8
0
 10
6.109222959580733
 20
-42.410050506338841
 30
0.0
 42
0.0234107934291695
  0
VERTEX
  5
C5
  8
0
 10
3.5690691645430661
 20
-42.119643204598788
 30
0.0
 42
0.0167564154642976
  0
VERTEX
  5
C6
  8
0
 10
0.0000000000001137
 20
-42.0
 30
0.0
 42
0.0167564154642939
  0
VERTEX
  5
C7
  8
0
 10
-3.5690691645419288
 20
-42.119643204598667
 30
0.0
 42
0.0234107934291787
  0
VERTEX
  5
C8
  8
0
 10
-6.1092229595805057
 20
-42.410050506338841
 30
0.0
 42
0.0531135643178467
  0
VERTEX
  5
C9
  8
0
 10
-8.3893580722066172
 20
-43.033181585727561
 30
0.0
 42
0.3087600251390752
  0
VERTEX
  5
CA
  8
0
 10
-8.6397459649998591
 20
-43.399999999999977
 30
0.0
 42
0.3087600251390838
  0
SEQEND
  5
CB
  8
0
  0
LINE
  5
5B
  8
0
 10
12.96987298250019
 20
-42.030127017500043
 30
0.0
 11
-12.969872982499851
 21
-42.0
 31
0.0
  0
POLYLINE
  5
5C
  8
0
 66
     1
 10
0.0
 20
0.0
 30
0.0
  0
VERTEX
  5
CC
  8
0
 10
17.300000000000072
 20
-43.200000000000038
 30
0.0
 42
0.2534364434840665
  0
VERTEX
  5
CD
  8
0
 10
17.114469420469611
 20
-42.857480308888853
 30
0.0
 42
0.0786828100544145
  0
VERTEX
  5
CE
  8
0
 10
16.031735159973429
 20
-42.372774880947297
 30
0.0
 42
0.0381250023077343
  0
VERTEX
  5
CF
  8
0
 10
14.750291012577581
 20
-42.129438851222517
 30
0.0
 42
0.0278683718914965
  0
VERTEX
  5
D0
  8
0
 10
12.96987298250008
 20
-42.030127017500043
 30
0.0
 42
0.027868371891505
  0
VERTEX
  5
D1
  8
0
 10
11.189454952423491
 20
-42.129438851222517
 30
0.0
 42
0.0381250023077727
  0
VERTEX
  5
D2
  8
0
 10
9.9080108050269473
 20
-42.372774880947297
 30
0.0
 42
0.0786828100544049
  0
VERTEX
  5
D3
  8
0
 10
8.8252765445305386
 20
-42.857480308888853
 30
0.0
 42
0.2534364434840056
  0
VERTEX
  5
D4
  8
0
 10
8.6397459650000883
 20
-43.200000000000038
 30
0.0
 42
0.2534364434839675
  0
SEQEND
  5
D5
  8
0
  0
LINE
  5
5D
  8
0
 62
     8
 10
-10.00000000000011
 20
-22.073926906504312
 30
0.0
 11
9.9999999999998863
 21
-20.173474417816688
 31
0.0
  0
LINE
  5
5E
  8
0
 62
     8
 10
-10.00000000000011
 20
-37.141494470969981
 30
0.0
 11
9.9999999999998863
 21
-35.241041982282347
 31
0.0
  0
LINE
  5
5F
  8
0
 62
     8
 10
-10.00000000000011
 20
-35.63473771452346
 30
0.0
 11
9.9999999999998863
 21
-33.73428522583572
 31
0.0
  0
LINE
  5
60
  8
0
 62
     8
 10
-10.00000000000011
 20
-34.127980958076819
 30
0.0
 11
9.9999999999998863
 21
-32.227528469389199
 31
0.0
  0
LINE
  5
61
  8
0
 62
     8
 10
-10.00000000000011
 20
-32.621224201630298
 30
0.0
 11
9.9999999999998295
 21
-30.720771712942678
 31
0.0
  0
LINE
  5
62
  8
0
 62
     8
 10
-10.00000000000011
 20
-29.607710688737139
 30
0.0
 11
9.9999999999998863
 21
-27.70725820004952
 31
0.0
  0
LINE
  5
63
  8
0
 62
     8
 10
-10.00000000000011
 20
-31.114467445183781
 30
0.0
 11
9.9999999999998863
 21
-29.21401495649604
 31
0.0
  0
LINE
  5
64
  8
0
 62
     8
 10
-10.00000000000011
 20
-28.100953932290619
 30
0.0
 11
9.9999999999998863
 21
-26.200501443603009
 31
0.0
  0
LINE
  5
65
  8
0
 62
     8
 10
-10.00000000000011
 20
-23.580683662950829
 30
0.0
 11
9.9999999999998863
 21
-21.680231174263209
 31
0.0
  0
LINE
  5
66
  8
0
 62
     8
 10
-10.00000000000011
 20
-25.08744041939747
 30
0.0
 11
9.9999999999998863
 21
-23.186987930709851
 31
0.0
  0
LINE
  5
67
  8
0
 62
     8
 10
-10.00000000000011
 20
-26.594197175843991
 30
0.0
 11
9.9999999999998863
 21
-24.693744687156371
 31
0.0
  0
LINE
  5
68
  8
0
 62
     8
 10
-10.00000000000011
 20
-15.90045248868773
 30
0.0
 11
9.9999999999998863
 21
-14.0
 31
0.0
  0
LINE
  5
69
  8
0
 62
     8
 10
-10.14189477104571
 20
-17.567139850702912
 30
0.0
 11
9.8581052289542868
 21
-15.66668736201518
 31
0.0
  0
LINE
  5
6A
  8
0
 62
     8
 10
-10.00000000000011
 20
-19.06041339361116
 30
0.0
 11
9.9999999999998863
 21
-17.15996090492353
 31
0.0
  0
LINE
  5
6B
  8
0
 62
     8
 10
-10.00000000000011
 20
-20.567170150057791
 30
0.0
 11
9.9999999999998863
 21
-18.666717661370171
 31
0.0
  0
LINE
  5
6C
  8
0
 10
10.00000000000011
 20
-14.00000000000011
 30
0.0
 11
-10.00000000000011
 21
-14.0
 31
0.0
  0
LINE
  5
6D
  8
0
 10
-14.000000000000229
 20
-10.0
 30
0.0
 11
14.00000000000011
 21
-10.0
 31
0.0
  0
LINE
  5
6E
  8
0
 62
     8
 10
-10.00000000000011
 20
-14.393695732241209
 30
0.0
 11
-5.8568211035573077
 21
-14.0
 31
0.0
  0
LINE
  5
6F
  8
0
 10
-10.00000000000011
 20
-14.0
 30
0.0
 11
-14.00000000000011
 21
-10.0
 31
0.0
  0
LINE
  5
70
  8
0
 10
-14.000000000000229
 20
-10.0
 30
0.0
 11
-15.00000000000011
 21
-10.0
 31
0.0
  0
LINE
  5
71
  8
0
 10
14.999999999999879
 20
-10.0
 30
0.0
 11
14.00000000000011
 21
-10.0
 31
0.0
  0
LINE
  5
72
  8
0
 10
10.00000000000011
 20
-14.0
 30
0.0
 11
14.00000000000011
 21
-10.0
 31
0.0
  0
LINE
  5
73
  8
0
 10
-4.0
 20
5.0
 30
0.0
 11
-4.0
 21
110.0000000000001
 31
0.0
  0
LINE
  5
74
  8
0
 10
-4.0
 20
110.0000000000001
 30
0.0
 11
4.0
 21
110.0000000000001
 31
0.0
  0
LINE
  5
75
  8
0
 10
4.0
 20
110.0000000000001
 30
0.0
 11
4.0
 21
5.0
 31
0.0
  0
LINE
  5
76
  8
0
 10
-30.00000000000006
 20
-10.0
 30
0.0
 11
-30.00000000000006
 21
0.0
 31
0.0
  0
LINE
  5
77
  8
0
 10
-30.00000000000006
 20
0.0
 30
0.0
 11
-9.0
 21
0.0
 31
0.0
  0
LINE
  5
78
  8
0
 10
30.0
 20
0.0
 30
0.0
 11
30.0
 21
-10.0
 31
0.0
  0
LINE
  5
79
  8
0
 10
30.0
 20
-10.0
 30
0.0
 11
-30.00000000000006
 21
-10.0
 31
0.0
  0
LINE
  5
7A
  8
0
 10
-4.0
 20
5.0
 30
0.0
 11
4.0
 21
5.0
 31
0.0
  0
LINE
  5
7B
  8
0
 10
4.0
 20
5.0
 30
0.0
 11
9.0
 21
0.0
 31
0.0
  0
LINE
  5
7C
  8
0
 10
-4.0
 20
5.0
 30
0.0
 11
-9.0
 21
0.0
 31
0.0
  0
LINE
  5
7D
  8
0
 10
9.0
 20
0.0
 30
0.0
 11
30.0
 21
0.0
 31
0.0
  0
LINE
  5
7E
  8
0
 10
-9.0
 20
0.0
 30
0.0
 11
9.0
 21
0.0
 31
0.0
  0
LINE
  5
7F
  8
0
 62
     8
 10
-10.00000000000011
 20
-41.661764740309764
 30
0.0
 11
9.9999999999998863
 21
-39.761312251622151
 31
0.0
  0
LINE
  5
80
  8
0
 62
     8
 10
2.1129464717891149
 20
-42.017517533373777
 30
0.0
 11
9.9999999999998863
 21
-41.268069008068778
 31
0.0
  0
ENDSEC
  0
EOF
