  0
SECTION
  2
HEADER
  9
$ACADVER
  1
AC1009
  9
$INSBASE
 10
0.0
 20
0.0
 30
0.0
  9
$EXTMIN
 10
-45.0
 20
-250.31468280951449
 30
0.0
  9
$EXTMAX
 10
45.0
 20
120.0000000000001
 30
0.0
  9
$LIMMIN
 10
0.0
 20
0.0
  9
$LIMMAX
 10
420.0
 20
297.0
  9
$ORTHOMODE
 70
     0
  9
$REGENMODE
 70
     1
  9
$FILLMODE
 70
     1
  9
$QTEXTMODE
 70
     0
  9
$MIRRTEXT
 70
     1
  9
$DRAGMODE
 70
     2
  9
$LTSCALE
 40
1.0
  9
$OSMODE
 70
    47
  9
$ATTMODE
 70
     1
  9
$TEXTSIZE
 40
3.5
  9
$TRACEWID
 40
0.05
  9
$TEXTSTYLE
  7
SST
  9
$CLAYER
  8
0
  9
$CELTYPE
  6
BYLAYER
  9
$CECOLOR
 62
   256
  9
$DIMSCALE
 40
1.0
  9
$DIMASZ
 40
0.18
  9
$DIMEXO
 40
0.0625
  9
$DIMDLI
 40
0.38
  9
$DIMRND
 40
0.0
  9
$DIMDLE
 40
0.0
  9
$DIMEXE
 40
0.18
  9
$DIMTP
 40
0.0
  9
$DIMTM
 40
0.0
  9
$DIMTXT
 40
0.18
  9
$DIMCEN
 40
0.09
  9
$DIMTSZ
 40
0.0
  9
$DIMTOL
 70
     0
  9
$DIMLIM
 70
     0
  9
$DIMTIH
 70
     1
  9
$DIMTOH
 70
     1
  9
$DIMSE1
 70
     0
  9
$DIMSE2
 70
     0
  9
$DIMTAD
 70
     0
  9
$DIMZIN
 70
     0
  9
$DIMBLK
  1

  9
$DIMASO
 70
     1
  9
$DIMSHO
 70
     1
  9
$DIMPOST
  1

  9
$DIMAPOST
  1

  9
$DIMALT
 70
     0
  9
$DIMALTD
 70
     2
  9
$DIMALTF
 40
25.399999999999999
  9
$DIMLFAC
 40
1.0
  9
$DIMTOFL
 70
     0
  9
$DIMTVP
 40
0.0
  9
$DIMTIX
 70
     0
  9
$DIMSOXD
 70
     0
  9
$DIMSAH
 70
     0
  9
$DIMBLK1
  1

  9
$DIMBLK2
  1

  9
$DIMSTYLE
  2
STANDARD
  9
$DIMCLRD
 70
     0
  9
$DIMCLRE
 70
     0
  9
$DIMCLRT
 70
     0
  9
$DIMTFAC
 40
1.0
  9
$DIMGAP
 40
0.09
  9
$LUNITS
 70
     2
  9
$LUPREC
 70
     4
  9
$SKETCHINC
 40
0.1
  9
$FILLETRAD
 40
10.0
  9
$AUNITS
 70
     0
  9
$AUPREC
 70
     2
  9
$MENU
  1
acad
  9
$ELEVATION
 40
0.0
  9
$PELEVATION
 40
0.0
  9
$THICKNESS
 40
0.0
  9
$LIMCHECK
 70
     0
  9
$BLIPMODE
 70
     0
  9
$CHAMFERA
 40
10.0
  9
$CHAMFERB
 40
10.0
  9
$SKPOLY
 70
     0
  9
$TDCREATE
 40
2449450.4197234958
  9
$TDUPDATE
 40
2453443.5667167599
  9
$TDINDWG
 40
1.5554954745
  9
$TDUSRTIMER
 40
1.5554954745
  9
$USRTIMER
 70
     1
  9
$ANGBASE
 50
0.0
  9
$ANGDIR
 70
     0
  9
$PDMODE
 70
     0
  9
$PDSIZE
 40
0.0
  9
$PLINEWID
 40
0.0
  9
$COORDS
 70
     1
  9
$SPLFRAME
 70
     0
  9
$SPLINETYPE
 70
     6
  9
$SPLINESEGS
 70
     8
  9
$ATTDIA
 70
     0
  9
$ATTREQ
 70
     1
  9
$HANDLING
 70
     1
  9
$HANDSEED
  5
C6
  9
$SURFTAB1
 70
     6
  9
$SURFTAB2
 70
     6
  9
$SURFTYPE
 70
     6
  9
$SURFU
 70
     6
  9
$SURFV
 70
     6
  9
$UCSNAME
  2

  9
$UCSORG
 10
0.0
 20
0.0
 30
0.0
  9
$UCSXDIR
 10
1.0
 20
0.0
 30
0.0
  9
$UCSYDIR
 10
0.0
 20
1.0
 30
0.0
  9
$PUCSNAME
  2

  9
$PUCSORG
 10
0.0
 20
0.0
 30
0.0
  9
$PUCSXDIR
 10
1.0
 20
0.0
 30
0.0
  9
$PUCSYDIR
 10
0.0
 20
1.0
 30
0.0
  9
$USERI1
 70
     0
  9
$USERI2
 70
     0
  9
$USERI3
 70
     0
  9
$USERI4
 70
     0
  9
$USERI5
 70
     0
  9
$USERR1
 40
0.0
  9
$USERR2
 40
0.0
  9
$USERR3
 40
0.0
  9
$USERR4
 40
0.0
  9
$USERR5
 40
0.0
  9
$WORLDVIEW
 70
     1
  9
$SHADEDGE
 70
     3
  9
$SHADEDIF
 70
    70
  9
$TILEMODE
 70
     1
  9
$MAXACTVP
 70
    16
  9
$PLIMCHECK
 70
     0
  9
$PEXTMIN
 10
1.0000000000000000E+020
 20
1.0000000000000000E+020
 30
1.0000000000000000E+020
  9
$PEXTMAX
 10
-1.0000000000000000E+020
 20
-1.0000000000000000E+020
 30
-1.0000000000000000E+020
  9
$PLIMMIN
 10
0.0
 20
0.0
  9
$PLIMMAX
 10
420.0
 20
297.0
  9
$UNITMODE
 70
     0
  9
$VISRETAIN
 70
     0
  9
$PLINEGEN
 70
     0
  9
$PSLTSCALE
 70
     1
  0
ENDSEC
  0
SECTION
  2
TABLES
  0
TABLE
  2
VPORT
 70
     2
  0
VPORT
  2
*ACTIVE
 70
     0
 10
0.0
 20
0.0
 11
1.0
 21
1.0
 12
-0.0027973222449873
 22
-65.142783488976733
 13
0.0
 23
0.0
 14
0.1
 24
0.1
 15
10.0
 25
10.0
 16
0.0
 26
0.0
 36
1.0
 17
0.0
 27
0.0
 37
0.0
 40
466.49870108353639
 41
1.4993646759847521
 42
50.0
 43
0.0
 44
0.0
 50
0.0
 51
0.0
 71
     0
 72
   100
 73
     1
 74
     1
 75
     1
 76
     0
 77
     0
 78
     0
  0
ENDTAB
  0
TABLE
  2
LTYPE
 70
     1
  0
LTYPE
  2
CONTINUOUS
 70
     0
  3
Solid line
 72
    65
 73
     0
 40
0.0
  0
ENDTAB
  0
TABLE
  2
LAYER
 70
     1
  0
LAYER
  2
0
 70
     0
 62
     7
  6
CONTINUOUS
  0
ENDTAB
  0
TABLE
  2
STYLE
 70
     2
  0
STYLE
  2
STANDARD
 70
     0
 40
0.0
 41
1.0
 50
0.0
 71
     0
 42
3.0
  3
txt
  4

  0
STYLE
  2
SST
 70
     0
 40
0.0
 41
1.0
 50
0.0
 71
     0
 42
3.5
  3
romans.shx
  4

  0
ENDTAB
  0
TABLE
  2
VIEW
 70
     0
  0
ENDTAB
  0
TABLE
  2
UCS
 70
     0
  0
ENDTAB
  0
TABLE
  2
APPID
 70
     1
  0
APPID
  2
ACAD
 70
     0
  0
ENDTAB
  0
TABLE
  2
DIMSTYLE
 70
     1
  0
DIMSTYLE
  2
STANDARD
 70
     0
  3

  4

  5

  6

  7

 40
1.0
 41
0.18
 42
0.0625
 43
0.38
 44
0.18
 45
0.0
 46
0.0
 47
0.0
 48
0.0
140
0.18
141
0.09
142
0.0
143
25.399999999999999
144
1.0
145
0.0
146
1.0
147
0.09
 71
     0
 72
     0
 73
     1
 74
     1
 75
     0
 76
     0
 77
     0
 78
     0
170
     0
171
     2
172
     0
173
     0
174
     0
175
     0
176
     0
177
     0
178
     0
  0
ENDTAB
  0
ENDSEC
  0
SECTION
  2
BLOCKS
  0
BLOCK
  8
0
  2
$MODEL_SPACE
 70
     0
 10
0.0
 20
0.0
 30
0.0
  3
$MODEL_SPACE
  1

  0
ENDBLK
  5
9
  8
0
  0
BLOCK
 67
     1
  8
0
  2
$PAPER_SPACE
 70
     0
 10
0.0
 20
0.0
 30
0.0
  3
$PAPER_SPACE
  1

  0
ENDBLK
  5
E
 67
     1
  8
0
  0
BLOCK
  8
0
  2
SIMPSON-STRONG-TIE
 70
     0
 10
0.0
 20
0.0
 30
0.0
  3
SIMPSON-STRONG-TIE
  1

  0
TEXT
  5
AF
  8
0
  6
CONTINUOUS
 10
-4.7318727780691416
 20
4.4215860385237811
 30
0.0
 40
2.0
  1
SIMPSON
 50
316.94148639091338
  7
SST
 72
     1
 11
0.0
 21
0.0
 31
0.0
  0
TEXT
  5
B0
  8
0
  6
CONTINUOUS
 10
-7.9648409725863862
 20
3.4769825481547749
 30
0.0
 40
2.0
  1
Strong-Tie
 50
316.94148639091338
  7
SST
 72
     1
 11
-2.0499999999999541
 21
-2.0499999999999541
 31
0.0
  0
ENDBLK
  5
B1
  8
0
  0
ENDSEC
  0
SECTION
  2
ENTITIES
  0
LINE
  5
29
  8
0
 10
-35.000000000000057
 20
120.0000000000001
 30
0.0
 11
35.0
 21
120.0000000000001
 31
0.0
  0
CIRCLE
  5
2A
  8
0
 10
-20.0
 20
100.0000000000001
 30
0.0
 40
4.25
  0
CIRCLE
  5
2B
  8
0
 10
20.0
 20
100.0000000000001
 30
0.0
 40
4.25
  0
CIRCLE
  5
2C
  8
0
 10
20.0
 20
60.000000000000107
 30
0.0
 40
4.25
  0
CIRCLE
  5
2D
  8
0
 10
-20.0
 20
60.000000000000107
 30
0.0
 40
4.25
  0
LINE
  5
2E
  8
0
 10
-35.0
 20
15.00000000000011
 30
0.0
 11
-35.0
 21
120.0000000000001
 31
0.0
  0
LINE
  5
2F
  8
0
 10
35.0
 20
120.0000000000001
 30
0.0
 11
35.0
 21
15.0
 31
0.0
  0
LINE
  5
30
  8
0
 10
-14.000000000000229
 20
0.0
 30
0.0
 11
14.00000000000011
 21
0.0
 31
0.0
  0
LINE
  5
31
  8
0
 10
10.00000000000011
 20
-4.0000000000001128
 30
0.0
 11
-10.00000000000011
 21
-4.0
 31
0.0
  0
LINE
  5
32
  8
0
 10
-14.000000000000229
 20
0.0
 30
0.0
 11
-15.00000000000011
 21
0.0
 31
0.0
  0
LINE
  5
33
  8
0
 10
-10.00000000000011
 20
-4.0
 30
0.0
 11
-14.00000000000011
 21
0.0
 31
0.0
  0
LINE
  5
34
  8
0
 10
10.00000000000011
 20
-4.0
 30
0.0
 11
14.00000000000011
 21
0.0
 31
0.0
  0
LINE
  5
35
  8
0
 10
14.999999999999879
 20
0.0
 30
0.0
 11
14.00000000000011
 21
0.0
 31
0.0
  0
LINE
  5
36
  8
0
 10
-45.0
 20
10.0
 30
0.0
 11
-45.0
 21
0.0
 31
0.0
  0
LINE
  5
37
  8
0
 10
-45.0
 20
0.0
 30
0.0
 11
45.0
 21
0.0
 31
0.0
  0
LINE
  5
38
  8
0
 10
45.0
 20
0.0
 30
0.0
 11
45.0
 21
10.0
 31
0.0
  0
LINE
  5
39
  8
0
 10
45.0
 20
10.0
 30
0.0
 11
39.99999999999995
 21
10.0
 31
0.0
  0
LINE
  5
3A
  8
0
 10
-35.0
 20
15.00000000000011
 30
0.0
 11
-35.0
 21
10.0
 31
0.0
  0
LINE
  5
3B
  8
0
 10
35.0
 20
15.0
 30
0.0
 11
35.0
 21
10.0
 31
0.0
  0
LINE
  5
3C
  8
0
 10
-40.0
 20
10.0
 30
0.0
 11
-45.0
 21
10.0
 31
0.0
  0
LINE
  5
3D
  8
0
 10
-35.0
 20
10.0
 30
0.0
 11
34.99999999999995
 21
10.0
 31
0.0
  0
LINE
  5
3E
  8
0
 62
     8
 10
-31.0
 20
15.00000000000011
 30
0.0
 11
-31.0
 21
10.0
 31
0.0
  0
LINE
  5
3F
  8
0
 62
     8
 10
-27.0
 20
15.00000000000011
 30
0.0
 11
-27.0
 21
10.0
 31
0.0
  0
LINE
  5
40
  8
0
 62
     8
 10
-24.0
 20
15.00000000000011
 30
0.0
 11
-24.0
 21
10.0
 31
0.0
  0
LINE
  5
41
  8
0
 62
     8
 10
-20.0
 20
15.00000000000011
 30
0.0
 11
-20.0
 21
10.0
 31
0.0
  0
LINE
  5
42
  8
0
 62
     8
 10
-16.0
 20
15.00000000000011
 30
0.0
 11
-16.0
 21
10.0
 31
0.0
  0
LINE
  5
43
  8
0
 62
     8
 10
-12.0
 20
15.00000000000011
 30
0.0
 11
-12.0
 21
10.0
 31
0.0
  0
LINE
  5
44
  8
0
 62
     8
 10
-8.0
 20
15.00000000000011
 30
0.0
 11
-8.0
 21
10.0
 31
0.0
  0
LINE
  5
45
  8
0
 62
     8
 10
-4.0
 20
15.00000000000011
 30
0.0
 11
-4.0
 21
10.0
 31
0.0
  0
LINE
  5
46
  8
0
 62
     8
 10
0.0
 20
15.00000000000011
 30
0.0
 11
0.0
 21
10.0
 31
0.0
  0
LINE
  5
47
  8
0
 62
     8
 10
4.0
 20
15.00000000000011
 30
0.0
 11
4.0
 21
10.0
 31
0.0
  0
LINE
  5
48
  8
0
 62
     8
 10
8.0
 20
15.00000000000011
 30
0.0
 11
8.0
 21
10.0
 31
0.0
  0
LINE
  5
49
  8
0
 62
     8
 10
12.0
 20
15.00000000000011
 30
0.0
 11
12.0
 21
10.0
 31
0.0
  0
LINE
  5
4A
  8
0
 62
     8
 10
16.0
 20
15.00000000000011
 30
0.0
 11
16.0
 21
10.0
 31
0.0
  0
LINE
  5
4B
  8
0
 62
     8
 10
20.0
 20
15.00000000000011
 30
0.0
 11
20.0
 21
10.0
 31
0.0
  0
LINE
  5
4C
  8
0
 62
     8
 10
24.0
 20
15.00000000000011
 30
0.0
 11
24.0
 21
10.0
 31
0.0
  0
LINE
  5
4D
  8
0
 62
     8
 10
28.0
 20
15.00000000000011
 30
0.0
 11
28.0
 21
10.0
 31
0.0
  0
LINE
  5
4E
  8
0
 62
     8
 10
31.0
 20
15.00000000000011
 30
0.0
 11
31.0
 21
10.0
 31
0.0
  0
LINE
  5
4F
  8
0
 10
35.0
 20
15.0
 30
0.0
 11
40.0
 21
10.0
 31
0.0
  0
LINE
  5
50
  8
0
 10
-35.000000000000057
 20
15.00000000000011
 30
0.0
 11
-40.0
 21
10.0
 31
0.0
  0
LINE
  5
51
  8
0
 10
40.0
 20
10.0
 30
0.0
 11
34.99999999999995
 21
10.0
 31
0.0
  0
LINE
  5
52
  8
0
 10
-35.0
 20
10.0
 30
0.0
 11
-40.0
 21
10.0
 31
0.0
  0
LINE
  5
53
  8
0
 10
-9.9999999999996021
 20
-111.2326784838835
 30
0.0
 11
-9.9999999999996021
 21
-120.9034018633326
 31
0.0
  0
ARC
  5
54
  8
0
 10
49.293892121172398
 20
14.186648294913139
 30
0.0
 40
138.78678941155931
 50
244.25062808570721
 51
253.9832205600685
  0
LINE
  5
55
  8
0
 10
9.9999999999990337
 20
-118.9214392021961
 30
0.0
 11
9.9999999999990337
 21
-128.41836936269189
 31
0.0
  0
LINE
  5
56
  8
0
 10
10.99999999999994
 20
-3.0000000000001701
 30
0.0
 11
10.99999999999994
 21
-250.0
 31
0.0
  0
LINE
  5
57
  8
0
 10
-10.99999999999994
 20
-3.0000000000001128
 30
0.0
 11
-11.00000000000005
 21
-250.0
 31
0.0
  0
LINE
  5
58
  8
0
 10
-9.9999999999996021
 20
-207.23267848388349
 30
0.0
 11
-9.9999999999996021
 21
-216.90340186333259
 31
0.0
  0
LINE
  5
59
  8
0
 10
9.9999999999990337
 20
-203.03146363607601
 30
0.0
 11
9.9999999999990337
 21
-212.52839379657181
 31
0.0
  0
ARC
  5
5A
  8
0
 10
-49.293892121173769
 20
-338.01148936044632
 30
0.0
 40
138.7867894115638
 50
64.250628085707305
 51
73.983220560068276
  0
ARC
  5
5B
  8
0
 10
49.293892121172398
 20
-81.813351705086859
 30
0.0
 40
138.78678941155931
 50
244.25062808570721
 51
253.9832205600685
  0
ARC
  5
5C
  8
0
 10
49.293892121172398
 20
-117.8133517050868
 30
0.0
 40
138.78678941155931
 50
244.25062808570721
 51
252.25906560882689
  0
ARC
  5
5D
  8
0
 10
-49.293892121173769
 20
-374.01148936044632
 30
0.0
 40
138.7867894115638
 50
64.250628085707305
 51
73.983220560068276
  0
ARC
  5
5E
  8
0
 10
49.293892121172398
 20
-105.8133517050868
 30
0.0
 40
138.78678941155931
 50
244.25062808570721
 51
253.9832205600685
  0
ARC
  5
5F
  8
0
 10
-49.293892121173769
 20
-362.01148936044621
 30
0.0
 40
138.7867894115638
 50
64.250628085707305
 51
73.983220560068276
  0
ARC
  5
60
  8
0
 10
49.293892121172398
 20
-93.813351705086859
 30
0.0
 40
138.78678941155931
 50
244.25062808570721
 51
253.9832205600685
  0
ARC
  5
61
  8
0
 10
-49.293892121173769
 20
-350.01148936044632
 30
0.0
 40
138.7867894115638
 50
64.250628085707305
 51
73.983220560068276
  0
LINE
  5
62
  8
0
 10
-11.00000000000005
 20
-250.0
 30
0.0
 11
10.99999999999994
 21
-250.0
 31
0.0
  0
LINE
  5
63
  8
0
 10
9.9999999999990337
 20
-227.03146363607601
 30
0.0
 11
9.9999999999990337
 21
-236.52839379657181
 31
0.0
  0
LINE
  5
64
  8
0
 10
9.9999999999990337
 20
-238.92143920219621
 30
0.0
 11
9.9999999999990337
 21
-248.41836936269189
 31
0.0
  0
LINE
  5
65
  8
0
 10
9.9999999999989182
 20
-243.31497704898609
 30
0.0
 11
9.9999999999988063
 21
-248.52839379657169
 31
0.0
  0
LINE
  5
66
  8
0
 10
9.9999999999990337
 20
-214.92143920219621
 30
0.0
 11
9.9999999999990337
 21
-224.41836936269189
 31
0.0
  0
LINE
  5
67
  8
0
 10
-9.9999999999996021
 20
-231.23267848388349
 30
0.0
 11
-9.9999999999996021
 21
-240.90340186333259
 31
0.0
  0
LINE
  5
68
  8
0
 10
-9.9999999999996021
 20
-243.2964472689568
 30
0.0
 11
-9.9999999999996021
 21
-250.0
 31
0.0
  0
LINE
  5
69
  8
0
 10
-9.9999999999996021
 20
-219.23267848388349
 30
0.0
 11
-9.9999999999996021
 21
-228.90340186333259
 31
0.0
  0
ARC
  5
6A
  8
0
 10
-49.293892121173769
 20
-326.01148936044632
 30
0.0
 40
138.7867894115638
 50
64.250628085707305
 51
73.983220560068276
  0
ARC
  5
6B
  8
0
 10
49.293892121172398
 20
-69.813351705086845
 30
0.0
 40
138.78678941155931
 50
244.25062808570721
 51
253.9832205600685
  0
ARC
  5
6C
  8
0
 10
49.293892121172398
 20
-57.813351705086859
 30
0.0
 40
138.78678941155931
 50
244.25062808570721
 51
253.9832205600685
  0
ARC
  5
6D
  8
0
 10
-49.293892121173769
 20
-314.01148936044621
 30
0.0
 40
138.7867894115638
 50
64.250628085707305
 51
73.983220560068276
  0
ARC
  5
6E
  8
0
 10
-49.293892121173769
 20
-290.01148936044632
 30
0.0
 40
138.7867894115638
 50
64.250628085707305
 51
73.983220560068276
  0
ARC
  5
6F
  8
0
 10
49.293892121172398
 20
-33.813351705086859
 30
0.0
 40
138.78678941155931
 50
244.25062808570721
 51
253.9832205600685
  0
ARC
  5
70
  8
0
 10
49.293892121172398
 20
-45.813351705086859
 30
0.0
 40
138.78678941155931
 50
244.25062808570721
 51
253.9832205600685
  0
ARC
  5
71
  8
0
 10
-49.293892121173769
 20
-302.01148936044632
 30
0.0
 40
138.7867894115638
 50
64.250628085707305
 51
73.983220560068276
  0
ARC
  5
72
  8
0
 10
-49.293892121173769
 20
-278.01148936044632
 30
0.0
 40
138.7867894115638
 50
64.250628085707305
 51
73.983220560068276
  0
ARC
  5
73
  8
0
 10
49.293892121172398
 20
-21.813351705086859
 30
0.0
 40
138.78678941155931
 50
244.25062808570721
 51
253.9832205600685
  0
ARC
  5
74
  8
0
 10
49.293892121172398
 20
-9.8133517050868591
 30
0.0
 40
138.78678941155931
 50
244.25062808570721
 51
253.9832205600685
  0
ARC
  5
75
  8
0
 10
-49.293892121173769
 20
-266.01148936044621
 30
0.0
 40
138.7867894115638
 50
64.250628085707305
 51
73.983220560068276
  0
ARC
  5
76
  8
0
 10
49.293892121172398
 20
2.1866482949131401
 30
0.0
 40
138.78678941155931
 50
244.25062808570721
 51
253.9832205600685
  0
ARC
  5
77
  8
0
 10
-49.293892121173769
 20
-254.01148936044629
 30
0.0
 40
138.7867894115638
 50
64.250628085707305
 51
73.983220560068276
  0
LINE
  5
78
  8
0
 10
9.9999999999990337
 20
-155.03146363607601
 30
0.0
 11
9.9999999999990337
 21
-164.52839379657181
 31
0.0
  0
LINE
  5
79
  8
0
 10
9.9999999999990337
 20
-179.03146363607601
 30
0.0
 11
9.9999999999990337
 21
-188.52839379657169
 31
0.0
  0
LINE
  5
7A
  8
0
 10
9.9999999999990337
 20
-190.92143920219621
 30
0.0
 11
9.9999999999990337
 21
-200.41836936269189
 31
0.0
  0
LINE
  5
7B
  8
0
 10
9.9999999999990337
 20
-166.92143920219621
 30
0.0
 11
9.9999999999990337
 21
-176.41836936269189
 31
0.0
  0
LINE
  5
7C
  8
0
 10
9.9999999999990337
 20
-142.92143920219621
 30
0.0
 11
9.9999999999990337
 21
-152.41836936269189
 31
0.0
  0
LINE
  5
7D
  8
0
 10
9.9999999999990337
 20
-131.03146363607601
 30
0.0
 11
9.9999999999990337
 21
-140.52839379657181
 31
0.0
  0
LINE
  5
7E
  8
0
 10
-9.9999999999996021
 20
-159.23267848388349
 30
0.0
 11
-9.9999999999996021
 21
-168.90340186333259
 31
0.0
  0
LINE
  5
7F
  8
0
 10
-9.9999999999996021
 20
-183.23267848388349
 30
0.0
 11
-9.9999999999996021
 21
-192.90340186333259
 31
0.0
  0
LINE
  5
80
  8
0
 10
-9.9999999999996021
 20
-195.23267848388349
 30
0.0
 11
-9.9999999999996021
 21
-204.90340186333259
 31
0.0
  0
LINE
  5
81
  8
0
 10
-9.9999999999996021
 20
-171.23267848388349
 30
0.0
 11
-9.9999999999996021
 21
-180.90340186333259
 31
0.0
  0
LINE
  5
82
  8
0
 10
-9.9999999999996021
 20
-135.23267848388349
 30
0.0
 11
-9.9999999999996021
 21
-144.90340186333259
 31
0.0
  0
LINE
  5
83
  8
0
 10
-9.9999999999996021
 20
-147.23267848388349
 30
0.0
 11
-9.9999999999996021
 21
-156.90340186333259
 31
0.0
  0
LINE
  5
84
  8
0
 10
-9.9999999999996021
 20
-123.2326784838835
 30
0.0
 11
-9.9999999999996021
 21
-132.90340186333259
 31
0.0
  0
LINE
  5
85
  8
0
 10
9.9999999999990337
 20
-22.921439202196151
 30
0.0
 11
9.9999999999990337
 21
-32.418369362691983
 31
0.0
  0
ARC
  5
86
  8
0
 10
49.293892121172398
 20
98.186648294913198
 30
0.0
 40
138.78678941155931
 50
244.25062808570721
 51
253.9832205600685
  0
ARC
  5
87
  8
0
 10
-49.293892121173769
 20
-158.01148936044621
 30
0.0
 40
138.7867894115638
 50
64.250628085707305
 51
73.983220560068276
  0
LINE
  5
88
  8
0
 10
-9.9999999999996021
 20
-27.23267848388349
 30
0.0
 11
-9.9999999999996021
 21
-36.90340186333259
 31
0.0
  0
ARC
  5
89
  8
0
 10
-49.293892121173769
 20
-242.01148936044629
 30
0.0
 40
138.7867894115638
 50
64.250628085707305
 51
73.983220560068276
  0
ARC
  5
8A
  8
0
 10
-49.293892121173769
 20
-230.01148936044629
 30
0.0
 40
138.7867894115638
 50
64.250628085707305
 51
73.983220560068276
  0
ARC
  5
8B
  8
0
 10
49.293892121172398
 20
26.186648294913141
 30
0.0
 40
138.78678941155931
 50
244.25062808570721
 51
253.9832205600685
  0
ARC
  5
8C
  8
0
 10
49.293892121172398
 20
38.186648294913141
 30
0.0
 40
138.78678941155931
 50
244.25062808570721
 51
253.9832205600685
  0
ARC
  5
8D
  8
0
 10
-49.293892121173769
 20
-218.01148936044621
 30
0.0
 40
138.7867894115638
 50
64.250628085707305
 51
73.983220560068276
  0
ARC
  5
8E
  8
0
 10
-49.293892121173769
 20
-194.01148936044621
 30
0.0
 40
138.7867894115638
 50
64.250628085707305
 51
73.983220560068276
  0
ARC
  5
8F
  8
0
 10
49.293892121172398
 20
62.186648294913198
 30
0.0
 40
138.78678941155931
 50
244.25062808570721
 51
253.9832205600685
  0
ARC
  5
90
  8
0
 10
49.293892121172398
 20
50.186648294913141
 30
0.0
 40
138.78678941155931
 50
244.25062808570721
 51
253.9832205600685
  0
ARC
  5
91
  8
0
 10
-49.293892121173769
 20
-206.01148936044629
 30
0.0
 40
138.7867894115638
 50
64.250628085707305
 51
73.983220560068276
  0
ARC
  5
92
  8
0
 10
-49.293892121173769
 20
-182.01148936044621
 30
0.0
 40
138.7867894115638
 50
64.250628085707305
 51
73.983220560068276
  0
ARC
  5
93
  8
0
 10
49.293892121172398
 20
74.186648294913184
 30
0.0
 40
138.78678941155931
 50
244.25062808570721
 51
253.9832205600685
  0
ARC
  5
94
  8
0
 10
49.293892121172398
 20
86.186648294913198
 30
0.0
 40
138.78678941155931
 50
244.25062808570721
 51
253.9832205600685
  0
ARC
  5
95
  8
0
 10
-49.293892121173769
 20
-170.01148936044621
 30
0.0
 40
138.7867894115638
 50
64.250628085707305
 51
73.983220560068276
  0
LINE
  5
96
  8
0
 10
9.9999999999990337
 20
-70.921439202196154
 30
0.0
 11
9.9999999999990337
 21
-80.418369362691976
 31
0.0
  0
LINE
  5
97
  8
0
 10
9.9999999999990337
 20
-94.921439202196154
 30
0.0
 11
9.9999999999990337
 21
-104.41836936269191
 31
0.0
  0
LINE
  5
98
  8
0
 10
9.9999999999990337
 20
-107.031463636076
 30
0.0
 11
9.9999999999990337
 21
-116.52839379657171
 31
0.0
  0
LINE
  5
99
  8
0
 10
9.9999999999990337
 20
-83.031463636075998
 30
0.0
 11
9.9999999999990337
 21
-92.528393796571734
 31
0.0
  0
LINE
  5
9A
  8
0
 10
9.9999999999990337
 20
-46.921439202196147
 30
0.0
 11
9.9999999999990337
 21
-56.418369362691969
 31
0.0
  0
LINE
  5
9B
  8
0
 10
9.9999999999990337
 20
-59.031463636076012
 30
0.0
 11
9.9999999999990337
 21
-68.52839379657172
 31
0.0
  0
LINE
  5
9C
  8
0
 10
9.9999999999990337
 20
-35.031463636076012
 30
0.0
 11
9.9999999999990337
 21
-44.52839379657172
 31
0.0
  0
LINE
  5
9D
  8
0
 10
-9.9999999999996021
 20
-87.23267848388349
 30
0.0
 11
-9.9999999999996021
 21
-96.903401863332576
 31
0.0
  0
LINE
  5
9E
  8
0
 10
-9.9999999999996021
 20
-99.232678483883475
 30
0.0
 11
-9.9999999999996021
 21
-108.9034018633326
 31
0.0
  0
LINE
  5
9F
  8
0
 10
-9.9999999999996021
 20
-75.23267848388349
 30
0.0
 11
-9.9999999999996021
 21
-84.90340186333259
 31
0.0
  0
LINE
  5
A0
  8
0
 10
-9.9999999999996021
 20
-51.23267848388349
 30
0.0
 11
-9.9999999999996021
 21
-60.90340186333259
 31
0.0
  0
LINE
  5
A1
  8
0
 10
-9.9999999999996021
 20
-63.23267848388349
 30
0.0
 11
-9.9999999999996021
 21
-72.90340186333259
 31
0.0
  0
LINE
  5
A2
  8
0
 10
-9.9999999999996021
 20
-39.23267848388349
 30
0.0
 11
-9.9999999999996021
 21
-48.90340186333259
 31
0.0
  0
ARC
  5
A3
  8
0
 10
-49.293892121173769
 20
-134.01148936044621
 30
0.0
 40
138.7867894115638
 50
64.250628085707305
 51
69.516230882726234
  0
ARC
  5
A4
  8
0
 10
49.293892121172398
 20
122.1866482949131
 30
0.0
 40
138.78678941155931
 50
245.3967155401086
 51
253.9832205600685
  0
ARC
  5
A5
  8
0
 10
-49.293892121173769
 20
-146.01148936044621
 30
0.0
 40
138.7867894115638
 50
64.250628085707305
 51
73.983220560068276
  0
ARC
  5
A6
  8
0
 10
49.293892121172398
 20
110.1866482949132
 30
0.0
 40
138.78678941155931
 50
244.25062808570721
 51
253.9832205600685
  0
LINE
  5
A7
  8
0
 10
-11.00000000000005
 20
-0.0000000000000568
 30
0.0
 11
10.99999999999994
 21
-0.0000000000000568
 31
0.0
  0
LINE
  5
A8
  8
0
 10
9.9999999999990337
 20
-4.00000000000108
 30
0.0
 11
9.9999999999990337
 21
-8.5283937965717769
 31
0.0
  0
LINE
  5
A9
  8
0
 10
9.9999999999990337
 20
-10.921439202196151
 30
0.0
 11
9.9999999999990337
 21
-20.52839379657172
 31
0.0
  0
LINE
  5
AA
  8
0
 10
-9.9999999999997158
 20
-4.000000000000397
 30
0.0
 11
-9.9999999999997158
 21
-12.90340186333253
 31
0.0
  0
LINE
  5
AB
  8
0
 10
-9.9999999999996021
 20
-15.23267848388349
 30
0.0
 11
-9.9999999999996021
 21
-24.90340186333259
 31
0.0
  0
INSERT
  5
AC
  8
0
  2
SIMPSON-STRONG-TIE
 10
0.3999999999999772
 20
78.100000000000023
 30
0.0
  0
ENDSEC
  0
EOF
