  0
SECTION
  2
HEADER
  9
$ACADVER
  1
AC1009
  9
$INSBASE
 10
0.0
 20
0.0
 30
0.0
  9
$EXTMIN
 10
-77.287111790687902
 20
-255.28430668027971
 30
0.0
  9
$EXTMAX
 10
77.287111790687945
 20
121.4999999999999
 30
0.0
  9
$LIMMIN
 10
0.0
 20
0.0
  9
$LIMMAX
 10
420.0
 20
297.0
  9
$ORTHOMODE
 70
     1
  9
$REGENMODE
 70
     1
  9
$FILLMODE
 70
     1
  9
$QTEXTMODE
 70
     0
  9
$MIRRTEXT
 70
     1
  9
$DRAGMODE
 70
     2
  9
$LTSCALE
 40
1.0
  9
$OSMODE
 70
    47
  9
$ATTMODE
 70
     1
  9
$TEXTSIZE
 40
3.5
  9
$TRACEWID
 40
0.05
  9
$TEXTSTYLE
  7
SST
  9
$CLAYER
  8
0
  9
$CELTYPE
  6
BYLAYER
  9
$CECOLOR
 62
   256
  9
$DIMSCALE
 40
2.0
  9
$DIMASZ
 40
2.0
  9
$DIMEXO
 40
1.0
  9
$DIMDLI
 40
10.0
  9
$DIMRND
 40
0.0
  9
$DIMDLE
 40
0.0
  9
$DIMEXE
 40
1.0
  9
$DIMTP
 40
0.0
  9
$DIMTM
 40
0.0
  9
$DIMTXT
 40
3.5
  9
$DIMCEN
 40
2.5
  9
$DIMTSZ
 40
0.0
  9
$DIMTOL
 70
     0
  9
$DIMLIM
 70
     0
  9
$DIMTIH
 70
     0
  9
$DIMTOH
 70
     0
  9
$DIMSE1
 70
     0
  9
$DIMSE2
 70
     0
  9
$DIMTAD
 70
     1
  9
$DIMZIN
 70
     8
  9
$DIMBLK
  1

  9
$DIMASO
 70
     1
  9
$DIMSHO
 70
     1
  9
$DIMPOST
  1

  9
$DIMAPOST
  1

  9
$DIMALT
 70
     0
  9
$DIMALTD
 70
     2
  9
$DIMALTF
 40
25.399999999999999
  9
$DIMLFAC
 40
1.0
  9
$DIMTOFL
 70
     1
  9
$DIMTVP
 40
0.0
  9
$DIMTIX
 70
     0
  9
$DIMSOXD
 70
     0
  9
$DIMSAH
 70
     0
  9
$DIMBLK1
  1

  9
$DIMBLK2
  1

  9
$DIMSTYLE
  2
STANDARD
  9
$DIMCLRD
 70
     0
  9
$DIMCLRE
 70
     0
  9
$DIMCLRT
 70
     0
  9
$DIMTFAC
 40
1.0
  9
$DIMGAP
 40
1.0
  9
$LUNITS
 70
     2
  9
$LUPREC
 70
     4
  9
$SKETCHINC
 40
0.1
  9
$FILLETRAD
 40
10.0
  9
$AUNITS
 70
     0
  9
$AUPREC
 70
     2
  9
$MENU
  1
acad
  9
$ELEVATION
 40
0.0
  9
$PELEVATION
 40
0.0
  9
$THICKNESS
 40
0.0
  9
$LIMCHECK
 70
     0
  9
$BLIPMODE
 70
     0
  9
$CHAMFERA
 40
0.0
  9
$CHAMFERB
 40
0.0
  9
$SKPOLY
 70
     0
  9
$TDCREATE
 40
2449450.4197234958
  9
$TDUPDATE
 40
2453443.5669408222
  9
$TDINDWG
 40
1.4580304630000001
  9
$TDUSRTIMER
 40
1.4580304630000001
  9
$USRTIMER
 70
     1
  9
$ANGBASE
 50
0.0
  9
$ANGDIR
 70
     0
  9
$PDMODE
 70
     0
  9
$PDSIZE
 40
0.0
  9
$PLINEWID
 40
0.0
  9
$COORDS
 70
     1
  9
$SPLFRAME
 70
     0
  9
$SPLINETYPE
 70
     6
  9
$SPLINESEGS
 70
     8
  9
$ATTDIA
 70
     0
  9
$ATTREQ
 70
     1
  9
$HANDLING
 70
     1
  9
$HANDSEED
  5
121
  9
$SURFTAB1
 70
     6
  9
$SURFTAB2
 70
     6
  9
$SURFTYPE
 70
     6
  9
$SURFU
 70
     6
  9
$SURFV
 70
     6
  9
$UCSNAME
  2

  9
$UCSORG
 10
0.0
 20
0.0
 30
0.0
  9
$UCSXDIR
 10
1.0
 20
0.0
 30
0.0
  9
$UCSYDIR
 10
0.0
 20
1.0
 30
0.0
  9
$PUCSNAME
  2

  9
$PUCSORG
 10
0.0
 20
0.0
 30
0.0
  9
$PUCSXDIR
 10
1.0
 20
0.0
 30
0.0
  9
$PUCSYDIR
 10
0.0
 20
1.0
 30
0.0
  9
$USERI1
 70
     0
  9
$USERI2
 70
     0
  9
$USERI3
 70
     0
  9
$USERI4
 70
     0
  9
$USERI5
 70
     0
  9
$USERR1
 40
0.0
  9
$USERR2
 40
0.0
  9
$USERR3
 40
0.0
  9
$USERR4
 40
0.0
  9
$USERR5
 40
0.0
  9
$WORLDVIEW
 70
     1
  9
$SHADEDGE
 70
     3
  9
$SHADEDIF
 70
    70
  9
$TILEMODE
 70
     1
  9
$MAXACTVP
 70
    16
  9
$PLIMCHECK
 70
     0
  9
$PEXTMIN
 10
1.0000000000000000E+020
 20
1.0000000000000000E+020
 30
1.0000000000000000E+020
  9
$PEXTMAX
 10
-1.0000000000000000E+020
 20
-1.0000000000000000E+020
 30
-1.0000000000000000E+020
  9
$PLIMMIN
 10
0.0
 20
0.0
  9
$PLIMMAX
 10
420.0
 20
297.0
  9
$UNITMODE
 70
     0
  9
$VISRETAIN
 70
     0
  9
$PLINEGEN
 70
     0
  9
$PSLTSCALE
 70
     1
  0
ENDSEC
  0
SECTION
  2
TABLES
  0
TABLE
  2
VPORT
 70
     2
  0
VPORT
  2
*ACTIVE
 70
     0
 10
0.0
 20
0.0
 11
1.0
 21
1.0
 12
82.513825601448502
 22
-66.930342910974673
 13
0.0
 23
0.0
 14
0.1
 24
0.1
 15
10.0
 25
10.0
 16
0.0
 26
0.0
 36
1.0
 17
0.0
 27
0.0
 37
0.0
 40
474.70206147918879
 41
1.4993646759847521
 42
50.0
 43
0.0
 44
0.0
 50
0.0
 51
0.0
 71
     0
 72
   100
 73
     1
 74
     1
 75
     1
 76
     0
 77
     0
 78
     0
  0
ENDTAB
  0
TABLE
  2
LTYPE
 70
     1
  0
LTYPE
  2
CONTINUOUS
 70
     0
  3
Solid line
 72
    65
 73
     0
 40
0.0
  0
ENDTAB
  0
TABLE
  2
LAYER
 70
     1
  0
LAYER
  2
0
 70
     0
 62
     7
  6
CONTINUOUS
  0
ENDTAB
  0
TABLE
  2
STYLE
 70
     2
  0
STYLE
  2
STANDARD
 70
     0
 40
0.0
 41
1.0
 50
0.0
 71
     0
 42
3.0
  3
txt
  4

  0
STYLE
  2
SST
 70
     0
 40
0.0
 41
1.0
 50
0.0
 71
     0
 42
3.5
  3
romans.shx
  4

  0
ENDTAB
  0
TABLE
  2
VIEW
 70
     0
  0
ENDTAB
  0
TABLE
  2
UCS
 70
     0
  0
ENDTAB
  0
TABLE
  2
APPID
 70
     1
  0
APPID
  2
ACAD
 70
     0
  0
ENDTAB
  0
TABLE
  2
DIMSTYLE
 70
     1
  0
DIMSTYLE
  2
STANDARD
 70
     0
  3

  4

  5

  6

  7

 40
2.0
 41
2.0
 42
1.0
 43
10.0
 44
1.0
 45
0.0
 46
0.0
 47
0.0
 48
0.0
140
3.5
141
2.5
142
0.0
143
25.399999999999999
144
1.0
145
0.0
146
1.0
147
1.0
 71
     0
 72
     0
 73
     0
 74
     0
 75
     0
 76
     0
 77
     1
 78
     8
170
     0
171
     2
172
     1
173
     0
174
     0
175
     0
176
     0
177
     0
178
     0
  0
ENDTAB
  0
ENDSEC
  0
SECTION
  2
BLOCKS
  0
BLOCK
  8
0
  2
$MODEL_SPACE
 70
     0
 10
0.0
 20
0.0
 30
0.0
  3
$MODEL_SPACE
  1

  0
ENDBLK
  5
9
  8
0
  0
BLOCK
 67
     1
  8
0
  2
$PAPER_SPACE
 70
     0
 10
0.0
 20
0.0
 30
0.0
  3
$PAPER_SPACE
  1

  0
ENDBLK
  5
E
 67
     1
  8
0
  0
ENDSEC
  0
SECTION
  2
ENTITIES
  0
LINE
  5
29
  8
0
 10
69.999999999999972
 20
121.4999999999999
 30
0.0
 11
74.999999999999972
 21
121.4999999999999
 31
0.0
  0
LINE
  5
2A
  8
0
 10
74.999999999999972
 20
121.4999999999999
 30
0.0
 11
74.999999999999972
 21
7.5
 31
0.0
  0
LINE
  5
2B
  8
0
 10
64.999999999999972
 20
-5.0
 30
0.0
 11
-64.999999999999915
 21
-5.000000000000056
 31
0.0
  0
LINE
  5
2C
  8
0
 10
-74.999999999999915
 20
7.4999999999999432
 30
0.0
 11
-75.000000000000028
 21
121.4999999999999
 31
0.0
  0
LINE
  5
2D
  8
0
 10
-75.000000000000028
 20
121.4999999999999
 30
0.0
 11
-70.000000000000028
 21
121.4999999999999
 31
0.0
  0
LINE
  5
2E
  8
0
 10
-1.9999999999999709
 20
-10.0
 30
0.0
 11
-1.9999999999999709
 21
-255.00000000000011
 31
0.0
  0
LINE
  5
2F
  8
0
 10
-9.9999999999999716
 20
-255.00000000000011
 30
0.0
 11
10.00000000000003
 21
-255.00000000000011
 31
0.0
  0
LINE
  5
30
  8
0
 10
-11.00000000000008
 20
-249.80904261380181
 30
0.0
 11
-10.99999999999997
 21
-252.0157984517264
 31
0.0
  0
ARC
  5
31
  8
0
 10
-8.6154600685083267
 20
-249.4138979202813
 30
0.0
 40
2.417058132047242
 50
124.94712799183731
 51
189.4090427875108
  0
LINE
  5
32
  8
0
 10
-10.00000000000008
 20
-241.28695177627819
 30
0.0
 11
-10.00000000000008
 21
-251.0801959383534
 31
0.0
  0
ARC
  5
33
  8
0
 10
-3.1051779622212901
 20
-244.6272077215848
 30
0.0
 40
9.4434965906910957
 50
213.27923982350899
 51
276.72076017648999
  0
ARC
  5
34
  8
0
 10
-4.8275305361559901
 20
-249.65663793337461
 30
0.0
 40
6.6079510919375126
 50
200.91720190638929
 51
233.96191915340441
  0
LINE
  5
35
  8
0
 10
-10.00000000000008
 20
-253.7688851631795
 30
0.0
 11
-10.00000000000008
 21
-255.00000000000011
 31
0.0
  0
ARC
  5
36
  8
0
 10
-8.6154600685083267
 20
-237.4138979202813
 30
0.0
 40
2.417058132047242
 50
124.94712799183731
 51
189.4090427875108
  0
ARC
  5
37
  8
0
 10
-3.1051779622212901
 20
-232.6272077215848
 30
0.0
 40
9.4434965906910957
 50
213.27923982350899
 51
276.72076017648999
  0
ARC
  5
38
  8
0
 10
-3.1051779622212901
 20
-234.83396355950961
 30
0.0
 40
9.4434965906910957
 50
213.27923982350899
 51
276.72076017648999
  0
LINE
  5
39
  8
0
 10
-11.00000000000008
 20
-237.80904261380169
 30
0.0
 11
-10.99999999999997
 21
-240.0157984517264
 31
0.0
  0
LINE
  5
3A
  8
0
 10
-9.9999999999999716
 20
-229.2869517762783
 30
0.0
 11
-10.00000000000008
 21
-239.0801959383534
 31
0.0
  0
LINE
  5
3B
  8
0
 10
10.000000000000369
 20
-5.0
 30
0.0
 11
-9.9999999999999716
 21
-5.0
 31
0.0
  0
LINE
  5
3C
  8
0
 10
1.9999999999999709
 20
-10.0
 30
0.0
 11
2.000000000000028
 21
-255.00000000000011
 31
0.0
  0
LINE
  5
3D
  8
0
 10
10.00000000000003
 20
-229.2869517762783
 30
0.0
 11
10.00000000000003
 21
-239.08019593835331
 31
0.0
  0
ARC
  5
3E
  8
0
 10
3.1051779622212332
 20
-244.6272077215848
 30
0.0
 40
9.4434965906910957
 50
263.27923982351001
 51
326.72076017649113
  0
ARC
  5
3F
  8
0
 10
3.1051779622212332
 20
-232.6272077215848
 30
0.0
 40
9.4434965906910957
 50
263.27923982351001
 51
326.72076017649113
  0
ARC
  5
40
  8
0
 10
3.1051779622212332
 20
-234.83396355950961
 30
0.0
 40
9.4434965906910957
 50
263.27923982351001
 51
326.72076017649113
  0
ARC
  5
41
  8
0
 10
8.6154600685083835
 20
-249.4138979202813
 30
0.0
 40
2.417058132047242
 50
350.59095721248917
 51
55.052872008162652
  0
LINE
  5
42
  8
0
 10
10.00000000000003
 20
-241.28695177627819
 30
0.0
 11
10.00000000000003
 21
-251.08019593835331
 31
0.0
  0
LINE
  5
43
  8
0
 10
10.999999999999909
 20
-249.80904261380201
 30
0.0
 11
11.00000000000003
 21
-252.0157984517264
 31
0.0
  0
LINE
  5
44
  8
0
 10
10.00000000000003
 20
-253.7688851631795
 30
0.0
 11
10.00000000000003
 21
-255.00000000000011
 31
0.0
  0
ARC
  5
45
  8
0
 10
4.8275305361558187
 20
-249.65663793337461
 30
0.0
 40
6.6079510919375126
 50
306.03808084659562
 51
339.08279809361062
  0
ARC
  5
46
  8
0
 10
8.6154600685083835
 20
-237.4138979202813
 30
0.0
 40
2.417058132047242
 50
350.59095721248917
 51
55.052872008162652
  0
LINE
  5
47
  8
0
 10
10.999999999999909
 20
-237.80904261380181
 30
0.0
 11
11.00000000000003
 21
-240.0157984517264
 31
0.0
  0
LINE
  5
48
  8
0
 10
-9.9999999999999716
 20
-217.2869517762783
 30
0.0
 11
-9.9999999999999716
 21
-227.0801959383534
 31
0.0
  0
ARC
  5
49
  8
0
 10
-8.6154600685083267
 20
-225.4138979202813
 30
0.0
 40
2.417058132047242
 50
124.94712799183731
 51
189.4090427875108
  0
ARC
  5
4A
  8
0
 10
-3.1051779622212901
 20
-220.6272077215848
 30
0.0
 40
9.4434965906910957
 50
213.27923982350899
 51
276.72076017648999
  0
LINE
  5
4B
  8
0
 10
-11.00000000000008
 20
-225.80904261380169
 30
0.0
 11
-10.99999999999997
 21
-228.0157984517264
 31
0.0
  0
LINE
  5
4C
  8
0
 10
10.00000000000003
 20
-217.2869517762783
 30
0.0
 11
10.00000000000003
 21
-227.0801959383534
 31
0.0
  0
ARC
  5
4D
  8
0
 10
8.6154600685083835
 20
-225.4138979202813
 30
0.0
 40
2.417058132047242
 50
350.59095721248917
 51
55.052872008162652
  0
ARC
  5
4E
  8
0
 10
3.1051779622212332
 20
-220.6272077215848
 30
0.0
 40
9.4434965906910957
 50
263.27923982351001
 51
326.72076017649113
  0
LINE
  5
4F
  8
0
 10
10.999999999999909
 20
-225.80904261380181
 30
0.0
 11
11.00000000000003
 21
-228.0157984517264
 31
0.0
  0
ARC
  5
50
  8
0
 10
-3.1051779622212901
 20
-222.8339635595097
 30
0.0
 40
9.4434965906910957
 50
213.27923982350899
 51
276.72076017648999
  0
ARC
  5
51
  8
0
 10
3.1051779622212332
 20
-222.8339635595097
 30
0.0
 40
9.4434965906910957
 50
263.27923982351001
 51
326.72076017649113
  0
LINE
  5
52
  8
0
 10
-9.9999999999999716
 20
-205.2869517762783
 30
0.0
 11
-10.00000000000008
 21
-215.0801959383534
 31
0.0
  0
ARC
  5
53
  8
0
 10
-8.6154600685083267
 20
-213.4138979202813
 30
0.0
 40
2.417058132047242
 50
124.94712799183731
 51
189.4090427875108
  0
ARC
  5
54
  8
0
 10
-3.1051779622212901
 20
-210.83396355950961
 30
0.0
 40
9.4434965906910957
 50
213.27923982350899
 51
276.72076017648999
  0
ARC
  5
55
  8
0
 10
-3.1051779622212901
 20
-208.6272077215848
 30
0.0
 40
9.4434965906910957
 50
213.27923982350899
 51
276.72076017648999
  0
LINE
  5
56
  8
0
 10
-11.00000000000008
 20
-213.80904261380169
 30
0.0
 11
-10.99999999999997
 21
-216.0157984517264
 31
0.0
  0
ARC
  5
57
  8
0
 10
-3.1051779622212901
 20
-198.83396355950961
 30
0.0
 40
9.4434965906910957
 50
213.27923982350899
 51
276.72076017648999
  0
ARC
  5
58
  8
0
 10
-3.1051779622212901
 20
-196.6272077215848
 30
0.0
 40
9.4434965906910957
 50
213.27923982350899
 51
276.72076017648999
  0
LINE
  5
59
  8
0
 10
-11.00000000000008
 20
-201.80904261380169
 30
0.0
 11
-10.99999999999997
 21
-204.0157984517264
 31
0.0
  0
ARC
  5
5A
  8
0
 10
-8.6154600685083267
 20
-201.4138979202813
 30
0.0
 40
2.417058132047242
 50
124.94712799183731
 51
189.4090427875108
  0
LINE
  5
5B
  8
0
 10
-9.9999999999999716
 20
-193.2869517762783
 30
0.0
 11
-9.9999999999999716
 21
-203.0801959383534
 31
0.0
  0
LINE
  5
5C
  8
0
 10
10.00000000000003
 20
-205.2869517762783
 30
0.0
 11
10.00000000000003
 21
-215.08019593835331
 31
0.0
  0
ARC
  5
5D
  8
0
 10
8.6154600685083835
 20
-213.4138979202813
 30
0.0
 40
2.417058132047242
 50
350.59095721248917
 51
55.052872008162652
  0
ARC
  5
5E
  8
0
 10
3.1051779622212332
 20
-208.6272077215848
 30
0.0
 40
9.4434965906910957
 50
263.27923982351001
 51
326.72076017649113
  0
ARC
  5
5F
  8
0
 10
3.1051779622212332
 20
-210.83396355950961
 30
0.0
 40
9.4434965906910957
 50
263.27923982351001
 51
326.72076017649113
  0
LINE
  5
60
  8
0
 10
10.999999999999909
 20
-213.80904261380181
 30
0.0
 11
11.00000000000003
 21
-216.0157984517264
 31
0.0
  0
ARC
  5
61
  8
0
 10
3.1051779622212332
 20
-198.83396355950961
 30
0.0
 40
9.4434965906910957
 50
263.27923982351001
 51
326.72076017649113
  0
ARC
  5
62
  8
0
 10
3.1051779622212332
 20
-196.6272077215848
 30
0.0
 40
9.4434965906910957
 50
263.27923982351001
 51
326.72076017649113
  0
LINE
  5
63
  8
0
 10
10.999999999999909
 20
-201.80904261380181
 30
0.0
 11
11.00000000000003
 21
-204.0157984517264
 31
0.0
  0
ARC
  5
64
  8
0
 10
8.6154600685083835
 20
-201.4138979202813
 30
0.0
 40
2.417058132047242
 50
350.59095721248917
 51
55.052872008162652
  0
LINE
  5
65
  8
0
 10
10.00000000000003
 20
-193.2869517762783
 30
0.0
 11
10.00000000000003
 21
-203.0801959383534
 31
0.0
  0
LINE
  5
66
  8
0
 10
-11.00000000000008
 20
-189.80904261380169
 30
0.0
 11
-10.99999999999997
 21
-192.0157984517264
 31
0.0
  0
ARC
  5
67
  8
0
 10
-3.1051779622212901
 20
-184.6272077215848
 30
0.0
 40
9.4434965906910957
 50
213.27923982350899
 51
276.72076017648999
  0
LINE
  5
68
  8
0
 10
-9.9999999999999716
 20
-181.28695177627819
 30
0.0
 11
-10.00000000000008
 21
-191.08019593835331
 31
0.0
  0
ARC
  5
69
  8
0
 10
-3.1051779622212901
 20
-186.83396355950961
 30
0.0
 40
9.4434965906910957
 50
213.27923982350899
 51
276.72076017648999
  0
ARC
  5
6A
  8
0
 10
-3.1051779622212901
 20
-172.6272077215848
 30
0.0
 40
9.4434965906910957
 50
213.27923982350899
 51
276.72076017648999
  0
ARC
  5
6B
  8
0
 10
-3.1051779622212901
 20
-174.83396355950961
 30
0.0
 40
9.4434965906910957
 50
213.27923982350899
 51
276.72076017648999
  0
LINE
  5
6C
  8
0
 10
-9.9999999999999716
 20
-169.2869517762783
 30
0.0
 11
-9.9999999999999716
 21
-179.0801959383534
 31
0.0
  0
LINE
  5
6D
  8
0
 10
-11.00000000000008
 20
-177.80904261380169
 30
0.0
 11
-10.99999999999997
 21
-180.0157984517264
 31
0.0
  0
ARC
  5
6E
  8
0
 10
-8.6154600685083267
 20
-189.41389792028119
 30
0.0
 40
2.417058132047242
 50
124.94712799183731
 51
189.4090427875108
  0
ARC
  5
6F
  8
0
 10
-8.6154600685083267
 20
-177.4138979202813
 30
0.0
 40
2.417058132047242
 50
124.94712799183731
 51
189.4090427875108
  0
LINE
  5
70
  8
0
 10
10.999999999999909
 20
-189.80904261380181
 30
0.0
 11
11.00000000000003
 21
-192.0157984517264
 31
0.0
  0
ARC
  5
71
  8
0
 10
3.1051779622212332
 20
-184.6272077215848
 30
0.0
 40
9.4434965906910957
 50
263.27923982351001
 51
326.72076017649113
  0
LINE
  5
72
  8
0
 10
10.00000000000003
 20
-181.28695177627819
 30
0.0
 11
10.00000000000003
 21
-191.08019593835331
 31
0.0
  0
ARC
  5
73
  8
0
 10
3.1051779622212332
 20
-186.83396355950961
 30
0.0
 40
9.4434965906910957
 50
263.27923982351001
 51
326.72076017649113
  0
ARC
  5
74
  8
0
 10
3.1051779622212332
 20
-172.6272077215848
 30
0.0
 40
9.4434965906910957
 50
263.27923982351001
 51
326.72076017649113
  0
ARC
  5
75
  8
0
 10
3.1051779622212332
 20
-174.83396355950961
 30
0.0
 40
9.4434965906910957
 50
263.27923982351001
 51
326.72076017649113
  0
LINE
  5
76
  8
0
 10
10.00000000000003
 20
-169.2869517762783
 30
0.0
 11
10.00000000000003
 21
-179.0801959383534
 31
0.0
  0
LINE
  5
77
  8
0
 10
10.999999999999909
 20
-177.80904261380181
 30
0.0
 11
11.00000000000003
 21
-180.0157984517264
 31
0.0
  0
ARC
  5
78
  8
0
 10
8.6154600685083835
 20
-189.41389792028119
 30
0.0
 40
2.417058132047242
 50
350.59095721248917
 51
55.052872008162652
  0
ARC
  5
79
  8
0
 10
8.6154600685083835
 20
-177.4138979202813
 30
0.0
 40
2.417058132047242
 50
350.59095721248917
 51
55.052872008162652
  0
ARC
  5
7A
  8
0
 10
-3.1051779622212901
 20
-160.6272077215848
 30
0.0
 40
9.4434965906910957
 50
213.27923982350899
 51
276.72076017648999
  0
LINE
  5
7B
  8
0
 10
-11.00000000000008
 20
-165.80904261380169
 30
0.0
 11
-10.99999999999997
 21
-168.0157984517264
 31
0.0
  0
ARC
  5
7C
  8
0
 10
-3.1051779622212901
 20
-162.83396355950961
 30
0.0
 40
9.4434965906910957
 50
213.27923982350899
 51
276.72076017648999
  0
ARC
  5
7D
  8
0
 10
-3.1051779622212901
 20
-150.83396355950961
 30
0.0
 40
9.4434965906910957
 50
213.27923982350899
 51
276.72076017648999
  0
ARC
  5
7E
  8
0
 10
-3.1051779622212901
 20
-148.6272077215848
 30
0.0
 40
9.4434965906910957
 50
213.27923982350899
 51
276.72076017648999
  0
ARC
  5
7F
  8
0
 10
-8.6154600685083267
 20
-165.41389792028119
 30
0.0
 40
2.417058132047242
 50
124.94712799183731
 51
189.4090427875108
  0
LINE
  5
80
  8
0
 10
-9.9999999999999716
 20
-157.28695177627819
 30
0.0
 11
-10.00000000000008
 21
-167.08019593835331
 31
0.0
  0
ARC
  5
81
  8
0
 10
-8.6154600685083267
 20
-153.4138979202813
 30
0.0
 40
2.417058132047242
 50
124.94712799183731
 51
189.4090427875108
  0
LINE
  5
82
  8
0
 10
-11.00000000000008
 20
-153.80904261380169
 30
0.0
 11
-10.99999999999997
 21
-156.0157984517264
 31
0.0
  0
LINE
  5
83
  8
0
 10
-9.9999999999999716
 20
-145.2869517762783
 30
0.0
 11
-9.9999999999999716
 21
-155.0801959383534
 31
0.0
  0
ARC
  5
84
  8
0
 10
3.1051779622212332
 20
-160.6272077215848
 30
0.0
 40
9.4434965906910957
 50
263.27923982351001
 51
326.72076017649113
  0
LINE
  5
85
  8
0
 10
10.999999999999909
 20
-165.80904261380181
 30
0.0
 11
11.00000000000003
 21
-168.0157984517264
 31
0.0
  0
ARC
  5
86
  8
0
 10
3.1051779622212332
 20
-162.83396355950961
 30
0.0
 40
9.4434965906910957
 50
263.27923982351001
 51
326.72076017649113
  0
ARC
  5
87
  8
0
 10
3.1051779622212332
 20
-150.83396355950961
 30
0.0
 40
9.4434965906910957
 50
263.27923982351001
 51
326.72076017649113
  0
ARC
  5
88
  8
0
 10
3.1051779622212332
 20
-148.6272077215848
 30
0.0
 40
9.4434965906910957
 50
263.27923982351001
 51
326.72076017649113
  0
ARC
  5
89
  8
0
 10
8.6154600685083835
 20
-165.41389792028119
 30
0.0
 40
2.417058132047242
 50
350.59095721248917
 51
55.052872008162652
  0
LINE
  5
8A
  8
0
 10
10.00000000000003
 20
-157.28695177627819
 30
0.0
 11
10.00000000000003
 21
-167.08019593835331
 31
0.0
  0
ARC
  5
8B
  8
0
 10
8.6154600685083835
 20
-153.4138979202813
 30
0.0
 40
2.417058132047242
 50
350.59095721248917
 51
55.052872008162652
  0
LINE
  5
8C
  8
0
 10
10.999999999999909
 20
-153.80904261380181
 30
0.0
 11
11.00000000000003
 21
-156.0157984517264
 31
0.0
  0
LINE
  5
8D
  8
0
 10
10.00000000000003
 20
-145.2869517762783
 30
0.0
 11
10.00000000000003
 21
-155.0801959383534
 31
0.0
  0
ARC
  5
8E
  8
0
 10
-3.1051779622212901
 20
-138.83396355950961
 30
0.0
 40
9.4434965906910957
 50
213.27923982350899
 51
276.72076017648999
  0
ARC
  5
8F
  8
0
 10
-3.1051779622212901
 20
-136.6272077215848
 30
0.0
 40
9.4434965906910957
 50
213.27923982350899
 51
276.72076017648999
  0
LINE
  5
90
  8
0
 10
-9.9999999999999716
 20
-121.2869517762783
 30
0.0
 11
-9.9999999999999716
 21
-131.0801959383534
 31
0.0
  0
ARC
  5
91
  8
0
 10
-3.1051779622212901
 20
-124.6272077215848
 30
0.0
 40
9.4434965906910957
 50
213.27923982350899
 51
276.72076017648999
  0
ARC
  5
92
  8
0
 10
-3.1051779622212901
 20
-126.8339635595096
 30
0.0
 40
9.4434965906910957
 50
213.27923982350899
 51
276.72076017648999
  0
LINE
  5
93
  8
0
 10
-9.9999999999999716
 20
-133.28695177627819
 30
0.0
 11
-10.00000000000008
 21
-143.08019593835331
 31
0.0
  0
ARC
  5
94
  8
0
 10
-8.6154600685083267
 20
-141.41389792028119
 30
0.0
 40
2.417058132047242
 50
124.94712799183731
 51
189.4090427875108
  0
LINE
  5
95
  8
0
 10
-11.00000000000008
 20
-141.80904261380169
 30
0.0
 11
-10.99999999999997
 21
-144.0157984517264
 31
0.0
  0
ARC
  5
96
  8
0
 10
-8.6154600685083267
 20
-129.4138979202813
 30
0.0
 40
2.417058132047242
 50
124.94712799183731
 51
189.4090427875108
  0
LINE
  5
97
  8
0
 10
-11.00000000000008
 20
-129.80904261380169
 30
0.0
 11
-10.99999999999997
 21
-132.0157984517264
 31
0.0
  0
ARC
  5
98
  8
0
 10
3.1051779622212332
 20
-138.83396355950961
 30
0.0
 40
9.4434965906910957
 50
263.27923982351001
 51
326.72076017649113
  0
ARC
  5
99
  8
0
 10
3.1051779622212332
 20
-136.6272077215848
 30
0.0
 40
9.4434965906910957
 50
263.27923982351001
 51
326.72076017649113
  0
LINE
  5
9A
  8
0
 10
10.00000000000003
 20
-121.2869517762783
 30
0.0
 11
10.00000000000003
 21
-131.0801959383534
 31
0.0
  0
ARC
  5
9B
  8
0
 10
3.1051779622212332
 20
-124.6272077215848
 30
0.0
 40
9.4434965906910957
 50
263.27923982351001
 51
326.72076017649113
  0
ARC
  5
9C
  8
0
 10
3.1051779622212332
 20
-126.8339635595096
 30
0.0
 40
9.4434965906910957
 50
263.27923982351001
 51
326.72076017649113
  0
LINE
  5
9D
  8
0
 10
10.00000000000003
 20
-133.28695177627819
 30
0.0
 11
10.00000000000003
 21
-143.08019593835331
 31
0.0
  0
ARC
  5
9E
  8
0
 10
8.6154600685083835
 20
-141.41389792028119
 30
0.0
 40
2.417058132047242
 50
350.59095721248917
 51
55.052872008162652
  0
LINE
  5
9F
  8
0
 10
10.999999999999909
 20
-141.80904261380181
 30
0.0
 11
11.00000000000003
 21
-144.0157984517264
 31
0.0
  0
LINE
  5
A0
  8
0
 10
10.999999999999909
 20
-129.80904261380181
 30
0.0
 11
11.00000000000003
 21
-132.0157984517264
 31
0.0
  0
ARC
  5
A1
  8
0
 10
8.6154600685083835
 20
-129.4138979202813
 30
0.0
 40
2.417058132047242
 50
350.59095721248917
 51
55.052872008162652
  0
LINE
  5
A2
  8
0
 10
-9.9999999999999716
 20
-97.286951776278343
 30
0.0
 11
-9.9999999999999716
 21
-107.0801959383533
 31
0.0
  0
ARC
  5
A3
  8
0
 10
-3.1051779622212901
 20
-112.6272077215848
 30
0.0
 40
9.4434965906910957
 50
213.27923982350899
 51
276.72076017648999
  0
ARC
  5
A4
  8
0
 10
-3.1051779622212901
 20
-114.8339635595096
 30
0.0
 40
9.4434965906910957
 50
213.27923982350899
 51
276.72076017648999
  0
ARC
  5
A5
  8
0
 10
-3.1051779622212901
 20
-102.8339635595096
 30
0.0
 40
9.4434965906910957
 50
213.27923982350899
 51
276.72076017648999
  0
ARC
  5
A6
  8
0
 10
-3.1051779622212901
 20
-100.6272077215848
 30
0.0
 40
9.4434965906910957
 50
213.27923982350899
 51
276.72076017648999
  0
LINE
  5
A7
  8
0
 10
-9.9999999999999716
 20
-109.2869517762782
 30
0.0
 11
-10.00000000000008
 21
-119.0801959383533
 31
0.0
  0
ARC
  5
A8
  8
0
 10
-8.6154600685083267
 20
-117.4138979202812
 30
0.0
 40
2.417058132047242
 50
124.94712799183731
 51
189.4090427875108
  0
LINE
  5
A9
  8
0
 10
-11.00000000000008
 20
-117.80904261380169
 30
0.0
 11
-10.99999999999997
 21
-120.0157984517264
 31
0.0
  0
ARC
  5
AA
  8
0
 10
-8.6154600685083267
 20
-105.4138979202812
 30
0.0
 40
2.417058132047242
 50
124.94712799183731
 51
189.4090427875108
  0
LINE
  5
AB
  8
0
 10
-11.00000000000008
 20
-105.80904261380169
 30
0.0
 11
-10.99999999999997
 21
-108.0157984517264
 31
0.0
  0
LINE
  5
AC
  8
0
 10
10.00000000000003
 20
-97.286951776278343
 30
0.0
 11
10.00000000000003
 21
-107.0801959383533
 31
0.0
  0
ARC
  5
AD
  8
0
 10
3.1051779622212332
 20
-112.6272077215848
 30
0.0
 40
9.4434965906910957
 50
263.27923982351001
 51
326.72076017649113
  0
ARC
  5
AE
  8
0
 10
3.1051779622212332
 20
-114.8339635595096
 30
0.0
 40
9.4434965906910957
 50
263.27923982351001
 51
326.72076017649113
  0
ARC
  5
AF
  8
0
 10
3.1051779622212332
 20
-102.8339635595096
 30
0.0
 40
9.4434965906910957
 50
263.27923982351001
 51
326.72076017649113
  0
ARC
  5
B0
  8
0
 10
3.1051779622212332
 20
-100.6272077215848
 30
0.0
 40
9.4434965906910957
 50
263.27923982351001
 51
326.72076017649113
  0
LINE
  5
B1
  8
0
 10
10.00000000000003
 20
-109.2869517762782
 30
0.0
 11
10.00000000000003
 21
-119.0801959383533
 31
0.0
  0
LINE
  5
B2
  8
0
 10
10.999999999999909
 20
-117.80904261380169
 30
0.0
 11
11.00000000000003
 21
-120.0157984517264
 31
0.0
  0
ARC
  5
B3
  8
0
 10
8.6154600685083835
 20
-117.4138979202812
 30
0.0
 40
2.417058132047242
 50
350.59095721248917
 51
55.052872008162652
  0
ARC
  5
B4
  8
0
 10
8.6154600685083835
 20
-105.4138979202812
 30
0.0
 40
2.417058132047242
 50
350.59095721248917
 51
55.052872008162652
  0
LINE
  5
B5
  8
0
 10
10.999999999999909
 20
-105.80904261380169
 30
0.0
 11
11.00000000000003
 21
-108.0157984517264
 31
0.0
  0
ARC
  5
B6
  8
0
 10
-3.1051779622212901
 20
-90.833963559509584
 30
0.0
 40
9.4434965906910957
 50
213.27923982350899
 51
276.72076017648999
  0
LINE
  5
B7
  8
0
 10
-9.9999999999999716
 20
-73.286951776278329
 30
0.0
 11
-9.9999999999999716
 21
-83.080195938353427
 31
0.0
  0
ARC
  5
B8
  8
0
 10
-3.1051779622212901
 20
-76.627207721584796
 30
0.0
 40
9.4434965906910957
 50
213.27923982350899
 51
276.72076017648999
  0
ARC
  5
B9
  8
0
 10
-3.1051779622212901
 20
-78.833963559509584
 30
0.0
 40
9.4434965906910957
 50
213.27923982350899
 51
276.72076017648999
  0
ARC
  5
BA
  8
0
 10
-3.1051779622212901
 20
-88.627207721584796
 30
0.0
 40
9.4434965906910957
 50
213.27923982350899
 51
276.72076017648999
  0
LINE
  5
BB
  8
0
 10
-9.9999999999999716
 20
-85.286951776278329
 30
0.0
 11
-10.00000000000008
 21
-95.080195938353427
 31
0.0
  0
ARC
  5
BC
  8
0
 10
-8.6154600685083267
 20
-93.413897920281215
 30
0.0
 40
2.417058132047242
 50
124.94712799183731
 51
189.4090427875108
  0
LINE
  5
BD
  8
0
 10
-11.00000000000008
 20
-93.809042613801694
 30
0.0
 11
-10.99999999999997
 21
-96.015798451726354
 31
0.0
  0
ARC
  5
BE
  8
0
 10
-8.6154600685083267
 20
-81.413897920281215
 30
0.0
 40
2.417058132047242
 50
124.94712799183731
 51
189.4090427875108
  0
LINE
  5
BF
  8
0
 10
-11.00000000000008
 20
-81.809042613801694
 30
0.0
 11
-10.99999999999997
 21
-84.015798451726369
 31
0.0
  0
ARC
  5
C0
  8
0
 10
3.1051779622212332
 20
-90.833963559509584
 30
0.0
 40
9.4434965906910957
 50
263.27923982351001
 51
326.72076017649113
  0
LINE
  5
C1
  8
0
 10
10.00000000000003
 20
-73.286951776278329
 30
0.0
 11
10.00000000000003
 21
-83.080195938353427
 31
0.0
  0
ARC
  5
C2
  8
0
 10
3.1051779622212332
 20
-76.627207721584796
 30
0.0
 40
9.4434965906910957
 50
263.27923982351001
 51
326.72076017649113
  0
ARC
  5
C3
  8
0
 10
3.1051779622212332
 20
-78.833963559509584
 30
0.0
 40
9.4434965906910957
 50
263.27923982351001
 51
326.72076017649113
  0
ARC
  5
C4
  8
0
 10
3.1051779622212332
 20
-88.627207721584796
 30
0.0
 40
9.4434965906910957
 50
263.27923982351001
 51
326.72076017649113
  0
LINE
  5
C5
  8
0
 10
10.00000000000003
 20
-85.286951776278329
 30
0.0
 11
10.00000000000003
 21
-95.080195938353427
 31
0.0
  0
ARC
  5
C6
  8
0
 10
8.6154600685083835
 20
-93.413897920281215
 30
0.0
 40
2.417058132047242
 50
350.59095721248917
 51
55.052872008162652
  0
LINE
  5
C7
  8
0
 10
10.999999999999909
 20
-93.809042613801694
 30
0.0
 11
11.00000000000003
 21
-96.015798451726354
 31
0.0
  0
LINE
  5
C8
  8
0
 10
10.999999999999909
 20
-81.809042613801694
 30
0.0
 11
11.00000000000003
 21
-84.015798451726369
 31
0.0
  0
ARC
  5
C9
  8
0
 10
8.6154600685083835
 20
-81.413897920281215
 30
0.0
 40
2.417058132047242
 50
350.59095721248917
 51
55.052872008162652
  0
LINE
  5
CA
  8
0
 10
-9.9999999999999716
 20
-49.286951776278329
 30
0.0
 11
-9.9999999999999716
 21
-59.080195938353427
 31
0.0
  0
ARC
  5
CB
  8
0
 10
-3.1051779622212901
 20
-64.627207721584796
 30
0.0
 40
9.4434965906910957
 50
213.27923982350899
 51
276.72076017648999
  0
ARC
  5
CC
  8
0
 10
-3.1051779622212901
 20
-54.833963559509577
 30
0.0
 40
9.4434965906910957
 50
213.27923982350899
 51
276.72076017648999
  0
ARC
  5
CD
  8
0
 10
-3.1051779622212901
 20
-52.627207721584803
 30
0.0
 40
9.4434965906910957
 50
213.27923982350899
 51
276.72076017648999
  0
ARC
  5
CE
  8
0
 10
-3.1051779622212901
 20
-66.833963559509584
 30
0.0
 40
9.4434965906910957
 50
213.27923982350899
 51
276.72076017648999
  0
LINE
  5
CF
  8
0
 10
-9.9999999999999716
 20
-61.286951776278322
 30
0.0
 11
-10.00000000000008
 21
-71.080195938353427
 31
0.0
  0
ARC
  5
D0
  8
0
 10
-8.6154600685083267
 20
-69.413897920281215
 30
0.0
 40
2.417058132047242
 50
124.94712799183731
 51
189.4090427875108
  0
LINE
  5
D1
  8
0
 10
-11.00000000000008
 20
-69.809042613801694
 30
0.0
 11
-10.99999999999997
 21
-72.015798451726369
 31
0.0
  0
ARC
  5
D2
  8
0
 10
-8.6154600685083267
 20
-57.413897920281222
 30
0.0
 40
2.417058132047242
 50
124.94712799183731
 51
189.4090427875108
  0
LINE
  5
D3
  8
0
 10
-11.00000000000008
 20
-57.809042613801687
 30
0.0
 11
-10.99999999999997
 21
-60.015798451726369
 31
0.0
  0
LINE
  5
D4
  8
0
 10
10.00000000000003
 20
-49.286951776278329
 30
0.0
 11
10.00000000000003
 21
-59.080195938353427
 31
0.0
  0
ARC
  5
D5
  8
0
 10
3.1051779622212332
 20
-64.627207721584796
 30
0.0
 40
9.4434965906910957
 50
263.27923982351001
 51
326.72076017649113
  0
ARC
  5
D6
  8
0
 10
3.1051779622212332
 20
-54.833963559509577
 30
0.0
 40
9.4434965906910957
 50
263.27923982351001
 51
326.72076017649113
  0
ARC
  5
D7
  8
0
 10
3.1051779622212332
 20
-52.627207721584803
 30
0.0
 40
9.4434965906910957
 50
263.27923982351001
 51
326.72076017649113
  0
ARC
  5
D8
  8
0
 10
3.1051779622212332
 20
-66.833963559509584
 30
0.0
 40
9.4434965906910957
 50
263.27923982351001
 51
326.72076017649113
  0
LINE
  5
D9
  8
0
 10
10.00000000000003
 20
-61.286951776278322
 30
0.0
 11
10.00000000000003
 21
-71.080195938353427
 31
0.0
  0
LINE
  5
DA
  8
0
 10
10.999999999999909
 20
-69.809042613801694
 30
0.0
 11
11.00000000000003
 21
-72.015798451726369
 31
0.0
  0
ARC
  5
DB
  8
0
 10
8.6154600685083835
 20
-69.413897920281215
 30
0.0
 40
2.417058132047242
 50
350.59095721248917
 51
55.052872008162652
  0
ARC
  5
DC
  8
0
 10
8.6154600685083835
 20
-57.413897920281222
 30
0.0
 40
2.417058132047242
 50
350.59095721248917
 51
55.052872008162652
  0
LINE
  5
DD
  8
0
 10
10.999999999999909
 20
-57.809042613801687
 30
0.0
 11
11.00000000000003
 21
-60.015798451726369
 31
0.0
  0
ARC
  5
DE
  8
0
 10
-8.6154600685083267
 20
-33.413897920281222
 30
0.0
 40
2.417058132047242
 50
124.94712799183731
 51
189.4090427875108
  0
LINE
  5
DF
  8
0
 10
-9.9999999999999716
 20
-25.286951776278329
 30
0.0
 11
-9.9999999999999716
 21
-35.080195938353427
 31
0.0
  0
ARC
  5
E0
  8
0
 10
-3.1051779622212901
 20
-42.833963559509577
 30
0.0
 40
9.4434965906910957
 50
213.27923982350899
 51
276.72076017648999
  0
ARC
  5
E1
  8
0
 10
-3.1051779622212901
 20
-28.627207721584799
 30
0.0
 40
9.4434965906910957
 50
213.27923982350899
 51
276.72076017648999
  0
ARC
  5
E2
  8
0
 10
-3.1051779622212901
 20
-30.833963559509581
 30
0.0
 40
9.4434965906910957
 50
213.27923982350899
 51
276.72076017648999
  0
ARC
  5
E3
  8
0
 10
-3.1051779622212901
 20
-40.627207721584789
 30
0.0
 40
9.4434965906910957
 50
213.27923982350899
 51
276.72076017648999
  0
ARC
  5
E4
  8
0
 10
-8.6154600685083267
 20
-45.413897920281208
 30
0.0
 40
2.417058132047242
 50
124.94712799183731
 51
189.4090427875108
  0
LINE
  5
E5
  8
0
 10
-9.9999999999999716
 20
-37.286951776278329
 30
0.0
 11
-10.00000000000008
 21
-47.08019593835342
 31
0.0
  0
LINE
  5
E6
  8
0
 10
-11.00000000000008
 20
-45.809042613801687
 30
0.0
 11
-10.99999999999997
 21
-48.015798451726369
 31
0.0
  0
LINE
  5
E7
  8
0
 10
-11.00000000000008
 20
-33.809042613801701
 30
0.0
 11
-10.99999999999997
 21
-36.015798451726369
 31
0.0
  0
ARC
  5
E8
  8
0
 10
8.6154600685083835
 20
-33.413897920281222
 30
0.0
 40
2.417058132047242
 50
350.59095721248917
 51
55.052872008162652
  0
LINE
  5
E9
  8
0
 10
10.00000000000003
 20
-25.286951776278329
 30
0.0
 11
10.00000000000003
 21
-35.080195938353427
 31
0.0
  0
ARC
  5
EA
  8
0
 10
3.1051779622212332
 20
-42.833963559509577
 30
0.0
 40
9.4434965906910957
 50
263.27923982351001
 51
326.72076017649113
  0
ARC
  5
EB
  8
0
 10
3.1051779622212332
 20
-28.627207721584799
 30
0.0
 40
9.4434965906910957
 50
263.27923982351001
 51
326.72076017649113
  0
ARC
  5
EC
  8
0
 10
3.1051779622212332
 20
-30.833963559509581
 30
0.0
 40
9.4434965906910957
 50
263.27923982351001
 51
326.72076017649113
  0
ARC
  5
ED
  8
0
 10
3.1051779622212332
 20
-40.627207721584789
 30
0.0
 40
9.4434965906910957
 50
263.27923982351001
 51
326.72076017649113
  0
ARC
  5
EE
  8
0
 10
8.6154600685083835
 20
-45.413897920281208
 30
0.0
 40
2.417058132047242
 50
350.59095721248917
 51
55.052872008162652
  0
LINE
  5
EF
  8
0
 10
10.00000000000003
 20
-37.286951776278329
 30
0.0
 11
10.00000000000003
 21
-47.08019593835342
 31
0.0
  0
LINE
  5
F0
  8
0
 10
10.999999999999909
 20
-45.809042613801687
 30
0.0
 11
11.00000000000003
 21
-48.015798451726369
 31
0.0
  0
LINE
  5
F1
  8
0
 10
10.999999999999909
 20
-33.809042613801701
 30
0.0
 11
11.00000000000003
 21
-36.015798451726369
 31
0.0
  0
LINE
  5
F2
  8
0
 10
-11.00000000000003
 20
-10.0
 30
0.0
 11
-10.99999999999997
 21
-12.01579845172637
 31
0.0
  0
ARC
  5
F3
  8
0
 10
-3.1051779622212901
 20
-4.6272077215847949
 30
0.0
 40
9.4434965906910957
 50
214.67641058125611
 51
276.72076017648999
  0
LINE
  5
F4
  8
0
 10
-9.9999999999999716
 20
-9.9999999999999432
 30
0.0
 11
-9.9999999999999716
 21
-11.08019593835342
 31
0.0
  0
ARC
  5
F5
  8
0
 10
-3.1051779622212901
 20
-16.627207721584789
 30
0.0
 40
9.4434965906910957
 50
213.27923982350899
 51
276.72076017648999
  0
ARC
  5
F6
  8
0
 10
-3.1051779622212901
 20
-6.8339635595095842
 30
0.0
 40
9.4434965906910957
 50
213.27923982350899
 51
276.72076017648999
  0
ARC
  5
F7
  8
0
 10
-3.1051779622212901
 20
-18.833963559509581
 30
0.0
 40
9.4434965906910957
 50
213.27923982350899
 51
276.72076017648999
  0
LINE
  5
F8
  8
0
 10
-11.00000000000008
 20
-21.80904261380169
 30
0.0
 11
-10.99999999999997
 21
-24.015798451726369
 31
0.0
  0
LINE
  5
F9
  8
0
 10
-9.9999999999999716
 20
-13.286951776278331
 30
0.0
 11
-10.00000000000008
 21
-23.08019593835343
 31
0.0
  0
ARC
  5
FA
  8
0
 10
-8.6154600685083267
 20
-21.413897920281212
 30
0.0
 40
2.417058132047242
 50
124.94712799183731
 51
189.4090427875108
  0
LINE
  5
FB
  8
0
 10
10.99999999999997
 20
-10.0
 30
0.0
 11
11.00000000000003
 21
-12.01579845172637
 31
0.0
  0
ARC
  5
FC
  8
0
 10
3.1051779622212332
 20
-4.6272077215847949
 30
0.0
 40
9.4434965906910957
 50
263.27923982351001
 51
325.32358941874401
  0
LINE
  5
FD
  8
0
 10
10.00000000000008
 20
-9.9999999999999432
 30
0.0
 11
10.00000000000003
 21
-11.08019593835342
 31
0.0
  0
ARC
  5
FE
  8
0
 10
3.1051779622212332
 20
-16.627207721584789
 30
0.0
 40
9.4434965906910957
 50
263.27923982351001
 51
326.72076017649113
  0
ARC
  5
FF
  8
0
 10
3.1051779622212332
 20
-6.8339635595095842
 30
0.0
 40
9.4434965906910957
 50
263.27923982351001
 51
326.72076017649113
  0
ARC
  5
100
  8
0
 10
3.1051779622212332
 20
-18.833963559509581
 30
0.0
 40
9.4434965906910957
 50
263.27923982351001
 51
326.72076017649113
  0
LINE
  5
101
  8
0
 10
10.999999999999909
 20
-21.80904261380169
 30
0.0
 11
11.00000000000003
 21
-24.015798451726369
 31
0.0
  0
LINE
  5
102
  8
0
 10
10.00000000000003
 20
-13.286951776278331
 30
0.0
 11
10.00000000000003
 21
-23.08019593835343
 31
0.0
  0
ARC
  5
103
  8
0
 10
8.6154600685083835
 20
-21.413897920281212
 30
0.0
 40
2.417058132047242
 50
350.59095721248917
 51
55.052872008162652
  0
LINE
  5
104
  8
0
 10
-69.999999999999915
 20
7.4999999999999432
 30
0.0
 11
-70.000000000000028
 21
121.4999999999999
 31
0.0
  0
LINE
  5
105
  8
0
 10
64.999999999999915
 20
0.0
 30
0.0
 11
-64.999999999999915
 21
-0.0000000000000568
 31
0.0
  0
LINE
  5
106
  8
0
 10
69.999999999999972
 20
121.4999999999999
 30
0.0
 11
69.999999999999915
 21
7.5
 31
0.0
  0
ARC
  5
107
  8
0
 10
62.338885004564048
 20
7.1907433302906147
 30
0.0
 40
7.6673543456040036
 50
290.30825796284068
 51
2.311606985199306
  0
ARC
  5
108
  8
0
 10
-62.338885004564048
 20
7.1907433302905011
 30
0.0
 40
7.667354345603969
 50
177.6883930148002
 51
249.69174203715909
  0
ARC
  5
109
  8
0
 10
-62.603855265264571
 20
7.1669157877881844
 30
0.0
 40
12.400618911043569
 50
178.4608336668656
 51
258.85878284131428
  0
ARC
  5
10A
  8
0
 10
62.60385526526462
 20
7.1669157877882981
 30
0.0
 40
12.40061891104359
 50
281.14121715868561
 51
1.539166333134077
  0
LINE
  5
10B
  8
0
 10
-10.99999999999997
 20
-10.0
 30
0.0
 11
-15.99999999999997
 21
-5.000000000000056
 31
0.0
  0
LINE
  5
10C
  8
0
 10
-10.99999999999986
 20
-10.0
 30
0.0
 11
10.999999999999909
 21
-10.0
 31
0.0
  0
LINE
  5
10D
  8
0
 10
11.00000000000003
 20
-10.0
 30
0.0
 11
16.000000000000028
 21
-5.000000000000056
 31
0.0
  0
ENDSEC
  0
EOF
