  0
SECTION
  2
HEADER
  9
$ACADVER
  1
AC1009
  9
$INSBASE
 10
0.0
 20
0.0
 30
0.0
  9
$EXTMIN
 10
-60.000000000000057
 20
-0.0000000000000284
 30
0.0
  9
$EXTMAX
 10
60.000000000000341
 20
1200.0
 30
0.0
  9
$LIMMIN
 10
0.0
 20
0.0
  9
$LIMMAX
 10
420.0
 20
297.0
  9
$ORTHOMODE
 70
     1
  9
$REGENMODE
 70
     1
  9
$FILLMODE
 70
     1
  9
$QTEXTMODE
 70
     0
  9
$MIRRTEXT
 70
     1
  9
$DRAGMODE
 70
     2
  9
$LTSCALE
 40
1.0
  9
$OSMODE
 70
    47
  9
$ATTMODE
 70
     1
  9
$TEXTSIZE
 40
3.5
  9
$TRACEWID
 40
0.05
  9
$TEXTSTYLE
  7
SST
  9
$CLAYER
  8
0
  9
$CELTYPE
  6
BYLAYER
  9
$CECOLOR
 62
   256
  9
$DIMSCALE
 40
1.0
  9
$DIMASZ
 40
0.18
  9
$DIMEXO
 40
0.0625
  9
$DIMDLI
 40
0.38
  9
$DIMRND
 40
0.0
  9
$DIMDLE
 40
0.0
  9
$DIMEXE
 40
0.18
  9
$DIMTP
 40
0.0
  9
$DIMTM
 40
0.0
  9
$DIMTXT
 40
0.18
  9
$DIMCEN
 40
0.09
  9
$DIMTSZ
 40
0.0
  9
$DIMTOL
 70
     0
  9
$DIMLIM
 70
     0
  9
$DIMTIH
 70
     1
  9
$DIMTOH
 70
     1
  9
$DIMSE1
 70
     0
  9
$DIMSE2
 70
     0
  9
$DIMTAD
 70
     0
  9
$DIMZIN
 70
     0
  9
$DIMBLK
  1

  9
$DIMASO
 70
     1
  9
$DIMSHO
 70
     1
  9
$DIMPOST
  1

  9
$DIMAPOST
  1

  9
$DIMALT
 70
     0
  9
$DIMALTD
 70
     2
  9
$DIMALTF
 40
25.399999999999999
  9
$DIMLFAC
 40
1.0
  9
$DIMTOFL
 70
     0
  9
$DIMTVP
 40
0.0
  9
$DIMTIX
 70
     0
  9
$DIMSOXD
 70
     0
  9
$DIMSAH
 70
     0
  9
$DIMBLK1
  1

  9
$DIMBLK2
  1

  9
$DIMSTYLE
  2
STANDARD
  9
$DIMCLRD
 70
     0
  9
$DIMCLRE
 70
     0
  9
$DIMCLRT
 70
     0
  9
$DIMTFAC
 40
1.0
  9
$DIMGAP
 40
0.09
  9
$LUNITS
 70
     2
  9
$LUPREC
 70
     4
  9
$SKETCHINC
 40
0.1
  9
$FILLETRAD
 40
0.0
  9
$AUNITS
 70
     0
  9
$AUPREC
 70
     2
  9
$MENU
  1
acad
  9
$ELEVATION
 40
0.0
  9
$PELEVATION
 40
0.0
  9
$THICKNESS
 40
0.0
  9
$LIMCHECK
 70
     0
  9
$BLIPMODE
 70
     0
  9
$CHAMFERA
 40
0.0
  9
$CHAMFERB
 40
0.0
  9
$SKPOLY
 70
     0
  9
$TDCREATE
 40
2449450.4613901619
  9
$TDUPDATE
 40
2453443.5662215971
  9
$TDINDWG
 40
1.5724475694
  9
$TDUSRTIMER
 40
1.5724475694
  9
$USRTIMER
 70
     1
  9
$ANGBASE
 50
0.0
  9
$ANGDIR
 70
     0
  9
$PDMODE
 70
     0
  9
$PDSIZE
 40
0.0
  9
$PLINEWID
 40
0.0
  9
$COORDS
 70
     1
  9
$SPLFRAME
 70
     0
  9
$SPLINETYPE
 70
     6
  9
$SPLINESEGS
 70
     8
  9
$ATTDIA
 70
     0
  9
$ATTREQ
 70
     1
  9
$HANDLING
 70
     1
  9
$HANDSEED
  5
1EE
  9
$SURFTAB1
 70
     6
  9
$SURFTAB2
 70
     6
  9
$SURFTYPE
 70
     6
  9
$SURFU
 70
     6
  9
$SURFV
 70
     6
  9
$UCSNAME
  2

  9
$UCSORG
 10
0.0
 20
0.0
 30
0.0
  9
$UCSXDIR
 10
1.0
 20
0.0
 30
0.0
  9
$UCSYDIR
 10
0.0
 20
1.0
 30
0.0
  9
$PUCSNAME
  2

  9
$PUCSORG
 10
0.0
 20
0.0
 30
0.0
  9
$PUCSXDIR
 10
1.0
 20
0.0
 30
0.0
  9
$PUCSYDIR
 10
0.0
 20
1.0
 30
0.0
  9
$USERI1
 70
     0
  9
$USERI2
 70
     0
  9
$USERI3
 70
     0
  9
$USERI4
 70
     0
  9
$USERI5
 70
     0
  9
$USERR1
 40
0.0
  9
$USERR2
 40
0.0
  9
$USERR3
 40
0.0
  9
$USERR4
 40
0.0
  9
$USERR5
 40
0.0
  9
$WORLDVIEW
 70
     1
  9
$SHADEDGE
 70
     3
  9
$SHADEDIF
 70
    70
  9
$TILEMODE
 70
     1
  9
$MAXACTVP
 70
    16
  9
$PLIMCHECK
 70
     0
  9
$PEXTMIN
 10
1.0000000000000000E+020
 20
1.0000000000000000E+020
 30
1.0000000000000000E+020
  9
$PEXTMAX
 10
-1.0000000000000000E+020
 20
-1.0000000000000000E+020
 30
-1.0000000000000000E+020
  9
$PLIMMIN
 10
0.0
 20
0.0
  9
$PLIMMAX
 10
420.0
 20
297.0
  9
$UNITMODE
 70
     0
  9
$VISRETAIN
 70
     0
  9
$PLINEGEN
 70
     0
  9
$PSLTSCALE
 70
     1
  0
ENDSEC
  0
SECTION
  2
TABLES
  0
TABLE
  2
VPORT
 70
     2
  0
VPORT
  2
*ACTIVE
 70
     0
 10
0.0
 20
0.0
 11
1.0
 21
1.0
 12
48.75435699794275
 22
617.95490709987121
 13
0.0
 23
0.0
 14
0.1
 24
0.1
 15
10.0
 25
10.0
 16
0.0
 26
0.0
 36
1.0
 17
0.0
 27
0.0
 37
0.0
 40
1295.7173933677291
 41
1.4993646759847521
 42
50.0
 43
0.0
 44
0.0
 50
0.0
 51
0.0
 71
     0
 72
   100
 73
     1
 74
     1
 75
     1
 76
     0
 77
     0
 78
     0
  0
ENDTAB
  0
TABLE
  2
LTYPE
 70
     1
  0
LTYPE
  2
CONTINUOUS
 70
     0
  3
Solid line
 72
    65
 73
     0
 40
0.0
  0
ENDTAB
  0
TABLE
  2
LAYER
 70
     1
  0
LAYER
  2
0
 70
     0
 62
     7
  6
CONTINUOUS
  0
ENDTAB
  0
TABLE
  2
STYLE
 70
     2
  0
STYLE
  2
STANDARD
 70
     0
 40
0.0
 41
1.0
 50
0.0
 71
     0
 42
3.0
  3
txt
  4

  0
STYLE
  2
SST
 70
     0
 40
0.0
 41
1.0
 50
0.0
 71
     0
 42
3.5
  3
romans.shx
  4

  0
ENDTAB
  0
TABLE
  2
VIEW
 70
     0
  0
ENDTAB
  0
TABLE
  2
UCS
 70
     0
  0
ENDTAB
  0
TABLE
  2
APPID
 70
     1
  0
APPID
  2
ACAD
 70
     0
  0
ENDTAB
  0
TABLE
  2
DIMSTYLE
 70
     2
  0
DIMSTYLE
  2
NORDIC
 70
     0
  3

  4

  5

  6

  7

 40
2.0
 41
2.0
 42
1.0
 43
10.0
 44
1.0
 45
0.0
 46
0.0
 47
0.0
 48
0.0
140
3.5
141
2.5
142
0.0
143
25.399999999999999
144
1.0
145
0.0
146
1.0
147
1.0
 71
     0
 72
     0
 73
     0
 74
     0
 75
     0
 76
     0
 77
     1
 78
     8
170
     0
171
     2
172
     1
173
     0
174
     0
175
     0
176
     0
177
     0
178
     0
  0
DIMSTYLE
  2
STANDARD
 70
     0
  3

  4

  5

  6

  7

 40
1.0
 41
0.18
 42
0.0625
 43
0.38
 44
0.18
 45
0.0
 46
0.0
 47
0.0
 48
0.0
140
0.18
141
0.09
142
0.0
143
25.399999999999999
144
1.0
145
0.0
146
1.0
147
0.09
 71
     0
 72
     0
 73
     1
 74
     1
 75
     0
 76
     0
 77
     0
 78
     0
170
     0
171
     2
172
     0
173
     0
174
     0
175
     0
176
     0
177
     0
178
     0
  0
ENDTAB
  0
ENDSEC
  0
SECTION
  2
BLOCKS
  0
BLOCK
  8
0
  2
$MODEL_SPACE
 70
     0
 10
0.0
 20
0.0
 30
0.0
  3
$MODEL_SPACE
  1

  0
ENDBLK
  5
B
  8
0
  0
BLOCK
 67
     1
  8
0
  2
$PAPER_SPACE
 70
     0
 10
0.0
 20
0.0
 30
0.0
  3
$PAPER_SPACE
  1

  0
ENDBLK
  5
10
 67
     1
  8
0
  0
BLOCK
  8
0
  2
SIMPSON-STRONG-TIE
 70
     0
 10
0.0
 20
0.0
 30
0.0
  3
SIMPSON-STRONG-TIE
  1

  0
TEXT
  5
1D7
  8
0
  6
CONTINUOUS
 10
-4.7318727780691416
 20
4.4215860385237811
 30
0.0
 40
2.0
  1
SIMPSON
 50
316.94148639091338
  7
SST
 72
     1
 11
0.0
 21
0.0
 31
0.0
  0
TEXT
  5
1D8
  8
0
  6
CONTINUOUS
 10
-7.9648409725863862
 20
3.4769825481547749
 30
0.0
 40
2.0
  1
Strong-Tie
 50
316.94148639091338
  7
SST
 72
     1
 11
-2.0499999999999541
 21
-2.0499999999999541
 31
0.0
  0
ENDBLK
  5
1D9
  8
0
  0
ENDSEC
  0
SECTION
  2
ENTITIES
  0
LINE
  5
2C
  8
0
 10
-60.000000000000057
 20
-0.0000000000000284
 30
0.0
 11
-59.999999999999488
 21
1200.0
 31
0.0
  0
LINE
  5
2D
  8
0
 10
60.000000000000057
 20
0.0000000000000284
 30
0.0
 11
-60.000000000000057
 21
-0.0000000000000284
 31
0.0
  0
LINE
  5
2E
  8
0
 10
60.000000000000341
 20
1200.0
 30
0.0
 11
-59.999999999999488
 21
1200.0
 31
0.0
  0
CIRCLE
  5
2F
  8
0
 10
50.000000000000057
 20
10.0
 30
0.0
 40
2.5
  0
CIRCLE
  5
30
  8
0
 10
50.000000000000171
 20
50.0
 30
0.0
 40
2.5
  0
LINE
  5
31
  8
0
 10
60.000000000000057
 20
0.0000000000000284
 30
0.0
 11
60.000000000000341
 21
1200.0
 31
0.0
  0
CIRCLE
  5
32
  8
0
 10
50.000000000000391
 20
90.000000000000028
 30
0.0
 40
2.5
  0
CIRCLE
  5
33
  8
0
 10
30.00000000000006
 20
9.9999999999999432
 30
0.0
 40
2.5
  0
CIRCLE
  5
34
  8
0
 10
40.000000000000057
 20
29.999999999999972
 30
0.0
 40
2.5
  0
CIRCLE
  5
35
  8
0
 10
30.000000000000171
 20
49.999999999999943
 30
0.0
 40
2.5
  0
CIRCLE
  5
36
  8
0
 10
40.000000000000277
 20
70.000000000000028
 30
0.0
 40
2.5
  0
CIRCLE
  5
37
  8
0
 10
30.000000000000401
 20
89.999999999999986
 30
0.0
 40
2.5
  0
CIRCLE
  5
38
  8
0
 10
40.000000000000391
 20
110.0
 30
0.0
 40
2.5
  0
CIRCLE
  5
39
  8
0
 10
20.00000000000006
 20
29.999999999999918
 30
0.0
 40
2.5
  0
CIRCLE
  5
3A
  8
0
 10
10.00000000000005
 20
9.9999999999998863
 30
0.0
 40
2.5
  0
CIRCLE
  5
3B
  8
0
 10
10.000000000000171
 20
49.999999999999893
 30
0.0
 40
2.5
  0
CIRCLE
  5
3C
  8
0
 10
20.000000000000281
 20
69.999999999999972
 30
0.0
 40
2.5
  0
CIRCLE
  5
3D
  8
0
 10
10.000000000000391
 20
89.999999999999915
 30
0.0
 40
2.5
  0
CIRCLE
  5
3E
  8
0
 10
20.000000000000401
 20
109.9999999999999
 30
0.0
 40
2.5
  0
CIRCLE
  5
3F
  8
0
 10
0.0000000000000568
 20
29.999999999999861
 30
0.0
 40
2.5
  0
CIRCLE
  5
40
  8
0
 10
-9.9999999999999432
 20
9.9999999999998295
 30
0.0
 40
2.5
  0
CIRCLE
  5
41
  8
0
 10
-9.9999999999998295
 20
49.999999999999829
 30
0.0
 40
2.5
  0
CIRCLE
  5
42
  8
0
 10
0.0000000000002842
 20
69.999999999999915
 30
0.0
 40
2.5
  0
CIRCLE
  5
43
  8
0
 10
-9.9999999999996021
 20
89.999999999999844
 30
0.0
 40
2.5
  0
CIRCLE
  5
44
  8
0
 10
0.0000000000003979
 20
109.9999999999999
 30
0.0
 40
2.5
  0
CIRCLE
  5
45
  8
0
 10
-19.99999999999994
 20
29.999999999999861
 30
0.0
 40
2.5
  0
CIRCLE
  5
46
  8
0
 10
-29.99999999999995
 20
9.9999999999998295
 30
0.0
 40
2.5
  0
CIRCLE
  5
47
  8
0
 10
-9.9999999999999432
 20
9.9999999999998863
 30
0.0
 40
2.5
  0
CIRCLE
  5
48
  8
0
 10
-19.999999999999599
 20
109.9999999999999
 30
0.0
 40
2.5
  0
CIRCLE
  5
49
  8
0
 10
-19.999999999999709
 20
69.999999999999915
 30
0.0
 40
2.5
  0
CIRCLE
  5
4A
  8
0
 10
-29.999999999999829
 20
49.999999999999829
 30
0.0
 40
2.5
  0
CIRCLE
  5
4B
  8
0
 10
-29.999999999999599
 20
89.999999999999844
 30
0.0
 40
2.5
  0
CIRCLE
  5
4C
  8
0
 10
-9.9999999999998295
 20
49.999999999999893
 30
0.0
 40
2.5
  0
CIRCLE
  5
4D
  8
0
 10
-9.9999999999996021
 20
89.999999999999915
 30
0.0
 40
2.5
  0
CIRCLE
  5
4E
  8
0
 10
-39.999999999999773
 20
29.999999999999861
 30
0.0
 40
2.5
  0
CIRCLE
  5
4F
  8
0
 10
-29.999999999999769
 20
9.9999999999998295
 30
0.0
 40
2.5
  0
CIRCLE
  5
50
  8
0
 10
-29.999999999999769
 20
9.9999999999998863
 30
0.0
 40
2.5
  0
CIRCLE
  5
51
  8
0
 10
-49.999999999999773
 20
9.9999999999998295
 30
0.0
 40
2.5
  0
CIRCLE
  5
52
  8
0
 10
-29.999999999999432
 20
89.999999999999844
 30
0.0
 40
2.5
  0
CIRCLE
  5
53
  8
0
 10
-29.999999999999432
 20
89.999999999999915
 30
0.0
 40
2.5
  0
CIRCLE
  5
54
  8
0
 10
-29.999999999999659
 20
49.999999999999829
 30
0.0
 40
2.5
  0
CIRCLE
  5
55
  8
0
 10
-29.999999999999659
 20
49.999999999999893
 30
0.0
 40
2.5
  0
CIRCLE
  5
56
  8
0
 10
-49.999999999999659
 20
49.999999999999829
 30
0.0
 40
2.5
  0
CIRCLE
  5
57
  8
0
 10
-39.999999999999552
 20
69.999999999999915
 30
0.0
 40
2.5
  0
CIRCLE
  5
58
  8
0
 10
-49.999999999999432
 20
89.999999999999844
 30
0.0
 40
2.5
  0
CIRCLE
  5
59
  8
0
 10
-39.999999999999432
 20
109.9999999999999
 30
0.0
 40
2.5
  0
CIRCLE
  5
5A
  8
0
 10
50.000000000000512
 20
130.0
 30
0.0
 40
2.5
  0
CIRCLE
  5
5B
  8
0
 10
50.000000000000739
 20
170.00000000000011
 30
0.0
 40
2.5
  0
CIRCLE
  5
5C
  8
0
 10
30.000000000000512
 20
130.0
 30
0.0
 40
2.5
  0
CIRCLE
  5
5D
  8
0
 10
40.000000000000632
 20
150.00000000000011
 30
0.0
 40
2.5
  0
CIRCLE
  5
5E
  8
0
 10
30.000000000000739
 20
170.0
 30
0.0
 40
2.5
  0
CIRCLE
  5
5F
  8
0
 10
40.000000000000732
 20
190.00000000000011
 30
0.0
 40
2.5
  0
CIRCLE
  5
60
  8
0
 10
10.00000000000051
 20
129.99999999999989
 30
0.0
 40
2.5
  0
CIRCLE
  5
61
  8
0
 10
20.000000000000629
 20
150.0
 30
0.0
 40
2.5
  0
CIRCLE
  5
62
  8
0
 10
10.000000000000741
 20
170.0
 30
0.0
 40
2.5
  0
CIRCLE
  5
63
  8
0
 10
20.000000000000739
 20
190.0
 30
0.0
 40
2.5
  0
CIRCLE
  5
64
  8
0
 10
-9.9999999999994884
 20
129.99999999999989
 30
0.0
 40
2.5
  0
CIRCLE
  5
65
  8
0
 10
0.0000000000006253
 20
150.0
 30
0.0
 40
2.5
  0
CIRCLE
  5
66
  8
0
 10
-9.999999999999261
 20
169.99999999999989
 30
0.0
 40
2.5
  0
CIRCLE
  5
67
  8
0
 10
0.000000000000739
 20
190.0
 30
0.0
 40
2.5
  0
CIRCLE
  5
68
  8
0
 10
-19.999999999999261
 20
190.0
 30
0.0
 40
2.5
  0
CIRCLE
  5
69
  8
0
 10
-19.999999999999371
 20
150.0
 30
0.0
 40
2.5
  0
CIRCLE
  5
6A
  8
0
 10
-29.999999999999488
 20
129.99999999999989
 30
0.0
 40
2.5
  0
CIRCLE
  5
6B
  8
0
 10
-29.999999999999261
 20
169.99999999999989
 30
0.0
 40
2.5
  0
CIRCLE
  5
6C
  8
0
 10
-9.9999999999994884
 20
129.99999999999989
 30
0.0
 40
2.5
  0
CIRCLE
  5
6D
  8
0
 10
-9.999999999999261
 20
170.0
 30
0.0
 40
2.5
  0
CIRCLE
  5
6E
  8
0
 10
-29.999999999999091
 20
169.99999999999989
 30
0.0
 40
2.5
  0
CIRCLE
  5
6F
  8
0
 10
-29.999999999999091
 20
170.0
 30
0.0
 40
2.5
  0
CIRCLE
  5
70
  8
0
 10
-29.999999999999321
 20
129.99999999999989
 30
0.0
 40
2.5
  0
CIRCLE
  5
71
  8
0
 10
-29.999999999999321
 20
129.99999999999989
 30
0.0
 40
2.5
  0
CIRCLE
  5
72
  8
0
 10
-49.999999999999318
 20
129.99999999999989
 30
0.0
 40
2.5
  0
CIRCLE
  5
73
  8
0
 10
-39.999999999999197
 20
150.0
 30
0.0
 40
2.5
  0
CIRCLE
  5
74
  8
0
 10
-49.999999999999091
 20
169.99999999999989
 30
0.0
 40
2.5
  0
CIRCLE
  5
75
  8
0
 10
-39.999999999999091
 20
190.0
 30
0.0
 40
2.5
  0
CIRCLE
  5
76
  8
0
 10
50.000000000000853
 20
210.00000000000011
 30
0.0
 40
2.5
  0
CIRCLE
  5
77
  8
0
 10
50.00000000000108
 20
250.00000000000011
 30
0.0
 40
2.5
  0
CIRCLE
  5
78
  8
0
 10
30.000000000000849
 20
210.0
 30
0.0
 40
2.5
  0
CIRCLE
  5
79
  8
0
 10
40.000000000000959
 20
230.0000000000002
 30
0.0
 40
2.5
  0
CIRCLE
  5
7A
  8
0
 10
30.00000000000108
 20
250.00000000000011
 30
0.0
 40
2.5
  0
CIRCLE
  5
7B
  8
0
 10
40.00000000000108
 20
270.00000000000011
 30
0.0
 40
2.5
  0
CIRCLE
  5
7C
  8
0
 10
10.000000000000851
 20
210.0
 30
0.0
 40
2.5
  0
CIRCLE
  5
7D
  8
0
 10
20.00000000000097
 20
230.00000000000011
 30
0.0
 40
2.5
  0
CIRCLE
  5
7E
  8
0
 10
10.00000000000108
 20
250.0
 30
0.0
 40
2.5
  0
CIRCLE
  5
7F
  8
0
 10
20.00000000000108
 20
270.00000000000011
 30
0.0
 40
2.5
  0
CIRCLE
  5
80
  8
0
 10
-9.9999999999991473
 20
209.99999999999989
 30
0.0
 40
2.5
  0
CIRCLE
  5
81
  8
0
 10
0.0000000000009663
 20
230.0
 30
0.0
 40
2.5
  0
CIRCLE
  5
82
  8
0
 10
-9.9999999999989182
 20
250.0
 30
0.0
 40
2.5
  0
CIRCLE
  5
83
  8
0
 10
0.00000000000108
 20
270.0
 30
0.0
 40
2.5
  0
CIRCLE
  5
84
  8
0
 10
-19.99999999999892
 20
270.0
 30
0.0
 40
2.5
  0
CIRCLE
  5
85
  8
0
 10
-19.99999999999903
 20
230.0
 30
0.0
 40
2.5
  0
CIRCLE
  5
86
  8
0
 10
-29.999999999999151
 20
209.99999999999989
 30
0.0
 40
2.5
  0
CIRCLE
  5
87
  8
0
 10
-29.99999999999892
 20
250.0
 30
0.0
 40
2.5
  0
CIRCLE
  5
88
  8
0
 10
-9.9999999999991473
 20
210.0
 30
0.0
 40
2.5
  0
CIRCLE
  5
89
  8
0
 10
-9.9999999999989182
 20
250.0
 30
0.0
 40
2.5
  0
CIRCLE
  5
8A
  8
0
 10
-29.999999999998749
 20
250.0
 30
0.0
 40
2.5
  0
CIRCLE
  5
8B
  8
0
 10
-29.999999999998749
 20
250.0
 30
0.0
 40
2.5
  0
CIRCLE
  5
8C
  8
0
 10
-29.99999999999898
 20
209.99999999999989
 30
0.0
 40
2.5
  0
CIRCLE
  5
8D
  8
0
 10
-29.99999999999898
 20
210.0
 30
0.0
 40
2.5
  0
CIRCLE
  5
8E
  8
0
 10
-49.99999999999897
 20
209.99999999999989
 30
0.0
 40
2.5
  0
CIRCLE
  5
8F
  8
0
 10
-39.999999999998863
 20
230.0
 30
0.0
 40
2.5
  0
CIRCLE
  5
90
  8
0
 10
-49.999999999998749
 20
250.0
 30
0.0
 40
2.5
  0
CIRCLE
  5
91
  8
0
 10
-39.999999999998749
 20
270.0
 30
0.0
 40
2.5
  0
CIRCLE
  5
92
  8
0
 10
50.000000000001187
 20
290.00000000000011
 30
0.0
 40
2.5
  0
CIRCLE
  5
93
  8
0
 10
50.000000000001421
 20
330.00000000000023
 30
0.0
 40
2.5
  0
CIRCLE
  5
94
  8
0
 10
30.00000000000119
 20
290.00000000000011
 30
0.0
 40
2.5
  0
CIRCLE
  5
95
  8
0
 10
40.0000000000013
 20
310.00000000000023
 30
0.0
 40
2.5
  0
CIRCLE
  5
96
  8
0
 10
30.000000000001421
 20
330.00000000000011
 30
0.0
 40
2.5
  0
CIRCLE
  5
97
  8
0
 10
40.000000000001421
 20
350.00000000000023
 30
0.0
 40
2.5
  0
CIRCLE
  5
98
  8
0
 10
10.00000000000119
 20
290.0
 30
0.0
 40
2.5
  0
CIRCLE
  5
99
  8
0
 10
20.000000000001311
 20
310.00000000000011
 30
0.0
 40
2.5
  0
CIRCLE
  5
9A
  8
0
 10
10.000000000001419
 20
330.00000000000011
 30
0.0
 40
2.5
  0
CIRCLE
  5
9B
  8
0
 10
20.000000000001421
 20
350.00000000000011
 30
0.0
 40
2.5
  0
CIRCLE
  5
9C
  8
0
 10
-9.9999999999988063
 20
290.0
 30
0.0
 40
2.5
  0
CIRCLE
  5
9D
  8
0
 10
0.0000000000013074
 20
310.00000000000011
 30
0.0
 40
2.5
  0
CIRCLE
  5
9E
  8
0
 10
-9.9999999999985771
 20
330.0
 30
0.0
 40
2.5
  0
CIRCLE
  5
9F
  8
0
 10
0.0000000000014211
 20
350.00000000000011
 30
0.0
 40
2.5
  0
CIRCLE
  5
A0
  8
0
 10
-19.999999999998579
 20
350.00000000000011
 30
0.0
 40
2.5
  0
CIRCLE
  5
A1
  8
0
 10
-19.999999999998689
 20
310.00000000000011
 30
0.0
 40
2.5
  0
CIRCLE
  5
A2
  8
0
 10
-29.99999999999881
 20
290.0
 30
0.0
 40
2.5
  0
CIRCLE
  5
A3
  8
0
 10
-29.999999999998579
 20
330.0
 30
0.0
 40
2.5
  0
CIRCLE
  5
A4
  8
0
 10
-9.9999999999988063
 20
290.0
 30
0.0
 40
2.5
  0
CIRCLE
  5
A5
  8
0
 10
-9.9999999999985771
 20
330.00000000000011
 30
0.0
 40
2.5
  0
CIRCLE
  5
A6
  8
0
 10
-29.999999999998408
 20
330.0
 30
0.0
 40
2.5
  0
CIRCLE
  5
A7
  8
0
 10
-29.999999999998408
 20
330.00000000000011
 30
0.0
 40
2.5
  0
CIRCLE
  5
A8
  8
0
 10
-29.999999999998639
 20
290.0
 30
0.0
 40
2.5
  0
CIRCLE
  5
A9
  8
0
 10
-29.999999999998639
 20
290.0
 30
0.0
 40
2.5
  0
CIRCLE
  5
AA
  8
0
 10
-49.999999999998643
 20
290.0
 30
0.0
 40
2.5
  0
CIRCLE
  5
AB
  8
0
 10
-39.999999999998522
 20
310.00000000000011
 30
0.0
 40
2.5
  0
CIRCLE
  5
AC
  8
0
 10
-49.999999999998408
 20
330.0
 30
0.0
 40
2.5
  0
CIRCLE
  5
AD
  8
0
 10
-39.999999999998408
 20
350.00000000000011
 30
0.0
 40
2.5
  0
CIRCLE
  5
AE
  8
0
 10
50.000000000001528
 20
370.00000000000023
 30
0.0
 40
2.5
  0
CIRCLE
  5
AF
  8
0
 10
50.000000000001762
 20
410.00000000000023
 30
0.0
 40
2.5
  0
CIRCLE
  5
B0
  8
0
 10
30.000000000001538
 20
370.00000000000011
 30
0.0
 40
2.5
  0
CIRCLE
  5
B1
  8
0
 10
40.000000000001648
 20
390.00000000000028
 30
0.0
 40
2.5
  0
CIRCLE
  5
B2
  8
0
 10
30.000000000001759
 20
410.00000000000023
 30
0.0
 40
2.5
  0
CIRCLE
  5
B3
  8
0
 10
40.000000000001762
 20
430.00000000000028
 30
0.0
 40
2.5
  0
CIRCLE
  5
B4
  8
0
 10
10.000000000001529
 20
370.00000000000011
 30
0.0
 40
2.5
  0
CIRCLE
  5
B5
  8
0
 10
20.000000000001648
 20
390.00000000000028
 30
0.0
 40
2.5
  0
CIRCLE
  5
B6
  8
0
 10
10.00000000000176
 20
410.00000000000011
 30
0.0
 40
2.5
  0
CIRCLE
  5
B7
  8
0
 10
20.000000000001759
 20
430.00000000000028
 30
0.0
 40
2.5
  0
CIRCLE
  5
B8
  8
0
 10
-9.9999999999984652
 20
370.0
 30
0.0
 40
2.5
  0
CIRCLE
  5
B9
  8
0
 10
0.0000000000016485
 20
390.00000000000011
 30
0.0
 40
2.5
  0
CIRCLE
  5
BA
  8
0
 10
-9.9999999999982379
 20
410.0
 30
0.0
 40
2.5
  0
CIRCLE
  5
BB
  8
0
 10
0.0000000000017621
 20
430.00000000000011
 30
0.0
 40
2.5
  0
CIRCLE
  5
BC
  8
0
 10
-19.999999999998241
 20
430.00000000000011
 30
0.0
 40
2.5
  0
CIRCLE
  5
BD
  8
0
 10
-19.999999999998352
 20
390.00000000000011
 30
0.0
 40
2.5
  0
CIRCLE
  5
BE
  8
0
 10
-29.999999999998469
 20
370.0
 30
0.0
 40
2.5
  0
CIRCLE
  5
BF
  8
0
 10
-29.999999999998241
 20
410.0
 30
0.0
 40
2.5
  0
CIRCLE
  5
C0
  8
0
 10
-9.9999999999984652
 20
370.00000000000011
 30
0.0
 40
2.5
  0
CIRCLE
  5
C1
  8
0
 10
-9.9999999999982379
 20
410.00000000000011
 30
0.0
 40
2.5
  0
CIRCLE
  5
C2
  8
0
 10
-29.999999999998071
 20
410.0
 30
0.0
 40
2.5
  0
CIRCLE
  5
C3
  8
0
 10
-29.999999999998071
 20
410.00000000000011
 30
0.0
 40
2.5
  0
CIRCLE
  5
C4
  8
0
 10
-29.999999999998291
 20
370.0
 30
0.0
 40
2.5
  0
CIRCLE
  5
C5
  8
0
 10
-29.999999999998291
 20
370.00000000000011
 30
0.0
 40
2.5
  0
CIRCLE
  5
C6
  8
0
 10
-49.999999999998288
 20
370.0
 30
0.0
 40
2.5
  0
CIRCLE
  5
C7
  8
0
 10
-39.999999999998181
 20
390.00000000000011
 30
0.0
 40
2.5
  0
CIRCLE
  5
C8
  8
0
 10
-49.999999999998067
 20
410.0
 30
0.0
 40
2.5
  0
CIRCLE
  5
C9
  8
0
 10
-39.999999999998067
 20
430.00000000000011
 30
0.0
 40
2.5
  0
CIRCLE
  5
CA
  8
0
 10
50.000000000001883
 20
450.00000000000028
 30
0.0
 40
2.5
  0
CIRCLE
  5
CB
  8
0
 10
50.000000000002103
 20
490.00000000000028
 30
0.0
 40
2.5
  0
CIRCLE
  5
CC
  8
0
 10
30.000000000001879
 20
450.00000000000028
 30
0.0
 40
2.5
  0
CIRCLE
  5
CD
  8
0
 10
40.000000000001982
 20
470.00000000000028
 30
0.0
 40
2.5
  0
CIRCLE
  5
CE
  8
0
 10
30.0000000000021
 20
490.00000000000028
 30
0.0
 40
2.5
  0
CIRCLE
  5
CF
  8
0
 10
40.000000000002103
 20
510.00000000000028
 30
0.0
 40
2.5
  0
CIRCLE
  5
D0
  8
0
 10
10.000000000001871
 20
450.0
 30
0.0
 40
2.5
  0
CIRCLE
  5
D1
  8
0
 10
20.00000000000199
 20
470.00000000000028
 30
0.0
 40
2.5
  0
CIRCLE
  5
D2
  8
0
 10
10.0000000000021
 20
490.00000000000028
 30
0.0
 40
2.5
  0
CIRCLE
  5
D3
  8
0
 10
20.0000000000021
 20
510.00000000000028
 30
0.0
 40
2.5
  0
CIRCLE
  5
D4
  8
0
 10
-9.9999999999981242
 20
450.0
 30
0.0
 40
2.5
  0
CIRCLE
  5
D5
  8
0
 10
0.0000000000019895
 20
470.00000000000028
 30
0.0
 40
2.5
  0
CIRCLE
  5
D6
  8
0
 10
-9.9999999999978968
 20
490.00000000000011
 30
0.0
 40
2.5
  0
CIRCLE
  5
D7
  8
0
 10
0.0000000000021032
 20
510.00000000000028
 30
0.0
 40
2.5
  0
CIRCLE
  5
D8
  8
0
 10
-19.9999999999979
 20
510.00000000000028
 30
0.0
 40
2.5
  0
CIRCLE
  5
D9
  8
0
 10
-19.99999999999801
 20
470.00000000000028
 30
0.0
 40
2.5
  0
CIRCLE
  5
DA
  8
0
 10
-29.999999999998131
 20
450.0
 30
0.0
 40
2.5
  0
CIRCLE
  5
DB
  8
0
 10
-29.9999999999979
 20
490.00000000000011
 30
0.0
 40
2.5
  0
CIRCLE
  5
DC
  8
0
 10
-9.9999999999981242
 20
450.0
 30
0.0
 40
2.5
  0
CIRCLE
  5
DD
  8
0
 10
-9.9999999999978968
 20
490.00000000000028
 30
0.0
 40
2.5
  0
CIRCLE
  5
DE
  8
0
 10
-29.999999999997719
 20
490.00000000000011
 30
0.0
 40
2.5
  0
CIRCLE
  5
DF
  8
0
 10
-29.999999999997719
 20
490.00000000000028
 30
0.0
 40
2.5
  0
CIRCLE
  5
E0
  8
0
 10
-29.999999999997961
 20
450.0
 30
0.0
 40
2.5
  0
CIRCLE
  5
E1
  8
0
 10
-29.999999999997961
 20
450.0
 30
0.0
 40
2.5
  0
CIRCLE
  5
E2
  8
0
 10
-49.999999999997947
 20
450.0
 30
0.0
 40
2.5
  0
CIRCLE
  5
E3
  8
0
 10
-39.99999999999784
 20
470.00000000000028
 30
0.0
 40
2.5
  0
CIRCLE
  5
E4
  8
0
 10
-49.999999999997719
 20
490.00000000000011
 30
0.0
 40
2.5
  0
CIRCLE
  5
E5
  8
0
 10
-39.999999999997719
 20
510.00000000000028
 30
0.0
 40
2.5
  0
CIRCLE
  5
E6
  8
0
 10
50.000000000002217
 20
530.00000000000034
 30
0.0
 40
2.5
  0
CIRCLE
  5
E7
  8
0
 10
50.000000000002451
 20
570.00000000000034
 30
0.0
 40
2.5
  0
CIRCLE
  5
E8
  8
0
 10
30.00000000000222
 20
530.00000000000034
 30
0.0
 40
2.5
  0
CIRCLE
  5
E9
  8
0
 10
40.000000000002331
 20
550.00000000000034
 30
0.0
 40
2.5
  0
CIRCLE
  5
EA
  8
0
 10
30.000000000002451
 20
570.00000000000034
 30
0.0
 40
2.5
  0
CIRCLE
  5
EB
  8
0
 10
40.000000000002437
 20
590.00000000000034
 30
0.0
 40
2.5
  0
CIRCLE
  5
EC
  8
0
 10
10.00000000000222
 20
530.00000000000034
 30
0.0
 40
2.5
  0
CIRCLE
  5
ED
  8
0
 10
20.000000000002331
 20
550.00000000000034
 30
0.0
 40
2.5
  0
CIRCLE
  5
EE
  8
0
 10
10.000000000002441
 20
570.00000000000034
 30
0.0
 40
2.5
  0
CIRCLE
  5
EF
  8
0
 10
20.000000000002451
 20
590.00000000000034
 30
0.0
 40
2.5
  0
CIRCLE
  5
F0
  8
0
 10
-9.9999999999977831
 20
530.00000000000034
 30
0.0
 40
2.5
  0
CIRCLE
  5
F1
  8
0
 10
0.0000000000023306
 20
550.00000000000034
 30
0.0
 40
2.5
  0
CIRCLE
  5
F2
  8
0
 10
-9.9999999999975557
 20
570.00000000000034
 30
0.0
 40
2.5
  0
CIRCLE
  5
F3
  8
0
 10
0.0000000000024443
 20
590.00000000000034
 30
0.0
 40
2.5
  0
CIRCLE
  5
F4
  8
0
 10
-19.999999999997549
 20
590.00000000000034
 30
0.0
 40
2.5
  0
CIRCLE
  5
F5
  8
0
 10
-19.999999999997669
 20
550.00000000000034
 30
0.0
 40
2.5
  0
CIRCLE
  5
F6
  8
0
 10
-29.99999999999778
 20
530.00000000000034
 30
0.0
 40
2.5
  0
CIRCLE
  5
F7
  8
0
 10
-29.999999999997559
 20
570.00000000000034
 30
0.0
 40
2.5
  0
CIRCLE
  5
F8
  8
0
 10
-9.9999999999977831
 20
530.00000000000034
 30
0.0
 40
2.5
  0
CIRCLE
  5
F9
  8
0
 10
-9.9999999999975557
 20
570.00000000000034
 30
0.0
 40
2.5
  0
CIRCLE
  5
FA
  8
0
 10
-29.999999999997389
 20
570.00000000000034
 30
0.0
 40
2.5
  0
CIRCLE
  5
FB
  8
0
 10
-29.999999999997389
 20
570.00000000000034
 30
0.0
 40
2.5
  0
CIRCLE
  5
FC
  8
0
 10
-29.999999999997609
 20
530.00000000000034
 30
0.0
 40
2.5
  0
CIRCLE
  5
FD
  8
0
 10
-29.999999999997609
 20
530.00000000000034
 30
0.0
 40
2.5
  0
CIRCLE
  5
FE
  8
0
 10
-49.999999999997613
 20
530.00000000000034
 30
0.0
 40
2.5
  0
CIRCLE
  5
FF
  8
0
 10
-39.999999999997499
 20
550.00000000000034
 30
0.0
 40
2.5
  0
CIRCLE
  5
100
  8
0
 10
-49.999999999997378
 20
570.00000000000034
 30
0.0
 40
2.5
  0
CIRCLE
  5
101
  8
0
 10
-39.999999999997392
 20
590.00000000000034
 30
0.0
 40
2.5
  0
CIRCLE
  5
102
  8
0
 10
50.000000000002551
 20
610.00000000000045
 30
0.0
 40
2.5
  0
CIRCLE
  5
103
  8
0
 10
50.000000000002778
 20
650.00000000000057
 30
0.0
 40
2.5
  0
CIRCLE
  5
104
  8
0
 10
30.000000000002562
 20
610.00000000000034
 30
0.0
 40
2.5
  0
CIRCLE
  5
105
  8
0
 10
40.000000000002672
 20
630.00000000000057
 30
0.0
 40
2.5
  0
CIRCLE
  5
106
  8
0
 10
30.000000000002789
 20
650.00000000000034
 30
0.0
 40
2.5
  0
CIRCLE
  5
107
  8
0
 10
40.000000000002778
 20
670.00000000000045
 30
0.0
 40
2.5
  0
CIRCLE
  5
108
  8
0
 10
10.00000000000256
 20
610.00000000000034
 30
0.0
 40
2.5
  0
CIRCLE
  5
109
  8
0
 10
20.000000000002672
 20
630.00000000000034
 30
0.0
 40
2.5
  0
CIRCLE
  5
10A
  8
0
 10
10.00000000000278
 20
650.00000000000034
 30
0.0
 40
2.5
  0
CIRCLE
  5
10B
  8
0
 10
20.000000000002782
 20
670.00000000000034
 30
0.0
 40
2.5
  0
CIRCLE
  5
10C
  8
0
 10
-9.999999999997442
 20
610.00000000000034
 30
0.0
 40
2.5
  0
CIRCLE
  5
10D
  8
0
 10
0.0000000000026716
 20
630.00000000000034
 30
0.0
 40
2.5
  0
CIRCLE
  5
10E
  8
0
 10
-9.9999999999972147
 20
650.00000000000034
 30
0.0
 40
2.5
  0
CIRCLE
  5
10F
  8
0
 10
0.0000000000027853
 20
670.00000000000034
 30
0.0
 40
2.5
  0
CIRCLE
  5
110
  8
0
 10
-19.999999999997211
 20
670.00000000000034
 30
0.0
 40
2.5
  0
CIRCLE
  5
111
  8
0
 10
-19.999999999997328
 20
630.00000000000034
 30
0.0
 40
2.5
  0
CIRCLE
  5
112
  8
0
 10
-29.999999999997438
 20
610.00000000000034
 30
0.0
 40
2.5
  0
CIRCLE
  5
113
  8
0
 10
-29.999999999997218
 20
650.00000000000034
 30
0.0
 40
2.5
  0
CIRCLE
  5
114
  8
0
 10
-9.999999999997442
 20
610.00000000000034
 30
0.0
 40
2.5
  0
CIRCLE
  5
115
  8
0
 10
-9.9999999999972147
 20
650.00000000000034
 30
0.0
 40
2.5
  0
CIRCLE
  5
116
  8
0
 10
-29.999999999997051
 20
650.00000000000034
 30
0.0
 40
2.5
  0
CIRCLE
  5
117
  8
0
 10
-29.999999999997051
 20
650.00000000000034
 30
0.0
 40
2.5
  0
CIRCLE
  5
118
  8
0
 10
-29.999999999997272
 20
610.00000000000034
 30
0.0
 40
2.5
  0
CIRCLE
  5
119
  8
0
 10
-29.999999999997272
 20
610.00000000000034
 30
0.0
 40
2.5
  0
CIRCLE
  5
11A
  8
0
 10
-49.999999999997272
 20
610.00000000000034
 30
0.0
 40
2.5
  0
CIRCLE
  5
11B
  8
0
 10
-39.999999999997158
 20
630.00000000000034
 30
0.0
 40
2.5
  0
CIRCLE
  5
11C
  8
0
 10
-49.999999999997051
 20
650.00000000000034
 30
0.0
 40
2.5
  0
CIRCLE
  5
11D
  8
0
 10
-39.999999999997051
 20
670.00000000000034
 30
0.0
 40
2.5
  0
CIRCLE
  5
11E
  8
0
 10
50.000000000002899
 20
690.00000000000045
 30
0.0
 40
2.5
  0
CIRCLE
  5
11F
  8
0
 10
50.000000000003119
 20
730.00000000000057
 30
0.0
 40
2.5
  0
CIRCLE
  5
120
  8
0
 10
30.000000000002899
 20
690.00000000000045
 30
0.0
 40
2.5
  0
CIRCLE
  5
121
  8
0
 10
40.000000000003013
 20
710.00000000000045
 30
0.0
 40
2.5
  0
CIRCLE
  5
122
  8
0
 10
30.00000000000313
 20
730.00000000000057
 30
0.0
 40
2.5
  0
CIRCLE
  5
123
  8
0
 10
40.000000000003119
 20
750.00000000000057
 30
0.0
 40
2.5
  0
CIRCLE
  5
124
  8
0
 10
10.000000000002901
 20
690.00000000000034
 30
0.0
 40
2.5
  0
CIRCLE
  5
125
  8
0
 10
20.000000000003009
 20
710.00000000000045
 30
0.0
 40
2.5
  0
CIRCLE
  5
126
  8
0
 10
10.000000000003119
 20
730.00000000000034
 30
0.0
 40
2.5
  0
CIRCLE
  5
127
  8
0
 10
20.00000000000313
 20
750.00000000000057
 30
0.0
 40
2.5
  0
CIRCLE
  5
128
  8
0
 10
-9.9999999999970992
 20
690.00000000000034
 30
0.0
 40
2.5
  0
CIRCLE
  5
129
  8
0
 10
0.0000000000030127
 20
710.00000000000034
 30
0.0
 40
2.5
  0
CIRCLE
  5
12A
  8
0
 10
-9.9999999999968736
 20
730.00000000000034
 30
0.0
 40
2.5
  0
CIRCLE
  5
12B
  8
0
 10
0.0000000000031264
 20
750.00000000000034
 30
0.0
 40
2.5
  0
CIRCLE
  5
12C
  8
0
 10
-19.99999999999687
 20
750.00000000000034
 30
0.0
 40
2.5
  0
CIRCLE
  5
12D
  8
0
 10
-19.999999999996991
 20
710.00000000000034
 30
0.0
 40
2.5
  0
CIRCLE
  5
12E
  8
0
 10
-29.999999999997101
 20
690.00000000000034
 30
0.0
 40
2.5
  0
CIRCLE
  5
12F
  8
0
 10
-29.99999999999687
 20
730.00000000000034
 30
0.0
 40
2.5
  0
CIRCLE
  5
130
  8
0
 10
-9.9999999999970992
 20
690.00000000000034
 30
0.0
 40
2.5
  0
CIRCLE
  5
131
  8
0
 10
-9.9999999999968736
 20
730.00000000000034
 30
0.0
 40
2.5
  0
CIRCLE
  5
132
  8
0
 10
-29.99999999999671
 20
730.00000000000034
 30
0.0
 40
2.5
  0
CIRCLE
  5
133
  8
0
 10
-29.99999999999671
 20
730.00000000000034
 30
0.0
 40
2.5
  0
CIRCLE
  5
134
  8
0
 10
-29.99999999999693
 20
690.00000000000034
 30
0.0
 40
2.5
  0
CIRCLE
  5
135
  8
0
 10
-29.99999999999693
 20
690.00000000000034
 30
0.0
 40
2.5
  0
CIRCLE
  5
136
  8
0
 10
-49.99999999999693
 20
690.00000000000034
 30
0.0
 40
2.5
  0
CIRCLE
  5
137
  8
0
 10
-39.999999999996817
 20
710.00000000000034
 30
0.0
 40
2.5
  0
CIRCLE
  5
138
  8
0
 10
-49.999999999996703
 20
730.00000000000034
 30
0.0
 40
2.5
  0
CIRCLE
  5
139
  8
0
 10
-39.99999999999671
 20
750.00000000000034
 30
0.0
 40
2.5
  0
CIRCLE
  5
13A
  8
0
 10
50.00000000000324
 20
770.00000000000045
 30
0.0
 40
2.5
  0
CIRCLE
  5
13B
  8
0
 10
50.000000000003467
 20
810.00000000000045
 30
0.0
 40
2.5
  0
CIRCLE
  5
13C
  8
0
 10
30.00000000000324
 20
770.00000000000045
 30
0.0
 40
2.5
  0
CIRCLE
  5
13D
  8
0
 10
40.000000000003347
 20
790.00000000000045
 30
0.0
 40
2.5
  0
CIRCLE
  5
13E
  8
0
 10
30.000000000003471
 20
810.00000000000045
 30
0.0
 40
2.5
  0
CIRCLE
  5
13F
  8
0
 10
40.000000000003467
 20
830.00000000000057
 30
0.0
 40
2.5
  0
CIRCLE
  5
140
  8
0
 10
10.00000000000324
 20
770.00000000000045
 30
0.0
 40
2.5
  0
CIRCLE
  5
141
  8
0
 10
20.00000000000335
 20
790.00000000000045
 30
0.0
 40
2.5
  0
CIRCLE
  5
142
  8
0
 10
10.000000000003469
 20
810.00000000000045
 30
0.0
 40
2.5
  0
CIRCLE
  5
143
  8
0
 10
20.000000000003471
 20
830.00000000000057
 30
0.0
 40
2.5
  0
CIRCLE
  5
144
  8
0
 10
-9.9999999999967581
 20
770.00000000000034
 30
0.0
 40
2.5
  0
CIRCLE
  5
145
  8
0
 10
0.0000000000033538
 20
790.00000000000045
 30
0.0
 40
2.5
  0
CIRCLE
  5
146
  8
0
 10
-9.9999999999965326
 20
810.00000000000034
 30
0.0
 40
2.5
  0
CIRCLE
  5
147
  8
0
 10
0.0000000000034674
 20
830.00000000000057
 30
0.0
 40
2.5
  0
CIRCLE
  5
148
  8
0
 10
-19.999999999996529
 20
830.00000000000057
 30
0.0
 40
2.5
  0
CIRCLE
  5
149
  8
0
 10
-19.999999999996639
 20
790.00000000000045
 30
0.0
 40
2.5
  0
CIRCLE
  5
14A
  8
0
 10
-29.99999999999676
 20
770.00000000000034
 30
0.0
 40
2.5
  0
CIRCLE
  5
14B
  8
0
 10
-29.999999999996529
 20
810.00000000000034
 30
0.0
 40
2.5
  0
CIRCLE
  5
14C
  8
0
 10
-9.9999999999967581
 20
770.00000000000045
 30
0.0
 40
2.5
  0
CIRCLE
  5
14D
  8
0
 10
-9.9999999999965326
 20
810.00000000000045
 30
0.0
 40
2.5
  0
CIRCLE
  5
14E
  8
0
 10
-29.999999999996358
 20
810.00000000000034
 30
0.0
 40
2.5
  0
CIRCLE
  5
14F
  8
0
 10
-29.999999999996358
 20
810.00000000000045
 30
0.0
 40
2.5
  0
CIRCLE
  5
150
  8
0
 10
-29.999999999996589
 20
770.00000000000034
 30
0.0
 40
2.5
  0
CIRCLE
  5
151
  8
0
 10
-29.999999999996589
 20
770.00000000000045
 30
0.0
 40
2.5
  0
CIRCLE
  5
152
  8
0
 10
-49.999999999996582
 20
770.00000000000034
 30
0.0
 40
2.5
  0
CIRCLE
  5
153
  8
0
 10
-39.999999999996483
 20
790.00000000000045
 30
0.0
 40
2.5
  0
CIRCLE
  5
154
  8
0
 10
-49.999999999996362
 20
810.00000000000034
 30
0.0
 40
2.5
  0
CIRCLE
  5
155
  8
0
 10
-39.999999999996362
 20
830.00000000000057
 30
0.0
 40
2.5
  0
CIRCLE
  5
156
  8
0
 10
50.000000000003581
 20
850.00000000000045
 30
0.0
 40
2.5
  0
CIRCLE
  5
157
  8
0
 10
50.000000000003809
 20
890.00000000000045
 30
0.0
 40
2.5
  0
CIRCLE
  5
158
  8
0
 10
30.000000000003581
 20
850.00000000000034
 30
0.0
 40
2.5
  0
CIRCLE
  5
159
  8
0
 10
40.000000000003688
 20
870.00000000000057
 30
0.0
 40
2.5
  0
CIRCLE
  5
15A
  8
0
 10
30.000000000003809
 20
890.00000000000045
 30
0.0
 40
2.5
  0
CIRCLE
  5
15B
  8
0
 10
40.000000000003809
 20
910.00000000000057
 30
0.0
 40
2.5
  0
CIRCLE
  5
15C
  8
0
 10
10.000000000003579
 20
850.00000000000034
 30
0.0
 40
2.5
  0
CIRCLE
  5
15D
  8
0
 10
20.000000000003691
 20
870.00000000000057
 30
0.0
 40
2.5
  0
CIRCLE
  5
15E
  8
0
 10
10.00000000000381
 20
890.00000000000045
 30
0.0
 40
2.5
  0
CIRCLE
  5
15F
  8
0
 10
20.000000000003809
 20
910.00000000000057
 30
0.0
 40
2.5
  0
CIRCLE
  5
160
  8
0
 10
-9.9999999999964189
 20
850.00000000000034
 30
0.0
 40
2.5
  0
CIRCLE
  5
161
  8
0
 10
0.0000000000036948
 20
870.00000000000023
 30
0.0
 40
2.5
  0
CIRCLE
  5
162
  8
0
 10
-9.9999999999961915
 20
890.00000000000034
 30
0.0
 40
2.5
  0
CIRCLE
  5
163
  8
0
 10
0.0000000000038085
 20
910.00000000000057
 30
0.0
 40
2.5
  0
CIRCLE
  5
164
  8
0
 10
-19.999999999996191
 20
910.00000000000057
 30
0.0
 40
2.5
  0
CIRCLE
  5
165
  8
0
 10
-19.999999999996302
 20
870.00000000000023
 30
0.0
 40
2.5
  0
CIRCLE
  5
166
  8
0
 10
-29.999999999996419
 20
850.00000000000034
 30
0.0
 40
2.5
  0
CIRCLE
  5
167
  8
0
 10
-29.999999999996191
 20
890.00000000000034
 30
0.0
 40
2.5
  0
CIRCLE
  5
168
  8
0
 10
-9.9999999999964189
 20
850.00000000000034
 30
0.0
 40
2.5
  0
CIRCLE
  5
169
  8
0
 10
-9.9999999999961915
 20
890.00000000000045
 30
0.0
 40
2.5
  0
CIRCLE
  5
16A
  8
0
 10
-29.999999999996021
 20
890.00000000000034
 30
0.0
 40
2.5
  0
CIRCLE
  5
16B
  8
0
 10
-29.999999999996021
 20
890.00000000000045
 30
0.0
 40
2.5
  0
CIRCLE
  5
16C
  8
0
 10
-29.999999999996248
 20
850.00000000000034
 30
0.0
 40
2.5
  0
CIRCLE
  5
16D
  8
0
 10
-29.999999999996248
 20
850.00000000000034
 30
0.0
 40
2.5
  0
CIRCLE
  5
16E
  8
0
 10
-49.999999999996248
 20
850.00000000000034
 30
0.0
 40
2.5
  0
CIRCLE
  5
16F
  8
0
 10
-39.999999999996142
 20
870.00000000000023
 30
0.0
 40
2.5
  0
CIRCLE
  5
170
  8
0
 10
-49.999999999996021
 20
890.00000000000034
 30
0.0
 40
2.5
  0
CIRCLE
  5
171
  8
0
 10
-39.999999999996021
 20
910.00000000000057
 30
0.0
 40
2.5
  0
CIRCLE
  5
172
  8
0
 10
50.000000000003922
 20
930.00000000000057
 30
0.0
 40
2.5
  0
CIRCLE
  5
173
  8
0
 10
50.00000000000415
 20
970.00000000000057
 30
0.0
 40
2.5
  0
CIRCLE
  5
174
  8
0
 10
30.000000000003929
 20
930.00000000000057
 30
0.0
 40
2.5
  0
CIRCLE
  5
175
  8
0
 10
40.000000000004043
 20
950.00000000000045
 30
0.0
 40
2.5
  0
CIRCLE
  5
176
  8
0
 10
30.00000000000415
 20
970.00000000000057
 30
0.0
 40
2.5
  0
CIRCLE
  5
177
  8
0
 10
40.000000000004142
 20
990.00000000000045
 30
0.0
 40
2.5
  0
CIRCLE
  5
178
  8
0
 10
10.00000000000392
 20
930.00000000000057
 30
0.0
 40
2.5
  0
CIRCLE
  5
179
  8
0
 10
20.000000000004039
 20
950.00000000000045
 30
0.0
 40
2.5
  0
CIRCLE
  5
17A
  8
0
 10
10.00000000000415
 20
970.00000000000057
 30
0.0
 40
2.5
  0
CIRCLE
  5
17B
  8
0
 10
20.00000000000415
 20
990.00000000000045
 30
0.0
 40
2.5
  0
CIRCLE
  5
17C
  8
0
 10
-9.9999999999960778
 20
930.00000000000057
 30
0.0
 40
2.5
  0
CIRCLE
  5
17D
  8
0
 10
0.0000000000040359
 20
950.00000000000045
 30
0.0
 40
2.5
  0
CIRCLE
  5
17E
  8
0
 10
-9.9999999999958504
 20
970.00000000000057
 30
0.0
 40
2.5
  0
CIRCLE
  5
17F
  8
0
 10
0.0000000000041496
 20
990.00000000000045
 30
0.0
 40
2.5
  0
CIRCLE
  5
180
  8
0
 10
-19.99999999999585
 20
990.00000000000045
 30
0.0
 40
2.5
  0
CIRCLE
  5
181
  8
0
 10
-19.999999999995961
 20
950.00000000000045
 30
0.0
 40
2.5
  0
CIRCLE
  5
182
  8
0
 10
-29.999999999996081
 20
930.00000000000057
 30
0.0
 40
2.5
  0
CIRCLE
  5
183
  8
0
 10
-29.99999999999585
 20
970.00000000000057
 30
0.0
 40
2.5
  0
CIRCLE
  5
184
  8
0
 10
-9.9999999999960778
 20
930.00000000000057
 30
0.0
 40
2.5
  0
CIRCLE
  5
185
  8
0
 10
-9.9999999999958504
 20
970.00000000000057
 30
0.0
 40
2.5
  0
CIRCLE
  5
186
  8
0
 10
-29.99999999999568
 20
970.00000000000057
 30
0.0
 40
2.5
  0
CIRCLE
  5
187
  8
0
 10
-29.99999999999568
 20
970.00000000000057
 30
0.0
 40
2.5
  0
CIRCLE
  5
188
  8
0
 10
-29.999999999995911
 20
930.00000000000057
 30
0.0
 40
2.5
  0
CIRCLE
  5
189
  8
0
 10
-29.999999999995911
 20
930.00000000000057
 30
0.0
 40
2.5
  0
CIRCLE
  5
18A
  8
0
 10
-49.999999999995907
 20
930.00000000000057
 30
0.0
 40
2.5
  0
CIRCLE
  5
18B
  8
0
 10
-39.999999999995786
 20
950.00000000000045
 30
0.0
 40
2.5
  0
CIRCLE
  5
18C
  8
0
 10
-49.99999999999568
 20
970.00000000000057
 30
0.0
 40
2.5
  0
CIRCLE
  5
18D
  8
0
 10
-39.99999999999568
 20
990.00000000000045
 30
0.0
 40
2.5
  0
CIRCLE
  5
18E
  8
0
 10
50.000000000004263
 20
1010.0
 30
0.0
 40
2.5
  0
CIRCLE
  5
18F
  8
0
 10
50.000000000004491
 20
1050.0
 30
0.0
 40
2.5
  0
CIRCLE
  5
190
  8
0
 10
30.00000000000426
 20
1010.0
 30
0.0
 40
2.5
  0
CIRCLE
  5
191
  8
0
 10
40.00000000000437
 20
1030.0
 30
0.0
 40
2.5
  0
CIRCLE
  5
192
  8
0
 10
30.000000000004491
 20
1050.0
 30
0.0
 40
2.5
  0
CIRCLE
  5
193
  8
0
 10
40.000000000004491
 20
1070.0
 30
0.0
 40
2.5
  0
CIRCLE
  5
194
  8
0
 10
10.00000000000426
 20
1010.0
 30
0.0
 40
2.5
  0
CIRCLE
  5
195
  8
0
 10
20.00000000000438
 20
1030.0
 30
0.0
 40
2.5
  0
CIRCLE
  5
196
  8
0
 10
10.000000000004491
 20
1050.0
 30
0.0
 40
2.5
  0
CIRCLE
  5
197
  8
0
 10
20.000000000004491
 20
1070.0
 30
0.0
 40
2.5
  0
CIRCLE
  5
198
  8
0
 10
-9.9999999999957367
 20
1010.0
 30
0.0
 40
2.5
  0
CIRCLE
  5
199
  8
0
 10
0.0000000000043769
 20
1030.0
 30
0.0
 40
2.5
  0
CIRCLE
  5
19A
  8
0
 10
-9.9999999999955094
 20
1050.0
 30
0.0
 40
2.5
  0
CIRCLE
  5
19B
  8
0
 10
0.0000000000044906
 20
1070.0
 30
0.0
 40
2.5
  0
CIRCLE
  5
19C
  8
0
 10
-19.999999999995509
 20
1070.0
 30
0.0
 40
2.5
  0
CIRCLE
  5
19D
  8
0
 10
-19.99999999999562
 20
1030.0
 30
0.0
 40
2.5
  0
CIRCLE
  5
19E
  8
0
 10
-29.99999999999574
 20
1010.0
 30
0.0
 40
2.5
  0
CIRCLE
  5
19F
  8
0
 10
-29.999999999995509
 20
1050.0
 30
0.0
 40
2.5
  0
CIRCLE
  5
1A0
  8
0
 10
-9.9999999999957367
 20
1010.0
 30
0.0
 40
2.5
  0
CIRCLE
  5
1A1
  8
0
 10
-9.9999999999955094
 20
1050.0
 30
0.0
 40
2.5
  0
CIRCLE
  5
1A2
  8
0
 10
-29.999999999995339
 20
1050.0
 30
0.0
 40
2.5
  0
CIRCLE
  5
1A3
  8
0
 10
-29.999999999995339
 20
1050.0
 30
0.0
 40
2.5
  0
CIRCLE
  5
1A4
  8
0
 10
-29.99999999999557
 20
1010.0
 30
0.0
 40
2.5
  0
CIRCLE
  5
1A5
  8
0
 10
-29.99999999999557
 20
1010.0
 30
0.0
 40
2.5
  0
CIRCLE
  5
1A6
  8
0
 10
-49.999999999995559
 20
1010.0
 30
0.0
 40
2.5
  0
CIRCLE
  5
1A7
  8
0
 10
-39.999999999995453
 20
1030.0
 30
0.0
 40
2.5
  0
CIRCLE
  5
1A8
  8
0
 10
-49.999999999995339
 20
1050.0
 30
0.0
 40
2.5
  0
CIRCLE
  5
1A9
  8
0
 10
-39.999999999995339
 20
1070.0
 30
0.0
 40
2.5
  0
CIRCLE
  5
1AA
  8
0
 10
50.000000000004597
 20
1090.0
 30
0.0
 40
2.5
  0
CIRCLE
  5
1AB
  8
0
 10
50.000000000004832
 20
1130.0000000000009
 30
0.0
 40
2.5
  0
CIRCLE
  5
1AC
  8
0
 10
30.000000000004601
 20
1090.0
 30
0.0
 40
2.5
  0
CIRCLE
  5
1AD
  8
0
 10
40.000000000004711
 20
1110.0
 30
0.0
 40
2.5
  0
CIRCLE
  5
1AE
  8
0
 10
30.000000000004832
 20
1130.0
 30
0.0
 40
2.5
  0
CIRCLE
  5
1AF
  8
0
 10
40.000000000004832
 20
1150.0000000000009
 30
0.0
 40
2.5
  0
CIRCLE
  5
1B0
  8
0
 10
10.000000000004601
 20
1090.0
 30
0.0
 40
2.5
  0
CIRCLE
  5
1B1
  8
0
 10
20.000000000004722
 20
1110.0
 30
0.0
 40
2.5
  0
CIRCLE
  5
1B2
  8
0
 10
10.00000000000483
 20
1130.0
 30
0.0
 40
2.5
  0
CIRCLE
  5
1B3
  8
0
 10
20.000000000004832
 20
1150.0
 30
0.0
 40
2.5
  0
CIRCLE
  5
1B4
  8
0
 10
-9.9999999999953957
 20
1090.0
 30
0.0
 40
2.5
  0
CIRCLE
  5
1B5
  8
0
 10
0.000000000004718
 20
1110.0
 30
0.0
 40
2.5
  0
CIRCLE
  5
1B6
  8
0
 10
-9.9999999999951683
 20
1130.0
 30
0.0
 40
2.5
  0
CIRCLE
  5
1B7
  8
0
 10
0.0000000000048317
 20
1150.0
 30
0.0
 40
2.5
  0
CIRCLE
  5
1B8
  8
0
 10
-19.999999999995168
 20
1150.0
 30
0.0
 40
2.5
  0
CIRCLE
  5
1B9
  8
0
 10
-19.999999999995278
 20
1110.0
 30
0.0
 40
2.5
  0
CIRCLE
  5
1BA
  8
0
 10
-29.999999999995399
 20
1090.0
 30
0.0
 40
2.5
  0
CIRCLE
  5
1BB
  8
0
 10
-29.999999999995168
 20
1130.0
 30
0.0
 40
2.5
  0
CIRCLE
  5
1BC
  8
0
 10
-9.9999999999953957
 20
1090.0
 30
0.0
 40
2.5
  0
CIRCLE
  5
1BD
  8
0
 10
-9.9999999999951683
 20
1130.0
 30
0.0
 40
2.5
  0
CIRCLE
  5
1BE
  8
0
 10
-29.999999999995001
 20
1130.0
 30
0.0
 40
2.5
  0
CIRCLE
  5
1BF
  8
0
 10
-29.999999999995001
 20
1130.0
 30
0.0
 40
2.5
  0
CIRCLE
  5
1C0
  8
0
 10
-29.999999999995229
 20
1090.0
 30
0.0
 40
2.5
  0
CIRCLE
  5
1C1
  8
0
 10
-29.999999999995229
 20
1090.0
 30
0.0
 40
2.5
  0
CIRCLE
  5
1C2
  8
0
 10
-49.999999999995232
 20
1090.0
 30
0.0
 40
2.5
  0
CIRCLE
  5
1C3
  8
0
 10
-39.999999999995111
 20
1110.0
 30
0.0
 40
2.5
  0
CIRCLE
  5
1C4
  8
0
 10
-49.999999999994991
 20
1130.0
 30
0.0
 40
2.5
  0
CIRCLE
  5
1C5
  8
0
 10
-39.999999999994998
 20
1150.0
 30
0.0
 40
2.5
  0
CIRCLE
  5
1C6
  8
0
 10
50.000000000004938
 20
1170.0
 30
0.0
 40
2.5
  0
CIRCLE
  5
1C7
  8
0
 10
30.000000000004949
 20
1170.0
 30
0.0
 40
2.5
  0
CIRCLE
  5
1C8
  8
0
 10
40.000000000005059
 20
1190.0000000000009
 30
0.0
 40
2.5
  0
CIRCLE
  5
1C9
  8
0
 10
10.00000000000494
 20
1170.0
 30
0.0
 40
2.5
  0
CIRCLE
  5
1CA
  8
0
 10
20.000000000005059
 20
1190.0000000000009
 30
0.0
 40
2.5
  0
CIRCLE
  5
1CB
  8
0
 10
-9.9999999999950546
 20
1170.0
 30
0.0
 40
2.5
  0
CIRCLE
  5
1CC
  8
0
 10
0.0000000000050591
 20
1190.0
 30
0.0
 40
2.5
  0
CIRCLE
  5
1CD
  8
0
 10
-19.999999999994941
 20
1190.0
 30
0.0
 40
2.5
  0
CIRCLE
  5
1CE
  8
0
 10
-29.999999999995062
 20
1170.0
 30
0.0
 40
2.5
  0
CIRCLE
  5
1CF
  8
0
 10
-9.9999999999950546
 20
1170.0
 30
0.0
 40
2.5
  0
CIRCLE
  5
1D0
  8
0
 10
-29.999999999994881
 20
1170.0
 30
0.0
 40
2.5
  0
CIRCLE
  5
1D1
  8
0
 10
-29.999999999994881
 20
1170.0
 30
0.0
 40
2.5
  0
CIRCLE
  5
1D2
  8
0
 10
-49.999999999994877
 20
1170.0
 30
0.0
 40
2.5
  0
CIRCLE
  5
1D3
  8
0
 10
-39.99999999999477
 20
1190.0
 30
0.0
 40
2.5
  0
INSERT
  5
1D4
  8
0
  2
SIMPSON-STRONG-TIE
 10
14.200000000000159
 20
21.99999999999994
 30
0.0
  0
ENDSEC
  0
EOF
