  0
SECTION
  2
HEADER
  9
$ACADVER
  1
AC1009
  9
$INSBASE
 10
0.0
 20
0.0
 30
0.0
  9
$EXTMIN
 10
-30.00000000000006
 20
-0.0000000000000284
 30
0.0
  9
$EXTMAX
 10
30.000000000000341
 20
1200.0
 30
0.0
  9
$LIMMIN
 10
0.0
 20
0.0
  9
$LIMMAX
 10
420.0
 20
297.0
  9
$ORTHOMODE
 70
     1
  9
$REGENMODE
 70
     1
  9
$FILLMODE
 70
     1
  9
$QTEXTMODE
 70
     0
  9
$MIRRTEXT
 70
     1
  9
$DRAGMODE
 70
     2
  9
$LTSCALE
 40
1.0
  9
$OSMODE
 70
    47
  9
$ATTMODE
 70
     1
  9
$TEXTSIZE
 40
3.5
  9
$TRACEWID
 40
0.05
  9
$TEXTSTYLE
  7
SST
  9
$CLAYER
  8
0
  9
$CELTYPE
  6
BYLAYER
  9
$CECOLOR
 62
   256
  9
$DIMSCALE
 40
1.0
  9
$DIMASZ
 40
0.18
  9
$DIMEXO
 40
0.0625
  9
$DIMDLI
 40
0.38
  9
$DIMRND
 40
0.0
  9
$DIMDLE
 40
0.0
  9
$DIMEXE
 40
0.18
  9
$DIMTP
 40
0.0
  9
$DIMTM
 40
0.0
  9
$DIMTXT
 40
0.18
  9
$DIMCEN
 40
0.09
  9
$DIMTSZ
 40
0.0
  9
$DIMTOL
 70
     0
  9
$DIMLIM
 70
     0
  9
$DIMTIH
 70
     1
  9
$DIMTOH
 70
     1
  9
$DIMSE1
 70
     0
  9
$DIMSE2
 70
     0
  9
$DIMTAD
 70
     0
  9
$DIMZIN
 70
     0
  9
$DIMBLK
  1

  9
$DIMASO
 70
     1
  9
$DIMSHO
 70
     1
  9
$DIMPOST
  1

  9
$DIMAPOST
  1

  9
$DIMALT
 70
     0
  9
$DIMALTD
 70
     2
  9
$DIMALTF
 40
25.399999999999999
  9
$DIMLFAC
 40
1.0
  9
$DIMTOFL
 70
     0
  9
$DIMTVP
 40
0.0
  9
$DIMTIX
 70
     0
  9
$DIMSOXD
 70
     0
  9
$DIMSAH
 70
     0
  9
$DIMBLK1
  1

  9
$DIMBLK2
  1

  9
$DIMSTYLE
  2
STANDARD
  9
$DIMCLRD
 70
     0
  9
$DIMCLRE
 70
     0
  9
$DIMCLRT
 70
     0
  9
$DIMTFAC
 40
1.0
  9
$DIMGAP
 40
0.09
  9
$LUNITS
 70
     2
  9
$LUPREC
 70
     4
  9
$SKETCHINC
 40
0.1
  9
$FILLETRAD
 40
0.0
  9
$AUNITS
 70
     0
  9
$AUPREC
 70
     2
  9
$MENU
  1
acad
  9
$ELEVATION
 40
0.0
  9
$PELEVATION
 40
0.0
  9
$THICKNESS
 40
0.0
  9
$LIMCHECK
 70
     0
  9
$BLIPMODE
 70
     0
  9
$CHAMFERA
 40
0.0
  9
$CHAMFERB
 40
0.0
  9
$SKPOLY
 70
     0
  9
$TDCREATE
 40
2449450.4613901619
  9
$TDUPDATE
 40
2453443.5661861571
  9
$TDINDWG
 40
1.5588625115999999
  9
$TDUSRTIMER
 40
1.5588625115999999
  9
$USRTIMER
 70
     1
  9
$ANGBASE
 50
0.0
  9
$ANGDIR
 70
     0
  9
$PDMODE
 70
     0
  9
$PDSIZE
 40
0.0
  9
$PLINEWID
 40
0.0
  9
$COORDS
 70
     1
  9
$SPLFRAME
 70
     0
  9
$SPLINETYPE
 70
     6
  9
$SPLINESEGS
 70
     8
  9
$ATTDIA
 70
     0
  9
$ATTREQ
 70
     1
  9
$HANDLING
 70
     1
  9
$HANDSEED
  5
DE
  9
$SURFTAB1
 70
     6
  9
$SURFTAB2
 70
     6
  9
$SURFTYPE
 70
     6
  9
$SURFU
 70
     6
  9
$SURFV
 70
     6
  9
$UCSNAME
  2

  9
$UCSORG
 10
0.0
 20
0.0
 30
0.0
  9
$UCSXDIR
 10
1.0
 20
0.0
 30
0.0
  9
$UCSYDIR
 10
0.0
 20
1.0
 30
0.0
  9
$PUCSNAME
  2

  9
$PUCSORG
 10
0.0
 20
0.0
 30
0.0
  9
$PUCSXDIR
 10
1.0
 20
0.0
 30
0.0
  9
$PUCSYDIR
 10
0.0
 20
1.0
 30
0.0
  9
$USERI1
 70
     0
  9
$USERI2
 70
     0
  9
$USERI3
 70
     0
  9
$USERI4
 70
     0
  9
$USERI5
 70
     0
  9
$USERR1
 40
0.0
  9
$USERR2
 40
0.0
  9
$USERR3
 40
0.0
  9
$USERR4
 40
0.0
  9
$USERR5
 40
0.0
  9
$WORLDVIEW
 70
     1
  9
$SHADEDGE
 70
     3
  9
$SHADEDIF
 70
    70
  9
$TILEMODE
 70
     1
  9
$MAXACTVP
 70
    16
  9
$PLIMCHECK
 70
     0
  9
$PEXTMIN
 10
1.0000000000000000E+020
 20
1.0000000000000000E+020
 30
1.0000000000000000E+020
  9
$PEXTMAX
 10
-1.0000000000000000E+020
 20
-1.0000000000000000E+020
 30
-1.0000000000000000E+020
  9
$PLIMMIN
 10
0.0
 20
0.0
  9
$PLIMMAX
 10
420.0
 20
297.0
  9
$UNITMODE
 70
     0
  9
$VISRETAIN
 70
     0
  9
$PLINEGEN
 70
     0
  9
$PSLTSCALE
 70
     1
  0
ENDSEC
  0
SECTION
  2
TABLES
  0
TABLE
  2
VPORT
 70
     2
  0
VPORT
  2
*ACTIVE
 70
     0
 10
0.0
 20
0.0
 11
1.0
 21
1.0
 12
71.09258078668131
 22
583.55570010530789
 13
0.0
 23
0.0
 14
0.1
 24
0.1
 15
10.0
 25
10.0
 16
0.0
 26
0.0
 36
1.0
 17
0.0
 27
0.0
 37
0.0
 40
1428.5301594787211
 41
1.4993646759847521
 42
50.0
 43
0.0
 44
0.0
 50
0.0
 51
0.0
 71
     0
 72
   100
 73
     1
 74
     1
 75
     1
 76
     0
 77
     0
 78
     0
  0
ENDTAB
  0
TABLE
  2
LTYPE
 70
     1
  0
LTYPE
  2
CONTINUOUS
 70
     0
  3
Solid line
 72
    65
 73
     0
 40
0.0
  0
ENDTAB
  0
TABLE
  2
LAYER
 70
     1
  0
LAYER
  2
0
 70
     0
 62
     7
  6
CONTINUOUS
  0
ENDTAB
  0
TABLE
  2
STYLE
 70
     2
  0
STYLE
  2
STANDARD
 70
     0
 40
0.0
 41
1.0
 50
0.0
 71
     0
 42
3.0
  3
txt
  4

  0
STYLE
  2
SST
 70
     0
 40
0.0
 41
1.0
 50
0.0
 71
     0
 42
3.5
  3
romans.shx
  4

  0
ENDTAB
  0
TABLE
  2
VIEW
 70
     0
  0
ENDTAB
  0
TABLE
  2
UCS
 70
     0
  0
ENDTAB
  0
TABLE
  2
APPID
 70
     1
  0
APPID
  2
ACAD
 70
     0
  0
ENDTAB
  0
TABLE
  2
DIMSTYLE
 70
     2
  0
DIMSTYLE
  2
NORDIC
 70
     0
  3

  4

  5

  6

  7

 40
2.0
 41
2.0
 42
1.0
 43
10.0
 44
1.0
 45
0.0
 46
0.0
 47
0.0
 48
0.0
140
3.5
141
2.5
142
0.0
143
25.399999999999999
144
1.0
145
0.0
146
1.0
147
1.0
 71
     0
 72
     0
 73
     0
 74
     0
 75
     0
 76
     0
 77
     1
 78
     8
170
     0
171
     2
172
     1
173
     0
174
     0
175
     0
176
     0
177
     0
178
     0
  0
DIMSTYLE
  2
STANDARD
 70
     0
  3

  4

  5

  6

  7

 40
1.0
 41
0.18
 42
0.0625
 43
0.38
 44
0.18
 45
0.0
 46
0.0
 47
0.0
 48
0.0
140
0.18
141
0.09
142
0.0
143
25.399999999999999
144
1.0
145
0.0
146
1.0
147
0.09
 71
     0
 72
     0
 73
     1
 74
     1
 75
     0
 76
     0
 77
     0
 78
     0
170
     0
171
     2
172
     0
173
     0
174
     0
175
     0
176
     0
177
     0
178
     0
  0
ENDTAB
  0
ENDSEC
  0
SECTION
  2
BLOCKS
  0
BLOCK
  8
0
  2
$MODEL_SPACE
 70
     0
 10
0.0
 20
0.0
 30
0.0
  3
$MODEL_SPACE
  1

  0
ENDBLK
  5
9
  8
0
  0
BLOCK
 67
     1
  8
0
  2
$PAPER_SPACE
 70
     0
 10
0.0
 20
0.0
 30
0.0
  3
$PAPER_SPACE
  1

  0
ENDBLK
  5
E
 67
     1
  8
0
  0
BLOCK
  8
0
  2
SIMPSON-STRONG-TIE
 70
     0
 10
0.0
 20
0.0
 30
0.0
  3
SIMPSON-STRONG-TIE
  1

  0
TEXT
  5
C7
  8
0
  6
CONTINUOUS
 10
-4.7318727780691416
 20
4.4215860385237811
 30
0.0
 40
2.0
  1
SIMPSON
 50
316.94148639091338
  7
SST
 72
     1
 11
0.0
 21
0.0
 31
0.0
  0
TEXT
  5
C8
  8
0
  6
CONTINUOUS
 10
-7.9648409725863862
 20
3.4769825481547749
 30
0.0
 40
2.0
  1
Strong-Tie
 50
316.94148639091338
  7
SST
 72
     1
 11
-2.0499999999999541
 21
-2.0499999999999541
 31
0.0
  0
ENDBLK
  5
C9
  8
0
  0
ENDSEC
  0
SECTION
  2
ENTITIES
  0
LINE
  5
2A
  8
0
 10
-30.00000000000006
 20
-0.0000000000000284
 30
0.0
 11
-29.999999999999488
 21
1200.0
 31
0.0
  0
LINE
  5
2B
  8
0
 10
30.00000000000006
 20
0.0000000000000284
 30
0.0
 11
-30.00000000000006
 21
-0.0000000000000284
 31
0.0
  0
CIRCLE
  5
2C
  8
0
 10
20.00000000000006
 20
10.0
 30
0.0
 40
2.5
  0
CIRCLE
  5
2D
  8
0
 10
20.000000000000171
 20
50.0
 30
0.0
 40
2.5
  0
LINE
  5
2E
  8
0
 10
30.00000000000006
 20
0.0000000000000284
 30
0.0
 11
30.000000000000341
 21
1200.0
 31
0.0
  0
CIRCLE
  5
2F
  8
0
 10
20.000000000000401
 20
90.0
 30
0.0
 40
2.5
  0
LINE
  5
30
  8
0
 10
-29.999999999999488
 20
1200.0
 30
0.0
 11
30.000000000000341
 21
1200.0
 31
0.0
  0
CIRCLE
  5
31
  8
0
 10
0.0000000000000568
 20
9.9999999999999432
 30
0.0
 40
2.5
  0
CIRCLE
  5
32
  8
0
 10
10.00000000000005
 20
29.999999999999972
 30
0.0
 40
2.5
  0
CIRCLE
  5
33
  8
0
 10
0.0000000000001705
 20
49.999999999999943
 30
0.0
 40
2.5
  0
CIRCLE
  5
34
  8
0
 10
10.000000000000281
 20
70.0
 30
0.0
 40
2.5
  0
CIRCLE
  5
35
  8
0
 10
0.0000000000003979
 20
89.999999999999943
 30
0.0
 40
2.5
  0
CIRCLE
  5
36
  8
0
 10
10.000000000000391
 20
110.0
 30
0.0
 40
2.5
  0
CIRCLE
  5
37
  8
0
 10
-9.9999999999999432
 20
29.999999999999918
 30
0.0
 40
2.5
  0
CIRCLE
  5
38
  8
0
 10
-19.99999999999994
 20
9.9999999999998863
 30
0.0
 40
2.5
  0
CIRCLE
  5
39
  8
0
 10
-19.999999999999829
 20
49.999999999999893
 30
0.0
 40
2.5
  0
CIRCLE
  5
3A
  8
0
 10
-9.9999999999997158
 20
69.999999999999943
 30
0.0
 40
2.5
  0
CIRCLE
  5
3B
  8
0
 10
-19.999999999999599
 20
89.999999999999886
 30
0.0
 40
2.5
  0
CIRCLE
  5
3C
  8
0
 10
-9.9999999999996021
 20
109.9999999999999
 30
0.0
 40
2.5
  0
CIRCLE
  5
3D
  8
0
 10
20.000000000000512
 20
130.0
 30
0.0
 40
2.5
  0
CIRCLE
  5
3E
  8
0
 10
20.000000000000739
 20
170.0
 30
0.0
 40
2.5
  0
CIRCLE
  5
3F
  8
0
 10
0.0000000000005116
 20
130.0
 30
0.0
 40
2.5
  0
CIRCLE
  5
40
  8
0
 10
10.00000000000062
 20
150.0
 30
0.0
 40
2.5
  0
CIRCLE
  5
41
  8
0
 10
0.000000000000739
 20
170.0
 30
0.0
 40
2.5
  0
CIRCLE
  5
42
  8
0
 10
10.000000000000741
 20
190.0
 30
0.0
 40
2.5
  0
CIRCLE
  5
43
  8
0
 10
-19.999999999999488
 20
129.99999999999989
 30
0.0
 40
2.5
  0
CIRCLE
  5
44
  8
0
 10
-9.9999999999993747
 20
150.0
 30
0.0
 40
2.5
  0
CIRCLE
  5
45
  8
0
 10
-19.999999999999261
 20
169.99999999999989
 30
0.0
 40
2.5
  0
CIRCLE
  5
46
  8
0
 10
-9.999999999999261
 20
190.0
 30
0.0
 40
2.5
  0
CIRCLE
  5
47
  8
0
 10
20.000000000000849
 20
210.0
 30
0.0
 40
2.5
  0
CIRCLE
  5
48
  8
0
 10
20.00000000000108
 20
250.0
 30
0.0
 40
2.5
  0
CIRCLE
  5
49
  8
0
 10
0.0000000000008527
 20
210.0
 30
0.0
 40
2.5
  0
CIRCLE
  5
4A
  8
0
 10
10.000000000000959
 20
230.0
 30
0.0
 40
2.5
  0
CIRCLE
  5
4B
  8
0
 10
0.00000000000108
 20
250.0
 30
0.0
 40
2.5
  0
CIRCLE
  5
4C
  8
0
 10
10.00000000000108
 20
270.0
 30
0.0
 40
2.5
  0
CIRCLE
  5
4D
  8
0
 10
-19.99999999999914
 20
209.99999999999989
 30
0.0
 40
2.5
  0
CIRCLE
  5
4E
  8
0
 10
-9.9999999999990337
 20
230.0
 30
0.0
 40
2.5
  0
CIRCLE
  5
4F
  8
0
 10
-19.99999999999892
 20
249.99999999999989
 30
0.0
 40
2.5
  0
CIRCLE
  5
50
  8
0
 10
-9.9999999999989182
 20
270.0
 30
0.0
 40
2.5
  0
CIRCLE
  5
51
  8
0
 10
20.00000000000119
 20
290.0
 30
0.0
 40
2.5
  0
CIRCLE
  5
52
  8
0
 10
20.000000000001421
 20
330.0
 30
0.0
 40
2.5
  0
CIRCLE
  5
53
  8
0
 10
0.0000000000011937
 20
290.0
 30
0.0
 40
2.5
  0
CIRCLE
  5
54
  8
0
 10
10.000000000001309
 20
310.0
 30
0.0
 40
2.5
  0
CIRCLE
  5
55
  8
0
 10
0.0000000000014211
 20
330.0
 30
0.0
 40
2.5
  0
CIRCLE
  5
56
  8
0
 10
10.000000000001419
 20
350.0
 30
0.0
 40
2.5
  0
CIRCLE
  5
57
  8
0
 10
-19.999999999998799
 20
289.99999999999989
 30
0.0
 40
2.5
  0
CIRCLE
  5
58
  8
0
 10
-9.9999999999986926
 20
310.0
 30
0.0
 40
2.5
  0
CIRCLE
  5
59
  8
0
 10
-19.999999999998579
 20
329.99999999999989
 30
0.0
 40
2.5
  0
CIRCLE
  5
5A
  8
0
 10
-9.9999999999985771
 20
350.0
 30
0.0
 40
2.5
  0
CIRCLE
  5
5B
  8
0
 10
20.000000000001538
 20
370.0
 30
0.0
 40
2.5
  0
CIRCLE
  5
5C
  8
0
 10
20.000000000001759
 20
410.0
 30
0.0
 40
2.5
  0
CIRCLE
  5
5D
  8
0
 10
0.0000000000015348
 20
370.0
 30
0.0
 40
2.5
  0
CIRCLE
  5
5E
  8
0
 10
10.00000000000165
 20
390.0
 30
0.0
 40
2.5
  0
CIRCLE
  5
5F
  8
0
 10
0.0000000000017621
 20
410.0
 30
0.0
 40
2.5
  0
CIRCLE
  5
60
  8
0
 10
10.00000000000176
 20
430.00000000000011
 30
0.0
 40
2.5
  0
CIRCLE
  5
61
  8
0
 10
-19.999999999998462
 20
369.99999999999989
 30
0.0
 40
2.5
  0
CIRCLE
  5
62
  8
0
 10
-9.9999999999983515
 20
390.0
 30
0.0
 40
2.5
  0
CIRCLE
  5
63
  8
0
 10
-19.999999999998241
 20
409.99999999999977
 30
0.0
 40
2.5
  0
CIRCLE
  5
64
  8
0
 10
-9.9999999999982379
 20
430.00000000000011
 30
0.0
 40
2.5
  0
CIRCLE
  5
65
  8
0
 10
20.000000000001879
 20
450.0
 30
0.0
 40
2.5
  0
CIRCLE
  5
66
  8
0
 10
20.0000000000021
 20
490.00000000000011
 30
0.0
 40
2.5
  0
CIRCLE
  5
67
  8
0
 10
0.0000000000018758
 20
450.0
 30
0.0
 40
2.5
  0
CIRCLE
  5
68
  8
0
 10
10.00000000000199
 20
470.00000000000011
 30
0.0
 40
2.5
  0
CIRCLE
  5
69
  8
0
 10
0.0000000000021032
 20
490.00000000000011
 30
0.0
 40
2.5
  0
CIRCLE
  5
6A
  8
0
 10
10.0000000000021
 20
510.00000000000011
 30
0.0
 40
2.5
  0
CIRCLE
  5
6B
  8
0
 10
-19.999999999998121
 20
450.0
 30
0.0
 40
2.5
  0
CIRCLE
  5
6C
  8
0
 10
-9.9999999999980105
 20
470.00000000000011
 30
0.0
 40
2.5
  0
CIRCLE
  5
6D
  8
0
 10
-19.9999999999979
 20
490.00000000000011
 30
0.0
 40
2.5
  0
CIRCLE
  5
6E
  8
0
 10
-9.9999999999978968
 20
510.00000000000011
 30
0.0
 40
2.5
  0
CIRCLE
  5
6F
  8
0
 10
20.00000000000222
 20
530.00000000000011
 30
0.0
 40
2.5
  0
CIRCLE
  5
70
  8
0
 10
20.000000000002451
 20
570.00000000000011
 30
0.0
 40
2.5
  0
CIRCLE
  5
71
  8
0
 10
0.0000000000022169
 20
530.00000000000011
 30
0.0
 40
2.5
  0
CIRCLE
  5
72
  8
0
 10
10.000000000002331
 20
550.0
 30
0.0
 40
2.5
  0
CIRCLE
  5
73
  8
0
 10
0.0000000000024443
 20
570.00000000000011
 30
0.0
 40
2.5
  0
CIRCLE
  5
74
  8
0
 10
10.000000000002441
 20
590.00000000000011
 30
0.0
 40
2.5
  0
CIRCLE
  5
75
  8
0
 10
-19.99999999999778
 20
530.00000000000011
 30
0.0
 40
2.5
  0
CIRCLE
  5
76
  8
0
 10
-9.9999999999976694
 20
550.0
 30
0.0
 40
2.5
  0
CIRCLE
  5
77
  8
0
 10
-19.999999999997549
 20
570.00000000000011
 30
0.0
 40
2.5
  0
CIRCLE
  5
78
  8
0
 10
-9.9999999999975557
 20
590.00000000000011
 30
0.0
 40
2.5
  0
CIRCLE
  5
79
  8
0
 10
20.000000000002562
 20
610.00000000000011
 30
0.0
 40
2.5
  0
CIRCLE
  5
7A
  8
0
 10
20.000000000002782
 20
650.0
 30
0.0
 40
2.5
  0
CIRCLE
  5
7B
  8
0
 10
0.000000000002558
 20
610.00000000000011
 30
0.0
 40
2.5
  0
CIRCLE
  5
7C
  8
0
 10
10.00000000000267
 20
630.00000000000011
 30
0.0
 40
2.5
  0
CIRCLE
  5
7D
  8
0
 10
0.0000000000027853
 20
650.0
 30
0.0
 40
2.5
  0
CIRCLE
  5
7E
  8
0
 10
10.00000000000278
 20
670.00000000000011
 30
0.0
 40
2.5
  0
CIRCLE
  5
7F
  8
0
 10
-19.999999999997438
 20
610.00000000000011
 30
0.0
 40
2.5
  0
CIRCLE
  5
80
  8
0
 10
-9.9999999999973284
 20
630.00000000000011
 30
0.0
 40
2.5
  0
CIRCLE
  5
81
  8
0
 10
-19.999999999997211
 20
650.0
 30
0.0
 40
2.5
  0
CIRCLE
  5
82
  8
0
 10
-9.9999999999972147
 20
670.00000000000011
 30
0.0
 40
2.5
  0
CIRCLE
  5
83
  8
0
 10
20.000000000002899
 20
690.00000000000011
 30
0.0
 40
2.5
  0
CIRCLE
  5
84
  8
0
 10
20.00000000000313
 20
730.00000000000011
 30
0.0
 40
2.5
  0
CIRCLE
  5
85
  8
0
 10
0.000000000002899
 20
689.99999999999977
 30
0.0
 40
2.5
  0
CIRCLE
  5
86
  8
0
 10
10.000000000003009
 20
710.00000000000011
 30
0.0
 40
2.5
  0
CIRCLE
  5
87
  8
0
 10
0.0000000000031264
 20
729.99999999999977
 30
0.0
 40
2.5
  0
CIRCLE
  5
88
  8
0
 10
10.000000000003119
 20
750.0
 30
0.0
 40
2.5
  0
CIRCLE
  5
89
  8
0
 10
-19.999999999997101
 20
689.99999999999977
 30
0.0
 40
2.5
  0
CIRCLE
  5
8A
  8
0
 10
-9.9999999999969873
 20
709.99999999999977
 30
0.0
 40
2.5
  0
CIRCLE
  5
8B
  8
0
 10
-19.99999999999687
 20
729.99999999999977
 30
0.0
 40
2.5
  0
CIRCLE
  5
8C
  8
0
 10
-9.9999999999968736
 20
749.99999999999989
 30
0.0
 40
2.5
  0
CIRCLE
  5
8D
  8
0
 10
20.00000000000324
 20
770.00000000000011
 30
0.0
 40
2.5
  0
CIRCLE
  5
8E
  8
0
 10
20.000000000003471
 20
810.00000000000011
 30
0.0
 40
2.5
  0
CIRCLE
  5
8F
  8
0
 10
0.0000000000032401
 20
770.00000000000011
 30
0.0
 40
2.5
  0
CIRCLE
  5
90
  8
0
 10
10.00000000000335
 20
790.00000000000011
 30
0.0
 40
2.5
  0
CIRCLE
  5
91
  8
0
 10
0.0000000000034674
 20
810.00000000000011
 30
0.0
 40
2.5
  0
CIRCLE
  5
92
  8
0
 10
10.000000000003469
 20
830.0
 30
0.0
 40
2.5
  0
CIRCLE
  5
93
  8
0
 10
-19.99999999999676
 20
769.99999999999989
 30
0.0
 40
2.5
  0
CIRCLE
  5
94
  8
0
 10
-9.9999999999966462
 20
790.00000000000011
 30
0.0
 40
2.5
  0
CIRCLE
  5
95
  8
0
 10
-19.999999999996529
 20
809.99999999999989
 30
0.0
 40
2.5
  0
CIRCLE
  5
96
  8
0
 10
-9.9999999999965326
 20
830.0
 30
0.0
 40
2.5
  0
CIRCLE
  5
97
  8
0
 10
20.000000000003581
 20
850.00000000000011
 30
0.0
 40
2.5
  0
CIRCLE
  5
98
  8
0
 10
20.000000000003809
 20
890.00000000000023
 30
0.0
 40
2.5
  0
CIRCLE
  5
99
  8
0
 10
0.0000000000035811
 20
850.00000000000011
 30
0.0
 40
2.5
  0
CIRCLE
  5
9A
  8
0
 10
10.000000000003689
 20
870.00000000000011
 30
0.0
 40
2.5
  0
CIRCLE
  5
9B
  8
0
 10
0.0000000000038085
 20
890.00000000000023
 30
0.0
 40
2.5
  0
CIRCLE
  5
9C
  8
0
 10
10.00000000000381
 20
910.00000000000011
 30
0.0
 40
2.5
  0
CIRCLE
  5
9D
  8
0
 10
-19.999999999996419
 20
849.99999999999977
 30
0.0
 40
2.5
  0
CIRCLE
  5
9E
  8
0
 10
-9.9999999999963052
 20
870.00000000000011
 30
0.0
 40
2.5
  0
CIRCLE
  5
9F
  8
0
 10
-19.999999999996191
 20
890.00000000000023
 30
0.0
 40
2.5
  0
CIRCLE
  5
A0
  8
0
 10
-9.9999999999961915
 20
910.00000000000011
 30
0.0
 40
2.5
  0
CIRCLE
  5
A1
  8
0
 10
20.000000000003919
 20
930.0
 30
0.0
 40
2.5
  0
CIRCLE
  5
A2
  8
0
 10
20.00000000000415
 20
970.00000000000011
 30
0.0
 40
2.5
  0
CIRCLE
  5
A3
  8
0
 10
0.0000000000039222
 20
930.0
 30
0.0
 40
2.5
  0
CIRCLE
  5
A4
  8
0
 10
10.000000000004031
 20
950.00000000000011
 30
0.0
 40
2.5
  0
CIRCLE
  5
A5
  8
0
 10
0.0000000000041496
 20
970.00000000000011
 30
0.0
 40
2.5
  0
CIRCLE
  5
A6
  8
0
 10
10.00000000000415
 20
990.00000000000023
 30
0.0
 40
2.5
  0
CIRCLE
  5
A7
  8
0
 10
-19.999999999996081
 20
930.0
 30
0.0
 40
2.5
  0
CIRCLE
  5
A8
  8
0
 10
-9.9999999999959641
 20
950.00000000000011
 30
0.0
 40
2.5
  0
CIRCLE
  5
A9
  8
0
 10
-19.99999999999585
 20
970.00000000000011
 30
0.0
 40
2.5
  0
CIRCLE
  5
AA
  8
0
 10
-9.9999999999958504
 20
990.00000000000023
 30
0.0
 40
2.5
  0
CIRCLE
  5
AB
  8
0
 10
20.00000000000426
 20
1010.0
 30
0.0
 40
2.5
  0
CIRCLE
  5
AC
  8
0
 10
20.000000000004491
 20
1050.0
 30
0.0
 40
2.5
  0
CIRCLE
  5
AD
  8
0
 10
0.0000000000042633
 20
1010.0
 30
0.0
 40
2.5
  0
CIRCLE
  5
AE
  8
0
 10
10.00000000000437
 20
1030.0
 30
0.0
 40
2.5
  0
CIRCLE
  5
AF
  8
0
 10
0.0000000000044906
 20
1050.0
 30
0.0
 40
2.5
  0
CIRCLE
  5
B0
  8
0
 10
10.000000000004491
 20
1070.0
 30
0.0
 40
2.5
  0
CIRCLE
  5
B1
  8
0
 10
-19.99999999999573
 20
1010.0
 30
0.0
 40
2.5
  0
CIRCLE
  5
B2
  8
0
 10
-9.9999999999956231
 20
1030.0
 30
0.0
 40
2.5
  0
CIRCLE
  5
B3
  8
0
 10
-19.999999999995509
 20
1050.0
 30
0.0
 40
2.5
  0
CIRCLE
  5
B4
  8
0
 10
-9.9999999999955094
 20
1070.0
 30
0.0
 40
2.5
  0
CIRCLE
  5
B5
  8
0
 10
20.000000000004601
 20
1090.0
 30
0.0
 40
2.5
  0
CIRCLE
  5
B6
  8
0
 10
20.000000000004832
 20
1130.0
 30
0.0
 40
2.5
  0
CIRCLE
  5
B7
  8
0
 10
0.0000000000046043
 20
1090.0
 30
0.0
 40
2.5
  0
CIRCLE
  5
B8
  8
0
 10
10.00000000000472
 20
1110.0
 30
0.0
 40
2.5
  0
CIRCLE
  5
B9
  8
0
 10
0.0000000000048317
 20
1130.0
 30
0.0
 40
2.5
  0
CIRCLE
  5
BA
  8
0
 10
10.00000000000483
 20
1150.0
 30
0.0
 40
2.5
  0
CIRCLE
  5
BB
  8
0
 10
-19.999999999995389
 20
1090.0
 30
0.0
 40
2.5
  0
CIRCLE
  5
BC
  8
0
 10
-9.9999999999952802
 20
1110.0
 30
0.0
 40
2.5
  0
CIRCLE
  5
BD
  8
0
 10
-19.999999999995168
 20
1130.0
 30
0.0
 40
2.5
  0
CIRCLE
  5
BE
  8
0
 10
-9.9999999999951683
 20
1150.0
 30
0.0
 40
2.5
  0
CIRCLE
  5
BF
  8
0
 10
20.000000000004949
 20
1170.0
 30
0.0
 40
2.5
  0
CIRCLE
  5
C0
  8
0
 10
0.0000000000049454
 20
1170.0
 30
0.0
 40
2.5
  0
CIRCLE
  5
C1
  8
0
 10
10.000000000005061
 20
1190.0
 30
0.0
 40
2.5
  0
CIRCLE
  5
C2
  8
0
 10
-19.999999999995051
 20
1170.0
 30
0.0
 40
2.5
  0
CIRCLE
  5
C3
  8
0
 10
-9.9999999999949392
 20
1190.0
 30
0.0
 40
2.5
  0
INSERT
  5
C4
  8
0
  2
SIMPSON-STRONG-TIE
 10
-5.524999999999971
 20
82.400000000000006
 30
0.0
  0
ENDSEC
  0
EOF
