  0
SECTION
  2
HEADER
  9
$ACADVER
  1
AC1009
  9
$INSBASE
 10
0.0
 20
0.0
 30
0.0
  9
$EXTMIN
 10
-59.11213061839544
 20
-16.998370571130561
 30
0.0
  9
$EXTMAX
 10
333.77316093735112
 20
17.001629428869428
 30
0.0
  9
$LIMMIN
 10
0.0
 20
0.0
  9
$LIMMAX
 10
420.0
 20
297.0
  9
$ORTHOMODE
 70
     1
  9
$REGENMODE
 70
     1
  9
$FILLMODE
 70
     1
  9
$QTEXTMODE
 70
     0
  9
$MIRRTEXT
 70
     1
  9
$DRAGMODE
 70
     2
  9
$LTSCALE
 40
1.0
  9
$OSMODE
 70
    47
  9
$ATTMODE
 70
     1
  9
$TEXTSIZE
 40
3.5
  9
$TRACEWID
 40
0.05
  9
$TEXTSTYLE
  7
SST
  9
$CLAYER
  8
0
  9
$CELTYPE
  6
BYLAYER
  9
$CECOLOR
 62
   256
  9
$DIMSCALE
 40
1.0
  9
$DIMASZ
 40
0.18
  9
$DIMEXO
 40
0.0625
  9
$DIMDLI
 40
0.38
  9
$DIMRND
 40
0.0
  9
$DIMDLE
 40
0.0
  9
$DIMEXE
 40
0.18
  9
$DIMTP
 40
0.0
  9
$DIMTM
 40
0.0
  9
$DIMTXT
 40
0.18
  9
$DIMCEN
 40
0.09
  9
$DIMTSZ
 40
0.0
  9
$DIMTOL
 70
     0
  9
$DIMLIM
 70
     0
  9
$DIMTIH
 70
     1
  9
$DIMTOH
 70
     1
  9
$DIMSE1
 70
     0
  9
$DIMSE2
 70
     0
  9
$DIMTAD
 70
     0
  9
$DIMZIN
 70
     0
  9
$DIMBLK
  1

  9
$DIMASO
 70
     1
  9
$DIMSHO
 70
     1
  9
$DIMPOST
  1

  9
$DIMAPOST
  1

  9
$DIMALT
 70
     0
  9
$DIMALTD
 70
     2
  9
$DIMALTF
 40
25.399999999999999
  9
$DIMLFAC
 40
1.0
  9
$DIMTOFL
 70
     0
  9
$DIMTVP
 40
0.0
  9
$DIMTIX
 70
     0
  9
$DIMSOXD
 70
     0
  9
$DIMSAH
 70
     0
  9
$DIMBLK1
  1

  9
$DIMBLK2
  1

  9
$DIMSTYLE
  2
STANDARD
  9
$DIMCLRD
 70
     0
  9
$DIMCLRE
 70
     0
  9
$DIMCLRT
 70
     0
  9
$DIMTFAC
 40
1.0
  9
$DIMGAP
 40
0.09
  9
$LUNITS
 70
     2
  9
$LUPREC
 70
     4
  9
$SKETCHINC
 40
0.1
  9
$FILLETRAD
 40
5.0
  9
$AUNITS
 70
     0
  9
$AUPREC
 70
     2
  9
$MENU
  1
acad
  9
$ELEVATION
 40
0.0
  9
$PELEVATION
 40
0.0
  9
$THICKNESS
 40
0.0
  9
$LIMCHECK
 70
     0
  9
$BLIPMODE
 70
     0
  9
$CHAMFERA
 40
1.1999999999999991
  9
$CHAMFERB
 40
1.1999999999999991
  9
$SKPOLY
 70
     0
  9
$TDCREATE
 40
2449450.4197234958
  9
$TDUPDATE
 40
2453443.5671775462
  9
$TDINDWG
 40
1.3836713426
  9
$TDUSRTIMER
 40
1.3836713426
  9
$USRTIMER
 70
     1
  9
$ANGBASE
 50
0.0
  9
$ANGDIR
 70
     0
  9
$PDMODE
 70
     0
  9
$PDSIZE
 40
0.0
  9
$PLINEWID
 40
0.0
  9
$COORDS
 70
     1
  9
$SPLFRAME
 70
     0
  9
$SPLINETYPE
 70
     6
  9
$SPLINESEGS
 70
     8
  9
$ATTDIA
 70
     0
  9
$ATTREQ
 70
     1
  9
$HANDLING
 70
     1
  9
$HANDSEED
  5
2A1
  9
$SURFTAB1
 70
     6
  9
$SURFTAB2
 70
     6
  9
$SURFTYPE
 70
     6
  9
$SURFU
 70
     6
  9
$SURFV
 70
     6
  9
$UCSNAME
  2

  9
$UCSORG
 10
0.0
 20
0.0
 30
0.0
  9
$UCSXDIR
 10
1.0
 20
0.0
 30
0.0
  9
$UCSYDIR
 10
0.0
 20
1.0
 30
0.0
  9
$PUCSNAME
  2

  9
$PUCSORG
 10
0.0
 20
0.0
 30
0.0
  9
$PUCSXDIR
 10
1.0
 20
0.0
 30
0.0
  9
$PUCSYDIR
 10
0.0
 20
1.0
 30
0.0
  9
$USERI1
 70
     0
  9
$USERI2
 70
     0
  9
$USERI3
 70
     0
  9
$USERI4
 70
     0
  9
$USERI5
 70
     0
  9
$USERR1
 40
0.0
  9
$USERR2
 40
0.0
  9
$USERR3
 40
0.0
  9
$USERR4
 40
0.0
  9
$USERR5
 40
0.0
  9
$WORLDVIEW
 70
     1
  9
$SHADEDGE
 70
     3
  9
$SHADEDIF
 70
    70
  9
$TILEMODE
 70
     1
  9
$MAXACTVP
 70
    16
  9
$PLIMCHECK
 70
     0
  9
$PEXTMIN
 10
1.0000000000000000E+020
 20
1.0000000000000000E+020
 30
1.0000000000000000E+020
  9
$PEXTMAX
 10
-1.0000000000000000E+020
 20
-1.0000000000000000E+020
 30
-1.0000000000000000E+020
  9
$PLIMMIN
 10
0.0
 20
0.0
  9
$PLIMMAX
 10
420.0
 20
297.0
  9
$UNITMODE
 70
     0
  9
$VISRETAIN
 70
     0
  9
$PLINEGEN
 70
     0
  9
$PSLTSCALE
 70
     1
  0
ENDSEC
  0
SECTION
  2
TABLES
  0
TABLE
  2
VPORT
 70
     2
  0
VPORT
  2
*ACTIVE
 70
     0
 10
0.0
 20
0.0
 11
1.0
 21
1.0
 12
137.33022428586861
 22
-0.021960417311675
 13
0.0
 23
0.0
 14
0.1
 24
0.1
 15
10.0
 25
10.0
 16
0.0
 26
0.0
 36
1.0
 17
0.0
 27
0.0
 37
0.0
 40
329.25079645238901
 41
1.4993646759847521
 42
50.0
 43
0.0
 44
0.0
 50
0.0
 51
0.0
 71
     0
 72
   100
 73
     1
 74
     1
 75
     1
 76
     0
 77
     0
 78
     0
  0
ENDTAB
  0
TABLE
  2
LTYPE
 70
     1
  0
LTYPE
  2
CONTINUOUS
 70
     0
  3
Solid line
 72
    65
 73
     0
 40
0.0
  0
ENDTAB
  0
TABLE
  2
LAYER
 70
     2
  0
LAYER
  2
0
 70
     0
 62
     7
  6
CONTINUOUS
  0
LAYER
  2
RAMME
 70
     1
 62
     2
  6
CONTINUOUS
  0
ENDTAB
  0
TABLE
  2
STYLE
 70
     4
  0
STYLE
  2
STANDARD
 70
     0
 40
0.0
 41
1.0
 50
0.0
 71
     0
 42
3.0
  3
txt
  4

  0
STYLE
  2
GOTHICG
 70
     0
 40
3.0
 41
0.8
 50
0.0
 71
     0
 42
3.0
  3
TXT.shx
  4

  0
STYLE
  2
_STYLE
 70
     0
 40
8.5
 41
0.5
 50
0.0
 71
     0
 42
8.5
  3
ROMANS.shx
  4

  0
STYLE
  2
SST
 70
     0
 40
0.0
 41
1.0
 50
0.0
 71
     0
 42
3.5
  3
romans.shx
  4

  0
ENDTAB
  0
TABLE
  2
VIEW
 70
     0
  0
ENDTAB
  0
TABLE
  2
UCS
 70
     0
  0
ENDTAB
  0
TABLE
  2
APPID
 70
     1
  0
APPID
  2
ACAD
 70
     0
  0
ENDTAB
  0
TABLE
  2
DIMSTYLE
 70
     1
  0
DIMSTYLE
  2
STANDARD
 70
     0
  3

  4

  5

  6

  7

 40
1.0
 41
0.18
 42
0.0625
 43
0.38
 44
0.18
 45
0.0
 46
0.0
 47
0.0
 48
0.0
140
0.18
141
0.09
142
0.0
143
25.399999999999999
144
1.0
145
0.0
146
1.0
147
0.09
 71
     0
 72
     0
 73
     1
 74
     1
 75
     0
 76
     0
 77
     0
 78
     0
170
     0
171
     2
172
     0
173
     0
174
     0
175
     0
176
     0
177
     0
178
     0
  0
ENDTAB
  0
ENDSEC
  0
SECTION
  2
BLOCKS
  0
BLOCK
  8
0
  2
$MODEL_SPACE
 70
     0
 10
0.0
 20
0.0
 30
0.0
  3
$MODEL_SPACE
  1

  0
ENDBLK
  5
9
  8
0
  0
BLOCK
 67
     1
  8
0
  2
$PAPER_SPACE
 70
     0
 10
0.0
 20
0.0
 30
0.0
  3
$PAPER_SPACE
  1

  0
ENDBLK
  5
E
 67
     1
  8
0
  0
BLOCK
  8
0
  2
PRODUKTION
 70
     0
 10
0.0
 20
0.0
 30
0.0
  3
PRODUKTION
  1

  0
LINE
  5
2F
  8
RAMME
 10
0.0
 20
-40.200000000000003
 30
0.0
 11
0.0
 21
817.79999999999995
 31
0.0
  0
LINE
  5
31
  8
RAMME
 10
596.99999999999966
 20
-40.200000000000003
 30
0.0
 11
0.0
 21
-40.200000000000003
 31
0.0
  0
LINE
  5
32
  8
RAMME
 10
597.0
 20
817.79999999999995
 30
0.0
 11
597.0
 21
-40.200000000000003
 31
0.0
  0
TEXT
  5
33
  8
RAMME
 10
6.0
 20
778.79999999999973
 30
0.0
 40
6.0
  1
Beskrivelse:
  7
GOTHICG
  0
LINE
  5
35
  8
RAMME
 10
31.07636029457424
 20
802.7249999999998
 30
0.0
 11
17.16228926886194
 21
802.7249999999998
 31
0.0
1001
ACAD
1000
ASC_BOUNDS
1002
{
1070
    19
1005
39
1002
}
  0
LINE
  5
36
  8
RAMME
 10
9.8579414427751431
 20
808.72499999999991
 30
0.0
 11
31.453209857265879
 21
808.72499999999991
 31
0.0
1001
ACAD
1000
ASC_BOUNDS
1002
{
1070
    19
1005
39
1002
}
  0
LINE
  5
37
  8
RAMME
 10
11.86663709494885
 20
807.07500000000005
 30
0.0
 11
31.07636029457424
 21
807.07500000000005
 31
0.0
1001
ACAD
1000
ASC_BOUNDS
1002
{
1070
    19
1005
39
1002
}
  0
LINE
  5
38
  8
RAMME
 10
4.0144631819053984
 20
813.52499999999998
 30
0.0
 11
34.014463181905398
 21
813.52499999999998
 31
0.0
1001
ACAD
1000
ASC_BOUNDS
1002
{
1070
    19
1005
39
1002
}
  0
INSERT
  5
39
  8
RAMME
  6
CONTINUOUS
  2
*X1
 10
0.0
 20
0.0
 30
0.0
1001
ACAD
1000
HATCH
1002
{
1070
    19
1000
ANSI31
1040
3.0
1040
0.0
1000
ASC_BOUNDS
1070
     3
1070
     2
1070
     4
1005
94
1005
41
1005
65
1005
47
1070
     2
1070
     4
1005
37
1005
3B
1005
35
1005
97
1070
     2
1070
     4
1005
3A
1005
36
1005
96
1005
38
1000
ASC_SEEDPOINT
1011
99.900000000000034
1021
-8.2322163531564105E+177
1031
-0.0
1021
-29.549999999999891
1031
0.0
1000
R14_HATCH_DATA
1000
39
1011
1.0
1021
-8.2322163531564105E+177
1031
-0.0
1021
0.0
1031
0.0
1011
0.0
1021
-8.2322163531564105E+177
1031
-0.0
1021
1.0
1031
0.0
1011
0.0
1021
-8.2322163531564105E+177
1031
-0.0
1021
0.0
1031
1.0
1040
0.0
1010
0.0
1020
0.0
1030
1.0
1000
ANSI31
1070
     0
1070
     1
1071
        3
1071
        1
1071
        4
1070
     1
1040
4.0144631819053984
1040
813.52499999999998
1040
34.014463181905398
1040
813.52499999999998
1070
     2
1040
44.400000000000027
1040
804.90000000000009
1040
13.5
1040
2.4485395720098211
1040
2.8543245551690042
1070
     1
1070
     1
1040
31.453209857265879
1040
808.72499999999991
1040
9.8579414427751431
1040
808.72499999999991
1070
     1
1040
9.8579414427750578
1040
808.72499999999991
1040
4.0144631819053984
1040
813.52499999999986
1071
        4
1005
38
1005
96
1005
36
1005
3A
1071
        1
1071
        4
1070
     2
1040
44.400000000000027
1040
804.90000000000009
1040
13.5
1040
2.9797762853392382
1040
3.30340902184036
1070
     1
1070
     1
1040
31.07636029457424
1040
802.7249999999998
1040
17.16228926886194
1040
802.7249999999998
1070
     1
1040
17.16228926886194
1040
802.7249999999998
1040
11.86663709494877
1040
807.07500000000005
1070
     1
1040
11.86663709494885
1040
807.07500000000005
1040
31.07636029457424
1040
807.07500000000005
1071
        4
1005
97
1005
35
1005
3B
1005
37
1071
        1
1071
        4
1070
     2
1040
44.400000000000027
1040
804.90000000000009
1040
13.5
1040
3.428860752010594
1040
3.8346457351697651
1070
     1
1070
     1
1040
34.014463181905398
1040
796.27499999999998
1040
25.014463181905398
1040
796.27499999999998
1070
     1
1040
25.014463181905398
1040
796.27499999999998
1040
19.17098492103565
1040
801.07500000000005
1070
     1
1040
19.170984921035821
1040
801.07499999999993
1040
31.45320985726579
1040
801.07499999999993
1071
        4
1005
47
1005
65
1005
41
1005
94
1070
     0
1070
     1
1040
0.0
1040
3.0
1070
     0
1070
     1
1040
2.3561944901923439
1040
99.900000000000034
1040
-29.549999999999891
1040
0.2651650429449553
1040
0.2651650429449553
1070
     0
1071
        1
1040
99.900000000000034
1040
-29.549999999999891
1040
0.0
1002
}
  0
LINE
  5
3A
  8
RAMME
 10
9.8579414427750578
 20
808.72499999999991
 30
0.0
 11
4.0144631819053984
 21
813.52499999999998
 31
0.0
1001
ACAD
1000
ASC_BOUNDS
1002
{
1070
    19
1005
39
1002
}
  0
LINE
  5
3B
  8
RAMME
 10
17.16228926886194
 20
802.7249999999998
 30
0.0
 11
11.86663709494877
 21
807.07500000000005
 31
0.0
1001
ACAD
1000
ASC_BOUNDS
1002
{
1070
    19
1005
39
1002
}
  0
INSERT
  5
3C
  8
RAMME
  6
CONTINUOUS
  2
*X2
 10
0.0
 20
0.0
 30
0.0
1001
ACAD
1000
HATCH
1002
{
1070
    19
1000
ANSI31
1040
3.0
1040
0.0
1000
ASC_BOUNDS
1070
     3
1070
     2
1070
     4
1005
60
1005
3D
1005
76
1005
5F
1070
     2
1070
     4
1005
72
1005
DA
1005
73
1005
D8
1070
     2
1070
     4
1005
D9
1005
74
1005
CC
1005
75
1000
ASC_SEEDPOINT
1011
-11.099999999999961
1021
-8.2322163531564105E+177
1031
-0.0
1021
-29.549999999999891
1031
0.0
1000
R14_HATCH_DATA
1000
3C
1011
1.0
1021
-8.2322163531564105E+177
1031
-0.0
1021
0.0
1031
0.0
1011
0.0
1021
-8.2322163531564105E+177
1031
-0.0
1021
1.0
1031
0.0
1011
0.0
1021
-8.2322163531564105E+177
1031
-0.0
1021
0.0
1031
1.0
1040
0.0
1010
0.0
1020
0.0
1030
1.0
1000
ANSI31
1070
     0
1070
     1
1071
        3
1071
        1
1071
        4
1070
     1
1040
84.78553681809467
1040
813.52499999999998
1040
54.78553681809467
1040
813.52499999999998
1070
     2
1040
44.400000000000027
1040
804.90000000000009
1040
13.5
1040
5.5901322255996142
1040
5.9959172087587982
1070
     0
1070
     1
1040
57.346790142734278
1040
808.72499999999991
1040
78.94205855722501
1040
808.72499999999991
1070
     1
1040
78.942058557225096
1040
808.72499999999991
1040
84.78553681809467
1040
813.52499999999986
1071
        4
1005
75
1005
CC
1005
74
1005
D9
1071
        1
1071
        4
1070
     2
1040
44.400000000000027
1040
804.90000000000009
1040
13.5
1040
6.1213689389290176
1040
6.4450016754301398
1070
     1
1070
     1
1040
57.72363970542591
1040
807.07500000000005
1040
76.933362905051297
1040
807.07500000000005
1070
     1
1040
76.933362905051382
1040
807.07500000000005
1040
71.637710731138213
1040
802.72499999999957
1070
     1
1040
71.637710731138213
1040
802.7249999999998
1040
57.72363970542591
1040
802.72499999999957
1071
        4
1005
D8
1005
73
1005
DA
1005
72
1071
        1
1071
        4
1070
     2
1040
44.400000000000027
1040
804.90000000000009
1040
13.5
1040
5.5901322255996142
1040
5.995917208758784
1070
     1
1070
     1
1040
57.346790142734278
1040
801.07499999999993
1040
69.629015078964315
1040
801.07499999999982
1070
     1
1040
69.6290150789645
1040
801.07499999999993
1040
63.78553681809467
1040
796.27499999999986
1070
     1
1040
63.78553681809467
1040
796.27499999999998
1040
54.78553681809467
1040
796.27499999999998
1071
        4
1005
5F
1005
76
1005
3D
1005
60
1070
     0
1070
     1
1040
0.0
1040
3.0
1070
     0
1070
     1
1040
0.7853981633974482
1040
-11.099999999999961
1040
-29.549999999999891
1040
-0.2651650429449553
1040
0.2651650429449553
1070
     0
1071
        1
1040
-11.099999999999961
1040
-29.549999999999891
1040
0.0
1002
}
  0
LINE
  5
3D
  8
RAMME
 10
63.78553681809467
 20
796.27499999999998
 30
0.0
 11
69.6290150789645
 21
801.07499999999993
 31
0.0
1001
ACAD
1000
ASC_BOUNDS
1002
{
1070
    19
1005
3C
1002
}
  0
SOLID
  5
3E
  8
RAMME
 10
42.463171537629471
 20
810.90000000000009
 30
0.0
 11
40.950000000000102
 21
810.90000000000009
 31
0.0
 12
40.950000000000102
 22
798.15000000000009
 32
0.0
 13
40.950000000000102
 23
798.15000000000009
 33
0.0
  0
SOLID
  5
3F
  8
RAMME
 10
42.463171537629471
 20
810.90000000000009
 30
0.0
 11
42.450000000000102
 21
798.15000000000009
 31
0.0
 12
40.950000000000102
 22
798.15000000000009
 32
0.0
 13
40.950000000000102
 23
798.15000000000009
 33
0.0
  0
CIRCLE
  5
40
  8
RAMME
 10
44.400000000000027
 20
804.14999999999998
 30
0.0
 40
12.0
  0
LINE
  5
41
  8
RAMME
 10
25.014463181905398
 20
796.27499999999998
 30
0.0
 11
19.17098492103565
 21
801.07499999999993
 31
0.0
1001
ACAD
1000
ASC_BOUNDS
1002
{
1070
    19
1005
39
1002
}
  0
LINE
  5
42
  8
RAMME
 10
40.950000000000102
 20
798.15000000000009
 30
0.0
 11
40.950000000000102
 21
810.90000000000009
 31
0.0
  0
SOLID
  5
43
  8
RAMME
 10
35.550000000000068
 20
811.04999999999995
 30
0.0
 11
35.550000000000068
 21
798.29999999999995
 31
0.0
 12
37.050000000000068
 22
803.54999999999984
 32
0.0
 13
37.050000000000068
 23
803.54999999999984
 33
0.0
  0
SOLID
  5
44
  8
RAMME
 10
37.050000000000068
 20
803.54999999999984
 30
0.0
 11
37.050000000000068
 21
799.79999999999995
 31
0.0
 12
35.550000000000068
 22
798.29999999999995
 32
0.0
 13
35.550000000000068
 23
798.29999999999995
 33
0.0
  0
SOLID
  5
45
  8
RAMME
 10
37.050000000000068
 20
799.79999999999995
 30
0.0
 11
38.25
 21
798.29999999999995
 31
0.0
 12
35.550000000000068
 22
798.29999999999995
 32
0.0
 13
35.550000000000068
 23
798.29999999999995
 33
0.0
  0
LINE
  5
46
  8
RAMME
 10
35.550000000000068
 20
798.29999999999995
 30
0.0
 11
35.550000000000068
 21
805.04999999999995
 31
0.0
  0
ARC
  5
47
  8
RAMME
 10
44.400000000000027
 20
804.90000000000009
 30
0.0
 40
13.5
 50
196.45924962826069
 51
219.7090165530683
1001
ACAD
1000
ASC_BOUNDS
1002
{
1070
    19
1005
39
1002
}
  0
SOLID
  5
48
  8
RAMME
 10
38.015435159791757
 20
799.94639907759301
 30
0.0
 11
38.25
 21
800.24999999999966
 31
0.0
 12
39.150000000000041
 22
798.89999999999998
 32
0.0
 13
39.150000000000041
 23
798.89999999999998
 33
0.0
  0
SOLID
  5
49
  8
RAMME
 10
38.25
 20
798.29999999999995
 30
0.0
 11
39.150000000000041
 21
798.89999999999998
 31
0.0
 12
38.015435159791757
 22
799.94639907759301
 32
0.0
 13
38.015435159791757
 23
799.94639907759301
 33
0.0
  0
SOLID
  5
4A
  8
RAMME
 10
37.795836543402181
 20
799.79999999999995
 30
0.0
 11
38.015435159791757
 21
799.94639907759301
 31
0.0
 12
38.25
 22
798.29999999999995
 32
0.0
 13
38.25
 23
798.29999999999995
 33
0.0
  0
SOLID
  5
4B
  8
RAMME
 10
37.050000000000068
 20
799.79999999999995
 30
0.0
 11
37.795836543402181
 21
799.79999999999995
 31
0.0
 12
38.25
 22
798.29999999999995
 32
0.0
 13
38.25
 23
798.29999999999995
 33
0.0
  0
SOLID
  5
4C
  8
RAMME
 10
39.150000000000041
 20
798.89999999999998
 30
0.0
 11
39.450000000000102
 21
799.49999999999977
 31
0.0
 12
38.25
 22
800.24999999999966
 32
0.0
 13
38.25
 23
800.24999999999966
 33
0.0
  0
LINE
  5
4D
  8
RAMME
 10
39.450000000000102
 20
799.49999999999977
 30
0.0
 11
39.150000000000041
 21
798.89999999999998
 31
0.0
  0
POLYLINE
  5
4E
  8
RAMME
 66
     1
 10
0.0
 20
0.0
 30
0.0
  0
VERTEX
  5
238
  8
RAMME
 10
48.09668054481034
 20
793.79644842390155
 30
0.0
 42
0.1031685934991491
  0
VERTEX
  5
239
  8
RAMME
 10
51.334154598795799
 20
796.41471862576145
 30
0.0
 42
0.0899291354995131
  0
VERTEX
  5
23A
  8
RAMME
 10
53.433325224261843
 20
800.20513096222771
 30
0.0
 42
0.0611624472414861
  0
VERTEX
  5
23B
  8
RAMME
 10
54.157122069071868
 20
803.69999999999993
 30
0.0
 42
0.0817786693675195
  0
SEQEND
  5
23C
  8
RAMME
  0
SOLID
  5
4F
  8
RAMME
 10
50.100000000000051
 20
809.40000000000009
 30
0.0
 11
50.100000000000051
 21
798.15000000000009
 31
0.0
 12
48.600000000000051
 22
798.15000000000009
 32
0.0
 13
48.600000000000051
 23
798.15000000000009
 33
0.0
  0
SOLID
  5
50
  8
RAMME
 10
44.444622382247239
 20
798.15000000000009
 30
0.0
 11
45.885147072961132
 21
810.90000000000009
 31
0.0
 12
44.12231119112365
 22
802.08582059081243
 32
0.0
 13
44.12231119112365
 23
802.08582059081243
 33
0.0
  0
SOLID
  5
51
  8
RAMME
 10
45.885147072961217
 20
810.90000000000009
 30
0.0
 11
45.794622382247212
 21
802.86127620634329
 31
0.0
 12
44.444622382247239
 22
798.15000000000009
 32
0.0
 13
44.444622382247239
 23
798.15000000000009
 33
0.0
  0
SOLID
  5
52
  8
RAMME
 10
43.800000000000061
 20
798.15000000000009
 30
0.0
 11
42.450000000000102
 21
802.86127620634329
 31
0.0
 12
42.463171537629471
 22
810.90000000000009
 32
0.0
 13
42.463171537629471
 23
810.90000000000009
 33
0.0
  0
SOLID
  5
53
  8
RAMME
 10
44.12231119112365
 20
802.08582059081243
 30
0.0
 11
42.463171537629471
 21
810.90000000000009
 31
0.0
 12
43.800000000000061
 22
798.15000000000009
 32
0.0
 13
43.800000000000061
 23
798.15000000000009
 33
0.0
  0
SOLID
  5
54
  8
RAMME
 10
47.400000000000027
 20
810.90000000000009
 30
0.0
 11
45.794622382247212
 21
798.15000000000009
 31
0.0
 12
45.885147072961217
 22
810.90000000000009
 32
0.0
 13
45.885147072961217
 23
810.90000000000009
 33
0.0
  0
SOLID
  5
55
  8
RAMME
 10
47.400000000000027
 20
810.90000000000009
 30
0.0
 11
47.400000000000027
 21
798.15000000000009
 31
0.0
 12
45.794622382247212
 22
798.15000000000009
 32
0.0
 13
45.794622382247212
 23
798.15000000000009
 33
0.0
  0
SOLID
  5
56
  8
RAMME
 10
48.600000000000051
 20
810.90000000000009
 30
0.0
 11
48.600000000000051
 21
798.15000000000009
 31
0.0
 12
50.100000000000051
 22
809.40000000000009
 32
0.0
 13
50.100000000000051
 23
809.40000000000009
 33
0.0
  0
LINE
  5
57
  8
RAMME
 10
47.400000000000027
 20
810.90000000000009
 30
0.0
 11
47.400000000000027
 21
798.15000000000009
 31
0.0
  0
LINE
  5
58
  8
RAMME
 10
48.600000000000051
 20
810.90000000000009
 30
0.0
 11
48.600000000000051
 21
798.15000000000009
 31
0.0
  0
LINE
  5
59
  8
RAMME
 10
45.794622382247212
 20
802.86127620634329
 30
0.0
 11
44.444622382247239
 21
798.15000000000009
 31
0.0
  0
LINE
  5
5A
  8
RAMME
 10
42.450000000000102
 20
802.86127620634329
 30
0.0
 11
43.800000000000061
 21
798.15000000000009
 31
0.0
  0
LINE
  5
5B
  8
RAMME
 10
42.450000000000102
 20
798.15000000000009
 30
0.0
 11
42.450000000000102
 21
802.86127620634329
 31
0.0
  0
SOLID
  5
5C
  8
RAMME
 10
44.12231119112365
 20
802.08582059081243
 30
0.0
 11
44.444622382247239
 21
798.15000000000009
 31
0.0
 12
43.800000000000061
 22
798.15000000000009
 32
0.0
 13
43.800000000000061
 23
798.15000000000009
 33
0.0
  0
LINE
  5
5D
  8
RAMME
 10
45.794622382247212
 20
798.15000000000009
 30
0.0
 11
45.794622382247212
 21
802.86127620634329
 31
0.0
  0
LINE
  5
5E
  8
RAMME
 10
50.100000000000051
 20
803.99999999999966
 30
0.0
 11
50.100000000000051
 21
798.15000000000009
 31
0.0
  0
ARC
  5
5F
  8
RAMME
 10
44.400000000000027
 20
804.90000000000009
 30
0.0
 40
13.5
 50
320.2909834469317
 51
343.54075037173931
1001
ACAD
1000
ASC_BOUNDS
1002
{
1070
    19
1005
3C
1002
}
  0
LINE
  5
60
  8
RAMME
 10
54.78553681809467
 20
796.27499999999998
 30
0.0
 11
63.78553681809467
 21
796.27499999999998
 31
0.0
1001
ACAD
1000
ASC_BOUNDS
1002
{
1070
    19
1005
3C
1002
}
  0
POLYLINE
  5
61
  8
RAMME
 66
     1
 10
0.0
 20
0.0
 30
0.0
  0
VERTEX
  5
23D
  8
RAMME
 10
36.42252636484443
 20
795.93563084202799
 30
0.0
 42
-0.0388271047716468
  0
VERTEX
  5
23E
  8
RAMME
 10
37.82390693496513
 20
796.35689123190264
 30
0.0
 42
-0.0311218355180497
  0
VERTEX
  5
23F
  8
RAMME
 10
40.56637988005135
 20
796.77746986597572
 30
0.0
 42
-0.0224908645301953
  0
VERTEX
  5
240
  8
RAMME
 10
44.400000000000027
 20
796.94999999999982
 30
0.0
 42
-0.0224908645301933
  0
VERTEX
  5
241
  8
RAMME
 10
48.23362011994913
 20
796.77746986597572
 30
0.0
 42
-0.0311218355180397
  0
VERTEX
  5
242
  8
RAMME
 10
50.976093065034938
 20
796.35689123190264
 30
0.0
 42
-0.0388271047716461
  0
VERTEX
  5
243
  8
RAMME
 10
52.377473635155638
 20
795.93563084202799
 30
0.0
 42
-0.2785945723297829
  0
SEQEND
  5
244
  8
RAMME
  0
LINE
  5
62
  8
RAMME
 10
39.150000000000041
 20
798.89999999999998
 30
0.0
 11
38.25
 21
798.29999999999995
 31
0.0
  0
POLYLINE
  5
63
  8
RAMME
 66
     1
 10
0.0
 20
0.0
 30
0.0
  0
VERTEX
  5
245
  8
RAMME
 10
38.227452993132033
 20
797.69999999999982
 30
0.0
 42
0.0282845325116564
  0
VERTEX
  5
246
  8
RAMME
 10
38.953326703390417
 20
796.41471862576145
 30
0.0
 42
0.0915203479124335
  0
VERTEX
  5
247
  8
RAMME
 10
41.19180160882604
 20
794.02719601767035
 30
0.0
 42
0.1442536701759476
  0
SEQEND
  5
248
  8
RAMME
  0
POLYLINE
  5
64
  8
RAMME
 66
     1
 10
0.0
 20
0.0
 30
0.0
  0
VERTEX
  5
249
  8
RAMME
 10
36.548147782509041
 20
797.69999999999982
 30
0.0
 42
0.0325495632417328
  0
VERTEX
  5
24A
  8
RAMME
 10
37.465845401204263
 20
796.41471862576145
 30
0.0
 42
0.103168593499155
  0
VERTEX
  5
24B
  8
RAMME
 10
40.703319455189892
 20
793.79644842390155
 30
0.0
 42
0.1178229478186869
  0
SEQEND
  5
24C
  8
RAMME
  0
LINE
  5
65
  8
RAMME
 10
34.014463181905398
 20
796.27499999999998
 30
0.0
 11
25.014463181905398
 21
796.27499999999998
 31
0.0
1001
ACAD
1000
ASC_BOUNDS
1002
{
1070
    19
1005
39
1002
}
  0
LINE
  5
66
  8
RAMME
 10
38.25
 20
798.29999999999995
 30
0.0
 11
35.550000000000068
 21
798.29999999999995
 31
0.0
  0
POLYLINE
  5
67
  8
RAMME
 66
     1
 10
0.0
 20
0.0
 30
0.0
  0
VERTEX
  5
24D
  8
RAMME
 10
47.608198391174113
 20
794.02719601767035
 30
0.0
 42
0.0915203479124381
  0
VERTEX
  5
24E
  8
RAMME
 10
49.846673296609652
 20
796.41471862576145
 30
0.0
 42
0.0282845325116576
  0
VERTEX
  5
24F
  8
RAMME
 10
50.572547006868042
 20
797.69999999999982
 30
0.0
 42
0.0650590431023368
  0
SEQEND
  5
250
  8
RAMME
  0
LINE
  5
68
  8
RAMME
 10
48.600000000000051
 20
798.15000000000009
 30
0.0
 11
50.100000000000051
 21
798.15000000000009
 31
0.0
  0
POLYLINE
  5
69
  8
RAMME
 66
     1
 10
0.0
 20
0.0
 30
0.0
  0
VERTEX
  5
251
  8
RAMME
 10
40.733272614396178
 20
793.47392848439745
 30
0.0
 42
-0.2245501706545034
  0
VERTEX
  5
252
  8
RAMME
 10
40.650000000000027
 20
793.65000000000009
 30
0.0
 42
-0.287816494608609
  0
VERTEX
  5
253
  8
RAMME
 10
40.778738308245408
 20
793.85512000425092
 30
0.0
 42
-0.0631919745253161
  0
VERTEX
  5
254
  8
RAMME
 10
41.748349570550538
 20
794.18033008588964
 30
0.0
 42
-0.0286932667787198
  0
VERTEX
  5
255
  8
RAMME
 10
42.853033211300207
 20
794.33603210146021
 30
0.0
 42
-0.0206664351874136
  0
VERTEX
  5
256
  8
RAMME
 10
44.400000000000027
 20
794.39999999999998
 30
0.0
 42
-0.0206664351874379
  0
VERTEX
  5
257
  8
RAMME
 10
45.946966788700188
 20
794.33603210146021
 30
0.0
 42
-0.0286932667787426
  0
VERTEX
  5
258
  8
RAMME
 10
47.051650429449609
 20
794.18033008588964
 30
0.0
 42
-0.0631919745252796
  0
VERTEX
  5
259
  8
RAMME
 10
48.021261691754653
 20
793.85512000425092
 30
0.0
 42
-0.287816494608548
  0
VERTEX
  5
25A
  8
RAMME
 10
48.150000000000027
 20
793.65000000000009
 30
0.0
 42
-0.2245501706544157
  0
VERTEX
  5
25B
  8
RAMME
 10
48.066727385604047
 20
793.47392848439745
 30
0.0
 42
-0.0631919745253044
  0
SEQEND
  5
25C
  8
RAMME
  0
LINE
  5
6A
  8
RAMME
 10
43.800000000000061
 20
798.15000000000009
 30
0.0
 11
44.444622382247239
 21
798.15000000000009
 31
0.0
  0
LINE
  5
6B
  8
RAMME
 10
40.950000000000102
 20
798.15000000000009
 30
0.0
 11
42.450000000000102
 21
798.15000000000009
 31
0.0
  0
POLYLINE
  5
6C
  8
RAMME
 66
     1
 10
0.0
 20
0.0
 30
0.0
  0
VERTEX
  5
25D
  8
RAMME
 10
40.009629399287661
 20
797.69999999999982
 30
0.0
 42
0.0220069222059903
  0
VERTEX
  5
25E
  8
RAMME
 10
40.528953629831221
 20
796.41471862576088
 30
0.0
 42
0.0762574022588391
  0
VERTEX
  5
25F
  8
RAMME
 10
41.966646958514048
 20
794.22140334265941
 30
0.0
 42
0.1864129213655421
  0
SEQEND
  5
260
  8
RAMME
  0
POLYLINE
  5
6D
  8
RAMME
 66
     1
 10
0.0
 20
0.0
 30
0.0
  0
VERTEX
  5
261
  8
RAMME
 10
42.186848142132639
 20
797.69999999999982
 30
0.0
 42
0.0119686085685228
  0
VERTEX
  5
262
  8
RAMME
 10
42.450000000000102
 20
796.41471862576145
 30
0.0
 42
0.0463849500712711
  0
VERTEX
  5
263
  8
RAMME
 10
43.128747540928543
 20
794.35682598957385
 30
0.0
 42
0.2725284551501729
  0
SEQEND
  5
264
  8
RAMME
  0
POLYLINE
  5
6E
  8
RAMME
 66
     1
 10
0.0
 20
0.0
 30
0.0
  0
VERTEX
  5
265
  8
RAMME
 10
46.833353041486014
 20
794.22140334265941
 30
0.0
 42
0.0762574022588411
  0
VERTEX
  5
266
  8
RAMME
 10
48.271046370168932
 20
796.41471862576088
 30
0.0
 42
0.02200692220599
  0
VERTEX
  5
267
  8
RAMME
 10
48.790370600712492
 20
797.69999999999982
 30
0.0
 42
0.046725196722299
  0
SEQEND
  5
268
  8
RAMME
  0
LINE
  5
6F
  8
RAMME
 10
44.400000000000027
 20
797.69999999999982
 30
0.0
 11
44.400000000000027
 21
794.39999999999998
 31
0.0
  0
LINE
  5
70
  8
RAMME
 10
47.400000000000027
 20
798.15000000000009
 30
0.0
 11
45.794622382247212
 21
798.15000000000009
 31
0.0
  0
POLYLINE
  5
71
  8
RAMME
 66
     1
 10
0.0
 20
0.0
 30
0.0
  0
VERTEX
  5
269
  8
RAMME
 10
45.671252459071518
 20
794.35682598957385
 30
0.0
 42
0.0463849500712759
  0
VERTEX
  5
26A
  8
RAMME
 10
46.350000000000051
 20
796.41471862576145
 30
0.0
 42
0.0119686085685227
  0
VERTEX
  5
26B
  8
RAMME
 10
46.613151857867422
 20
797.69999999999982
 30
0.0
 42
0.0237305371861419
  0
SEQEND
  5
26C
  8
RAMME
  0
LINE
  5
72
  8
RAMME
 10
57.72363970542591
 20
802.7249999999998
 30
0.0
 11
71.637710731138213
 21
802.7249999999998
 31
0.0
1001
ACAD
1000
ASC_BOUNDS
1002
{
1070
    19
1005
3C
1002
}
  0
LINE
  5
73
  8
RAMME
 10
76.933362905051297
 20
807.07500000000005
 30
0.0
 11
57.72363970542591
 21
807.07500000000005
 31
0.0
1001
ACAD
1000
ASC_BOUNDS
1002
{
1070
    19
1005
3C
1002
}
  0
LINE
  5
74
  8
RAMME
 10
78.94205855722501
 20
808.72499999999991
 30
0.0
 11
57.346790142734278
 21
808.72499999999991
 31
0.0
1001
ACAD
1000
ASC_BOUNDS
1002
{
1070
    19
1005
3C
1002
}
  0
LINE
  5
75
  8
RAMME
 10
84.78553681809467
 20
813.52499999999998
 30
0.0
 11
54.78553681809467
 21
813.52499999999998
 31
0.0
1001
ACAD
1000
ASC_BOUNDS
1002
{
1070
    19
1005
3C
1002
}
  0
LINE
  5
76
  8
RAMME
 10
57.346790142734278
 20
801.07499999999993
 30
0.0
 11
69.629015078964315
 21
801.07499999999993
 31
0.0
1001
ACAD
1000
ASC_BOUNDS
1002
{
1070
    19
1005
3C
1002
}
  0
POLYLINE
  5
77
  8
RAMME
 66
     1
 10
0.0
 20
0.0
 30
0.0
  0
VERTEX
  5
26D
  8
RAMME
 10
36.42252636484443
 20
813.86436915797162
 30
0.0
 42
0.0388271047716468
  0
VERTEX
  5
26E
  8
RAMME
 10
37.82390693496513
 20
813.44310876809709
 30
0.0
 42
0.0311218355180497
  0
VERTEX
  5
26F
  8
RAMME
 10
40.56637988005135
 20
813.02253013402412
 30
0.0
 42
0.0224908645301953
  0
VERTEX
  5
270
  8
RAMME
 10
44.400000000000027
 20
812.8499999999998
 30
0.0
 42
0.0224908645301933
  0
VERTEX
  5
271
  8
RAMME
 10
48.23362011994913
 20
813.02253013402412
 30
0.0
 42
0.0311218355180397
  0
VERTEX
  5
272
  8
RAMME
 10
50.976093065034938
 20
813.44310876809709
 30
0.0
 42
0.0388271047716461
  0
VERTEX
  5
273
  8
RAMME
 10
52.377473635155638
 20
813.86436915797162
 30
0.0
 42
0.2785945723297829
  0
SEQEND
  5
274
  8
RAMME
  0
SOLID
  5
78
  8
RAMME
 10
38.400000000000027
 20
808.43991758303957
 30
0.0
 11
39.900000000000041
 21
808.64999999999998
 31
0.0
 12
39.900000000000041
 22
807.44999999999982
 32
0.0
 13
39.900000000000041
 23
807.44999999999982
 33
0.0
  0
SOLID
  5
79
  8
RAMME
 10
38.400000000000027
 20
808.43991758303957
 30
0.0
 11
38.400000000000027
 21
807.63465843842619
 31
0.0
 12
39.900000000000041
 22
807.44999999999982
 32
0.0
 13
39.900000000000041
 23
807.44999999999982
 33
0.0
  0
SOLID
  5
7A
  8
RAMME
 10
39.150000000000041
 20
804.4499999999997
 30
0.0
 11
38.25
 21
805.04999999999995
 31
0.0
 12
37.795836543401997
 22
803.54999999999984
 32
0.0
 13
37.795836543401997
 23
803.54999999999984
 33
0.0
  0
LINE
  5
7B
  8
RAMME
 10
38.25
 20
805.04999999999995
 30
0.0
 11
39.150000000000041
 21
804.4499999999997
 31
0.0
  0
SOLID
  5
7C
  8
RAMME
 10
38.037299690309389
 20
803.38902456872847
 30
0.0
 11
37.795836543401997
 21
803.54999999999984
 31
0.0
 12
39.150000000000041
 22
804.4499999999997
 32
0.0
 13
39.150000000000041
 23
804.4499999999997
 33
0.0
  0
SOLID
  5
7D
  8
RAMME
 10
38.150856209206673
 20
803.19976370389963
 30
0.0
 11
38.037299690309389
 21
803.38902456872847
 31
0.0
 12
39.150000000000041
 22
804.4499999999997
 32
0.0
 13
39.150000000000041
 23
804.4499999999997
 33
0.0
  0
SOLID
  5
7E
  8
RAMME
 10
37.851653344388012
 20
806.54999999999995
 30
0.0
 11
38.175032398060921
 21
806.73478803067019
 31
0.0
 12
39.300000000000068
 22
805.65000000000009
 32
0.0
 13
39.300000000000068
 23
805.65000000000009
 33
0.0
  0
SOLID
  5
7F
  8
RAMME
 10
37.851653344388012
 20
806.54999999999995
 30
0.0
 11
38.25
 21
805.04999999999995
 31
0.0
 12
39.300000000000068
 22
805.65000000000009
 32
0.0
 13
39.300000000000068
 23
805.65000000000009
 33
0.0
  0
LINE
  5
80
  8
RAMME
 10
39.300000000000068
 20
805.65000000000009
 30
0.0
 11
38.25
 21
805.04999999999995
 31
0.0
  0
SOLID
  5
81
  8
RAMME
 10
38.25
 20
800.24999999999966
 30
0.0
 11
39.450000000000102
 21
799.49999999999977
 31
0.0
 12
39.75
 22
800.6999999999997
 32
0.0
 13
39.75
 23
800.6999999999997
 33
0.0
  0
SOLID
  5
82
  8
RAMME
 10
38.400000000000027
 20
807.63465843842619
 30
0.0
 11
39.900000000000041
 21
807.44999999999982
 31
0.0
 12
39.600000000000051
 22
806.24999999999977
 32
0.0
 13
39.600000000000051
 23
806.24999999999977
 33
0.0
  0
SOLID
  5
83
  8
RAMME
 10
38.175032398060921
 20
806.73478803067019
 30
0.0
 11
38.400000000000027
 21
807.63465843842619
 31
0.0
 12
39.600000000000051
 22
806.24999999999977
 32
0.0
 13
39.600000000000051
 23
806.24999999999977
 33
0.0
  0
SOLID
  5
84
  8
RAMME
 10
39.300000000000068
 20
805.65000000000009
 30
0.0
 11
39.600000000000051
 21
806.24999999999977
 31
0.0
 12
38.175032398060921
 22
806.73478803067019
 32
0.0
 13
38.175032398060921
 23
806.73478803067019
 33
0.0
  0
SOLID
  5
85
  8
RAMME
 10
38.150856209206673
 20
803.19976370389963
 30
0.0
 11
39.150000000000041
 21
804.4499999999997
 31
0.0
 12
39.600000000000051
 22
803.69999999999993
 32
0.0
 13
39.600000000000051
 23
803.69999999999993
 33
0.0
  0
SOLID
  5
86
  8
RAMME
 10
38.25
 20
802.49999999999977
 30
0.0
 11
39.600000000000051
 21
803.69999999999993
 31
0.0
 12
39.75
 22
802.49999999999977
 32
0.0
 13
39.75
 23
802.49999999999977
 33
0.0
  0
SOLID
  5
87
  8
RAMME
 10
38.25
 20
802.40661337755228
 30
0.0
 11
38.150856209206673
 21
803.19976370389963
 31
0.0
 12
39.600000000000051
 22
803.69999999999993
 32
0.0
 13
39.600000000000051
 23
803.69999999999993
 33
0.0
  0
SOLID
  5
88
  8
RAMME
 10
38.25
 20
800.6999999999997
 30
0.0
 11
39.75
 21
800.6999999999997
 31
0.0
 12
38.25
 22
800.24999999999966
 32
0.0
 13
38.25
 23
800.24999999999966
 33
0.0
  0
SOLID
  5
89
  8
RAMME
 10
38.25
 20
800.24999999999966
 30
0.0
 11
38.25
 21
800.24999999999966
 31
0.0
 12
39.75
 22
800.6999999999997
 32
0.0
 13
39.75
 23
800.6999999999997
 33
0.0
  0
SOLID
  5
8A
  8
RAMME
 10
38.25
 20
802.49999999999977
 30
0.0
 11
39.75
 21
802.49999999999977
 31
0.0
 12
39.75
 22
800.6999999999997
 32
0.0
 13
39.75
 23
800.6999999999997
 33
0.0
  0
SOLID
  5
8B
  8
RAMME
 10
38.25
 20
802.49999999999977
 30
0.0
 11
38.25
 21
800.6999999999997
 31
0.0
 12
39.75
 22
800.6999999999997
 32
0.0
 13
39.75
 23
800.6999999999997
 33
0.0
  0
LINE
  5
8C
  8
RAMME
 10
38.25
 20
811.04999999999995
 30
0.0
 11
39.150000000000041
 21
810.44999999999982
 31
0.0
  0
SOLID
  5
8D
  8
RAMME
 10
38.150362313213627
 20
809.31364948679197
 30
0.0
 11
37.795836543401997
 21
809.54999999999995
 31
0.0
 12
39.150000000000041
 22
810.44999999999982
 32
0.0
 13
39.150000000000041
 23
810.44999999999982
 33
0.0
  0
SOLID
  5
8E
  8
RAMME
 10
37.795836543401997
 20
809.54999999999995
 30
0.0
 11
39.150000000000041
 21
810.44999999999982
 31
0.0
 12
38.25
 22
811.04999999999995
 32
0.0
 13
38.25
 23
811.04999999999995
 33
0.0
  0
POLYLINE
  5
8F
  8
RAMME
 66
     1
 10
0.0
 20
0.0
 30
0.0
  0
VERTEX
  5
275
  8
RAMME
 10
40.703319455189813
 20
815.25355157609795
 30
0.0
 42
0.1031685934991487
  0
VERTEX
  5
276
  8
RAMME
 10
37.465845401204263
 20
812.63528137423816
 30
0.0
 42
0.0433259572720742
  0
VERTEX
  5
277
  8
RAMME
 10
36.282385726105758
 20
810.90000000000009
 30
0.0
 42
0.0817786693675217
  0
SEQEND
  5
278
  8
RAMME
  0
POLYLINE
  5
90
  8
RAMME
 66
     1
 10
0.0
 20
0.0
 30
0.0
  0
VERTEX
  5
279
  8
RAMME
 10
41.19180160882604
 20
815.02280398232926
 30
0.0
 42
0.0915203479124384
  0
VERTEX
  5
27A
  8
RAMME
 10
38.953326703390417
 20
812.63528137423816
 30
0.0
 42
0.0378118963588389
  0
VERTEX
  5
27B
  8
RAMME
 10
38.016417129479919
 20
810.90000000000009
 30
0.0
 42
0.0650590431023368
  0
SEQEND
  5
27C
  8
RAMME
  0
SOLID
  5
91
  8
RAMME
 10
38.150362313213627
 20
809.31364948679197
 30
0.0
 11
39.600000000000051
 21
809.6999999999997
 31
0.0
 12
39.150000000000041
 22
810.44999999999982
 32
0.0
 13
39.150000000000041
 23
810.44999999999982
 33
0.0
  0
SOLID
  5
92
  8
RAMME
 10
38.150362313213627
 20
809.31364948679197
 30
0.0
 11
39.600000000000051
 21
809.6999999999997
 31
0.0
 12
39.900000000000041
 22
808.64999999999998
 32
0.0
 13
39.900000000000041
 23
808.64999999999998
 33
0.0
  0
SOLID
  5
93
  8
RAMME
 10
38.400000000000027
 20
808.43991758303957
 30
0.0
 11
38.150362313213627
 21
809.31364948679197
 31
0.0
 12
39.900000000000041
 22
808.64999999999998
 32
0.0
 13
39.900000000000041
 23
808.64999999999998
 33
0.0
  0
LINE
  5
94
  8
RAMME
 10
31.45320985726579
 20
801.07499999999993
 30
0.0
 11
19.170984921035821
 21
801.07499999999993
 31
0.0
1001
ACAD
1000
ASC_BOUNDS
1002
{
1070
    19
1005
39
1002
}
  0
LINE
  5
95
  8
RAMME
 10
32.400000000000041
 20
804.90000000000009
 30
0.0
 11
34.650000000000027
 21
804.90000000000009
 31
0.0
  0
ARC
  5
96
  8
RAMME
 10
44.400000000000027
 20
804.90000000000009
 30
0.0
 40
13.5
 50
140.29098344693159
 51
163.54075037173999
1001
ACAD
1000
ASC_BOUNDS
1002
{
1070
    19
1005
39
1002
}
  0
ARC
  5
97
  8
RAMME
 10
44.400000000000027
 20
804.90000000000009
 30
0.0
 40
13.5
 50
170.72860504310839
 51
189.27139495689221
1001
ACAD
1000
ASC_BOUNDS
1002
{
1070
    19
1005
39
1002
}
  0
LINE
  5
98
  8
RAMME
 10
38.400000000000027
 20
808.43991758303957
 30
0.0
 11
38.400000000000027
 21
807.63465843842619
 31
0.0
  0
LINE
  5
99
  8
RAMME
 10
37.050000000000068
 20
806.54999999999995
 30
0.0
 11
37.050000000000068
 21
809.54999999999995
 31
0.0
  0
SOLID
  5
9A
  8
RAMME
 10
35.550000000000068
 20
811.04999999999995
 30
0.0
 11
37.050000000000068
 21
806.54999999999995
 31
0.0
 12
37.050000000000068
 22
803.54999999999984
 32
0.0
 13
37.050000000000068
 23
803.54999999999984
 33
0.0
  0
SOLID
  5
9B
  8
RAMME
 10
35.550000000000068
 20
811.04999999999995
 30
0.0
 11
37.050000000000068
 21
809.54999999999995
 31
0.0
 12
37.050000000000068
 22
806.54999999999995
 32
0.0
 13
37.050000000000068
 23
806.54999999999995
 33
0.0
  0
LINE
  5
9C
  8
RAMME
 10
35.550000000000068
 20
805.04999999999995
 30
0.0
 11
35.550000000000068
 21
811.04999999999995
 31
0.0
  0
LINE
  5
9D
  8
RAMME
 10
38.015435159791757
 20
799.94639907759301
 30
0.0
 11
37.795836543402089
 21
799.79999999999995
 31
0.0
  0
LINE
  5
9E
  8
RAMME
 10
37.050000000000068
 20
799.79999999999995
 30
0.0
 11
37.050000000000068
 21
803.54999999999984
 31
0.0
  0
LINE
  5
9F
  8
RAMME
 10
37.795836543402181
 20
799.79999999999995
 30
0.0
 11
37.050000000000068
 21
799.79999999999995
 31
0.0
  0
SOLID
  5
A0
  8
RAMME
 10
38.25
 20
805.04999999999995
 30
0.0
 11
37.050000000000068
 21
806.54999999999995
 31
0.0
 12
37.050000000000068
 22
803.54999999999984
 32
0.0
 13
37.050000000000068
 23
803.54999999999984
 33
0.0
  0
SOLID
  5
A1
  8
RAMME
 10
38.25
 20
805.04999999999995
 30
0.0
 11
37.795836543401997
 21
803.54999999999984
 31
0.0
 12
37.050000000000068
 22
803.54999999999984
 32
0.0
 13
37.050000000000068
 23
803.54999999999984
 33
0.0
  0
LINE
  5
A2
  8
RAMME
 10
38.150856209206673
 20
803.19976370389963
 30
0.0
 11
38.25
 21
802.40661337755228
 31
0.0
  0
LINE
  5
A3
  8
RAMME
 10
38.037299690309389
 20
803.38902456872847
 30
0.0
 11
38.150856209206673
 21
803.19976370389963
 31
0.0
  0
LINE
  5
A4
  8
RAMME
 10
37.795836543401997
 20
803.54999999999984
 30
0.0
 11
38.037299690309389
 21
803.38902456872847
 31
0.0
  0
LINE
  5
A5
  8
RAMME
 10
37.795836543401997
 20
803.54999999999984
 30
0.0
 11
37.050000000000068
 21
803.54999999999984
 31
0.0
  0
LINE
  5
A6
  8
RAMME
 10
38.015435159791757
 20
799.94639907759301
 30
0.0
 11
38.25
 21
800.24999999999966
 31
0.0
  0
LINE
  5
A7
  8
RAMME
 10
38.25
 20
800.24999999999966
 30
0.0
 11
38.25
 21
800.6999999999997
 31
0.0
  0
LINE
  5
A8
  8
RAMME
 10
38.25
 20
802.49999999999977
 30
0.0
 11
38.25
 21
800.6999999999997
 31
0.0
  0
LINE
  5
A9
  8
RAMME
 10
38.400000000000027
 20
807.63465843842619
 30
0.0
 11
38.175032398060921
 21
806.73478803067019
 31
0.0
  0
LINE
  5
AA
  8
RAMME
 10
38.175032398060921
 20
806.73478803067019
 30
0.0
 11
37.851653344388012
 21
806.54999999999995
 31
0.0
  0
SOLID
  5
AB
  8
RAMME
 10
37.050000000000068
 20
806.54999999999995
 30
0.0
 11
37.851653344388012
 21
806.54999999999995
 31
0.0
 12
38.25
 22
805.04999999999995
 32
0.0
 13
38.25
 23
805.04999999999995
 33
0.0
  0
LINE
  5
AC
  8
RAMME
 10
37.851653344388012
 20
806.54999999999995
 30
0.0
 11
37.050000000000068
 21
806.54999999999995
 31
0.0
  0
LINE
  5
AD
  8
RAMME
 10
35.550000000000068
 20
811.04999999999995
 30
0.0
 11
38.25
 21
811.04999999999995
 31
0.0
  0
SOLID
  5
AE
  8
RAMME
 10
35.550000000000068
 20
811.04999999999995
 30
0.0
 11
38.25
 21
811.04999999999995
 31
0.0
 12
37.050000000000068
 22
809.54999999999995
 32
0.0
 13
37.050000000000068
 23
809.54999999999995
 33
0.0
  0
LINE
  5
AF
  8
RAMME
 10
37.795836543401997
 20
809.54999999999995
 30
0.0
 11
38.150362313213627
 21
809.31364948679197
 31
0.0
  0
LINE
  5
B0
  8
RAMME
 10
37.050000000000068
 20
809.54999999999995
 30
0.0
 11
37.795836543401997
 21
809.54999999999995
 31
0.0
  0
LINE
  5
B1
  8
RAMME
 10
38.150362313213627
 20
809.31364948679197
 30
0.0
 11
38.400000000000027
 21
808.43991758303957
 31
0.0
  0
SOLID
  5
B2
  8
RAMME
 10
37.795836543401997
 20
809.54999999999995
 30
0.0
 11
37.050000000000068
 21
809.54999999999995
 31
0.0
 12
38.25
 22
811.04999999999995
 32
0.0
 13
38.25
 23
811.04999999999995
 33
0.0
  0
POLYLINE
  5
B3
  8
RAMME
 66
     1
 10
0.0
 20
0.0
 30
0.0
  0
VERTEX
  5
27D
  8
RAMME
 10
50.78358287052032
 20
810.90000000000009
 30
0.0
 42
0.0378118963588377
  0
VERTEX
  5
27E
  8
RAMME
 10
49.846673296609652
 20
812.63528137423816
 30
0.0
 42
0.0915203479124419
  0
VERTEX
  5
27F
  8
RAMME
 10
47.608198391174113
 20
815.02280398232926
 30
0.0
 42
0.1442536701759698
  0
SEQEND
  5
280
  8
RAMME
  0
LINE
  5
B4
  8
RAMME
 10
53.25
 20
810.90000000000009
 30
0.0
 11
48.600000000000051
 21
810.90000000000009
 31
0.0
  0
POLYLINE
  5
B5
  8
RAMME
 66
     1
 10
0.0
 20
0.0
 30
0.0
  0
VERTEX
  5
281
  8
RAMME
 10
52.51761427389448
 20
810.90000000000009
 30
0.0
 42
0.0433259572720733
  0
VERTEX
  5
282
  8
RAMME
 10
51.334154598795799
 20
812.63528137423816
 30
0.0
 42
0.1031685934991424
  0
VERTEX
  5
283
  8
RAMME
 10
48.09668054481034
 20
815.25355157609795
 30
0.0
 42
0.1178229478186681
  0
SEQEND
  5
284
  8
RAMME
  0
SOLID
  5
B6
  8
RAMME
 10
48.600000000000051
 20
810.90000000000009
 30
0.0
 11
53.25
 21
809.40000000000009
 31
0.0
 12
50.100000000000051
 22
809.40000000000009
 32
0.0
 13
50.100000000000051
 23
809.40000000000009
 33
0.0
  0
SOLID
  5
B7
  8
RAMME
 10
48.600000000000051
 20
810.90000000000009
 30
0.0
 11
53.25
 21
810.90000000000009
 31
0.0
 12
53.25
 22
809.40000000000009
 32
0.0
 13
53.25
 23
809.40000000000009
 33
0.0
  0
POLYLINE
  5
B8
  8
RAMME
 66
     1
 10
0.0
 20
0.0
 30
0.0
  0
VERTEX
  5
285
  8
RAMME
 10
40.733272614396178
 20
815.57607151560217
 30
0.0
 42
0.2245501706545034
  0
VERTEX
  5
286
  8
RAMME
 10
40.650000000000027
 20
815.40000000000009
 30
0.0
 42
0.287816494608609
  0
VERTEX
  5
287
  8
RAMME
 10
40.778738308245408
 20
815.19487999574926
 30
0.0
 42
0.0631919745253161
  0
VERTEX
  5
288
  8
RAMME
 10
41.748349570550538
 20
814.86966991411009
 30
0.0
 42
0.0286932667787198
  0
VERTEX
  5
289
  8
RAMME
 10
42.853033211300207
 20
814.71396789853952
 30
0.0
 42
0.0206664351874136
  0
VERTEX
  5
28A
  8
RAMME
 10
44.400000000000027
 20
814.65000000000009
 30
0.0
 42
0.0206664351874379
  0
VERTEX
  5
28B
  8
RAMME
 10
45.946966788700188
 20
814.71396789853964
 30
0.0
 42
0.0286932667787426
  0
VERTEX
  5
28C
  8
RAMME
 10
47.051650429449609
 20
814.86966991411009
 30
0.0
 42
0.0631919745252796
  0
VERTEX
  5
28D
  8
RAMME
 10
48.021261691754653
 20
815.19487999574869
 30
0.0
 42
0.287816494608548
  0
VERTEX
  5
28E
  8
RAMME
 10
48.150000000000027
 20
815.40000000000009
 30
0.0
 42
0.2245501706544157
  0
VERTEX
  5
28F
  8
RAMME
 10
48.066727385604047
 20
815.57607151560217
 30
0.0
 42
0.0631919745253044
  0
SEQEND
  5
290
  8
RAMME
  0
POLYLINE
  5
B9
  8
RAMME
 66
     1
 10
0.0
 20
0.0
 30
0.0
  0
VERTEX
  5
291
  8
RAMME
 10
41.966646958514211
 20
815.5785966573402
 30
0.0
 42
0.0762574022588452
  0
VERTEX
  5
292
  8
RAMME
 10
40.528953629831221
 20
813.38528137423884
 30
0.0
 42
0.0295469314528572
  0
VERTEX
  5
293
  8
RAMME
 10
39.858042791774778
 20
811.64999999999998
 30
0.0
 42
0.046725196722299
  0
SEQEND
  5
294
  8
RAMME
  0
POLYLINE
  5
BA
  8
RAMME
 66
     1
 10
0.0
 20
0.0
 30
0.0
  0
VERTEX
  5
295
  8
RAMME
 10
48.94195720822529
 20
811.64999999999998
 30
0.0
 42
0.0295469314528582
  0
VERTEX
  5
296
  8
RAMME
 10
48.271046370168932
 20
813.38528137423884
 30
0.0
 42
0.0762574022588419
  0
VERTEX
  5
297
  8
RAMME
 10
46.833353041486014
 20
815.5785966573402
 30
0.0
 42
0.1864129213655452
  0
SEQEND
  5
298
  8
RAMME
  0
POLYLINE
  5
BB
  8
RAMME
 66
     1
 10
0.0
 20
0.0
 30
0.0
  0
VERTEX
  5
299
  8
RAMME
 10
43.128747540928543
 20
815.44317401042565
 30
0.0
 42
0.0463849500712721
  0
VERTEX
  5
29A
  8
RAMME
 10
42.450000000000102
 20
813.38528137423816
 30
0.0
 42
0.0161339702338888
  0
VERTEX
  5
29B
  8
RAMME
 10
42.109747828723521
 20
811.64999999999998
 30
0.0
 42
0.0237305371861417
  0
SEQEND
  5
29C
  8
RAMME
  0
POLYLINE
  5
BC
  8
RAMME
 66
     1
 10
0.0
 20
0.0
 30
0.0
  0
VERTEX
  5
29D
  8
RAMME
 10
46.690252171276541
 20
811.64999999999998
 30
0.0
 42
0.0161339702338884
  0
VERTEX
  5
29E
  8
RAMME
 10
46.350000000000051
 20
813.38528137423816
 30
0.0
 42
0.0463849500712759
  0
VERTEX
  5
29F
  8
RAMME
 10
45.671252459071518
 20
815.44317401042588
 30
0.0
 42
0.2725284551501825
  0
SEQEND
  5
2A0
  8
RAMME
  0
LINE
  5
BD
  8
RAMME
 10
44.12231119112365
 20
802.08582059081243
 30
0.0
 11
45.885147072961217
 21
810.90000000000009
 31
0.0
  0
LINE
  5
BE
  8
RAMME
 10
40.950000000000102
 20
810.90000000000009
 30
0.0
 11
42.463171537629471
 21
810.90000000000009
 31
0.0
  0
LINE
  5
BF
  8
RAMME
 10
39.900000000000041
 20
808.64999999999998
 30
0.0
 11
39.900000000000041
 21
807.44999999999982
 31
0.0
  0
LINE
  5
C0
  8
RAMME
 10
39.75
 20
800.6999999999997
 30
0.0
 11
39.450000000000102
 21
799.49999999999977
 31
0.0
  0
LINE
  5
C1
  8
RAMME
 10
39.600000000000051
 20
803.69999999999993
 30
0.0
 11
39.75
 21
802.49999999999977
 31
0.0
  0
LINE
  5
C2
  8
RAMME
 10
39.75
 20
802.49999999999977
 30
0.0
 11
39.75
 21
800.6999999999997
 31
0.0
  0
LINE
  5
C3
  8
RAMME
 10
39.900000000000041
 20
807.44999999999982
 30
0.0
 11
39.600000000000051
 21
806.24999999999977
 31
0.0
  0
LINE
  5
C4
  8
RAMME
 10
39.150000000000041
 20
804.4499999999997
 30
0.0
 11
39.600000000000051
 21
803.69999999999993
 31
0.0
  0
LINE
  5
C5
  8
RAMME
 10
39.600000000000051
 20
806.24999999999977
 30
0.0
 11
39.300000000000068
 21
805.65000000000009
 31
0.0
  0
LINE
  5
C6
  8
RAMME
 10
39.600000000000051
 20
809.6999999999997
 30
0.0
 11
39.900000000000041
 21
808.64999999999998
 31
0.0
  0
LINE
  5
C7
  8
RAMME
 10
39.150000000000041
 20
810.44999999999982
 30
0.0
 11
39.600000000000051
 21
809.6999999999997
 31
0.0
  0
LINE
  5
C8
  8
RAMME
 10
42.463171537629471
 20
810.90000000000009
 30
0.0
 11
44.12231119112365
 21
802.08582059081243
 31
0.0
  0
LINE
  5
C9
  8
RAMME
 10
44.400000000000027
 20
815.40000000000009
 30
0.0
 11
44.400000000000027
 21
811.64999999999998
 31
0.0
  0
LINE
  5
CA
  8
RAMME
 10
45.885147072961132
 20
810.90000000000009
 30
0.0
 11
47.400000000000027
 21
810.90000000000009
 31
0.0
  0
LINE
  5
CB
  8
RAMME
 10
56.400000000000041
 20
804.90000000000009
 30
0.0
 11
54.150000000000027
 21
804.90000000000009
 31
0.0
  0
ARC
  5
CC
  8
RAMME
 10
44.400000000000027
 20
804.90000000000009
 30
0.0
 40
13.5
 50
16.459249628259919
 51
39.709016553068331
1001
ACAD
1000
ASC_BOUNDS
1002
{
1070
    19
1005
3C
1002
}
  0
LINE
  5
CD
  8
RAMME
 10
50.100000000000051
 20
809.40000000000009
 30
0.0
 11
50.100000000000051
 21
805.49999999999966
 31
0.0
  0
LINE
  5
CE
  8
RAMME
 10
53.25
 20
805.49999999999966
 30
0.0
 11
53.25
 21
803.99999999999966
 31
0.0
  0
SOLID
  5
CF
  8
RAMME
 10
50.100000000000051
 20
803.99999999999966
 30
0.0
 11
50.100000000000051
 21
803.99999999999966
 31
0.0
 12
50.100000000000051
 22
805.49999999999966
 32
0.0
 13
50.100000000000051
 23
805.49999999999966
 33
0.0
  0
SOLID
  5
D0
  8
RAMME
 10
50.100000000000051
 20
805.49999999999966
 30
0.0
 11
50.100000000000051
 21
805.49999999999966
 31
0.0
 12
50.100000000000051
 22
805.49999999999966
 32
0.0
 13
50.100000000000051
 23
805.49999999999966
 33
0.0
  0
SOLID
  5
D1
  8
RAMME
 10
50.100000000000051
 20
805.49999999999966
 30
0.0
 11
53.25
 21
803.99999999999966
 31
0.0
 12
50.100000000000051
 22
803.99999999999966
 32
0.0
 13
50.100000000000051
 23
803.99999999999966
 33
0.0
  0
SOLID
  5
D2
  8
RAMME
 10
50.100000000000051
 20
805.49999999999966
 30
0.0
 11
53.25
 21
805.49999999999966
 31
0.0
 12
53.25
 22
803.99999999999966
 32
0.0
 13
53.25
 23
803.99999999999966
 33
0.0
  0
SOLID
  5
D3
  8
RAMME
 10
53.25
 20
803.99999999999966
 30
0.0
 11
53.25
 21
803.99999999999966
 31
0.0
 12
50.100000000000051
 22
803.99999999999966
 32
0.0
 13
50.100000000000051
 23
803.99999999999966
 33
0.0
  0
LINE
  5
D4
  8
RAMME
 10
50.100000000000051
 20
803.99999999999966
 30
0.0
 11
53.25
 21
803.99999999999966
 31
0.0
  0
LINE
  5
D5
  8
RAMME
 10
50.100000000000051
 20
805.49999999999966
 30
0.0
 11
53.25
 21
805.49999999999966
 31
0.0
  0
LINE
  5
D6
  8
RAMME
 10
53.25
 20
809.40000000000009
 30
0.0
 11
50.100000000000051
 21
809.40000000000009
 31
0.0
  0
LINE
  5
D7
  8
RAMME
 10
53.25
 20
810.90000000000009
 30
0.0
 11
53.25
 21
809.40000000000009
 31
0.0
  0
ARC
  5
D8
  8
RAMME
 10
44.400000000000027
 20
804.90000000000009
 30
0.0
 40
13.5
 50
350.72860504310768
 51
9.2713949568915162
1001
ACAD
1000
ASC_BOUNDS
1002
{
1070
    19
1005
3C
1002
}
  0
LINE
  5
D9
  8
RAMME
 10
78.942058557225096
 20
808.72499999999991
 30
0.0
 11
84.78553681809467
 21
813.52499999999998
 31
0.0
1001
ACAD
1000
ASC_BOUNDS
1002
{
1070
    19
1005
3C
1002
}
  0
LINE
  5
DA
  8
RAMME
 10
71.637710731138213
 20
802.7249999999998
 30
0.0
 11
76.933362905051382
 21
807.07500000000005
 31
0.0
1001
ACAD
1000
ASC_BOUNDS
1002
{
1070
    19
1005
3C
1002
}
  0
TEXT
  5
DB
  8
RAMME
  6
CONTINUOUS
 62
     5
 10
93.812395770777186
 20
797.24783627600971
 30
0.0
 40
12.474
  1
BMF BYGNINGSBESLAG A/S, TLF.: (+45)86556300, FAX: (+45)86556955
 41
0.7
  7
_STYLE
  0
LINE
  5
DD
  8
RAMME
 10
0.0
 20
817.79999999999995
 30
0.0
 11
596.99999999999966
 21
817.79999999999995
 31
0.0
  0
LINE
  5
DE
  8
RAMME
 10
0.0
 20
790.19999999999993
 30
0.0
 11
596.99999999999966
 21
790.19999999999993
 31
0.0
  0
LINE
  5
DF
  8
RAMME
 10
0.0
 20
787.80000000000007
 30
0.0
 11
596.99999999999966
 21
787.80000000000007
 31
0.0
  0
LINE
  5
E0
  8
RAMME
 10
225.0
 20
757.80000000000018
 30
0.0
 11
225.0
 21
787.80000000000007
 31
0.0
  0
TEXT
  5
E1
  8
RAMME
 10
231.0
 20
778.79999999999973
 30
0.0
 40
6.0
  1
Materiale:
  7
GOTHICG
  0
LINE
  5
E2
  8
RAMME
 10
345.0
 20
757.80000000000018
 30
0.0
 11
345.0
 21
787.80000000000007
 31
0.0
  0
TEXT
  5
E3
  8
RAMME
 10
348.0
 20
778.79999999999973
 30
0.0
 40
6.0
  1
Tegn.nr.:
  7
GOTHICG
  0
LINE
  5
E4
  8
RAMME
 10
405.0
 20
757.80000000000018
 30
0.0
 11
405.0
 21
787.80000000000007
 31
0.0
  0
TEXT
  5
E5
  8
RAMME
 10
408.0
 20
778.79999999999973
 30
0.0
 40
6.0
  1
Rev.:
  7
GOTHICG
  0
LINE
  5
E6
  8
RAMME
 10
432.0
 20
757.80000000000018
 30
0.0
 11
432.0
 21
787.80000000000007
 31
0.0
  0
TEXT
  5
E7
  8
RAMME
 10
435.0
 20
778.79999999999973
 30
0.0
 40
6.0
  1
Målestok:
  7
GOTHICG
  0
TEXT
  5
E8
  8
RAMME
 10
447.89999999999998
 20
763.79999999999995
 30
0.0
 40
10.5
  1
1:3
 41
0.5
  7
_STYLE
  0
LINE
  5
E9
  8
RAMME
 10
483.0
 20
757.80000000000018
 30
0.0
 11
483.0
 21
787.80000000000007
 31
0.0
  0
TEXT
  5
EA
  8
RAMME
 10
486.0
 20
778.79999999999973
 30
0.0
 40
6.0
  1
Dato:
  7
GOTHICG
  0
LINE
  5
EB
  8
RAMME
 10
540.0
 20
757.80000000000018
 30
0.0
 11
540.0
 21
787.80000000000007
 31
0.0
  0
TEXT
  5
EC
  8
RAMME
 10
543.0
 20
778.79999999999973
 30
0.0
 40
6.0
  1
Init.:
  7
GOTHICG
  0
LINE
  5
ED
  8
RAMME
 10
0.0
 20
757.80000000000018
 30
0.0
 11
596.99999999999966
 21
757.80000000000018
 31
0.0
  0
TEXT
  5
EE
  8
RAMME
 10
6.0
 20
748.79999999999984
 30
0.0
 40
6.0
  1
Varenr.:
  7
GOTHICG
  0
LINE
  5
EF
  8
RAMME
 10
60.600000000000051
 20
727.80000000000018
 30
0.0
 11
60.600000000000051
 21
757.80000000000018
 31
0.0
  0
TEXT
  5
F0
  8
RAMME
 10
66.0
 20
748.80000000000018
 30
0.0
 40
6.0
  1
Antal:
  7
GOTHICG
  0
LINE
  5
F1
  8
RAMME
 10
105.0
 20
727.80000000000018
 30
0.0
 11
105.0
 21
757.80000000000018
 31
0.0
  0
TEXT
  5
F2
  8
RAMME
 10
110.40000000000001
 20
748.80000000000018
 30
0.0
 40
6.0
  1
Overfladebeh.:
  7
GOTHICG
  0
LINE
  5
F3
  8
RAMME
 10
225.0
 20
727.80000000000018
 30
0.0
 11
225.0
 21
757.80000000000018
 31
0.0
  0
TEXT
  5
F4
  8
RAMME
 10
230.7000000000001
 20
748.80000000000018
 30
0.0
 40
6.0
  1
Fremføring/slag
  7
GOTHICG
  0
LINE
  5
F5
  8
RAMME
 10
345.0
 20
727.80000000000018
 30
0.0
 11
345.0
 21
757.80000000000018
 31
0.0
  0
TEXT
  5
F6
  8
RAMME
 10
350.7000000000001
 20
748.80000000000018
 30
0.0
 40
6.0
  1
Slaglængde
  7
GOTHICG
  0
LINE
  5
F7
  8
RAMME
 10
432.0
 20
727.80000000000018
 30
0.0
 11
432.0
 21
757.80000000000018
 31
0.0
  0
TEXT
  5
F8
  8
RAMME
 10
437.7000000000001
 20
748.80000000000018
 30
0.0
 40
6.0
  1
Forb.vægt: kg
  7
GOTHICG
  0
LINE
  5
F9
  8
RAMME
 10
520.80000000000007
 20
727.80000000000018
 30
0.0
 11
520.80000000000007
 21
757.80000000000018
 31
0.0
  0
TEXT
  5
FA
  8
RAMME
 10
524.70000000000005
 20
748.80000000000018
 30
0.0
 40
6.0
  1
Prod.nr.:
  7
GOTHICG
  0
LINE
  5
FB
  8
RAMME
 10
0.0
 20
727.80000000000018
 30
0.0
 11
596.99999999999966
 21
727.80000000000018
 31
0.0
  0
ENDBLK
  5
FC
  8
0
  0
BLOCK
  8
0
  2
*X1
 70
     1
 10
0.0
 20
0.0
 30
0.0
  3
*X1
  1

  0
LINE
  5
14B
  8
0
 62
     0
 10
33.89923776224731
 20
813.38433806647186
 30
0.0
 11
33.758575828719302
 21
813.52499999999986
 31
0.0
  0
LINE
  5
14C
  8
0
 62
     0
 10
33.66599336337481
 20
813.08725237945475
 30
0.0
 11
33.228245742829422
 21
813.52499999999998
 31
0.0
  0
LINE
  5
14D
  8
0
 62
     0
 10
33.44031734621268
 20
812.78259831072683
 30
0.0
 11
32.697915656939422
 21
813.52499999999998
 31
0.0
  0
LINE
  5
14E
  8
0
 62
     0
 10
33.222305358370313
 20
812.4702802126792
 30
0.0
 11
32.167585571049528
 21
813.52499999999998
 31
0.0
  0
LINE
  5
14F
  8
0
 62
     0
 10
33.012073735735733
 20
812.15018174942395
 30
0.0
 11
31.637255485159638
 21
813.52499999999998
 31
0.0
  0
LINE
  5
150
  8
0
 62
     0
 10
32.809761001286688
 20
811.8221643979831
 30
0.0
 11
31.106925399269759
 21
813.52499999999986
 31
0.0
  0
LINE
  5
151
  8
0
 62
     0
 10
32.615529714025911
 20
811.48606559935376
 30
0.0
 11
30.576595313379869
 21
813.52499999999998
 31
0.0
  0
LINE
  5
152
  8
0
 62
     0
 10
32.429568728807737
 20
811.14169649868234
 30
0.0
 11
30.046265227489869
 21
813.52499999999998
 31
0.0
  0
LINE
  5
153
  8
0
 62
     0
 10
32.252095945357553
 20
810.78883919624241
 30
0.0
 11
29.515935141599979
 21
813.52499999999998
 31
0.0
  0
LINE
  5
154
  8
0
 62
     0
 10
32.083361647496531
 20
810.42724340821349
 30
0.0
 11
28.985605055710099
 21
813.52499999999998
 31
0.0
  0
LINE
  5
155
  8
0
 62
     0
 10
31.92365256343265
 20
810.05662240638753
 30
0.0
 11
28.455274969820209
 21
813.52499999999986
 31
0.0
  0
LINE
  5
156
  8
0
 62
     0
 10
31.773296817772579
 20
809.67664806615755
 30
0.0
 11
27.924944883930319
 21
813.52499999999998
 31
0.0
  0
LINE
  5
157
  8
0
 62
     0
 10
31.632669999707161
 20
809.28694479833325
 30
0.0
 11
27.394614798040319
 21
813.52499999999998
 31
0.0
  0
LINE
  5
158
  8
0
 62
     0
 10
31.50220264561705
 20
808.88708206653337
 30
0.0
 11
26.86428471215044
 21
813.52499999999998
 31
0.0
  0
LINE
  5
159
  8
0
 62
     0
 10
31.133954626260682
 20
808.72499999999991
 30
0.0
 11
26.33395462626055
 21
813.52499999999986
 31
0.0
  0
LINE
  5
15A
  8
0
 62
     0
 10
30.603624540370792
 20
808.72499999999991
 30
0.0
 11
25.80362454037067
 21
813.52499999999998
 31
0.0
  0
LINE
  5
15B
  8
0
 62
     0
 10
30.073294454480848
 20
808.72499999999991
 30
0.0
 11
25.27329445448072
 21
813.52499999999998
 31
0.0
  0
LINE
  5
15C
  8
0
 62
     0
 10
29.542964368590962
 20
808.72499999999991
 30
0.0
 11
24.74296436859078
 21
813.52499999999998
 31
0.0
  0
LINE
  5
15D
  8
0
 62
     0
 10
29.012634282701072
 20
808.72499999999991
 30
0.0
 11
24.21263428270089
 21
813.52499999999998
 31
0.0
  0
LINE
  5
15E
  8
0
 62
     0
 10
31.02257301975612
 20
806.71506126294469
 30
0.0
 11
30.662634282700878
 21
807.07500000000005
 31
0.0
  0
LINE
  5
15F
  8
0
 62
     0
 10
28.482304196811128
 20
808.72499999999991
 30
0.0
 11
23.68230419681101
 21
813.52499999999986
 31
0.0
  0
LINE
  5
160
  8
0
 62
     0
 10
30.96672600882783
 20
806.24057818798315
 30
0.0
 11
30.132304196810988
 21
807.07500000000005
 31
0.0
  0
LINE
  5
161
  8
0
 62
     0
 10
27.951974110921238
 20
808.72499999999991
 30
0.0
 11
23.15197411092112
 21
813.52499999999998
 31
0.0
  0
LINE
  5
162
  8
0
 62
     0
 10
30.926797006951691
 20
805.75017710396935
 30
0.0
 11
29.601974110921098
 21
807.07500000000005
 31
0.0
  0
LINE
  5
163
  8
0
 62
     0
 10
27.421644025031298
 20
808.72499999999991
 30
0.0
 11
22.62164402503112
 21
813.52499999999998
 31
0.0
  0
LINE
  5
164
  8
0
 62
     0
 10
30.904340393163071
 20
805.24230363186803
 30
0.0
 11
29.071644025031109
 21
807.07500000000005
 31
0.0
  0
LINE
  5
165
  8
0
 62
     0
 10
26.891313939141408
 20
808.72499999999991
 30
0.0
 11
22.09131393914123
 21
813.52499999999998
 31
0.0
  0
LINE
  5
166
  8
0
 62
     0
 10
30.901267009013569
 20
804.71504693012776
 30
0.0
 11
28.541313939141219
 21
807.07500000000005
 31
0.0
  0
LINE
  5
167
  8
0
 62
     0
 10
26.360983853251469
 20
808.72499999999991
 30
0.0
 11
21.56098385325134
 21
813.52499999999998
 31
0.0
  0
LINE
  5
168
  8
0
 62
     0
 10
30.919967821462421
 20
804.16601603178901
 30
0.0
 11
28.010983853251329
 21
807.07500000000005
 31
0.0
  0
LINE
  5
169
  8
0
 62
     0
 10
25.830653767361579
 20
808.72499999999991
 30
0.0
 11
21.030653767361461
 21
813.52499999999986
 31
0.0
  0
LINE
  5
16A
  8
0
 62
     0
 10
30.963499753403308
 20
803.59215401395807
 30
0.0
 11
27.480653767361449
 21
807.07500000000005
 31
0.0
  0
LINE
  5
16B
  8
0
 62
     0
 10
25.300323681471699
 20
808.72499999999991
 30
0.0
 11
20.500323681471571
 21
813.52499999999998
 31
0.0
  0
LINE
  5
16C
  8
0
 62
     0
 10
31.035876892700291
 20
802.98944678877126
 30
0.0
 11
26.950323681471499
 21
807.07500000000005
 31
0.0
  0
LINE
  5
16D
  8
0
 62
     0
 10
24.769993595581749
 20
808.72499999999991
 30
0.0
 11
19.96999359558157
 21
813.52499999999998
 31
0.0
  0
LINE
  5
16E
  8
0
 62
     0
 10
30.76999359558187
 20
802.72499999999957
 30
0.0
 11
26.419993595581559
 21
807.07500000000005
 31
0.0
  0
LINE
  5
16F
  8
0
 62
     0
 10
24.239663509691869
 20
808.72499999999991
 30
0.0
 11
19.43966350969168
 21
813.52499999999998
 31
0.0
  0
LINE
  5
170
  8
0
 62
     0
 10
30.239663509691869
 20
802.7249999999998
 30
0.0
 11
25.88966350969168
 21
807.07500000000005
 31
0.0
  0
LINE
  5
171
  8
0
 62
     0
 10
29.709333423801979
 20
802.7249999999998
 30
0.0
 11
25.35933342380179
 21
807.07500000000005
 31
0.0
  0
LINE
  5
172
  8
0
 62
     0
 10
23.709333423801919
 20
808.72499999999991
 30
0.0
 11
18.90933342380179
 21
813.52499999999998
 31
0.0
  0
LINE
  5
173
  8
0
 62
     0
 10
31.493653245381839
 20
800.94068017842005
 30
0.0
 11
31.359333423801839
 21
801.07499999999993
 31
0.0
  0
LINE
  5
174
  8
0
 62
     0
 10
29.179003337912089
 20
802.7249999999998
 30
0.0
 11
24.8290033379119
 21
807.07500000000005
 31
0.0
  0
LINE
  5
175
  8
0
 62
     0
 10
23.179003337912039
 20
808.72499999999991
 30
0.0
 11
18.379003337911911
 21
813.52499999999998
 31
0.0
  0
LINE
  5
176
  8
0
 62
     0
 10
31.768831823506279
 20
800.13517151440556
 30
0.0
 11
30.8290033379119
 21
801.07499999999993
 31
0.0
  0
LINE
  5
177
  8
0
 62
     0
 10
28.648673252022149
 20
802.7249999999998
 30
0.0
 11
24.298673252021899
 21
807.07500000000005
 31
0.0
  0
LINE
  5
178
  8
0
 62
     0
 10
22.648673252022089
 20
808.72499999999991
 30
0.0
 11
17.848673252021971
 21
813.52499999999998
 31
0.0
  0
LINE
  5
179
  8
0
 62
     0
 10
32.15252508001209
 20
799.22114817200975
 30
0.0
 11
30.29867325202196
 21
801.07499999999993
 31
0.0
  0
LINE
  5
17A
  8
0
 62
     0
 10
28.11834316613227
 20
802.7249999999998
 30
0.0
 11
23.768343166132009
 21
807.07500000000005
 31
0.0
  0
LINE
  5
17B
  8
0
 62
     0
 10
22.11834316613221
 20
808.72499999999991
 30
0.0
 11
17.318343166132021
 21
813.52499999999998
 31
0.0
  0
LINE
  5
17C
  8
0
 62
     0
 10
32.729755403257911
 20
798.1135877628742
 30
0.0
 11
29.76834316613207
 21
801.07499999999993
 31
0.0
  0
LINE
  5
17D
  8
0
 62
     0
 10
27.58801308024232
 20
802.7249999999998
 30
0.0
 11
23.23801308024213
 21
807.07500000000005
 31
0.0
  0
LINE
  5
17E
  8
0
 62
     0
 10
21.58801308024232
 20
808.72499999999991
 30
0.0
 11
16.788013080242141
 21
813.52499999999998
 31
0.0
  0
LINE
  5
17F
  8
0
 62
     0
 10
33.907215828047867
 20
796.40579725219425
 30
0.0
 11
29.23801308024219
 21
801.07499999999993
 31
0.0
  0
LINE
  5
180
  8
0
 62
     0
 10
27.05768299435244
 20
802.7249999999998
 30
0.0
 11
22.70768299435224
 21
807.07500000000005
 31
0.0
  0
LINE
  5
181
  8
0
 62
     0
 10
21.05768299435238
 20
808.72499999999991
 30
0.0
 11
16.257682994352251
 21
813.52499999999986
 31
0.0
  0
LINE
  5
182
  8
0
 62
     0
 10
33.507682994352251
 20
796.27499999999986
 30
0.0
 11
28.7076829943523
 21
801.07499999999993
 31
0.0
  0
LINE
  5
183
  8
0
 62
     0
 10
26.52735290846255
 20
802.7249999999998
 30
0.0
 11
22.17735290846235
 21
807.07500000000005
 31
0.0
  0
LINE
  5
184
  8
0
 62
     0
 10
20.52735290846249
 20
808.72499999999991
 30
0.0
 11
15.727352908462359
 21
813.52499999999998
 31
0.0
  0
LINE
  5
185
  8
0
 62
     0
 10
32.977352908462372
 20
796.27499999999986
 30
0.0
 11
28.17735290846235
 21
801.07499999999993
 31
0.0
  0
LINE
  5
186
  8
0
 62
     0
 10
25.9970228225726
 20
802.7249999999998
 30
0.0
 11
21.64702282257235
 21
807.07500000000005
 31
0.0
  0
LINE
  5
187
  8
0
 62
     0
 10
19.997022822572539
 20
808.72499999999991
 30
0.0
 11
15.19702282257242
 21
813.52499999999998
 31
0.0
  0
LINE
  5
188
  8
0
 62
     0
 10
32.447022822572421
 20
796.27499999999986
 30
0.0
 11
27.64702282257241
 21
801.07499999999993
 31
0.0
  0
LINE
  5
189
  8
0
 62
     0
 10
25.46669273668272
 20
802.7249999999998
 30
0.0
 11
21.11669273668247
 21
807.07500000000005
 31
0.0
  0
LINE
  5
18A
  8
0
 62
     0
 10
19.46669273668266
 20
808.72499999999991
 30
0.0
 11
14.66669273668248
 21
813.52499999999998
 31
0.0
  0
LINE
  5
18B
  8
0
 62
     0
 10
31.916692736682531
 20
796.27499999999998
 30
0.0
 11
27.116692736682531
 21
801.07499999999993
 31
0.0
  0
LINE
  5
18C
  8
0
 62
     0
 10
24.93636265079278
 20
802.7249999999998
 30
0.0
 11
20.58636265079258
 21
807.07500000000005
 31
0.0
  0
LINE
  5
18D
  8
0
 62
     0
 10
18.93636265079277
 20
808.72499999999991
 30
0.0
 11
14.13636265079259
 21
813.52499999999998
 31
0.0
  0
LINE
  5
18E
  8
0
 62
     0
 10
31.386362650792591
 20
796.27499999999998
 30
0.0
 11
26.58636265079264
 21
801.07499999999993
 31
0.0
  0
LINE
  5
18F
  8
0
 62
     0
 10
24.40603256490289
 20
802.7249999999998
 30
0.0
 11
20.05603256490269
 21
807.07500000000005
 31
0.0
  0
LINE
  5
190
  8
0
 62
     0
 10
18.40603256490283
 20
808.72499999999991
 30
0.0
 11
13.6060325649027
 21
813.52499999999986
 31
0.0
  0
LINE
  5
191
  8
0
 62
     0
 10
30.856032564902709
 20
796.27499999999986
 30
0.0
 11
26.05603256490275
 21
801.07499999999993
 31
0.0
  0
LINE
  5
192
  8
0
 62
     0
 10
23.87570247901294
 20
802.7249999999998
 30
0.0
 11
19.52570247901275
 21
807.07500000000005
 31
0.0
  0
LINE
  5
193
  8
0
 62
     0
 10
17.87570247901294
 20
808.72499999999991
 30
0.0
 11
13.07570247901282
 21
813.52499999999998
 31
0.0
  0
LINE
  5
194
  8
0
 62
     0
 10
30.325702479012818
 20
796.27499999999986
 30
0.0
 11
25.525702479012811
 21
801.07499999999993
 31
0.0
  0
LINE
  5
195
  8
0
 62
     0
 10
23.34537239312294
 20
802.7249999999998
 30
0.0
 11
18.9953723931228
 21
807.07500000000005
 31
0.0
  0
LINE
  5
196
  8
0
 62
     0
 10
17.345372393123
 20
808.72499999999991
 30
0.0
 11
12.54537239312282
 21
813.52499999999998
 31
0.0
  0
LINE
  5
197
  8
0
 62
     0
 10
29.795372393122879
 20
796.27499999999986
 30
0.0
 11
24.99537239312286
 21
801.07499999999993
 31
0.0
  0
LINE
  5
198
  8
0
 62
     0
 10
22.81504230723306
 20
802.7249999999998
 30
0.0
 11
18.46504230723292
 21
807.07500000000005
 31
0.0
  0
LINE
  5
199
  8
0
 62
     0
 10
16.81504230723311
 20
808.72499999999991
 30
0.0
 11
12.01504230723293
 21
813.52499999999998
 31
0.0
  0
LINE
  5
19A
  8
0
 62
     0
 10
29.265042307232989
 20
796.27499999999998
 30
0.0
 11
24.465042307233041
 21
801.07499999999993
 31
0.0
  0
LINE
  5
19B
  8
0
 62
     0
 10
22.28471222134317
 20
802.7249999999998
 30
0.0
 11
17.93471222134303
 21
807.07500000000005
 31
0.0
  0
LINE
  5
19C
  8
0
 62
     0
 10
16.28471222134317
 20
808.72499999999991
 30
0.0
 11
11.48471222134304
 21
813.52499999999998
 31
0.0
  0
LINE
  5
19D
  8
0
 62
     0
 10
28.734712221343049
 20
796.27499999999998
 30
0.0
 11
23.934712221343091
 21
801.07499999999993
 31
0.0
  0
LINE
  5
19E
  8
0
 62
     0
 10
21.75438213545328
 20
802.7249999999998
 30
0.0
 11
17.404382135453151
 21
807.07500000000005
 31
0.0
  0
LINE
  5
19F
  8
0
 62
     0
 10
15.75438213545328
 20
808.72499999999991
 30
0.0
 11
10.954382135453161
 21
813.52499999999986
 31
0.0
  0
LINE
  5
1A0
  8
0
 62
     0
 10
28.204382135453159
 20
796.27499999999986
 30
0.0
 11
23.404382135453261
 21
801.07499999999982
 31
0.0
  0
LINE
  5
1A1
  8
0
 62
     0
 10
21.22405204956334
 20
802.7249999999998
 30
0.0
 11
16.8740520495632
 21
807.07500000000005
 31
0.0
  0
LINE
  5
1A2
  8
0
 62
     0
 10
15.224052049563401
 20
808.72499999999991
 30
0.0
 11
10.42405204956327
 21
813.52499999999998
 31
0.0
  0
LINE
  5
1A3
  8
0
 62
     0
 10
27.674052049563279
 20
796.27499999999986
 30
0.0
 11
22.874052049563371
 21
801.07499999999993
 31
0.0
  0
LINE
  5
1A4
  8
0
 62
     0
 10
20.693721963673401
 20
802.7249999999998
 30
0.0
 11
16.343721963673261
 21
807.07500000000005
 31
0.0
  0
LINE
  5
1A5
  8
0
 62
     0
 10
14.69372196367345
 20
808.72499999999991
 30
0.0
 11
9.8937219636732721
 21
813.52499999999998
 31
0.0
  0
LINE
  5
1A6
  8
0
 62
     0
 10
27.143721963673329
 20
796.27499999999998
 30
0.0
 11
22.343721963673371
 21
801.07499999999993
 31
0.0
  0
LINE
  5
1A7
  8
0
 62
     0
 10
20.163391877783511
 20
802.7249999999998
 30
0.0
 11
15.813391877783371
 21
807.07500000000005
 31
0.0
  0
LINE
  5
1A8
  8
0
 62
     0
 10
14.163391877783569
 20
808.72499999999991
 30
0.0
 11
9.3633918777833856
 21
813.52499999999998
 31
0.0
  0
LINE
  5
1A9
  8
0
 62
     0
 10
26.613391877783378
 20
796.27499999999998
 30
0.0
 11
21.813391877783491
 21
801.07499999999993
 31
0.0
  0
LINE
  5
1AA
  8
0
 62
     0
 10
19.633061791893621
 20
802.7249999999998
 30
0.0
 11
15.283061791893489
 21
807.07500000000005
 31
0.0
  0
LINE
  5
1AB
  8
0
 62
     0
 10
13.633061791893621
 20
808.72499999999991
 30
0.0
 11
8.833061791893499
 21
813.52499999999986
 31
0.0
  0
LINE
  5
1AC
  8
0
 62
     0
 10
26.083061791893499
 20
796.27499999999986
 30
0.0
 11
21.283061791893601
 21
801.07499999999982
 31
0.0
  0
LINE
  5
1AD
  8
0
 62
     0
 10
19.102731706003741
 20
802.7249999999998
 30
0.0
 11
14.752731706003599
 21
807.07500000000005
 31
0.0
  0
LINE
  5
1AE
  8
0
 62
     0
 10
13.102731706003739
 20
808.72499999999991
 30
0.0
 11
8.3027317060036125
 21
813.52499999999998
 31
0.0
  0
LINE
  5
1AF
  8
0
 62
     0
 10
25.552731706003609
 20
796.27499999999986
 30
0.0
 11
20.752731706003718
 21
801.07499999999982
 31
0.0
  0
LINE
  5
1B0
  8
0
 62
     0
 10
18.572401620113741
 20
802.7249999999998
 30
0.0
 11
14.222401620113599
 21
807.07500000000005
 31
0.0
  0
LINE
  5
1B1
  8
0
 62
     0
 10
12.572401620113791
 20
808.72499999999991
 30
0.0
 11
7.7724016201136692
 21
813.52499999999998
 31
0.0
  0
LINE
  5
1B2
  8
0
 62
     0
 10
25.022401620113669
 20
796.27499999999986
 30
0.0
 11
20.222401620113772
 21
801.07499999999993
 31
0.0
  0
LINE
  5
1B3
  8
0
 62
     0
 10
18.042071534223851
 20
802.7249999999998
 30
0.0
 11
13.692071534223709
 21
807.07500000000005
 31
0.0
  0
LINE
  5
1B4
  8
0
 62
     0
 10
12.04207153422391
 20
808.72499999999991
 30
0.0
 11
7.242071534223725
 21
813.52499999999998
 31
0.0
  0
LINE
  5
1B5
  8
0
 62
     0
 10
22.089069954887972
 20
798.67800157933584
 30
0.0
 11
19.692071534223832
 21
801.07499999999993
 31
0.0
  0
LINE
  5
1B6
  8
0
 62
     0
 10
11.511741448334019
 20
808.72499999999991
 30
0.0
 11
6.7117414483338393
 21
813.52499999999998
 31
0.0
  0
LINE
  5
1B7
  8
0
 62
     0
 10
17.511741448333961
 20
802.7249999999998
 30
0.0
 11
13.16174144833383
 21
807.07500000000005
 31
0.0
  0
LINE
  5
1B8
  8
0
 62
     0
 10
10.98141136244408
 20
808.72499999999991
 30
0.0
 11
6.181411362443952
 21
813.52499999999986
 31
0.0
  0
LINE
  5
1B9
  8
0
 62
     0
 10
16.14937299292194
 20
803.55703836952205
 30
0.0
 11
12.63141136244394
 21
807.07500000000005
 31
0.0
  0
LINE
  5
1BA
  8
0
 62
     0
 10
10.45108127655419
 20
808.72499999999991
 30
0.0
 11
5.6510812765540663
 21
813.52499999999998
 31
0.0
  0
LINE
  5
1BB
  8
0
 62
     0
 10
13.179524511937981
 20
805.99655676461612
 30
0.0
 11
12.10108127655405
 21
807.07500000000005
 31
0.0
  0
LINE
  5
1BC
  8
0
 62
     0
 10
9.920751190664248
 20
808.72499999999991
 30
0.0
 11
5.1207511906640661
 21
813.52499999999998
 31
0.0
  0
LINE
  5
1BD
  8
0
 62
     0
 10
7.239827549970868
 20
810.87559355480334
 30
0.0
 11
4.5904211047741788
 21
813.52499999999998
 31
0.0
  0
LINE
  5
1BE
  8
0
 62
     0
 10
4.269979068987765
 20
813.31511194989662
 30
0.0
 11
4.0600910188842931
 21
813.52499999999998
 31
0.0
  0
ENDBLK
  5
1C0
  8
0
  0
BLOCK
  8
0
  2
*X2
 70
     1
 10
0.0
 20
0.0
 30
0.0
  3
*X2
  1

  0
LINE
  5
1C2
  8
0
 62
     0
 10
84.530020931012984
 20
813.31511194989696
 30
0.0
 11
84.739908981115889
 21
813.52499999999998
 31
0.0
  0
LINE
  5
1C3
  8
0
 62
     0
 10
81.560172450029185
 20
810.87559355480323
 30
0.0
 11
84.209578895226002
 21
813.52499999999998
 31
0.0
  0
LINE
  5
1C4
  8
0
 62
     0
 10
78.879248809335877
 20
808.72499999999968
 30
0.0
 11
83.679248809336116
 21
813.52499999999998
 31
0.0
  0
LINE
  5
1C5
  8
0
 62
     0
 10
78.348918723445991
 20
808.72499999999968
 30
0.0
 11
83.148918723446215
 21
813.52499999999998
 31
0.0
  0
LINE
  5
1C6
  8
0
 62
     0
 10
75.620475488061615
 20
805.99655676461543
 30
0.0
 11
76.698918723446127
 21
807.07500000000005
 31
0.0
  0
LINE
  5
1C7
  8
0
 62
     0
 10
77.818588637556104
 20
808.72499999999968
 30
0.0
 11
82.618588637556286
 21
813.52499999999998
 31
0.0
  0
LINE
  5
1C8
  8
0
 62
     0
 10
72.650627007077617
 20
803.55703836952136
 30
0.0
 11
76.16858863755624
 21
807.07500000000005
 31
0.0
  0
LINE
  5
1C9
  8
0
 62
     0
 10
77.288258551666104
 20
808.72499999999968
 30
0.0
 11
82.088258551666357
 21
813.52499999999998
 31
0.0
  0
LINE
  5
1CA
  8
0
 62
     0
 10
71.288258551666203
 20
802.7249999999998
 30
0.0
 11
75.638258551666297
 21
807.07500000000005
 31
0.0
  0
LINE
  5
1CB
  8
0
 62
     0
 10
70.757928465776331
 20
802.7249999999998
 30
0.0
 11
75.107928465776411
 21
807.07500000000005
 31
0.0
  0
LINE
  5
1CC
  8
0
 62
     0
 10
76.757928465776203
 20
808.72499999999968
 30
0.0
 11
81.557928465776456
 21
813.52499999999998
 31
0.0
  0
LINE
  5
1CD
  8
0
 62
     0
 10
66.710930045111809
 20
798.67800157933527
 30
0.0
 11
69.107928465776183
 21
801.07499999999982
 31
0.0
  0
LINE
  5
1CE
  8
0
 62
     0
 10
70.227598379886444
 20
802.7249999999998
 30
0.0
 11
74.577598379886453
 21
807.07500000000005
 31
0.0
  0
LINE
  5
1CF
  8
0
 62
     0
 10
76.227598379886331
 20
808.72499999999968
 30
0.0
 11
81.027598379886555
 21
813.52499999999986
 31
0.0
  0
LINE
  5
1D0
  8
0
 62
     0
 10
63.777598379886513
 20
796.27499999999986
 30
0.0
 11
68.577598379886297
 21
801.07499999999982
 31
0.0
  0
LINE
  5
1D1
  8
0
 62
     0
 10
69.697268293996558
 20
802.7249999999998
 30
0.0
 11
74.047268293996581
 21
807.07500000000005
 31
0.0
  0
LINE
  5
1D2
  8
0
 62
     0
 10
75.697268293996444
 20
808.72499999999968
 30
0.0
 11
80.497268293996683
 21
813.52499999999998
 31
0.0
  0
LINE
  5
1D3
  8
0
 62
     0
 10
63.247268293996619
 20
796.27499999999998
 30
0.0
 11
68.04726829399641
 21
801.07499999999982
 31
0.0
  0
LINE
  5
1D4
  8
0
 62
     0
 10
69.166938208106615
 20
802.7249999999998
 30
0.0
 11
73.516938208106694
 21
807.07500000000005
 31
0.0
  0
LINE
  5
1D5
  8
0
 62
     0
 10
75.166938208106501
 20
808.72499999999968
 30
0.0
 11
79.96693820810674
 21
813.52499999999998
 31
0.0
  0
LINE
  5
1D6
  8
0
 62
     0
 10
62.71693820810674
 20
796.27499999999998
 30
0.0
 11
67.516938208106467
 21
801.07499999999982
 31
0.0
  0
LINE
  5
1D7
  8
0
 62
     0
 10
68.636608122216671
 20
802.7249999999998
 30
0.0
 11
72.986608122216751
 21
807.07500000000005
 31
0.0
  0
LINE
  5
1D8
  8
0
 62
     0
 10
74.636608122216558
 20
808.72499999999968
 30
0.0
 11
79.436608122216796
 21
813.52499999999998
 31
0.0
  0
LINE
  5
1D9
  8
0
 62
     0
 10
62.186608122216789
 20
796.27499999999998
 30
0.0
 11
66.986608122216523
 21
801.07499999999982
 31
0.0
  0
LINE
  5
1DA
  8
0
 62
     0
 10
68.106278036326728
 20
802.7249999999998
 30
0.0
 11
72.456278036326864
 21
807.07500000000005
 31
0.0
  0
LINE
  5
1DB
  8
0
 62
     0
 10
74.106278036326671
 20
808.72499999999968
 30
0.0
 11
78.90627803632691
 21
813.52499999999998
 31
0.0
  0
LINE
  5
1DC
  8
0
 62
     0
 10
61.65627803632691
 20
796.27499999999986
 30
0.0
 11
66.456278036326694
 21
801.07499999999982
 31
0.0
  0
LINE
  5
1DD
  8
0
 62
     0
 10
67.575947950436714
 20
802.7249999999998
 30
0.0
 11
71.925947950436921
 21
807.07500000000005
 31
0.0
  0
LINE
  5
1DE
  8
0
 62
     0
 10
73.575947950436785
 20
808.72499999999991
 30
0.0
 11
78.375947950437023
 21
813.52499999999998
 31
0.0
  0
LINE
  5
1DF
  8
0
 62
     0
 10
61.125947950436966
 20
796.27499999999998
 30
0.0
 11
65.925947950436793
 21
801.07499999999982
 31
0.0
  0
LINE
  5
1E0
  8
0
 62
     0
 10
67.045617864546841
 20
802.72499999999957
 30
0.0
 11
71.395617864547035
 21
807.07500000000005
 31
0.0
  0
LINE
  5
1E1
  8
0
 62
     0
 10
73.045617864546898
 20
808.72499999999968
 30
0.0
 11
77.84561786454708
 21
813.52499999999998
 31
0.0
  0
LINE
  5
1E2
  8
0
 62
     0
 10
60.595617864547073
 20
796.27499999999998
 30
0.0
 11
65.395617864546963
 21
801.07499999999993
 31
0.0
  0
LINE
  5
1E3
  8
0
 62
     0
 10
66.515287778656884
 20
802.72499999999957
 30
0.0
 11
70.865287778657091
 21
807.07500000000005
 31
0.0
  0
LINE
  5
1E4
  8
0
 62
     0
 10
72.515287778656898
 20
808.72499999999968
 30
0.0
 11
77.315287778657137
 21
813.52499999999998
 31
0.0
  0
LINE
  5
1E5
  8
0
 62
     0
 10
60.065287778657137
 20
796.27499999999998
 30
0.0
 11
64.865287778657034
 21
801.07499999999993
 31
0.0
  0
LINE
  5
1E6
  8
0
 62
     0
 10
65.984957692766955
 20
802.72499999999957
 30
0.0
 11
70.334957692767205
 21
807.07500000000005
 31
0.0
  0
LINE
  5
1E7
  8
0
 62
     0
 10
71.984957692767011
 20
808.72499999999968
 30
0.0
 11
76.78495769276725
 21
813.52499999999998
 31
0.0
  0
LINE
  5
1E8
  8
0
 62
     0
 10
59.53495769276725
 20
796.27499999999986
 30
0.0
 11
64.334957692767134
 21
801.07499999999993
 31
0.0
  0
LINE
  5
1E9
  8
0
 62
     0
 10
65.454627606877068
 20
802.72499999999957
 30
0.0
 11
69.804627606877318
 21
807.07500000000005
 31
0.0
  0
LINE
  5
1EA
  8
0
 62
     0
 10
71.454627606877125
 20
808.72499999999968
 30
0.0
 11
76.254627606877364
 21
813.52499999999998
 31
0.0
  0
LINE
  5
1EB
  8
0
 62
     0
 10
59.0046276068773
 20
796.27499999999986
 30
0.0
 11
63.804627606877261
 21
801.07499999999982
 31
0.0
  0
LINE
  5
1EC
  8
0
 62
     0
 10
64.924297520987182
 20
802.7249999999998
 30
0.0
 11
69.274297520987375
 21
807.07500000000005
 31
0.0
  0
LINE
  5
1ED
  8
0
 62
     0
 10
70.924297520987224
 20
808.72499999999968
 30
0.0
 11
75.724297520987477
 21
813.52499999999998
 31
0.0
  0
LINE
  5
1EE
  8
0
 62
     0
 10
58.47429752098742
 20
796.27499999999998
 30
0.0
 11
63.274297520987368
 21
801.07499999999993
 31
0.0
  0
LINE
  5
1EF
  8
0
 62
     0
 10
64.393967435097295
 20
802.72499999999957
 30
0.0
 11
68.743967435097474
 21
807.07500000000005
 31
0.0
  0
LINE
  5
1F0
  8
0
 62
     0
 10
70.393967435097352
 20
808.72499999999968
 30
0.0
 11
75.193967435097534
 21
813.52499999999998
 31
0.0
  0
LINE
  5
1F1
  8
0
 62
     0
 10
57.943967435097541
 20
796.27499999999998
 30
0.0
 11
62.743967435097431
 21
801.07499999999993
 31
0.0
  0
LINE
  5
1F2
  8
0
 62
     0
 10
63.863637349207288
 20
802.72499999999957
 30
0.0
 11
68.213637349207545
 21
807.07500000000005
 31
0.0
  0
LINE
  5
1F3
  8
0
 62
     0
 10
69.863637349207352
 20
808.72499999999968
 30
0.0
 11
74.66363734920759
 21
813.52499999999998
 31
0.0
  0
LINE
  5
1F4
  8
0
 62
     0
 10
57.41363734920759
 20
796.27499999999998
 30
0.0
 11
62.213637349207488
 21
801.07499999999993
 31
0.0
  0
LINE
  5
1F5
  8
0
 62
     0
 10
63.333307263317408
 20
802.72499999999957
 30
0.0
 11
67.683307263317658
 21
807.07500000000005
 31
0.0
  0
LINE
  5
1F6
  8
0
 62
     0
 10
69.333307263317465
 20
808.72499999999968
 30
0.0
 11
74.133307263317704
 21
813.52499999999998
 31
0.0
  0
LINE
  5
1F7
  8
0
 62
     0
 10
56.883307263317697
 20
796.27499999999986
 30
0.0
 11
61.683307263317602
 21
801.07499999999993
 31
0.0
  0
LINE
  5
1F8
  8
0
 62
     0
 10
62.802977177427522
 20
802.72499999999957
 30
0.0
 11
67.152977177427772
 21
807.07500000000005
 31
0.0
  0
LINE
  5
1F9
  8
0
 62
     0
 10
68.802977177427579
 20
808.72499999999968
 30
0.0
 11
73.602977177427803
 21
813.52499999999986
 31
0.0
  0
LINE
  5
1FA
  8
0
 62
     0
 10
56.352977177427761
 20
796.27499999999986
 30
0.0
 11
61.152977177427708
 21
801.07499999999982
 31
0.0
  0
LINE
  5
1FB
  8
0
 62
     0
 10
62.272647091537642
 20
802.7249999999998
 30
0.0
 11
66.622647091537829
 21
807.07500000000005
 31
0.0
  0
LINE
  5
1FC
  8
0
 62
     0
 10
68.272647091537692
 20
808.72499999999968
 30
0.0
 11
73.072647091537931
 21
813.52499999999998
 31
0.0
  0
LINE
  5
1FD
  8
0
 62
     0
 10
55.822647091537867
 20
796.27499999999998
 30
0.0
 11
60.622647091537772
 21
801.07499999999993
 31
0.0
  0
LINE
  5
1FE
  8
0
 62
     0
 10
61.742317005647742
 20
802.72499999999957
 30
0.0
 11
66.092317005647942
 21
807.07500000000005
 31
0.0
  0
LINE
  5
1FF
  8
0
 62
     0
 10
67.742317005647749
 20
808.72499999999968
 30
0.0
 11
72.542317005647973
 21
813.52499999999998
 31
0.0
  0
LINE
  5
200
  8
0
 62
     0
 10
55.292317005647988
 20
796.27499999999998
 30
0.0
 11
60.092317005647892
 21
801.07499999999993
 31
0.0
  0
LINE
  5
201
  8
0
 62
     0
 10
61.211986919757749
 20
802.72499999999957
 30
0.0
 11
65.561986919757999
 21
807.07500000000005
 31
0.0
  0
LINE
  5
202
  8
0
 62
     0
 10
67.211986919757805
 20
808.72499999999968
 30
0.0
 11
72.011986919758044
 21
813.52499999999998
 31
0.0
  0
LINE
  5
203
  8
0
 62
     0
 10
54.892784171951689
 20
796.40579725219368
 30
0.0
 11
59.561986919757992
 21
801.07499999999993
 31
0.0
  0
LINE
  5
204
  8
0
 62
     0
 10
60.681656833867798
 20
802.72499999999957
 30
0.0
 11
65.031656833868112
 21
807.07500000000005
 31
0.0
  0
LINE
  5
205
  8
0
 62
     0
 10
66.681656833867919
 20
808.72499999999968
 30
0.0
 11
71.481656833868158
 21
813.52499999999998
 31
0.0
  0
LINE
  5
206
  8
0
 62
     0
 10
56.070244596742043
 20
798.11358776287386
 30
0.0
 11
59.031656833868112
 21
801.07499999999993
 31
0.0
  0
LINE
  5
207
  8
0
 62
     0
 10
60.151326747977798
 20
802.72499999999945
 30
0.0
 11
64.501326747978169
 21
807.07500000000005
 31
0.0
  0
LINE
  5
208
  8
0
 62
     0
 10
66.151326747978032
 20
808.72499999999968
 30
0.0
 11
70.951326747978271
 21
813.52499999999986
 31
0.0
  0
LINE
  5
209
  8
0
 62
     0
 10
56.647474919987872
 20
799.22114817200963
 30
0.0
 11
58.501326747978233
 21
801.07499999999993
 31
0.0
  0
LINE
  5
20A
  8
0
 62
     0
 10
59.620996662087919
 20
802.72499999999957
 30
0.0
 11
63.970996662088282
 21
807.07500000000005
 31
0.0
  0
LINE
  5
20B
  8
0
 62
     0
 10
65.620996662088146
 20
808.72499999999968
 30
0.0
 11
70.420996662088385
 21
813.52499999999998
 31
0.0
  0
LINE
  5
20C
  8
0
 62
     0
 10
57.031168176493729
 20
800.13517151440533
 30
0.0
 11
57.970996662088339
 21
801.07499999999993
 31
0.0
  0
LINE
  5
20D
  8
0
 62
     0
 10
59.090666576197968
 20
802.72499999999945
 30
0.0
 11
63.440666576198332
 21
807.07500000000005
 31
0.0
  0
LINE
  5
20E
  8
0
 62
     0
 10
65.090666576198146
 20
808.72499999999968
 30
0.0
 11
69.890666576198385
 21
813.52499999999998
 31
0.0
  0
LINE
  5
20F
  8
0
 62
     0
 10
57.306346754618119
 20
800.94068017841983
 30
0.0
 11
57.440666576198389
 21
801.07499999999993
 31
0.0
  0
LINE
  5
210
  8
0
 62
     0
 10
64.560336490308259
 20
808.72499999999968
 30
0.0
 11
69.360336490308498
 21
813.52499999999998
 31
0.0
  0
LINE
  5
211
  8
0
 62
     0
 10
58.560336490308089
 20
802.72499999999945
 30
0.0
 11
62.910336490308453
 21
807.07500000000005
 31
0.0
  0
LINE
  5
212
  8
0
 62
     0
 10
64.030006404418373
 20
808.72499999999968
 30
0.0
 11
68.830006404418612
 21
813.52499999999998
 31
0.0
  0
LINE
  5
213
  8
0
 62
     0
 10
58.030006404418152
 20
802.72499999999945
 30
0.0
 11
62.380006404418573
 21
807.07500000000005
 31
0.0
  0
LINE
  5
214
  8
0
 62
     0
 10
63.499676318528479
 20
808.72499999999991
 30
0.0
 11
68.299676318528725
 21
813.52499999999998
 31
0.0
  0
LINE
  5
215
  8
0
 62
     0
 10
57.764123107299838
 20
802.98944678877115
 30
0.0
 11
61.849676318528623
 21
807.07500000000005
 31
0.0
  0
LINE
  5
216
  8
0
 62
     0
 10
62.9693462326386
 20
808.72499999999968
 30
0.0
 11
67.769346232638782
 21
813.52499999999998
 31
0.0
  0
LINE
  5
217
  8
0
 62
     0
 10
57.83650024659682
 20
803.59215401395795
 30
0.0
 11
61.319346232638729
 21
807.07500000000005
 31
0.0
  0
LINE
  5
218
  8
0
 62
     0
 10
62.4390161467486
 20
808.72499999999968
 30
0.0
 11
67.239016146748838
 21
813.52499999999998
 31
0.0
  0
LINE
  5
219
  8
0
 62
     0
 10
57.880032178537647
 20
804.16601603178867
 30
0.0
 11
60.789016146748793
 21
807.07500000000005
 31
0.0
  0
LINE
  5
21A
  8
0
 62
     0
 10
61.908686060858713
 20
808.72499999999968
 30
0.0
 11
66.708686060858952
 21
813.52499999999998
 31
0.0
  0
LINE
  5
21B
  8
0
 62
     0
 10
57.898732990986439
 20
804.71504693012753
 30
0.0
 11
60.258686060858899
 21
807.07500000000005
 31
0.0
  0
LINE
  5
21C
  8
0
 62
     0
 10
61.378355974968827
 20
808.72499999999968
 30
0.0
 11
66.178355974969065
 21
813.52499999999998
 31
0.0
  0
LINE
  5
21D
  8
0
 62
     0
 10
57.895659606837057
 20
805.24230363186803
 30
0.0
 11
59.72835597496902
 21
807.07500000000005
 31
0.0
  0
LINE
  5
21E
  8
0
 62
     0
 10
60.84802588907894
 20
808.72499999999968
 30
0.0
 11
65.648025889079179
 21
813.52499999999998
 31
0.0
  0
LINE
  5
21F
  8
0
 62
     0
 10
57.87320299304838
 20
805.75017710396924
 30
0.0
 11
59.198025889079076
 21
807.07500000000005
 31
0.0
  0
LINE
  5
220
  8
0
 62
     0
 10
60.317695803188997
 20
808.72499999999968
 30
0.0
 11
65.117695803189235
 21
813.52499999999998
 31
0.0
  0
LINE
  5
221
  8
0
 62
     0
 10
57.833273991172348
 20
806.24057818798315
 30
0.0
 11
58.66769580318919
 21
807.07500000000005
 31
0.0
  0
LINE
  5
222
  8
0
 62
     0
 10
59.787365717299053
 20
808.72499999999968
 30
0.0
 11
64.587365717299292
 21
813.52499999999998
 31
0.0
  0
LINE
  5
223
  8
0
 62
     0
 10
57.777426980243938
 20
806.71506126294469
 30
0.0
 11
58.137365717299247
 21
807.07500000000005
 31
0.0
  0
LINE
  5
224
  8
0
 62
     0
 10
59.257035631409167
 20
808.72499999999968
 30
0.0
 11
64.057035631409406
 21
813.52499999999998
 31
0.0
  0
LINE
  5
225
  8
0
 62
     0
 10
58.72670554551928
 20
808.72499999999968
 30
0.0
 11
63.526705545519519
 21
813.52499999999986
 31
0.0
  0
LINE
  5
226
  8
0
 62
     0
 10
58.196375459629387
 20
808.72499999999968
 30
0.0
 11
62.996375459629633
 21
813.52499999999998
 31
0.0
  0
LINE
  5
227
  8
0
 62
     0
 10
57.66604537373945
 20
808.72499999999968
 30
0.0
 11
62.466045373739682
 21
813.52499999999998
 31
0.0
  0
LINE
  5
228
  8
0
 62
     0
 10
57.297797354383022
 20
808.88708206653325
 30
0.0
 11
61.935715287849753
 21
813.52499999999998
 31
0.0
  0
LINE
  5
229
  8
0
 62
     0
 10
57.167330000292971
 20
809.28694479833302
 30
0.0
 11
61.405385201959859
 21
813.52499999999998
 31
0.0
  0
LINE
  5
22A
  8
0
 62
     0
 10
57.026703182227493
 20
809.67664806615755
 30
0.0
 11
60.875055116069973
 21
813.52499999999998
 31
0.0
  0
LINE
  5
22B
  8
0
 62
     0
 10
56.876347436567528
 20
810.05662240638753
 30
0.0
 11
60.34472503018003
 21
813.52499999999998
 31
0.0
  0
LINE
  5
22C
  8
0
 62
     0
 10
56.71663835250353
 20
810.42724340821349
 30
0.0
 11
59.814394944290079
 21
813.52499999999998
 31
0.0
  0
LINE
  5
22D
  8
0
 62
     0
 10
56.547904054642572
 20
810.78883919624241
 30
0.0
 11
59.2840648584002
 21
813.52499999999998
 31
0.0
  0
LINE
  5
22E
  8
0
 62
     0
 10
56.370431271192381
 20
811.14169649868211
 30
0.0
 11
58.753734772510313
 21
813.52499999999998
 31
0.0
  0
LINE
  5
22F
  8
0
 62
     0
 10
56.184470285974271
 20
811.48606559935376
 30
0.0
 11
58.223404686620427
 21
813.52499999999998
 31
0.0
  0
LINE
  5
230
  8
0
 62
     0
 10
55.990238998713487
 20
811.82216439798287
 30
0.0
 11
57.693074600730483
 21
813.52499999999998
 31
0.0
  0
LINE
  5
231
  8
0
 62
     0
 10
55.787926264264399
 20
812.15018174942372
 30
0.0
 11
57.162744514840533
 21
813.52499999999998
 31
0.0
  0
LINE
  5
232
  8
0
 62
     0
 10
55.577694641629819
 20
812.4702802126792
 30
0.0
 11
56.632414428950653
 21
813.52499999999998
 31
0.0
  0
LINE
  5
233
  8
0
 62
     0
 10
55.359682653787452
 20
812.78259831072683
 30
0.0
 11
56.102084343060767
 21
813.52499999999998
 31
0.0
  0
LINE
  5
234
  8
0
 62
     0
 10
55.134006636625372
 20
813.08725237945475
 30
0.0
 11
55.57175425717088
 21
813.52499999999998
 31
0.0
  0
LINE
  5
235
  8
0
 62
     0
 10
54.900762237752872
 20
813.38433806647186
 30
0.0
 11
55.04142417128093
 21
813.52499999999998
 31
0.0
  0
ENDBLK
  5
237
  8
0
  0
ENDSEC
  0
SECTION
  2
ENTITIES
  0
INSERT
  5
2C
  8
0
  2
PRODUKTION
 10
0.0
 20
0.0
 30
0.0
  0
LINE
  5
FD
  8
0
 10
224.7661459089077
 20
-5.2719418174396386
 30
0.0
 11
333.77316093735112
 21
-11.97996145150254
 31
0.0
  0
LINE
  5
FE
  8
0
 10
224.85611809612081
 20
-7.2812617673763924
 30
0.0
 11
333.65031830356861
 21
-13.976185308519961
 31
0.0
  0
LINE
  5
FF
  8
0
 10
333.77316093735112
 20
-11.97996145150254
 30
0.0
 11
333.65031830356861
 21
-13.976185308520069
 31
0.0
  0
ARC
  5
100
  8
0
 10
159.8777169467603
 20
0.0016294288694354
 30
0.0
 40
15.0
 50
77.829512024323378
 51
282.17048797567662
  0
ARC
  5
101
  8
0
 10
159.8777169467603
 20
0.0016294288694354
 30
0.0
 40
17.0
 50
77.829512024323378
 51
282.17048797567662
  0
LINE
  5
102
  8
0
 10
224.85611809612081
 20
-7.2812617673763924
 30
0.0
 11
163.34080158211049
 21
-16.638495586253541
 31
0.0
  0
LINE
  5
103
  8
0
 10
224.7661459089077
 20
-5.2719418174396386
 30
0.0
 11
163.04003673351889
 21
-14.66123978442833
 31
0.0
  0
LINE
  5
104
  8
0
 10
224.7661459089077
 20
5.275200675178624
 30
0.0
 11
333.77316093735112
 21
11.983220309241419
 31
0.0
  0
LINE
  5
105
  8
0
 10
224.85611809612081
 20
7.2845206251152632
 30
0.0
 11
333.65031830356861
 21
13.97944416625894
 31
0.0
  0
LINE
  5
106
  8
0
 10
333.77316093735112
 20
11.983220309241419
 30
0.0
 11
333.65031830356861
 21
13.97944416625894
 31
0.0
  0
LINE
  5
107
  8
0
 10
224.85611809612081
 20
7.2845206251152632
 30
0.0
 11
163.34080158211049
 21
16.641754443992411
 31
0.0
  0
LINE
  5
108
  8
0
 10
224.7661459089077
 20
5.275200675178624
 30
0.0
 11
163.04003673351889
 21
14.664498642167199
 31
0.0
  0
CIRCLE
  5
109
  8
0
 10
159.8777169467603
 20
0.0016294288694354
 30
0.0
 40
15.0
  0
CIRCLE
  5
10A
  8
0
 10
64.877716946760302
 20
0.0016294288694354
 30
0.0
 40
15.0
  0
LINE
  5
10B
  8
0
 10
173.6777169467602
 20
-7.9983705711305708
 30
0.0
 11
172.5662944872098
 21
-7.9983705711305779
 31
0.0
  0
LINE
  5
10C
  8
0
 10
51.077716946760262
 20
8.0016294288694354
 30
0.0
 11
52.189139406310737
 21
8.0016294288694354
 31
0.0
  0
LINE
  5
10D
  8
0
 10
99.877716946760302
 20
-7.9983705711305637
 30
0.0
 11
99.877716946760302
 21
8.0016294288694354
 31
0.0
  0
LINE
  5
10E
  8
0
 10
49.877716946760273
 20
-6.798370571130568
 30
0.0
 11
49.877716946760273
 21
6.8016294288694317
 31
0.0
  0
LINE
  5
10F
  8
0
 62
     8
 10
99.877716946760302
 20
-6.7983705711305609
 30
0.0
 11
80.458474309610096
 21
-6.7983705711305609
 31
0.0
  0
LINE
  5
110
  8
0
 10
49.877716946760273
 20
6.8016294288694459
 30
0.0
 11
51.507601016073657
 21
6.8016294288694459
 31
0.0
  0
LINE
  5
111
  8
0
 10
124.8777169467603
 20
8.0016294288694354
 30
0.0
 11
124.8777169467603
 21
-7.9983705711305637
 31
0.0
  0
LINE
  5
112
  8
0
 10
174.8777169467603
 20
6.8016294288694317
 30
0.0
 11
174.8777169467603
 21
-6.798370571130568
 31
0.0
  0
LINE
  5
113
  8
0
 10
174.8777169467603
 20
-6.7983705711305609
 30
0.0
 11
173.2478328774468
 21
-6.7983705711305538
 31
0.0
  0
LINE
  5
114
  8
0
 62
     8
 10
124.8777169467603
 20
6.8016294288694459
 30
0.0
 11
144.29695958391039
 21
6.8016294288694459
 31
0.0
  0
LINE
  5
115
  8
0
 10
104.3777169467603
 20
6.0016294288694354
 30
0.0
 11
120.3777169467603
 21
6.0016294288694354
 31
0.0
  0
LINE
  5
116
  8
0
 10
104.3777169467603
 20
-5.9983705711305637
 30
0.0
 11
120.3777169467603
 21
-5.9983705711305637
 31
0.0
  0
LINE
  5
117
  8
0
 10
104.3777169467603
 20
-5.9983705711305637
 30
0.0
 11
102.3777169467603
 21
-7.9983705711305637
 31
0.0
  0
LINE
  5
118
  8
0
 10
120.3777169467603
 20
-5.9983705711305637
 30
0.0
 11
122.3777169467602
 21
-7.9983705711305637
 31
0.0
  0
LINE
  5
119
  8
0
 10
120.3777169467603
 20
6.0016294288694061
 30
0.0
 11
122.3777169467603
 21
8.0016294288694354
 31
0.0
  0
LINE
  5
11A
  8
0
 10
104.3777169467603
 20
6.0016294288694354
 30
0.0
 11
102.3777169467603
 21
8.0016294288694354
 31
0.0
  0
LINE
  5
11B
  8
0
 10
102.3777169467603
 20
-7.9983705711305637
 30
0.0
 11
79.877716946760302
 21
-7.9983705711305708
 31
0.0
  0
LINE
  5
11C
  8
0
 10
122.3777169467603
 20
8.0016294288694354
 30
0.0
 11
144.8777169467603
 21
8.0016294288694354
 31
0.0
  0
LINE
  5
11D
  8
0
 10
173.6777169467602
 20
8.0016294288694354
 30
0.0
 11
174.8777169467603
 21
6.8016294288694317
 31
0.0
  0
LINE
  5
11E
  8
0
 10
174.8777169467603
 20
-6.798370571130568
 30
0.0
 11
173.6777169467602
 21
-7.9983705711305708
 31
0.0
  0
LINE
  5
11F
  8
0
 10
51.077716946760262
 20
8.0016294288694354
 30
0.0
 11
49.877716946760273
 21
6.8016294288694317
 31
0.0
  0
LINE
  5
120
  8
0
 10
49.877716946760273
 20
-6.798370571130568
 30
0.0
 11
51.077716946760262
 21
-7.9983705711305708
 31
0.0
  0
LINE
  5
121
  8
0
 10
172.5662944872098
 20
8.0016294288694354
 30
0.0
 11
173.6777169467602
 21
8.0016294288694354
 31
0.0
  0
LINE
  5
122
  8
0
 10
173.2478328774468
 20
6.8016294288694459
 30
0.0
 11
174.8777169467603
 21
6.8016294288694459
 31
0.0
  0
LINE
  5
123
  8
0
 10
144.8777169467603
 20
-7.9983705711305779
 30
0.0
 11
122.3777169467602
 21
-7.9983705711305637
 31
0.0
  0
LINE
  5
124
  8
0
 62
     8
 10
144.29695958391039
 20
-6.7983705711305538
 30
0.0
 11
124.8777169467603
 21
-6.7983705711305609
 31
0.0
  0
LINE
  5
125
  8
0
 10
79.877716946760302
 20
8.0016294288694354
 30
0.0
 11
102.3777169467603
 21
8.0016294288694354
 31
0.0
  0
LINE
  5
126
  8
0
 62
     8
 10
80.458474309610096
 20
6.8016294288694459
 30
0.0
 11
99.877716946760302
 21
6.8016294288694459
 31
0.0
  0
LINE
  5
127
  8
0
 10
51.507601016073657
 20
-6.7983705711305538
 30
0.0
 11
49.877716946760273
 21
-6.7983705711305609
 31
0.0
  0
LINE
  5
128
  8
0
 10
52.189139406310773
 20
-7.9983705711305779
 30
0.0
 11
51.077716946760262
 21
-7.9983705711305708
 31
0.0
  0
LINE
  5
129
  8
0
 10
-0.0107120153869573
 20
5.27520067517868
 30
0.0
 11
-59.11213061839544
 21
8.9121544646802846
 31
0.0
  0
LINE
  5
12A
  8
0
 10
-0.100684202600064
 20
7.2845206251153201
 30
0.0
 11
-58.989287984613043
 21
10.9083783216977
 31
0.0
  0
ARC
  5
12B
  8
0
 10
64.877716946760302
 20
0.0016294288694354
 30
0.0
 40
15.0
 50
257.82951202432338
 51
102.17048797567659
  0
ARC
  5
12C
  8
0
 10
64.877716946760302
 20
0.0016294288694354
 30
0.0
 40
17.0
 50
257.82951202432338
 51
102.17048797567649
  0
LINE
  5
12D
  8
0
 10
-0.100684202600064
 20
7.2845206251153201
 30
0.0
 11
61.414632311410173
 21
16.641754443992468
 31
0.0
  0
LINE
  5
12E
  8
0
 10
-0.0107120153869573
 20
5.27520067517868
 30
0.0
 11
61.715397160001892
 21
14.66449864216726
 31
0.0
  0
LINE
  5
12F
  8
0
 10
-0.0107120153869573
 20
-5.2719418174395818
 30
0.0
 11
-59.11213061839544
 21
-8.9088956069410727
 31
0.0
  0
LINE
  5
130
  8
0
 10
-0.100684202600064
 20
-7.281261767376221
 30
0.0
 11
-58.989287984613043
 21
-10.9051194639586
 31
0.0
  0
LINE
  5
131
  8
0
 10
-0.100684202600064
 20
-7.281261767376221
 30
0.0
 11
61.414632311410173
 21
-16.638495586253601
 31
0.0
  0
LINE
  5
132
  8
0
 10
-0.0107120153869573
 20
-5.2719418174395818
 30
0.0
 11
61.715397160001892
 21
-14.66123978442827
 31
0.0
  0
LINE
  5
133
  8
0
 10
-59.11213061839544
 20
-8.9088956069411864
 30
0.0
 11
-58.989287984613043
 21
-10.905119463958711
 31
0.0
  0
LINE
  5
134
  8
0
 10
-59.11213061839544
 20
8.9121544646803983
 30
0.0
 11
-58.989287984613043
 21
10.908378321697811
 31
0.0
  0
ENDSEC
  0
EOF
