  0
SECTION
  2
HEADER
  9
$ACADVER
  1
AC1009
  9
$INSBASE
 10
0.0
 20
0.0
 30
0.0
  9
$EXTMIN
 10
-59.11213061839544
 20
-16.99837057113055
 30
0.0
  9
$EXTMAX
 10
283.8675645119161
 20
17.00162942886945
 30
0.0
  9
$LIMMIN
 10
0.0
 20
0.0
  9
$LIMMAX
 10
420.0
 20
297.0
  9
$ORTHOMODE
 70
     1
  9
$REGENMODE
 70
     1
  9
$FILLMODE
 70
     1
  9
$QTEXTMODE
 70
     0
  9
$MIRRTEXT
 70
     1
  9
$DRAGMODE
 70
     2
  9
$LTSCALE
 40
1.0
  9
$OSMODE
 70
    47
  9
$ATTMODE
 70
     1
  9
$TEXTSIZE
 40
3.5
  9
$TRACEWID
 40
0.05
  9
$TEXTSTYLE
  7
SST
  9
$CLAYER
  8
0
  9
$CELTYPE
  6
BYLAYER
  9
$CECOLOR
 62
   256
  9
$DIMSCALE
 40
1.0
  9
$DIMASZ
 40
0.18
  9
$DIMEXO
 40
0.0625
  9
$DIMDLI
 40
0.38
  9
$DIMRND
 40
0.0
  9
$DIMDLE
 40
0.0
  9
$DIMEXE
 40
0.18
  9
$DIMTP
 40
0.0
  9
$DIMTM
 40
0.0
  9
$DIMTXT
 40
0.18
  9
$DIMCEN
 40
0.09
  9
$DIMTSZ
 40
0.0
  9
$DIMTOL
 70
     0
  9
$DIMLIM
 70
     0
  9
$DIMTIH
 70
     1
  9
$DIMTOH
 70
     1
  9
$DIMSE1
 70
     0
  9
$DIMSE2
 70
     0
  9
$DIMTAD
 70
     0
  9
$DIMZIN
 70
     0
  9
$DIMBLK
  1

  9
$DIMASO
 70
     1
  9
$DIMSHO
 70
     1
  9
$DIMPOST
  1

  9
$DIMAPOST
  1

  9
$DIMALT
 70
     0
  9
$DIMALTD
 70
     2
  9
$DIMALTF
 40
25.399999999999999
  9
$DIMLFAC
 40
1.0
  9
$DIMTOFL
 70
     0
  9
$DIMTVP
 40
0.0
  9
$DIMTIX
 70
     0
  9
$DIMSOXD
 70
     0
  9
$DIMSAH
 70
     0
  9
$DIMBLK1
  1

  9
$DIMBLK2
  1

  9
$DIMSTYLE
  2
STANDARD
  9
$DIMCLRD
 70
     0
  9
$DIMCLRE
 70
     0
  9
$DIMCLRT
 70
     0
  9
$DIMTFAC
 40
1.0
  9
$DIMGAP
 40
0.09
  9
$LUNITS
 70
     2
  9
$LUPREC
 70
     4
  9
$SKETCHINC
 40
0.1
  9
$FILLETRAD
 40
5.0
  9
$AUNITS
 70
     0
  9
$AUPREC
 70
     2
  9
$MENU
  1
acad
  9
$ELEVATION
 40
0.0
  9
$PELEVATION
 40
0.0
  9
$THICKNESS
 40
0.0
  9
$LIMCHECK
 70
     0
  9
$BLIPMODE
 70
     0
  9
$CHAMFERA
 40
1.1999999999999991
  9
$CHAMFERB
 40
1.1999999999999991
  9
$SKPOLY
 70
     0
  9
$TDCREATE
 40
2449450.4197234958
  9
$TDUPDATE
 40
2453443.5671903938
  9
$TDINDWG
 40
1.5719536920999999
  9
$TDUSRTIMER
 40
1.5719536920999999
  9
$USRTIMER
 70
     1
  9
$ANGBASE
 50
0.0
  9
$ANGDIR
 70
     0
  9
$PDMODE
 70
     0
  9
$PDSIZE
 40
0.0
  9
$PLINEWID
 40
0.0
  9
$COORDS
 70
     1
  9
$SPLFRAME
 70
     0
  9
$SPLINETYPE
 70
     6
  9
$SPLINESEGS
 70
     8
  9
$ATTDIA
 70
     0
  9
$ATTREQ
 70
     1
  9
$HANDLING
 70
     1
  9
$HANDSEED
  5
75
  9
$SURFTAB1
 70
     6
  9
$SURFTAB2
 70
     6
  9
$SURFTYPE
 70
     6
  9
$SURFU
 70
     6
  9
$SURFV
 70
     6
  9
$UCSNAME
  2

  9
$UCSORG
 10
0.0
 20
0.0
 30
0.0
  9
$UCSXDIR
 10
1.0
 20
0.0
 30
0.0
  9
$UCSYDIR
 10
0.0
 20
1.0
 30
0.0
  9
$PUCSNAME
  2

  9
$PUCSORG
 10
0.0
 20
0.0
 30
0.0
  9
$PUCSXDIR
 10
1.0
 20
0.0
 30
0.0
  9
$PUCSYDIR
 10
0.0
 20
1.0
 30
0.0
  9
$USERI1
 70
     0
  9
$USERI2
 70
     0
  9
$USERI3
 70
     0
  9
$USERI4
 70
     0
  9
$USERI5
 70
     0
  9
$USERR1
 40
0.0
  9
$USERR2
 40
0.0
  9
$USERR3
 40
0.0
  9
$USERR4
 40
0.0
  9
$USERR5
 40
0.0
  9
$WORLDVIEW
 70
     1
  9
$SHADEDGE
 70
     3
  9
$SHADEDIF
 70
    70
  9
$TILEMODE
 70
     1
  9
$MAXACTVP
 70
    16
  9
$PLIMCHECK
 70
     0
  9
$PEXTMIN
 10
1.0000000000000000E+020
 20
1.0000000000000000E+020
 30
1.0000000000000000E+020
  9
$PEXTMAX
 10
-1.0000000000000000E+020
 20
-1.0000000000000000E+020
 30
-1.0000000000000000E+020
  9
$PLIMMIN
 10
0.0
 20
0.0
  9
$PLIMMAX
 10
420.0
 20
297.0
  9
$UNITMODE
 70
     0
  9
$VISRETAIN
 70
     0
  9
$PLINEGEN
 70
     0
  9
$PSLTSCALE
 70
     1
  0
ENDSEC
  0
SECTION
  2
TABLES
  0
TABLE
  2
VPORT
 70
     2
  0
VPORT
  2
*ACTIVE
 70
     0
 10
0.0
 20
0.0
 11
1.0
 21
1.0
 12
76.418169648208675
 22
12.5935412470094
 13
0.0
 23
0.0
 14
0.1
 24
0.1
 15
10.0
 25
10.0
 16
0.0
 26
0.0
 36
1.0
 17
0.0
 27
0.0
 37
0.0
 40
259.68393103790191
 41
1.4993646759847521
 42
50.0
 43
0.0
 44
0.0
 50
0.0
 51
0.0
 71
     0
 72
   100
 73
     1
 74
     1
 75
     1
 76
     0
 77
     0
 78
     0
  0
ENDTAB
  0
TABLE
  2
LTYPE
 70
     2
  0
LTYPE
  2
CONTINUOUS
 70
     0
  3
Solid line
 72
    65
 73
     0
 40
0.0
  0
LTYPE
  2
HIDDEN
 70
     0
  3
__ __ __ __ __ __ __ __ __ __ __ __ __ __ __ __
 72
    65
 73
     2
 40
0.375
 49
0.25
 49
-0.125
  0
ENDTAB
  0
TABLE
  2
LAYER
 70
     1
  0
LAYER
  2
0
 70
     0
 62
     7
  6
CONTINUOUS
  0
ENDTAB
  0
TABLE
  2
STYLE
 70
     2
  0
STYLE
  2
STANDARD
 70
     0
 40
0.0
 41
1.0
 50
0.0
 71
     0
 42
3.0
  3
txt
  4

  0
STYLE
  2
SST
 70
     0
 40
0.0
 41
1.0
 50
0.0
 71
     0
 42
3.5
  3
romans.shx
  4

  0
ENDTAB
  0
TABLE
  2
VIEW
 70
     0
  0
ENDTAB
  0
TABLE
  2
UCS
 70
     0
  0
ENDTAB
  0
TABLE
  2
APPID
 70
     1
  0
APPID
  2
ACAD
 70
     0
  0
ENDTAB
  0
TABLE
  2
DIMSTYLE
 70
     1
  0
DIMSTYLE
  2
STANDARD
 70
     0
  3

  4

  5

  6

  7

 40
1.0
 41
0.18
 42
0.0625
 43
0.38
 44
0.18
 45
0.0
 46
0.0
 47
0.0
 48
0.0
140
0.18
141
0.09
142
0.0
143
25.399999999999999
144
1.0
145
0.0
146
1.0
147
0.09
 71
     0
 72
     0
 73
     1
 74
     1
 75
     0
 76
     0
 77
     0
 78
     0
170
     0
171
     2
172
     0
173
     0
174
     0
175
     0
176
     0
177
     0
178
     0
  0
ENDTAB
  0
ENDSEC
  0
SECTION
  2
BLOCKS
  0
BLOCK
  8
0
  2
$MODEL_SPACE
 70
     0
 10
0.0
 20
0.0
 30
0.0
  3
$MODEL_SPACE
  1

  0
ENDBLK
  5
9
  8
0
  0
BLOCK
 67
     1
  8
0
  2
$PAPER_SPACE
 70
     0
 10
0.0
 20
0.0
 30
0.0
  3
$PAPER_SPACE
  1

  0
ENDBLK
  5
E
 67
     1
  8
0
  0
ENDSEC
  0
SECTION
  2
ENTITIES
  0
CIRCLE
  5
29
  8
0
 10
159.8777169467603
 20
0.0016294288694496
 30
0.0
 40
15.0
  0
CIRCLE
  5
2A
  8
0
 10
64.877716946760302
 20
0.0016294288694496
 30
0.0
 40
15.0
  0
LINE
  5
2B
  8
0
 10
173.6777169467602
 20
-7.9983705711305504
 30
0.0
 11
172.5662944872098
 21
-7.9983705711305779
 31
0.0
  0
LINE
  5
2C
  8
0
 10
51.077716946760262
 20
8.0016294288694496
 30
0.0
 11
52.189139406310737
 21
8.0016294288694496
 31
0.0
  0
LINE
  5
2D
  8
0
 10
99.877716946760302
 20
-7.9983705711305504
 30
0.0
 11
99.877716946760302
 21
8.0016294288694496
 31
0.0
  0
LINE
  5
2E
  8
0
 10
49.877716946760273
 20
-6.7983705711305609
 30
0.0
 11
49.877716946760273
 21
6.8016294288694317
 31
0.0
  0
LINE
  5
2F
  8
0
  6
HIDDEN
 62
     8
 10
99.877716946760302
 20
-6.7983705711305333
 30
0.0
 11
80.458474309610096
 21
-6.7983705711305333
 31
0.0
  0
LINE
  5
31
  8
0
 10
49.877716946760273
 20
6.8016294288694601
 30
0.0
 11
51.507601016073657
 21
6.8016294288694601
 31
0.0
  0
LINE
  5
32
  8
0
 10
124.8777169467603
 20
8.0016294288694496
 30
0.0
 11
124.8777169467603
 21
-7.9983705711305504
 31
0.0
  0
LINE
  5
33
  8
0
 10
174.8777169467603
 20
6.8016294288694317
 30
0.0
 11
174.8777169467603
 21
-6.7983705711305609
 31
0.0
  0
LINE
  5
34
  8
0
 10
174.8777169467603
 20
-6.7983705711305333
 30
0.0
 11
173.2478328774468
 21
-6.7983705711305333
 31
0.0
  0
LINE
  5
35
  8
0
  6
HIDDEN
 62
     8
 10
124.8777169467603
 20
6.8016294288694601
 30
0.0
 11
144.29695958391039
 21
6.8016294288694601
 31
0.0
  0
LINE
  5
36
  8
0
 10
104.3777169467603
 20
6.0016294288694487
 30
0.0
 11
120.3777169467603
 21
6.0016294288694487
 31
0.0
  0
LINE
  5
37
  8
0
 10
104.3777169467603
 20
-5.9983705711305504
 30
0.0
 11
120.3777169467603
 21
-5.9983705711305504
 31
0.0
  0
LINE
  5
38
  8
0
 10
104.3777169467603
 20
-5.9983705711305504
 30
0.0
 11
102.3777169467603
 21
-7.9983705711305504
 31
0.0
  0
LINE
  5
39
  8
0
 10
120.3777169467603
 20
-5.9983705711305504
 30
0.0
 11
122.3777169467602
 21
-7.9983705711305504
 31
0.0
  0
LINE
  5
3A
  8
0
 10
120.3777169467603
 20
6.0016294288694212
 30
0.0
 11
122.3777169467603
 21
8.0016294288694496
 31
0.0
  0
LINE
  5
3B
  8
0
 10
104.3777169467603
 20
6.0016294288694487
 30
0.0
 11
102.3777169467603
 21
8.0016294288694496
 31
0.0
  0
LINE
  5
3C
  8
0
 10
102.3777169467603
 20
-7.9983705711305504
 30
0.0
 11
79.877716946760302
 21
-7.9983705711305504
 31
0.0
  0
LINE
  5
3D
  8
0
 10
122.3777169467603
 20
8.0016294288694496
 30
0.0
 11
144.8777169467603
 21
8.0016294288694496
 31
0.0
  0
LINE
  5
3E
  8
0
 10
173.6777169467602
 20
8.0016294288694496
 30
0.0
 11
174.8777169467603
 21
6.8016294288694317
 31
0.0
  0
LINE
  5
3F
  8
0
 10
174.8777169467603
 20
-6.7983705711305609
 30
0.0
 11
173.6777169467602
 21
-7.9983705711305504
 31
0.0
  0
LINE
  5
40
  8
0
 10
51.077716946760262
 20
8.0016294288694496
 30
0.0
 11
49.877716946760273
 21
6.8016294288694317
 31
0.0
  0
LINE
  5
41
  8
0
 10
49.877716946760273
 20
-6.7983705711305609
 30
0.0
 11
51.077716946760262
 21
-7.9983705711305504
 31
0.0
  0
LINE
  5
42
  8
0
 10
172.5662944872098
 20
8.0016294288694496
 30
0.0
 11
173.6777169467602
 21
8.0016294288694496
 31
0.0
  0
LINE
  5
43
  8
0
 10
173.2478328774468
 20
6.8016294288694601
 30
0.0
 11
174.8777169467603
 21
6.8016294288694601
 31
0.0
  0
LINE
  5
44
  8
0
 10
144.8777169467603
 20
-7.9983705711305779
 30
0.0
 11
122.3777169467602
 21
-7.9983705711305504
 31
0.0
  0
LINE
  5
45
  8
0
  6
HIDDEN
 62
     8
 10
144.29695958391039
 20
-6.7983705711305333
 30
0.0
 11
124.8777169467603
 21
-6.7983705711305333
 31
0.0
  0
LINE
  5
46
  8
0
 10
79.877716946760302
 20
8.0016294288694496
 30
0.0
 11
102.3777169467603
 21
8.0016294288694496
 31
0.0
  0
LINE
  5
47
  8
0
  6
HIDDEN
 62
     8
 10
80.458474309610096
 20
6.8016294288694601
 30
0.0
 11
99.877716946760302
 21
6.8016294288694601
 31
0.0
  0
LINE
  5
48
  8
0
 10
51.507601016073657
 20
-6.7983705711305333
 30
0.0
 11
49.877716946760273
 21
-6.7983705711305333
 31
0.0
  0
LINE
  5
49
  8
0
 10
52.189139406310773
 20
-7.9983705711305779
 30
0.0
 11
51.077716946760262
 21
-7.9983705711305504
 31
0.0
  0
LINE
  5
4A
  8
0
 10
-0.0107120153869573
 20
5.2752006751786951
 30
0.0
 11
-59.11213061839544
 21
8.9121544646802988
 31
0.0
  0
LINE
  5
4B
  8
0
 10
-0.100684202600064
 20
7.2845206251153343
 30
0.0
 11
-58.989287984613043
 21
10.908378321697709
 31
0.0
  0
ARC
  5
4C
  8
0
 10
64.877716946760302
 20
0.0016294288694496
 30
0.0
 40
15.0
 50
257.82951202432338
 51
102.17048797567659
  0
ARC
  5
4D
  8
0
 10
64.877716946760302
 20
0.0016294288694496
 30
0.0
 40
17.0
 50
257.82951202432338
 51
102.17048797567649
  0
LINE
  5
4E
  8
0
 10
-0.100684202600064
 20
7.2845206251153343
 30
0.0
 11
61.414632311410173
 21
16.641754443992479
 31
0.0
  0
LINE
  5
4F
  8
0
 10
-0.0107120153869573
 20
5.2752006751786951
 30
0.0
 11
61.715397160001892
 21
14.664498642167271
 31
0.0
  0
LINE
  5
50
  8
0
 10
-0.0107120153869573
 20
-5.2719418174395676
 30
0.0
 11
-59.11213061839544
 21
-8.9088956069410585
 31
0.0
  0
LINE
  5
51
  8
0
 10
-0.100684202600064
 20
-7.2812617673762068
 30
0.0
 11
-58.989287984613043
 21
-10.905119463958579
 31
0.0
  0
LINE
  5
52
  8
0
 10
-0.100684202600064
 20
-7.2812617673762068
 30
0.0
 11
61.414632311410173
 21
-16.63849558625358
 31
0.0
  0
LINE
  5
53
  8
0
 10
-0.0107120153869573
 20
-5.2719418174395676
 30
0.0
 11
61.715397160001892
 21
-14.661239784428259
 31
0.0
  0
LINE
  5
54
  8
0
 10
-59.11213061839544
 20
-8.9088956069411722
 30
0.0
 11
-58.989287984613043
 21
-10.9051194639587
 31
0.0
  0
LINE
  5
55
  8
0
 10
-59.11213061839544
 20
8.9121544646804125
 30
0.0
 11
-58.989287984613043
 21
10.908378321697819
 31
0.0
  0
LINE
  5
56
  8
0
 10
224.8561180961207
 20
-7.2812617673762068
 30
0.0
 11
283.7447218781337
 21
-10.905119463958579
 31
0.0
  0
LINE
  5
57
  8
0
 10
224.7661459089075
 20
-5.2719418174395676
 30
0.0
 11
283.8675645119161
 21
-8.9088956069410585
 31
0.0
  0
LINE
  5
58
  8
0
 10
224.8561180961207
 20
7.2845206251153343
 30
0.0
 11
283.7447218781337
 21
10.908378321697709
 31
0.0
  0
LINE
  5
59
  8
0
 10
224.7661459089075
 20
5.2752006751786951
 30
0.0
 11
283.8675645119161
 21
8.9121544646802988
 31
0.0
  0
LINE
  5
5A
  8
0
 10
283.8675645119161
 20
-8.9088956069411722
 30
0.0
 11
283.7447218781337
 21
-10.9051194639587
 31
0.0
  0
LINE
  5
5B
  8
0
 10
283.8675645119161
 20
8.9121544646804125
 30
0.0
 11
283.7447218781337
 21
10.908378321697819
 31
0.0
  0
LINE
  5
5C
  8
0
 10
224.7661459089075
 20
-5.2719418174395676
 30
0.0
 11
163.04003673351869
 21
-14.661239784428259
 31
0.0
  0
LINE
  5
5D
  8
0
 10
224.8561180961207
 20
-7.2812617673762068
 30
0.0
 11
163.3408015821104
 21
-16.63849558625358
 31
0.0
  0
LINE
  5
5E
  8
0
 10
224.7661459089075
 20
5.2752006751786951
 30
0.0
 11
163.04003673351869
 21
14.664498642167271
 31
0.0
  0
LINE
  5
5F
  8
0
 10
224.8561180961207
 20
7.2845206251153343
 30
0.0
 11
163.3408015821104
 21
16.641754443992479
 31
0.0
  0
ARC
  5
60
  8
0
 10
159.8777169467603
 20
0.0016294288694496
 30
0.0
 40
15.0
 50
77.829512024323392
 51
282.17048797567662
  0
ARC
  5
61
  8
0
 10
159.8777169467603
 20
0.0016294288694496
 30
0.0
 40
17.0
 50
77.829512024323449
 51
282.17048797567662
  0
ENDSEC
  0
EOF
