  0
SECTION
  2
HEADER
  9
$ACADVER
  1
AC1009
  9
$INSBASE
 10
0.0
 20
0.0
 30
0.0
  9
$EXTMIN
 10
-60.035159400971679
 20
-14.0
 30
0.0
  9
$EXTMAX
 10
288.83315870904659
 20
14.0
 30
0.0
  9
$LIMMIN
 10
0.0
 20
0.0
  9
$LIMMAX
 10
420.0
 20
297.0
  9
$ORTHOMODE
 70
     1
  9
$REGENMODE
 70
     1
  9
$FILLMODE
 70
     1
  9
$QTEXTMODE
 70
     0
  9
$MIRRTEXT
 70
     1
  9
$DRAGMODE
 70
     2
  9
$LTSCALE
 40
1.0
  9
$OSMODE
 70
    47
  9
$ATTMODE
 70
     1
  9
$TEXTSIZE
 40
3.5
  9
$TRACEWID
 40
0.05
  9
$TEXTSTYLE
  7
SST
  9
$CLAYER
  8
0
  9
$CELTYPE
  6
BYLAYER
  9
$CECOLOR
 62
   256
  9
$DIMSCALE
 40
1.0
  9
$DIMASZ
 40
0.18
  9
$DIMEXO
 40
0.0625
  9
$DIMDLI
 40
0.38
  9
$DIMRND
 40
0.0
  9
$DIMDLE
 40
0.0
  9
$DIMEXE
 40
0.18
  9
$DIMTP
 40
0.0
  9
$DIMTM
 40
0.0
  9
$DIMTXT
 40
0.18
  9
$DIMCEN
 40
0.09
  9
$DIMTSZ
 40
0.0
  9
$DIMTOL
 70
     0
  9
$DIMLIM
 70
     0
  9
$DIMTIH
 70
     1
  9
$DIMTOH
 70
     1
  9
$DIMSE1
 70
     0
  9
$DIMSE2
 70
     0
  9
$DIMTAD
 70
     0
  9
$DIMZIN
 70
     0
  9
$DIMBLK
  1

  9
$DIMASO
 70
     1
  9
$DIMSHO
 70
     1
  9
$DIMPOST
  1

  9
$DIMAPOST
  1

  9
$DIMALT
 70
     0
  9
$DIMALTD
 70
     2
  9
$DIMALTF
 40
25.399999999999999
  9
$DIMLFAC
 40
1.0
  9
$DIMTOFL
 70
     0
  9
$DIMTVP
 40
0.0
  9
$DIMTIX
 70
     0
  9
$DIMSOXD
 70
     0
  9
$DIMSAH
 70
     0
  9
$DIMBLK1
  1

  9
$DIMBLK2
  1

  9
$DIMSTYLE
  2
STANDARD
  9
$DIMCLRD
 70
     0
  9
$DIMCLRE
 70
     0
  9
$DIMCLRT
 70
     0
  9
$DIMTFAC
 40
1.0
  9
$DIMGAP
 40
0.09
  9
$LUNITS
 70
     2
  9
$LUPREC
 70
     4
  9
$SKETCHINC
 40
0.1
  9
$FILLETRAD
 40
5.0
  9
$AUNITS
 70
     0
  9
$AUPREC
 70
     2
  9
$MENU
  1
acad
  9
$ELEVATION
 40
0.0
  9
$PELEVATION
 40
0.0
  9
$THICKNESS
 40
0.0
  9
$LIMCHECK
 70
     0
  9
$BLIPMODE
 70
     0
  9
$CHAMFERA
 40
1.1999999999999991
  9
$CHAMFERB
 40
1.1999999999999991
  9
$SKPOLY
 70
     0
  9
$TDCREATE
 40
2449450.4197234958
  9
$TDUPDATE
 40
2453443.5671656141
  9
$TDINDWG
 40
1.6363084144
  9
$TDUSRTIMER
 40
1.6363084144
  9
$USRTIMER
 70
     1
  9
$ANGBASE
 50
0.0
  9
$ANGDIR
 70
     0
  9
$PDMODE
 70
     0
  9
$PDSIZE
 40
0.0
  9
$PLINEWID
 40
0.0
  9
$COORDS
 70
     1
  9
$SPLFRAME
 70
     0
  9
$SPLINETYPE
 70
     6
  9
$SPLINESEGS
 70
     8
  9
$ATTDIA
 70
     0
  9
$ATTREQ
 70
     1
  9
$HANDLING
 70
     1
  9
$HANDSEED
  5
75
  9
$SURFTAB1
 70
     6
  9
$SURFTAB2
 70
     6
  9
$SURFTYPE
 70
     6
  9
$SURFU
 70
     6
  9
$SURFV
 70
     6
  9
$UCSNAME
  2

  9
$UCSORG
 10
0.0
 20
0.0
 30
0.0
  9
$UCSXDIR
 10
1.0
 20
0.0
 30
0.0
  9
$UCSYDIR
 10
0.0
 20
1.0
 30
0.0
  9
$PUCSNAME
  2

  9
$PUCSORG
 10
0.0
 20
0.0
 30
0.0
  9
$PUCSXDIR
 10
1.0
 20
0.0
 30
0.0
  9
$PUCSYDIR
 10
0.0
 20
1.0
 30
0.0
  9
$USERI1
 70
     0
  9
$USERI2
 70
     0
  9
$USERI3
 70
     0
  9
$USERI4
 70
     0
  9
$USERI5
 70
     0
  9
$USERR1
 40
0.0
  9
$USERR2
 40
0.0
  9
$USERR3
 40
0.0
  9
$USERR4
 40
0.0
  9
$USERR5
 40
0.0
  9
$WORLDVIEW
 70
     1
  9
$SHADEDGE
 70
     3
  9
$SHADEDIF
 70
    70
  9
$TILEMODE
 70
     1
  9
$MAXACTVP
 70
    16
  9
$PLIMCHECK
 70
     0
  9
$PEXTMIN
 10
1.0000000000000000E+020
 20
1.0000000000000000E+020
 30
1.0000000000000000E+020
  9
$PEXTMAX
 10
-1.0000000000000000E+020
 20
-1.0000000000000000E+020
 30
-1.0000000000000000E+020
  9
$PLIMMIN
 10
0.0
 20
0.0
  9
$PLIMMAX
 10
420.0
 20
297.0
  9
$UNITMODE
 70
     0
  9
$VISRETAIN
 70
     0
  9
$PLINEGEN
 70
     0
  9
$PSLTSCALE
 70
     1
  0
ENDSEC
  0
SECTION
  2
TABLES
  0
TABLE
  2
VPORT
 70
     2
  0
VPORT
  2
*ACTIVE
 70
     0
 10
0.0
 20
0.0
 11
1.0
 21
1.0
 12
73.699313116891517
 22
-34.675222271180331
 13
0.0
 23
0.0
 14
0.1
 24
0.1
 15
10.0
 25
10.0
 16
0.0
 26
0.0
 36
1.0
 17
0.0
 27
0.0
 37
0.0
 40
441.8359925678804
 41
1.4993646759847521
 42
50.0
 43
0.0
 44
0.0
 50
0.0
 51
0.0
 71
     0
 72
   100
 73
     1
 74
     1
 75
     1
 76
     0
 77
     0
 78
     0
  0
ENDTAB
  0
TABLE
  2
LTYPE
 70
     2
  0
LTYPE
  2
CONTINUOUS
 70
     0
  3
Solid line
 72
    65
 73
     0
 40
0.0
  0
LTYPE
  2
HIDDEN
 70
     0
  3
__ __ __ __ __ __ __ __ __ __ __ __ __ __ __ __
 72
    65
 73
     2
 40
0.375
 49
0.25
 49
-0.125
  0
ENDTAB
  0
TABLE
  2
LAYER
 70
     1
  0
LAYER
  2
0
 70
     0
 62
     7
  6
CONTINUOUS
  0
ENDTAB
  0
TABLE
  2
STYLE
 70
     2
  0
STYLE
  2
STANDARD
 70
     0
 40
0.0
 41
1.0
 50
0.0
 71
     0
 42
3.0
  3
txt
  4

  0
STYLE
  2
SST
 70
     0
 40
0.0
 41
1.0
 50
0.0
 71
     0
 42
3.5
  3
romans.shx
  4

  0
ENDTAB
  0
TABLE
  2
VIEW
 70
     0
  0
ENDTAB
  0
TABLE
  2
UCS
 70
     0
  0
ENDTAB
  0
TABLE
  2
APPID
 70
     1
  0
APPID
  2
ACAD
 70
     0
  0
ENDTAB
  0
TABLE
  2
DIMSTYLE
 70
     1
  0
DIMSTYLE
  2
STANDARD
 70
     0
  3

  4

  5

  6

  7

 40
1.0
 41
0.18
 42
0.0625
 43
0.38
 44
0.18
 45
0.0
 46
0.0
 47
0.0
 48
0.0
140
0.18
141
0.09
142
0.0
143
25.399999999999999
144
1.0
145
0.0
146
1.0
147
0.09
 71
     0
 72
     0
 73
     1
 74
     1
 75
     0
 76
     0
 77
     0
 78
     0
170
     0
171
     2
172
     0
173
     0
174
     0
175
     0
176
     0
177
     0
178
     0
  0
ENDTAB
  0
ENDSEC
  0
SECTION
  2
BLOCKS
  0
BLOCK
  8
0
  2
$MODEL_SPACE
 70
     0
 10
0.0
 20
0.0
 30
0.0
  3
$MODEL_SPACE
  1

  0
ENDBLK
  5
9
  8
0
  0
BLOCK
 67
     1
  8
0
  2
$PAPER_SPACE
 70
     0
 10
0.0
 20
0.0
 30
0.0
  3
$PAPER_SPACE
  1

  0
ENDBLK
  5
E
 67
     1
  8
0
  0
ENDSEC
  0
SECTION
  2
ENTITIES
  0
LINE
  5
29
  8
0
 10
-0.0092720925060803
 20
4.6597193599945959
 30
0.0
 11
-60.000000000000227
 21
5.7145013891373528
 31
0.0
  0
LINE
  5
2A
  8
0
 10
-0.0444314934775321
 20
2.6600284297447838
 30
0.0
 11
-60.035159400971679
 21
3.7148104588875408
 31
0.0
  0
LINE
  5
2B
  8
0
 10
-60.000000000000227
 20
5.7145013891373528
 30
0.0
 11
-60.035159400971679
 21
3.7148104588875408
 31
0.0
  0
ARC
  5
2C
  8
0
 10
68.898999654037425
 20
0.0
 30
0.0
 40
14.0
 50
260.83703309173649
 51
99.162966908263442
  0
ARC
  5
2D
  8
0
 10
68.898999654037425
 20
0.0
 30
0.0
 40
12.0
 50
260.82900595664842
 51
99.170994043351513
  0
LINE
  5
2E
  8
0
 10
-0.0444314934775321
 20
-2.6600284297447838
 30
0.0
 11
-60.035159400971679
 21
-3.7148104588875408
 31
0.0
  0
LINE
  5
2F
  8
0
 10
-60.000000000000227
 20
-5.7145013891373528
 30
0.0
 11
-60.035159400971679
 21
-3.7148104588875408
 31
0.0
  0
LINE
  5
30
  8
0
 10
66.986422493583802
 20
11.84660494003708
 30
0.0
 11
-0.0444314934775321
 21
2.6600284297447838
 31
0.0
  0
LINE
  5
31
  8
0
 10
66.986422493583802
 20
-11.84660494003708
 30
0.0
 11
-0.0444314934775321
 21
-2.6600284297447838
 31
0.0
  0
LINE
  5
32
  8
0
 10
66.669595982103999
 20
13.821351571665099
 30
0.0
 11
-0.0092720925060803
 21
4.6597193599945959
 31
0.0
  0
LINE
  5
33
  8
0
 10
-0.0092720925060803
 20
-4.6597193599945959
 30
0.0
 11
-60.000000000000227
 21
-5.7145013891373528
 31
0.0
  0
LINE
  5
34
  8
0
 10
66.669595982103999
 20
-13.821351571665099
 30
0.0
 11
-0.0092720925060803
 21
-4.6597193599945959
 31
0.0
  0
LINE
  5
35
  8
0
 10
171.8989996540374
 20
-4.6999999999999877
 30
0.0
 11
170.94028581100301
 21
-4.7000000000000171
 31
0.0
  0
LINE
  5
36
  8
0
 10
56.898999654037432
 20
4.6999999999999877
 30
0.0
 11
57.857713497071813
 21
4.6999999999999602
 31
0.0
  0
LINE
  5
37
  8
0
 10
170.69899965403741
 20
-6.0
 30
0.0
 11
170.29130449945069
 21
-6.0
 31
0.0
  0
LINE
  5
38
  8
0
 10
58.098999654037407
 20
6.0
 30
0.0
 11
58.506694808624161
 21
6.0
 31
0.0
  0
LINE
  5
39
  8
0
 10
56.898999654037389
 20
-4.8000000000000114
 30
0.0
 11
56.898999654037432
 21
4.7999999999999821
 31
0.0
  0
LINE
  5
3A
  8
0
  6
HIDDEN
 62
     8
 10
104.8989996540374
 20
-6.0
 30
0.0
 11
104.8989996540374
 21
6.0
 31
0.0
  0
LINE
  5
3C
  8
0
  6
HIDDEN
 62
     8
 10
123.8989996540374
 20
6.0
 30
0.0
 11
123.8989996540374
 21
-6.0
 31
0.0
  0
LINE
  5
3D
  8
0
 10
171.8989996540374
 20
4.8000000000000114
 30
0.0
 11
171.89899965403731
 21
-4.7999999999999821
 31
0.0
  0
LINE
  5
3E
  8
0
 10
121.3989996540374
 20
4.5
 30
0.0
 11
107.3989996540374
 21
4.5
 31
0.0
  0
LINE
  5
3F
  8
0
 10
107.3989996540374
 20
4.5
 30
0.0
 11
106.53297425025291
 21
6.0
 31
0.0
  0
LINE
  5
40
  8
0
 10
121.3989996540374
 20
4.5
 30
0.0
 11
122.2650250578218
 21
6.0
 31
0.0
  0
LINE
  5
41
  8
0
 10
122.2650250578218
 20
6.0
 30
0.0
 11
147.24988901336391
 21
6.0
 31
0.0
  0
LINE
  5
42
  8
0
 10
107.3989996540374
 20
-4.5
 30
0.0
 11
106.53297425025291
 21
-6.0
 31
0.0
  0
LINE
  5
43
  8
0
 10
121.3989996540374
 20
-4.5
 30
0.0
 11
122.2650250578218
 21
-6.0
 31
0.0
  0
LINE
  5
44
  8
0
 10
121.3989996540374
 20
-4.5
 30
0.0
 11
107.3989996540374
 21
-4.5
 31
0.0
  0
LINE
  5
45
  8
0
 10
106.53297425025291
 20
-6.0
 30
0.0
 11
81.548110294710966
 21
-6.0
 31
0.0
  0
LINE
  5
46
  8
0
  6
HIDDEN
 62
     8
 10
123.8989996540373
 20
4.6999999999999877
 30
0.0
 11
146.7115055782094
 21
4.6999999999999877
 31
0.0
  0
LINE
  5
47
  8
0
  6
HIDDEN
 62
     8
 10
104.8989996540373
 20
-4.6999999999999877
 30
0.0
 11
82.086493729865467
 21
-4.6999999999999877
 31
0.0
  0
ARC
  5
48
  8
0
 10
68.898999654037425
 20
0.0
 30
0.0
 40
12.0
 50
99.170994043354085
 51
260.82900595665149
  0
ARC
  5
49
  8
0
 10
159.8989996540374
 20
0.0
 30
0.0
 40
12.0
 50
80.829005956648516
 51
279.17099404335158
  0
ARC
  5
4A
  8
0
 10
159.8989996540374
 20
0.0
 30
0.0
 40
14.0
 50
80.837033091736572
 51
279.1629669082634
  0
LINE
  5
4B
  8
0
 10
162.12840332597079
 20
13.821351571665099
 30
0.0
 11
228.8072714005809
 21
4.6597193599945959
 31
0.0
  0
LINE
  5
4C
  8
0
 10
161.81157681449099
 20
11.84660494003708
 30
0.0
 11
228.84243080155241
 21
2.6600284297447838
 31
0.0
  0
ARC
  5
4D
  8
0
 10
159.8989996540374
 20
0.0
 30
0.0
 40
12.0
 50
279.17099404335119
 51
80.829005956646057
  0
LINE
  5
4E
  8
0
 10
162.12840332597079
 20
-13.821351571665099
 30
0.0
 11
228.8072714005809
 21
-4.6597193599945959
 31
0.0
  0
LINE
  5
4F
  8
0
 10
161.81157681449099
 20
-11.84660494003708
 30
0.0
 11
228.84243080155241
 21
-2.6600284297447838
 31
0.0
  0
LINE
  5
50
  8
0
 10
228.8072714005809
 20
-4.6597193599945959
 30
0.0
 11
288.79799930807508
 21
-5.7145013891373528
 31
0.0
  0
LINE
  5
51
  8
0
 10
228.84243080155241
 20
-2.6600284297447838
 30
0.0
 11
288.83315870904659
 21
-3.7148104588875408
 31
0.0
  0
LINE
  5
52
  8
0
 10
228.84243080155241
 20
2.6600284297447838
 30
0.0
 11
288.83315870904659
 21
3.7148104588875408
 31
0.0
  0
LINE
  5
53
  8
0
 10
228.8072714005809
 20
4.6597193599945959
 30
0.0
 11
288.79799930807508
 21
5.7145013891373528
 31
0.0
  0
LINE
  5
54
  8
0
 10
288.79799930807508
 20
5.7145013891373528
 30
0.0
 11
288.83315870904659
 21
3.7148104588875408
 31
0.0
  0
LINE
  5
55
  8
0
 10
288.79799930807508
 20
-5.7145013891373528
 30
0.0
 11
288.83315870904659
 21
-3.7148104588875408
 31
0.0
  0
LINE
  5
56
  8
0
 10
81.548110294710895
 20
6.0
 30
0.0
 11
106.53297425025291
 21
6.0
 31
0.0
  0
LINE
  5
57
  8
0
  6
HIDDEN
 62
     8
 10
82.086493729865467
 20
4.6999999999999602
 30
0.0
 11
104.8989996540373
 21
4.6999999999999877
 31
0.0
  0
LINE
  5
58
  8
0
 10
57.857713497071842
 20
-4.6999999999999877
 30
0.0
 11
56.898999654037432
 21
-4.6999999999999877
 31
0.0
  0
LINE
  5
59
  8
0
 10
58.506694808624161
 20
-6.0
 30
0.0
 11
58.098999654037378
 21
-6.0
 31
0.0
  0
LINE
  5
5A
  8
0
 10
170.29130449945069
 20
6.0
 30
0.0
 11
170.69899965403741
 21
6.0
 31
0.0
  0
LINE
  5
5B
  8
0
 10
170.94028581100301
 20
4.6999999999999877
 30
0.0
 11
171.8989996540374
 21
4.6999999999999877
 31
0.0
  0
LINE
  5
5C
  8
0
  6
HIDDEN
 62
     8
 10
146.7115055782094
 20
-4.7000000000000171
 30
0.0
 11
123.8989996540373
 21
-4.6999999999999877
 31
0.0
  0
LINE
  5
5D
  8
0
 10
147.24988901336391
 20
-6.0
 30
0.0
 11
122.2650250578218
 21
-6.0
 31
0.0
  0
LINE
  5
5E
  8
0
 10
56.898999654037432
 20
4.7999999999999821
 30
0.0
 11
58.098999654037407
 21
6.0
 31
0.0
  0
LINE
  5
5F
  8
0
 10
56.898999654037389
 20
-4.8000000000000114
 30
0.0
 11
58.098999654037378
 21
-6.0
 31
0.0
  0
LINE
  5
60
  8
0
 10
170.69899965403741
 20
6.0
 30
0.0
 11
171.8989996540374
 21
4.8000000000000114
 31
0.0
  0
LINE
  5
61
  8
0
 10
171.89899965403731
 20
-4.7999999999999821
 30
0.0
 11
170.69899965403741
 21
-6.0
 31
0.0
  0
ENDSEC
  0
EOF
