  0
SECTION
  2
HEADER
  9
$ACADVER
  1
AC1009
  9
$INSBASE
 10
0.0
 20
0.0
 30
0.0
  9
$EXTMIN
 10
-50.084609417644437
 20
-200.00000545165781
 30
0.0
  9
$EXTMAX
 10
50.087642334514328
 20
0.4580398915498103
 30
0.0
  9
$LIMMIN
 10
0.0
 20
0.0
  9
$LIMMAX
 10
420.0
 20
297.0
  9
$ORTHOMODE
 70
     1
  9
$REGENMODE
 70
     1
  9
$FILLMODE
 70
     1
  9
$QTEXTMODE
 70
     0
  9
$MIRRTEXT
 70
     1
  9
$DRAGMODE
 70
     2
  9
$LTSCALE
 40
1.0
  9
$OSMODE
 70
    47
  9
$ATTMODE
 70
     1
  9
$TEXTSIZE
 40
3.5
  9
$TRACEWID
 40
0.05
  9
$TEXTSTYLE
  7
SST
  9
$CLAYER
  8
0
  9
$CELTYPE
  6
BYLAYER
  9
$CECOLOR
 62
   256
  9
$DIMSCALE
 40
1.0
  9
$DIMASZ
 40
0.18
  9
$DIMEXO
 40
0.0625
  9
$DIMDLI
 40
0.38
  9
$DIMRND
 40
0.0
  9
$DIMDLE
 40
0.0
  9
$DIMEXE
 40
0.18
  9
$DIMTP
 40
0.0
  9
$DIMTM
 40
0.0
  9
$DIMTXT
 40
0.18
  9
$DIMCEN
 40
0.09
  9
$DIMTSZ
 40
0.0
  9
$DIMTOL
 70
     0
  9
$DIMLIM
 70
     0
  9
$DIMTIH
 70
     1
  9
$DIMTOH
 70
     1
  9
$DIMSE1
 70
     0
  9
$DIMSE2
 70
     0
  9
$DIMTAD
 70
     0
  9
$DIMZIN
 70
     0
  9
$DIMBLK
  1

  9
$DIMASO
 70
     1
  9
$DIMSHO
 70
     1
  9
$DIMPOST
  1

  9
$DIMAPOST
  1

  9
$DIMALT
 70
     0
  9
$DIMALTD
 70
     2
  9
$DIMALTF
 40
25.399999999999999
  9
$DIMLFAC
 40
1.0
  9
$DIMTOFL
 70
     0
  9
$DIMTVP
 40
0.0
  9
$DIMTIX
 70
     0
  9
$DIMSOXD
 70
     0
  9
$DIMSAH
 70
     0
  9
$DIMBLK1
  1

  9
$DIMBLK2
  1

  9
$DIMSTYLE
  2
STANDARD
  9
$DIMCLRD
 70
     0
  9
$DIMCLRE
 70
     0
  9
$DIMCLRT
 70
     0
  9
$DIMTFAC
 40
1.0
  9
$DIMGAP
 40
0.09
  9
$LUNITS
 70
     2
  9
$LUPREC
 70
     4
  9
$SKETCHINC
 40
0.1
  9
$FILLETRAD
 40
6.0
  9
$AUNITS
 70
     0
  9
$AUPREC
 70
     2
  9
$MENU
  1
acad
  9
$ELEVATION
 40
0.0
  9
$PELEVATION
 40
0.0
  9
$THICKNESS
 40
0.0
  9
$LIMCHECK
 70
     0
  9
$BLIPMODE
 70
     0
  9
$CHAMFERA
 40
10.0
  9
$CHAMFERB
 40
10.0
  9
$SKPOLY
 70
     0
  9
$TDCREATE
 40
2449450.4197234958
  9
$TDUPDATE
 40
2453443.5661686109
  9
$TDINDWG
 40
2.1822773147999999
  9
$TDUSRTIMER
 40
2.1822773147999999
  9
$USRTIMER
 70
     1
  9
$ANGBASE
 50
0.0
  9
$ANGDIR
 70
     0
  9
$PDMODE
 70
     0
  9
$PDSIZE
 40
0.0
  9
$PLINEWID
 40
0.0
  9
$COORDS
 70
     1
  9
$SPLFRAME
 70
     0
  9
$SPLINETYPE
 70
     6
  9
$SPLINESEGS
 70
     8
  9
$ATTDIA
 70
     0
  9
$ATTREQ
 70
     1
  9
$HANDLING
 70
     1
  9
$HANDSEED
  5
74
  9
$SURFTAB1
 70
     6
  9
$SURFTAB2
 70
     6
  9
$SURFTYPE
 70
     6
  9
$SURFU
 70
     6
  9
$SURFV
 70
     6
  9
$UCSNAME
  2

  9
$UCSORG
 10
0.0
 20
0.0
 30
0.0
  9
$UCSXDIR
 10
1.0
 20
0.0
 30
0.0
  9
$UCSYDIR
 10
0.0
 20
1.0
 30
0.0
  9
$PUCSNAME
  2

  9
$PUCSORG
 10
0.0
 20
0.0
 30
0.0
  9
$PUCSXDIR
 10
1.0
 20
0.0
 30
0.0
  9
$PUCSYDIR
 10
0.0
 20
1.0
 30
0.0
  9
$USERI1
 70
     0
  9
$USERI2
 70
     0
  9
$USERI3
 70
     0
  9
$USERI4
 70
     0
  9
$USERI5
 70
     0
  9
$USERR1
 40
0.0
  9
$USERR2
 40
0.0
  9
$USERR3
 40
0.0
  9
$USERR4
 40
0.0
  9
$USERR5
 40
0.0
  9
$WORLDVIEW
 70
     1
  9
$SHADEDGE
 70
     3
  9
$SHADEDIF
 70
    70
  9
$TILEMODE
 70
     1
  9
$MAXACTVP
 70
    16
  9
$PLIMCHECK
 70
     0
  9
$PEXTMIN
 10
1.0000000000000000E+020
 20
1.0000000000000000E+020
 30
1.0000000000000000E+020
  9
$PEXTMAX
 10
-1.0000000000000000E+020
 20
-1.0000000000000000E+020
 30
-1.0000000000000000E+020
  9
$PLIMMIN
 10
0.0
 20
0.0
  9
$PLIMMAX
 10
420.0
 20
297.0
  9
$UNITMODE
 70
     0
  9
$VISRETAIN
 70
     0
  9
$PLINEGEN
 70
     0
  9
$PSLTSCALE
 70
     1
  0
ENDSEC
  0
SECTION
  2
TABLES
  0
TABLE
  2
VPORT
 70
     2
  0
VPORT
  2
*ACTIVE
 70
     0
 10
0.0
 20
0.0
 11
1.0
 21
1.0
 12
-4.1286324046054972
 22
-107.6209868264208
 13
0.0
 23
0.0
 14
0.1
 24
0.1
 15
10.0
 25
10.0
 16
0.0
 26
0.0
 36
1.0
 17
0.0
 27
0.0
 37
0.0
 40
291.5190248034263
 41
1.4993646759847521
 42
50.0
 43
0.0
 44
0.0
 50
0.0
 51
0.0
 71
     0
 72
   100
 73
     1
 74
     1
 75
     1
 76
     0
 77
     0
 78
     0
  0
ENDTAB
  0
TABLE
  2
LTYPE
 70
     1
  0
LTYPE
  2
CONTINUOUS
 70
     0
  3
Solid line
 72
    65
 73
     0
 40
0.0
  0
ENDTAB
  0
TABLE
  2
LAYER
 70
     1
  0
LAYER
  2
0
 70
     0
 62
     7
  6
CONTINUOUS
  0
ENDTAB
  0
TABLE
  2
STYLE
 70
     2
  0
STYLE
  2
STANDARD
 70
     0
 40
0.0
 41
1.0
 50
0.0
 71
     0
 42
3.0
  3
txt
  4

  0
STYLE
  2
SST
 70
     0
 40
0.0
 41
1.0
 50
0.0
 71
     0
 42
3.5
  3
romans.shx
  4

  0
ENDTAB
  0
TABLE
  2
VIEW
 70
     0
  0
ENDTAB
  0
TABLE
  2
UCS
 70
     0
  0
ENDTAB
  0
TABLE
  2
APPID
 70
     1
  0
APPID
  2
ACAD
 70
     0
  0
ENDTAB
  0
TABLE
  2
DIMSTYLE
 70
     1
  0
DIMSTYLE
  2
STANDARD
 70
     0
  3

  4

  5

  6

  7

 40
1.0
 41
0.18
 42
0.0625
 43
0.38
 44
0.18
 45
0.0
 46
0.0
 47
0.0
 48
0.0
140
0.18
141
0.09
142
0.0
143
25.399999999999999
144
1.0
145
0.0
146
1.0
147
0.09
 71
     0
 72
     0
 73
     1
 74
     1
 75
     0
 76
     0
 77
     0
 78
     0
170
     0
171
     2
172
     0
173
     0
174
     0
175
     0
176
     0
177
     0
178
     0
  0
ENDTAB
  0
ENDSEC
  0
SECTION
  2
BLOCKS
  0
BLOCK
  8
0
  2
$MODEL_SPACE
 70
     0
 10
0.0
 20
0.0
 30
0.0
  3
$MODEL_SPACE
  1

  0
ENDBLK
  5
9
  8
0
  0
BLOCK
 67
     1
  8
0
  2
$PAPER_SPACE
 70
     0
 10
0.0
 20
0.0
 30
0.0
  3
$PAPER_SPACE
  1

  0
ENDBLK
  5
E
 67
     1
  8
0
  0
BLOCK
  8
0
  2
SIMPSON-STRONG-TIE
 70
     0
 10
0.0
 20
0.0
 30
0.0
  3
SIMPSON-STRONG-TIE
  1

  0
TEXT
  5
5D
  8
0
  6
CONTINUOUS
 10
-4.7318727780691416
 20
4.4215860385237811
 30
0.0
 40
2.0
  1
SIMPSON
 50
316.94148639091338
  7
SST
 72
     1
 11
0.0
 21
0.0
 31
0.0
  0
TEXT
  5
5E
  8
0
  6
CONTINUOUS
 10
-7.9648409725863862
 20
3.4769825481547749
 30
0.0
 40
2.0
  1
Strong-Tie
 50
316.94148639091338
  7
SST
 72
     1
 11
-2.0499999999999541
 21
-2.0499999999999541
 31
0.0
  0
ENDBLK
  5
5F
  8
0
  0
ENDSEC
  0
SECTION
  2
ENTITIES
  0
LINE
  5
29
  8
0
 10
14.001516458434921
 20
0.0
 30
0.0
 11
43.06866624252222
 21
0.0
 31
0.0
  0
LINE
  5
2A
  8
0
 10
14.001516458434921
 20
-2.0
 30
0.0
 11
43.06866624252222
 21
-2.0
 31
0.0
  0
LINE
  5
2B
  8
0
 10
28.092388919038061
 20
-2.0
 30
0.0
 11
10.91891905843503
 21
-200.00000545165781
 31
0.0
  0
CIRCLE
  5
2C
  8
0
 10
-42.222016948108397
 20
-12.649200446345439
 30
0.0
 40
2.5
  0
CIRCLE
  5
2D
  8
0
 10
-33.49839142716317
 20
-32.218586174321501
 30
0.0
 40
2.5
  0
CIRCLE
  5
2E
  8
0
 10
-38.722400825066451
 20
-52.997715747299772
 30
0.0
 40
2.5
  0
CIRCLE
  5
2F
  8
0
 10
-30.020377872781982
 20
-72.318036566010676
 30
0.0
 40
2.5
  0
CIRCLE
  5
30
  8
0
 10
-26.5639668870615
 20
-112.16842204843471
 30
0.0
 40
2.5
  0
CIRCLE
  5
31
  8
0
 10
-23.107555901341058
 20
-152.01880753085871
 30
0.0
 40
2.5
  0
CIRCLE
  5
32
  8
0
 10
-19.82396546490661
 20
-189.87667373916159
 30
0.0
 40
2.5
  0
LINE
  5
33
  8
0
 10
-28.089356002168191
 20
-2.0
 30
0.0
 11
-10.91588614156519
 21
-200.00000545165781
 31
0.0
  0
LINE
  5
34
  8
0
 10
-50.084609417644437
 20
-3.007019311084548
 30
0.0
 11
-33.133974269530981
 21
-198.43787160698031
 31
0.0
  0
LINE
  5
35
  8
0
 10
-13.998483541565079
 20
-2.0
 30
0.0
 11
-43.068666242522241
 21
-2.0
 31
0.0
  0
LINE
  5
36
  8
0
 10
-13.998483541565079
 20
0.0
 30
0.0
 11
-43.068666242522241
 21
0.0
 31
0.0
  0
ARC
  5
37
  8
0
 10
-13.998483541565079
 20
-3.5
 30
0.0
 40
3.5
 50
25.37693352515215
 51
90.000000000000028
  0
ARC
  5
38
  8
0
 10
0.0015164584349208
 20
-7.5
 30
0.0
 40
7.5
 50
204.9870040475264
 51
335.0129959524736
  0
LINE
  5
39
  8
0
 10
-10.82607086138411
 20
-2.021555619366608
 30
0.0
 11
-6.7965107133815224
 21
-10.668095101357491
 31
0.0
  0
LINE
  5
3A
  8
0
 10
10.82910377825395
 20
-2.021555619366608
 30
0.0
 11
6.799543630251363
 21
-10.668095101357491
 31
0.0
  0
ARC
  5
3B
  8
0
 10
14.001516458434921
 20
-3.5
 30
0.0
 40
3.5
 50
89.999999999999957
 51
154.6230664748478
  0
ARC
  5
3C
  8
0
 10
-13.998483541565079
 20
-3.5
 30
0.0
 40
1.5
 50
25.37693352515215
 51
90.000000000000028
  0
LINE
  5
3D
  8
0
 10
-12.638878107201791
 20
-2.8663809797285462
 30
0.0
 11
-8.6093179591992026
 21
-11.51292046171954
 31
0.0
  0
ARC
  5
3E
  8
0
 10
0.0015164584349208
 20
-7.5
 30
0.0
 40
9.5
 50
204.9870040475264
 51
335.0129959524736
  0
LINE
  5
3F
  8
0
 10
12.64191102407163
 20
-2.8663809797285462
 30
0.0
 11
8.6123508760690441
 21
-11.51292046171954
 31
0.0
  0
ARC
  5
40
  8
0
 10
14.001516458434921
 20
-3.5
 30
0.0
 40
1.5
 50
89.999999999999957
 51
154.6230664748478
  0
LINE
  5
41
  8
0
 10
-50.084609417644437
 20
-3.007019311084548
 30
0.0
 11
-28.089356002168191
 21
-2.0
 31
0.0
  0
LINE
  5
42
  8
0
 10
50.087642334514328
 20
-3.007019311084548
 30
0.0
 11
28.092388919038061
 21
-2.0
 31
0.0
  0
LINE
  5
43
  8
0
 10
50.087642334514328
 20
-3.007019311084548
 30
0.0
 11
33.137007186400872
 21
-198.43787160698031
 31
0.0
  0
CIRCLE
  5
44
  8
0
 10
42.225049864978189
 20
-12.649200446345439
 30
0.0
 40
2.5
  0
CIRCLE
  5
45
  8
0
 10
33.523026912693702
 20
-31.969521265056411
 30
0.0
 40
2.5
  0
CIRCLE
  5
46
  8
0
 10
38.768638879257708
 20
-52.49958592876947
 30
0.0
 40
2.5
  0
CIRCLE
  5
47
  8
0
 10
30.06661592697327
 20
-71.819906747480388
 30
0.0
 40
2.5
  0
CIRCLE
  5
48
  8
0
 10
26.610204941252789
 20
-111.6702922299044
 30
0.0
 40
2.5
  0
CIRCLE
  5
49
  8
0
 10
23.153793955532311
 20
-151.52067771232851
 30
0.0
 40
2.5
  0
CIRCLE
  5
4A
  8
0
 10
19.87020351909791
 20
-189.3785439206313
 30
0.0
 40
2.5
  0
LINE
  5
4B
  8
0
 10
-10.91588614156519
 20
-200.00000545165781
 30
0.0
 11
10.91891905843503
 21
-200.00000545165781
 31
0.0
  0
LINE
  5
4C
  8
0
 10
33.137007186400872
 20
-198.43787160698031
 30
0.0
 11
10.91891905843503
 21
-200.00000545165781
 31
0.0
  0
LINE
  5
4D
  8
0
 10
-33.133974269531002
 20
-198.43787160698031
 30
0.0
 11
-10.91588614156519
 21
-200.00000545165781
 31
0.0
  0
LINE
  5
4E
  8
0
 10
-43.068666242522241
 20
0.0
 30
0.0
 11
-43.068666242522241
 21
-2.0
 31
0.0
  0
LINE
  5
4F
  8
0
 10
43.06866624252217
 20
0.0
 30
0.0
 11
43.06866624252217
 21
-2.000000000000056
 31
0.0
  0
LINE
  5
50
  8
0
 10
26.945588388609959
 20
0.0
 30
0.0
 11
26.945588388609959
 21
-2.0
 31
0.0
  0
LINE
  5
51
  8
0
 10
21.49999999999989
 20
0.0
 30
0.0
 11
21.49999999999989
 21
-2.0
 31
0.0
  0
LINE
  5
52
  8
0
 10
-21.499999999999901
 20
-0.0000000000000568
 30
0.0
 11
-21.499999999999901
 21
-2.0
 31
0.0
  0
LINE
  5
53
  8
0
 10
-26.945588388609981
 20
0.0
 30
0.0
 11
-26.945588388609981
 21
-2.0
 31
0.0
  0
POINT
  5
54
  8
0
 10
-38.778709027045252
 20
-52.348515300954368
 30
0.0
  0
POINT
  5
55
  8
0
 10
-38.778709027045252
 20
-52.348515300954368
 30
0.0
  0
POINT
  5
56
  8
0
 10
-45.752526486469421
 20
-52.953387223455422
 30
0.0
  0
POINT
  5
57
  8
0
 10
38.768638879257651
 20
-52.499585928769541
 30
0.0
  0
POINT
  5
58
  8
0
 10
45.742456338681791
 20
-53.104457851270581
 30
0.0
  0
POINT
  5
59
  8
0
 10
38.768638879257708
 20
-52.49958592876947
 30
0.0
  0
INSERT
  5
5A
  8
0
  2
SIMPSON-STRONG-TIE
 10
0.9999999999999857
 20
-48.499999621278242
 30
0.0
  0
ENDSEC
  0
EOF
