  0
SECTION
  2
HEADER
  9
$ACADVER
  1
AC1009
  9
$INSBASE
 10
0.0
 20
0.0
 30
0.0
  9
$EXTMIN
 10
-50.08612587607935
 20
-0.4580398915498094
 30
0.0
  9
$EXTMAX
 10
50.086125876079421
 20
200.0
 30
0.0
  9
$LIMMIN
 10
0.0
 20
0.0
  9
$LIMMAX
 10
420.0
 20
297.0
  9
$ORTHOMODE
 70
     1
  9
$REGENMODE
 70
     1
  9
$FILLMODE
 70
     1
  9
$QTEXTMODE
 70
     0
  9
$MIRRTEXT
 70
     1
  9
$DRAGMODE
 70
     2
  9
$LTSCALE
 40
1.0
  9
$OSMODE
 70
    47
  9
$ATTMODE
 70
     1
  9
$TEXTSIZE
 40
3.5
  9
$TRACEWID
 40
0.05
  9
$TEXTSTYLE
  7
SST
  9
$CLAYER
  8
0
  9
$CELTYPE
  6
BYLAYER
  9
$CECOLOR
 62
   256
  9
$DIMSCALE
 40
1.0
  9
$DIMASZ
 40
0.18
  9
$DIMEXO
 40
0.0625
  9
$DIMDLI
 40
0.38
  9
$DIMRND
 40
0.0
  9
$DIMDLE
 40
0.0
  9
$DIMEXE
 40
0.18
  9
$DIMTP
 40
0.0
  9
$DIMTM
 40
0.0
  9
$DIMTXT
 40
0.18
  9
$DIMCEN
 40
0.09
  9
$DIMTSZ
 40
0.0
  9
$DIMTOL
 70
     0
  9
$DIMLIM
 70
     0
  9
$DIMTIH
 70
     1
  9
$DIMTOH
 70
     1
  9
$DIMSE1
 70
     0
  9
$DIMSE2
 70
     0
  9
$DIMTAD
 70
     0
  9
$DIMZIN
 70
     0
  9
$DIMBLK
  1

  9
$DIMASO
 70
     1
  9
$DIMSHO
 70
     1
  9
$DIMPOST
  1

  9
$DIMAPOST
  1

  9
$DIMALT
 70
     0
  9
$DIMALTD
 70
     2
  9
$DIMALTF
 40
25.399999999999999
  9
$DIMLFAC
 40
1.0
  9
$DIMTOFL
 70
     0
  9
$DIMTVP
 40
0.0
  9
$DIMTIX
 70
     0
  9
$DIMSOXD
 70
     0
  9
$DIMSAH
 70
     0
  9
$DIMBLK1
  1

  9
$DIMBLK2
  1

  9
$DIMSTYLE
  2
STANDARD
  9
$DIMCLRD
 70
     0
  9
$DIMCLRE
 70
     0
  9
$DIMCLRT
 70
     0
  9
$DIMTFAC
 40
1.0
  9
$DIMGAP
 40
0.09
  9
$LUNITS
 70
     2
  9
$LUPREC
 70
     4
  9
$SKETCHINC
 40
0.1
  9
$FILLETRAD
 40
6.0
  9
$AUNITS
 70
     0
  9
$AUPREC
 70
     2
  9
$MENU
  1
acad
  9
$ELEVATION
 40
0.0
  9
$PELEVATION
 40
0.0
  9
$THICKNESS
 40
0.0
  9
$LIMCHECK
 70
     0
  9
$BLIPMODE
 70
     0
  9
$CHAMFERA
 40
10.0
  9
$CHAMFERB
 40
10.0
  9
$SKPOLY
 70
     0
  9
$TDCREATE
 40
2449450.4197234958
  9
$TDUPDATE
 40
2453443.5661570369
  9
$TDINDWG
 40
2.1825677546
  9
$TDUSRTIMER
 40
2.1825677546
  9
$USRTIMER
 70
     1
  9
$ANGBASE
 50
0.0
  9
$ANGDIR
 70
     0
  9
$PDMODE
 70
     0
  9
$PDSIZE
 40
0.0
  9
$PLINEWID
 40
0.0
  9
$COORDS
 70
     1
  9
$SPLFRAME
 70
     0
  9
$SPLINETYPE
 70
     6
  9
$SPLINESEGS
 70
     8
  9
$ATTDIA
 70
     0
  9
$ATTREQ
 70
     1
  9
$HANDLING
 70
     1
  9
$HANDSEED
  5
6E
  9
$SURFTAB1
 70
     6
  9
$SURFTAB2
 70
     6
  9
$SURFTYPE
 70
     6
  9
$SURFU
 70
     6
  9
$SURFV
 70
     6
  9
$UCSNAME
  2

  9
$UCSORG
 10
0.0
 20
0.0
 30
0.0
  9
$UCSXDIR
 10
1.0
 20
0.0
 30
0.0
  9
$UCSYDIR
 10
0.0
 20
1.0
 30
0.0
  9
$PUCSNAME
  2

  9
$PUCSORG
 10
0.0
 20
0.0
 30
0.0
  9
$PUCSXDIR
 10
1.0
 20
0.0
 30
0.0
  9
$PUCSYDIR
 10
0.0
 20
1.0
 30
0.0
  9
$USERI1
 70
     0
  9
$USERI2
 70
     0
  9
$USERI3
 70
     0
  9
$USERI4
 70
     0
  9
$USERI5
 70
     0
  9
$USERR1
 40
0.0
  9
$USERR2
 40
0.0
  9
$USERR3
 40
0.0
  9
$USERR4
 40
0.0
  9
$USERR5
 40
0.0
  9
$WORLDVIEW
 70
     1
  9
$SHADEDGE
 70
     3
  9
$SHADEDIF
 70
    70
  9
$TILEMODE
 70
     1
  9
$MAXACTVP
 70
    16
  9
$PLIMCHECK
 70
     0
  9
$PEXTMIN
 10
1.0000000000000000E+020
 20
1.0000000000000000E+020
 30
1.0000000000000000E+020
  9
$PEXTMAX
 10
-1.0000000000000000E+020
 20
-1.0000000000000000E+020
 30
-1.0000000000000000E+020
  9
$PLIMMIN
 10
0.0
 20
0.0
  9
$PLIMMAX
 10
420.0
 20
297.0
  9
$UNITMODE
 70
     0
  9
$VISRETAIN
 70
     0
  9
$PLINEGEN
 70
     0
  9
$PSLTSCALE
 70
     1
  0
ENDSEC
  0
SECTION
  2
TABLES
  0
TABLE
  2
VPORT
 70
     2
  0
VPORT
  2
*ACTIVE
 70
     0
 10
0.0
 20
0.0
 11
1.0
 21
1.0
 12
14.08200429722484
 22
93.208251188247573
 13
0.0
 23
0.0
 14
0.1
 24
0.1
 15
10.0
 25
10.0
 16
0.0
 26
0.0
 36
1.0
 17
0.0
 27
0.0
 37
0.0
 40
286.90248425659479
 41
1.4993646759847521
 42
50.0
 43
0.0
 44
0.0
 50
0.0
 51
0.0
 71
     0
 72
   100
 73
     1
 74
     1
 75
     1
 76
     0
 77
     0
 78
     0
  0
ENDTAB
  0
TABLE
  2
LTYPE
 70
     1
  0
LTYPE
  2
CONTINUOUS
 70
     0
  3
Solid line
 72
    65
 73
     0
 40
0.0
  0
ENDTAB
  0
TABLE
  2
LAYER
 70
     1
  0
LAYER
  2
0
 70
     0
 62
     7
  6
CONTINUOUS
  0
ENDTAB
  0
TABLE
  2
STYLE
 70
     2
  0
STYLE
  2
STANDARD
 70
     0
 40
0.0
 41
1.0
 50
0.0
 71
     0
 42
3.0
  3
txt
  4

  0
STYLE
  2
SST
 70
     0
 40
0.0
 41
1.0
 50
0.0
 71
     0
 42
3.5
  3
romans.shx
  4

  0
ENDTAB
  0
TABLE
  2
VIEW
 70
     0
  0
ENDTAB
  0
TABLE
  2
UCS
 70
     0
  0
ENDTAB
  0
TABLE
  2
APPID
 70
     1
  0
APPID
  2
ACAD
 70
     0
  0
ENDTAB
  0
TABLE
  2
DIMSTYLE
 70
     1
  0
DIMSTYLE
  2
STANDARD
 70
     0
  3

  4

  5

  6

  7

 40
1.0
 41
0.18
 42
0.0625
 43
0.38
 44
0.18
 45
0.0
 46
0.0
 47
0.0
 48
0.0
140
0.18
141
0.09
142
0.0
143
25.399999999999999
144
1.0
145
0.0
146
1.0
147
0.09
 71
     0
 72
     0
 73
     1
 74
     1
 75
     0
 76
     0
 77
     0
 78
     0
170
     0
171
     2
172
     0
173
     0
174
     0
175
     0
176
     0
177
     0
178
     0
  0
ENDTAB
  0
ENDSEC
  0
SECTION
  2
BLOCKS
  0
BLOCK
  8
0
  2
$MODEL_SPACE
 70
     0
 10
0.0
 20
0.0
 30
0.0
  3
$MODEL_SPACE
  1

  0
ENDBLK
  5
9
  8
0
  0
BLOCK
 67
     1
  8
0
  2
$PAPER_SPACE
 70
     0
 10
0.0
 20
0.0
 30
0.0
  3
$PAPER_SPACE
  1

  0
ENDBLK
  5
E
 67
     1
  8
0
  0
BLOCK
  8
0
  2
SIMPSON-STRONG-TIE
 70
     0
 10
0.0
 20
0.0
 30
0.0
  3
SIMPSON-STRONG-TIE
  1

  0
TEXT
  5
57
  8
0
  6
CONTINUOUS
 10
-4.7318727780691416
 20
4.4215860385237811
 30
0.0
 40
2.0
  1
SIMPSON
 50
316.94148639091338
  7
SST
 72
     1
 11
0.0
 21
0.0
 31
0.0
  0
TEXT
  5
58
  8
0
  6
CONTINUOUS
 10
-7.9648409725863862
 20
3.4769825481547749
 30
0.0
 40
2.0
  1
Strong-Tie
 50
316.94148639091338
  7
SST
 72
     1
 11
-2.0499999999999541
 21
-2.0499999999999541
 31
0.0
  0
ENDBLK
  5
59
  8
0
  0
ENDSEC
  0
SECTION
  2
ENTITIES
  0
LINE
  5
29
  8
0
 10
-21.501516458434811
 20
199.99999999999989
 30
0.0
 11
-26.947104847044891
 21
195.01989448024071
 31
0.0
  0
LINE
  5
2A
  8
0
 10
21.498483541564969
 20
200.0
 30
0.0
 11
26.944071930175049
 21
195.01989448024079
 31
0.0
  0
LINE
  5
2B
  8
0
 10
21.498483541564969
 20
200.0
 30
0.0
 11
-21.501516458434811
 21
199.99999999999989
 31
0.0
  0
LINE
  5
2C
  8
0
 10
11.479635521828991
 20
199.99999999999989
 30
0.0
 11
11.479635521828991
 21
18.314427461375772
 31
0.0
  0
LINE
  5
2D
  8
0
 10
-11.482668438698839
 20
199.99999999999989
 30
0.0
 11
-11.482668438698839
 21
18.314427461375772
 31
0.0
  0
LINE
  5
2E
  8
0
 10
14.000000000000011
 20
0.0
 30
0.0
 11
50.086125876079421
 21
0.0000000000000284
 31
0.0
  0
LINE
  5
2F
  8
0
 10
14.000000000000011
 20
2.0
 30
0.0
 11
50.086125876079421
 21
2.000000000000028
 31
0.0
  0
LINE
  5
30
  8
0
 10
29.15435115166067
 20
2.0
 30
0.0
 11
11.479635521828991
 21
199.54093939223591
 31
0.0
  0
LINE
  5
31
  8
0
 10
-29.157384068530511
 20
2.0
 30
0.0
 11
-11.482668438698839
 21
199.54093939223591
 31
0.0
  0
LINE
  5
32
  8
0
 10
-13.999999999999989
 20
2.0
 30
0.0
 11
-50.08612587607935
 21
2.000000000000028
 31
0.0
  0
LINE
  5
33
  8
0
 10
-13.999999999999989
 20
0.0
 30
0.0
 11
-50.08612587607935
 21
0.0
 31
0.0
  0
LINE
  5
34
  8
0
 10
26.944071930175049
 20
195.01989448024079
 30
0.0
 11
43.067149784087313
 21
9.1869311770396394
 31
0.0
  0
LINE
  5
35
  8
0
 10
-26.947104847044891
 20
195.01989448024079
 30
0.0
 11
-43.070182700957147
 21
9.186931177039753
 31
0.0
  0
LINE
  5
36
  8
0
 10
43.067149784087313
 20
9.1869311770396394
 30
0.0
 11
28.910403486941579
 21
4.7264738998013049
 31
0.0
  0
LINE
  5
37
  8
0
 10
-43.070182700957147
 20
9.186931177039753
 30
0.0
 11
-28.913436403811449
 21
4.7264738998013049
 31
0.0
  0
LINE
  5
38
  8
0
 10
-50.08612587607935
 20
0.0
 30
0.0
 11
-50.08612587607935
 21
1.9999999999999429
 31
0.0
  0
LINE
  5
39
  8
0
 10
50.08612587607935
 20
0.0
 30
0.0
 11
50.086125876079421
 21
2.000000000000056
 31
0.0
  0
LINE
  5
3A
  8
0
 10
-10.82758731981902
 20
2.021555619366608
 30
0.0
 11
-6.798027171816436
 21
10.668095101357491
 31
0.0
  0
LINE
  5
3B
  8
0
 10
-12.640394565636701
 20
2.8663809797285462
 30
0.0
 11
-8.6108344176341163
 21
11.51292046171954
 31
0.0
  0
ARC
  5
3C
  8
0
 10
-13.999999999999989
 20
3.5
 30
0.0
 40
1.5
 50
270.0
 51
334.62306647484792
  0
ARC
  5
3D
  8
0
 10
-13.999999999999989
 20
3.5
 30
0.0
 40
3.5
 50
270.0
 51
334.62306647484792
  0
ARC
  5
3E
  8
0
 10
0.0000000000000071
 20
7.5
 30
0.0
 40
7.5
 50
24.987004047526341
 51
155.0129959524736
  0
ARC
  5
3F
  8
0
 10
0.0000000000000071
 20
7.5
 30
0.0
 40
9.5
 50
24.987004047526341
 51
155.0129959524736
  0
LINE
  5
40
  8
0
 10
12.64039456563672
 20
2.8663809797285462
 30
0.0
 11
8.6108344176341305
 21
11.51292046171954
 31
0.0
  0
LINE
  5
41
  8
0
 10
10.82758731981904
 20
2.021555619366608
 30
0.0
 11
6.7980271718164502
 21
10.668095101357491
 31
0.0
  0
ARC
  5
42
  8
0
 10
14.000000000000011
 20
3.5
 30
0.0
 40
1.5
 50
205.3769335251522
 51
270.00000000000011
  0
ARC
  5
43
  8
0
 10
14.000000000000011
 20
3.5
 30
0.0
 40
3.5
 50
205.3769335251522
 51
270.00000000000011
  0
LINE
  5
44
  8
0
 10
33.135490727965951
 20
0.0
 30
0.0
 11
33.135490727965951
 21
2.0
 31
0.0
  0
LINE
  5
45
  8
0
 10
-33.135490727965902
 20
0.0
 30
0.0
 11
-33.135490727965923
 21
2.000000000000028
 31
0.0
  0
CIRCLE
  5
46
  8
0
 10
-21.563202391428881
 20
176.0898231333835
 30
0.0
 40
2.5
  0
CIRCLE
  5
47
  8
0
 10
-23.63767635056325
 20
152.17964626676721
 30
0.0
 40
2.5
  0
CIRCLE
  5
48
  8
0
 10
-25.712150309697641
 20
128.26946940015091
 30
0.0
 40
2.5
  0
CIRCLE
  5
49
  8
0
 10
-27.786624268832039
 20
104.3592925335346
 30
0.0
 40
2.5
  0
CIRCLE
  5
4A
  8
0
 10
-29.86109822796643
 20
80.44911566691826
 30
0.0
 40
2.5
  0
CIRCLE
  5
4B
  8
0
 10
-31.935572187100831
 20
56.538938800301878
 30
0.0
 40
2.5
  0
CIRCLE
  5
4C
  8
0
 10
-34.01004614623519
 20
32.628761933685666
 30
0.0
 40
2.5
  0
CIRCLE
  5
4D
  8
0
 10
20.5229324949918
 20
188.04491156669189
 30
0.0
 40
2.5
  0
CIRCLE
  5
4E
  8
0
 10
22.597406454126219
 20
164.13473470007551
 30
0.0
 40
2.5
  0
CIRCLE
  5
4F
  8
0
 10
24.671880413260588
 20
140.2245578334593
 30
0.0
 40
2.5
  0
CIRCLE
  5
50
  8
0
 10
26.746354372394961
 20
116.3143809668429
 30
0.0
 40
2.5
  0
CIRCLE
  5
51
  8
0
 10
28.820828331529381
 20
92.40420410022665
 30
0.0
 40
2.5
  0
CIRCLE
  5
52
  8
0
 10
30.89530229066375
 20
68.494027233610325
 30
0.0
 40
2.5
  0
CIRCLE
  5
53
  8
0
 10
32.969776249798109
 20
44.583850366994056
 30
0.0
 40
2.5
  0
INSERT
  5
54
  8
0
  2
SIMPSON-STRONG-TIE
 10
0.9984835415650721
 20
50.900000000000091
 30
0.0
  0
ENDSEC
  0
EOF
