  0
SECTION
  2
HEADER
  9
$ACADVER
  1
AC1009
  9
$INSBASE
 10
0.0
 20
0.0
 30
0.0
  9
$EXTMIN
 10
154.56886603175579
 20
646.04999930907684
 30
0.0
  9
$EXTMAX
 10
335.8311322435282
 20
892.87842643382294
 30
0.0
  9
$LIMMIN
 10
0.0
 20
0.0
  9
$LIMMAX
 10
420.0
 20
297.0
  9
$ORTHOMODE
 70
     0
  9
$REGENMODE
 70
     1
  9
$FILLMODE
 70
     1
  9
$QTEXTMODE
 70
     0
  9
$MIRRTEXT
 70
     1
  9
$DRAGMODE
 70
     2
  9
$LTSCALE
 40
1.0
  9
$OSMODE
 70
    47
  9
$ATTMODE
 70
     1
  9
$TEXTSIZE
 40
3.5
  9
$TRACEWID
 40
0.05
  9
$TEXTSTYLE
  7
SST
  9
$CLAYER
  8
0
  9
$CELTYPE
  6
BYLAYER
  9
$CECOLOR
 62
   256
  9
$DIMSCALE
 40
2.0
  9
$DIMASZ
 40
2.0
  9
$DIMEXO
 40
1.0
  9
$DIMDLI
 40
10.0
  9
$DIMRND
 40
0.0
  9
$DIMDLE
 40
0.0
  9
$DIMEXE
 40
1.0
  9
$DIMTP
 40
0.0
  9
$DIMTM
 40
0.0
  9
$DIMTXT
 40
3.5
  9
$DIMCEN
 40
2.5
  9
$DIMTSZ
 40
0.0
  9
$DIMTOL
 70
     0
  9
$DIMLIM
 70
     0
  9
$DIMTIH
 70
     0
  9
$DIMTOH
 70
     0
  9
$DIMSE1
 70
     0
  9
$DIMSE2
 70
     0
  9
$DIMTAD
 70
     1
  9
$DIMZIN
 70
     8
  9
$DIMBLK
  1

  9
$DIMASO
 70
     1
  9
$DIMSHO
 70
     1
  9
$DIMPOST
  1

  9
$DIMAPOST
  1

  9
$DIMALT
 70
     0
  9
$DIMALTD
 70
     2
  9
$DIMALTF
 40
25.399999999999999
  9
$DIMLFAC
 40
1.0
  9
$DIMTOFL
 70
     1
  9
$DIMTVP
 40
0.0
  9
$DIMTIX
 70
     0
  9
$DIMSOXD
 70
     0
  9
$DIMSAH
 70
     0
  9
$DIMBLK1
  1

  9
$DIMBLK2
  1

  9
$DIMSTYLE
  2
STANDARD
  9
$DIMCLRD
 70
     0
  9
$DIMCLRE
 70
     0
  9
$DIMCLRT
 70
     0
  9
$DIMTFAC
 40
1.0
  9
$DIMGAP
 40
1.0
  9
$LUNITS
 70
     2
  9
$LUPREC
 70
     4
  9
$SKETCHINC
 40
0.1
  9
$FILLETRAD
 40
5.0
  9
$AUNITS
 70
     0
  9
$AUPREC
 70
     2
  9
$MENU
  1
acad
  9
$ELEVATION
 40
0.0
  9
$PELEVATION
 40
0.0
  9
$THICKNESS
 40
0.0
  9
$LIMCHECK
 70
     0
  9
$BLIPMODE
 70
     0
  9
$CHAMFERA
 40
10.0
  9
$CHAMFERB
 40
10.0
  9
$SKPOLY
 70
     0
  9
$TDCREATE
 40
2449450.4197234958
  9
$TDUPDATE
 40
2453443.564872141
  9
$TDINDWG
 40
1.3774151967999999
  9
$TDUSRTIMER
 40
1.3774151967999999
  9
$USRTIMER
 70
     1
  9
$ANGBASE
 50
0.0
  9
$ANGDIR
 70
     0
  9
$PDMODE
 70
     0
  9
$PDSIZE
 40
0.0
  9
$PLINEWID
 40
0.0
  9
$COORDS
 70
     1
  9
$SPLFRAME
 70
     0
  9
$SPLINETYPE
 70
     6
  9
$SPLINESEGS
 70
     8
  9
$ATTDIA
 70
     0
  9
$ATTREQ
 70
     1
  9
$HANDLING
 70
     1
  9
$HANDSEED
  5
91
  9
$SURFTAB1
 70
     6
  9
$SURFTAB2
 70
     6
  9
$SURFTYPE
 70
     6
  9
$SURFU
 70
     6
  9
$SURFV
 70
     6
  9
$UCSNAME
  2

  9
$UCSORG
 10
0.0
 20
0.0
 30
0.0
  9
$UCSXDIR
 10
1.0
 20
0.0
 30
0.0
  9
$UCSYDIR
 10
0.0
 20
1.0
 30
0.0
  9
$PUCSNAME
  2

  9
$PUCSORG
 10
0.0
 20
0.0
 30
0.0
  9
$PUCSXDIR
 10
1.0
 20
0.0
 30
0.0
  9
$PUCSYDIR
 10
0.0
 20
1.0
 30
0.0
  9
$USERI1
 70
     0
  9
$USERI2
 70
     0
  9
$USERI3
 70
     0
  9
$USERI4
 70
     0
  9
$USERI5
 70
     0
  9
$USERR1
 40
0.0
  9
$USERR2
 40
0.0
  9
$USERR3
 40
0.0
  9
$USERR4
 40
0.0
  9
$USERR5
 40
0.0
  9
$WORLDVIEW
 70
     1
  9
$SHADEDGE
 70
     3
  9
$SHADEDIF
 70
    70
  9
$TILEMODE
 70
     1
  9
$MAXACTVP
 70
    16
  9
$PLIMCHECK
 70
     0
  9
$PEXTMIN
 10
1.0000000000000000E+020
 20
1.0000000000000000E+020
 30
1.0000000000000000E+020
  9
$PEXTMAX
 10
-1.0000000000000000E+020
 20
-1.0000000000000000E+020
 30
-1.0000000000000000E+020
  9
$PLIMMIN
 10
0.0
 20
0.0
  9
$PLIMMAX
 10
420.0
 20
297.0
  9
$UNITMODE
 70
     0
  9
$VISRETAIN
 70
     0
  9
$PLINEGEN
 70
     0
  9
$PSLTSCALE
 70
     1
  0
ENDSEC
  0
SECTION
  2
TABLES
  0
TABLE
  2
VPORT
 70
     2
  0
VPORT
  2
*ACTIVE
 70
     0
 10
0.0
 20
0.0
 11
1.0
 21
1.0
 12
245.19416989270169
 22
769.06070304622995
 13
0.0
 23
0.0
 14
0.1
 24
0.1
 15
10.0
 25
10.0
 16
0.0
 26
0.0
 36
1.0
 17
0.0
 27
0.0
 37
0.0
 40
247.9058873310648
 41
1.4993646759847521
 42
50.0
 43
0.0
 44
0.0
 50
0.0
 51
0.0
 71
     0
 72
   100
 73
     1
 74
     1
 75
     1
 76
     0
 77
     0
 78
     0
  0
ENDTAB
  0
TABLE
  2
LTYPE
 70
     2
  0
LTYPE
  2
CONTINUOUS
 70
     0
  3
Solid line
 72
    65
 73
     0
 40
0.0
  0
LTYPE
  2
HIDDEN
 70
     0
  3
Hidden __ __ __ __ __ __ __ __ __ __ __ __ __ _
 72
    65
 73
     2
 40
9.5249999999999986
 49
6.3499999999999988
 49
-3.1749999999999989
  0
ENDTAB
  0
TABLE
  2
LAYER
 70
     2
  0
LAYER
  2
0
 70
     0
 62
     7
  6
CONTINUOUS
  0
LAYER
  2
HIDDEN
 70
     0
 62
     6
  6
HIDDEN
  0
ENDTAB
  0
TABLE
  2
STYLE
 70
     3
  0
STYLE
  2
STANDARD
 70
     0
 40
0.0
 41
1.0
 50
0.0
 71
     0
 42
3.0
  3
txt
  4

  0
STYLE
  2
SST
 70
     0
 40
0.0
 41
1.0
 50
0.0
 71
     0
 42
3.5
  3
romans.shx
  4

  0
STYLE
  2

 70
     1
 40
0.0
 41
1.0
 50
0.0
 71
     0
 42
3.5
  3
ltypeshp.shx
  4

  0
ENDTAB
  0
TABLE
  2
VIEW
 70
     0
  0
ENDTAB
  0
TABLE
  2
UCS
 70
     0
  0
ENDTAB
  0
TABLE
  2
APPID
 70
     2
  0
APPID
  2
ACAD
 70
     0
  0
APPID
  2
ACAD_DSTYLE_DIMTEXT_FILL
 70
     0
  0
ENDTAB
  0
TABLE
  2
DIMSTYLE
 70
     1
  0
DIMSTYLE
  2
STANDARD
 70
     0
  3

  4

  5

  6

  7

 40
2.0
 41
2.0
 42
1.0
 43
10.0
 44
1.0
 45
0.0
 46
0.0
 47
0.0
 48
0.0
140
3.5
141
2.5
142
0.0
143
25.399999999999999
144
1.0
145
0.0
146
1.0
147
1.0
 71
     0
 72
     0
 73
     0
 74
     0
 75
     0
 76
     0
 77
     1
 78
     8
170
     0
171
     2
172
     1
173
     0
174
     0
175
     0
176
     0
177
     0
178
     0
  0
ENDTAB
  0
ENDSEC
  0
SECTION
  2
BLOCKS
  0
BLOCK
  8
0
  2
$MODEL_SPACE
 70
     0
 10
0.0
 20
0.0
 30
0.0
  3
$MODEL_SPACE
  1

  0
ENDBLK
  5
9
  8
0
  0
BLOCK
 67
     1
  8
0
  2
$PAPER_SPACE
 70
     0
 10
0.0
 20
0.0
 30
0.0
  3
$PAPER_SPACE
  1

  0
ENDBLK
  5
E
 67
     1
  8
0
  0
BLOCK
  8
0
  2
SST
 70
     0
 10
0.0
 20
0.0
 30
0.0
  3
SST
  1

  0
TEXT
  5
6D
  8
0
  6
CONTINUOUS
 10
0.0
 20
0.0
 30
0.0
 40
2.0
  1
SIMPSON
 50
316.94148639091338
  7
SST
  0
TEXT
  5
6E
  8
0
  6
CONTINUOUS
 10
-2.0499999999999541
 20
-2.0499999999999541
 30
0.0
 40
2.0
  1
Strong-Tie
 50
316.94148639091338
  7
SST
  0
LINE
  5
6F
  8
HIDDEN
 10
-6.8999999999999977
 20
6.5
 30
0.0
 11
32.800000000000011
 21
1.8
 31
0.0
  0
ENDBLK
  5
71
  8
0
  0
BLOCK
  8
0
  2
SIMPSON-STRONG-TIE
 70
     0
 10
0.0
 20
0.0
 30
0.0
  3
SIMPSON-STRONG-TIE
  1

  0
TEXT
  5
77
  8
0
  6
CONTINUOUS
 10
-4.7318727780691416
 20
4.4215860385237811
 30
0.0
 40
2.0
  1
SIMPSON
 50
316.94148639091338
  7
SST
 72
     1
 11
0.0
 21
0.0
 31
0.0
  0
TEXT
  5
78
  8
0
  6
CONTINUOUS
 10
-7.9648409725863862
 20
3.4769825481547749
 30
0.0
 40
2.0
  1
Strong-Tie
 50
316.94148639091338
  7
SST
 72
     1
 11
-2.0499999999999541
 21
-2.0499999999999541
 31
0.0
  0
ENDBLK
  5
7A
  8
0
  0
ENDSEC
  0
SECTION
  2
ENTITIES
  0
CIRCLE
  5
29
  8
0
 10
205.1999991376421
 20
838.29999930907661
 30
0.0
 40
2.5
  0
CIRCLE
  5
2B
  8
0
 10
205.19999913764201
 20
818.29999930907672
 30
0.0
 40
2.5
  0
CIRCLE
  5
2C
  8
0
 10
205.19999913764201
 20
798.29999930907672
 30
0.0
 40
2.5
  0
CIRCLE
  5
2D
  8
0
 10
205.1999991376419
 20
778.29999930907672
 30
0.0
 40
2.5
  0
ARC
  5
2E
  8
0
 10
160.19999913764201
 20
794.87486916378737
 30
0.0
 40
5.0
 50
180.0
 51
243.18086720903091
  0
LINE
  5
2F
  8
0
 10
155.19999913764201
 20
892.04999930907684
 30
0.0
 11
155.19999913764201
 21
794.87486916378737
 31
0.0
  0
CIRCLE
  5
30
  8
0
 10
165.19999913764201
 20
805.29999930907661
 30
0.0
 40
2.5
  0
CIRCLE
  5
31
  8
0
 10
165.19999913764201
 20
825.29999930907672
 30
0.0
 40
2.5
  0
CIRCLE
  5
32
  8
0
 10
185.19999913764201
 20
811.79999930907684
 30
0.0
 40
2.5
  0
CIRCLE
  5
33
  8
0
 10
185.19999913764201
 20
791.79999930907672
 30
0.0
 40
2.5
  0
LINE
  5
34
  8
0
 10
245.1999991376421
 20
646.04999930907695
 30
0.0
 11
245.1999991376421
 21
728.89931319249388
 31
0.0
  0
CIRCLE
  5
35
  8
0
 10
285.19999913764201
 20
699.79999930907684
 30
0.0
 40
2.5
  0
CIRCLE
  5
36
  8
0
 10
285.19999913764212
 20
739.79999930907672
 30
0.0
 40
2.5
  0
CIRCLE
  5
37
  8
0
 10
285.19999913764212
 20
719.79999930907684
 30
0.0
 40
2.5
  0
CIRCLE
  5
38
  8
0
 10
285.19999913764218
 20
759.79999930907672
 30
0.0
 40
2.5
  0
CIRCLE
  5
39
  8
0
 10
325.19999913764212
 20
712.79999930907684
 30
0.0
 40
2.5
  0
LINE
  5
3A
  8
0
 10
335.19999913764201
 20
646.04999930907684
 30
0.0
 11
335.19999913764212
 21
743.22512945436631
 31
0.0
  0
CIRCLE
  5
3B
  8
0
 10
305.19999913764212
 20
746.29999930907672
 30
0.0
 40
2.5
  0
CIRCLE
  5
3C
  8
0
 10
305.19999913764212
 20
726.29999930907684
 30
0.0
 40
2.5
  0
ARC
  5
3D
  8
0
 10
330.19999913764212
 20
743.22512945436631
 30
0.0
 40
5.0
 50
0.0
 51
63.180867209030879
  0
CIRCLE
  5
3E
  8
0
 10
325.19999913764212
 20
732.79999930907684
 30
0.0
 40
2.5
  0
LINE
  5
3F
  8
0
 10
245.1999991376421
 20
646.04999930907695
 30
0.0
 11
335.19999913764201
 21
646.04999930907684
 31
0.0
  0
LINE
  5
41
  8
0
  6
HIDDEN
 62
     8
 10
245.1999991376421
 20
648.04999930907695
 30
0.0
 11
335.19999913764201
 21
648.04999930907684
 31
0.0
  0
LINE
  5
43
  8
0
 10
246.1999991376421
 20
888.0499993090765
 30
0.0
 11
246.1999991376421
 21
865.04999930907661
 31
0.0
  0
LINE
  5
44
  8
0
 10
246.1999991376421
 20
865.04999930907661
 30
0.0
 11
248.1999991376421
 21
865.04999930907661
 31
0.0
  0
LINE
  5
45
  8
0
 10
248.1999991376421
 20
865.04999930907661
 30
0.0
 11
248.1999991376421
 21
888.04999930907672
 31
0.0
  0
LINE
  5
46
  8
0
 10
155.19999913764201
 20
892.04999930907684
 30
0.0
 11
244.19999913764201
 21
892.04999930907684
 31
0.0
  0
ARC
  5
47
  8
0
 10
244.19999913764201
 20
888.04999930907672
 30
0.0
 40
4.0
 50
360.0
 51
90.0
  0
LINE
  5
48
  8
0
  6
HIDDEN
 62
     8
 10
244.19999913764201
 20
890.04999930907661
 30
0.0
 11
155.19999913764201
 21
890.04999930907661
 31
0.0
  0
ARC
  5
49
  8
0
 10
244.19999913764201
 20
888.0499993090765
 30
0.0
 40
2.0
 50
0.0
 51
90.0
  0
LINE
  5
4A
  8
0
 10
245.19999913764201
 20
809.20068542565946
 30
0.0
 11
245.19999913764201
 21
891.92298265528404
 31
0.0
  0
CIRCLE
  5
4B
  8
0
 10
205.1999991376421
 20
858.29999930907672
 30
0.0
 40
2.5
  0
CIRCLE
  5
4C
  8
0
 10
185.19999913764201
 20
851.79999930907661
 30
0.0
 40
2.5
  0
CIRCLE
  5
4D
  8
0
 10
185.19999913764201
 20
831.79999930907672
 30
0.0
 40
2.5
  0
CIRCLE
  5
4E
  8
0
 10
165.19999913764201
 20
845.29999930907672
 30
0.0
 40
2.5
  0
CIRCLE
  5
4F
  8
0
 10
165.19999913764201
 20
865.29999930907684
 30
0.0
 40
2.5
  0
CIRCLE
  5
50
  8
0
 10
285.19999913764201
 20
679.79999930907684
 30
0.0
 40
2.5
  0
CIRCLE
  5
51
  8
0
 10
305.19999913764212
 20
686.29999930907684
 30
0.0
 40
2.5
  0
CIRCLE
  5
52
  8
0
 10
305.19999913764212
 20
706.29999930907672
 30
0.0
 40
2.5
  0
CIRCLE
  5
53
  8
0
 10
325.19999913764212
 20
692.79999930907684
 30
0.0
 40
2.5
  0
CIRCLE
  5
54
  8
0
 10
325.19999913764212
 20
672.79999930907684
 30
0.0
 40
2.5
  0
LINE
  5
55
  8
0
 10
157.94412125312201
 20
790.41269312847305
 30
0.0
 11
242.9959636549959
 21
733.04450105526917
 31
0.0
  0
LINE
  5
56
  8
0
 10
332.4558770221621
 20
747.68730548968063
 30
0.0
 11
247.40403462028829
 21
805.05549756288428
 31
0.0
  0
ARC
  5
57
  8
0
 10
250.19999913764201
 20
809.20068542565946
 30
0.0
 40
5.0
 50
180.0
 51
236.00000000000011
  0
ARC
  5
75
  8
0
 10
240.19999913764201
 20
728.89931319249388
 30
0.0
 40
5.0
 50
359.99999999999869
 51
55.999999999998792
  0
INSERT
  5
7B
  8
0
  2
SIMPSON-STRONG-TIE
 10
244.90000000000001
 20
770.80000000000007
 30
0.0
  0
ENDSEC
  0
EOF
