  0
SECTION
  2
HEADER
  9
$ACADVER
  1
AC1009
  9
$INSBASE
 10
0.0
 20
0.0
 30
0.0
  9
$EXTMIN
 10
-31.0
 20
0.0
 30
0.0
  9
$EXTMAX
 10
31.0
 20
196.0
 30
0.0
  9
$LIMMIN
 10
0.0
 20
0.0
  9
$LIMMAX
 10
420.0
 20
297.0
  9
$ORTHOMODE
 70
     0
  9
$REGENMODE
 70
     1
  9
$FILLMODE
 70
     1
  9
$QTEXTMODE
 70
     0
  9
$MIRRTEXT
 70
     1
  9
$DRAGMODE
 70
     2
  9
$LTSCALE
 40
1.0
  9
$OSMODE
 70
    47
  9
$ATTMODE
 70
     1
  9
$TEXTSIZE
 40
3.5
  9
$TRACEWID
 40
0.05
  9
$TEXTSTYLE
  7
SST
  9
$CLAYER
  8
0
  9
$CELTYPE
  6
BYLAYER
  9
$CECOLOR
 62
   256
  9
$DIMSCALE
 40
1.0
  9
$DIMASZ
 40
0.18
  9
$DIMEXO
 40
0.0625
  9
$DIMDLI
 40
0.38
  9
$DIMRND
 40
0.0
  9
$DIMDLE
 40
0.0
  9
$DIMEXE
 40
0.18
  9
$DIMTP
 40
0.0
  9
$DIMTM
 40
0.0
  9
$DIMTXT
 40
0.18
  9
$DIMCEN
 40
0.09
  9
$DIMTSZ
 40
0.0
  9
$DIMTOL
 70
     0
  9
$DIMLIM
 70
     0
  9
$DIMTIH
 70
     1
  9
$DIMTOH
 70
     1
  9
$DIMSE1
 70
     0
  9
$DIMSE2
 70
     0
  9
$DIMTAD
 70
     0
  9
$DIMZIN
 70
     0
  9
$DIMBLK
  1

  9
$DIMASO
 70
     1
  9
$DIMSHO
 70
     1
  9
$DIMPOST
  1

  9
$DIMAPOST
  1

  9
$DIMALT
 70
     0
  9
$DIMALTD
 70
     2
  9
$DIMALTF
 40
25.399999999999999
  9
$DIMLFAC
 40
1.0
  9
$DIMTOFL
 70
     0
  9
$DIMTVP
 40
0.0
  9
$DIMTIX
 70
     0
  9
$DIMSOXD
 70
     0
  9
$DIMSAH
 70
     0
  9
$DIMBLK1
  1

  9
$DIMBLK2
  1

  9
$DIMSTYLE
  2
STANDARD
  9
$DIMCLRD
 70
     0
  9
$DIMCLRE
 70
     0
  9
$DIMCLRT
 70
     0
  9
$DIMTFAC
 40
1.0
  9
$DIMGAP
 40
0.09
  9
$LUNITS
 70
     2
  9
$LUPREC
 70
     4
  9
$SKETCHINC
 40
0.1
  9
$FILLETRAD
 40
0.5
  9
$AUNITS
 70
     0
  9
$AUPREC
 70
     2
  9
$MENU
  1
acad
  9
$ELEVATION
 40
0.0
  9
$PELEVATION
 40
0.0
  9
$THICKNESS
 40
0.0
  9
$LIMCHECK
 70
     0
  9
$BLIPMODE
 70
     0
  9
$CHAMFERA
 40
10.0
  9
$CHAMFERB
 40
10.0
  9
$SKPOLY
 70
     0
  9
$TDCREATE
 40
2449450.3780568289
  9
$TDUPDATE
 40
2453443.568902269
  9
$TDINDWG
 40
1.2109518749999999
  9
$TDUSRTIMER
 40
1.2109518749999999
  9
$USRTIMER
 70
     1
  9
$ANGBASE
 50
0.0
  9
$ANGDIR
 70
     0
  9
$PDMODE
 70
     0
  9
$PDSIZE
 40
0.0
  9
$PLINEWID
 40
0.0
  9
$COORDS
 70
     1
  9
$SPLFRAME
 70
     0
  9
$SPLINETYPE
 70
     6
  9
$SPLINESEGS
 70
     8
  9
$ATTDIA
 70
     0
  9
$ATTREQ
 70
     1
  9
$HANDLING
 70
     1
  9
$HANDSEED
  5
74
  9
$SURFTAB1
 70
     6
  9
$SURFTAB2
 70
     6
  9
$SURFTYPE
 70
     6
  9
$SURFU
 70
     6
  9
$SURFV
 70
     6
  9
$UCSNAME
  2

  9
$UCSORG
 10
0.0
 20
0.0
 30
0.0
  9
$UCSXDIR
 10
1.0
 20
0.0
 30
0.0
  9
$UCSYDIR
 10
0.0
 20
1.0
 30
0.0
  9
$PUCSNAME
  2

  9
$PUCSORG
 10
0.0
 20
0.0
 30
0.0
  9
$PUCSXDIR
 10
1.0
 20
0.0
 30
0.0
  9
$PUCSYDIR
 10
0.0
 20
1.0
 30
0.0
  9
$USERI1
 70
     0
  9
$USERI2
 70
     0
  9
$USERI3
 70
     0
  9
$USERI4
 70
     0
  9
$USERI5
 70
     0
  9
$USERR1
 40
0.0
  9
$USERR2
 40
0.0
  9
$USERR3
 40
0.0
  9
$USERR4
 40
0.0
  9
$USERR5
 40
0.0
  9
$WORLDVIEW
 70
     1
  9
$SHADEDGE
 70
     3
  9
$SHADEDIF
 70
    70
  9
$TILEMODE
 70
     1
  9
$MAXACTVP
 70
    16
  9
$PLIMCHECK
 70
     0
  9
$PEXTMIN
 10
1.0000000000000000E+020
 20
1.0000000000000000E+020
 30
1.0000000000000000E+020
  9
$PEXTMAX
 10
-1.0000000000000000E+020
 20
-1.0000000000000000E+020
 30
-1.0000000000000000E+020
  9
$PLIMMIN
 10
0.0
 20
0.0
  9
$PLIMMAX
 10
420.0
 20
297.0
  9
$UNITMODE
 70
     0
  9
$VISRETAIN
 70
     0
  9
$PLINEGEN
 70
     0
  9
$PSLTSCALE
 70
     1
  0
ENDSEC
  0
SECTION
  2
TABLES
  0
TABLE
  2
VPORT
 70
     2
  0
VPORT
  2
*ACTIVE
 70
     0
 10
0.0
 20
0.0
 11
1.0
 21
1.0
 12
-0.0128166494108655
 22
97.998823174110953
 13
0.0
 23
0.0
 14
0.1
 24
0.1
 15
10.0
 25
10.0
 16
0.0
 26
0.0
 36
1.0
 17
0.0
 27
0.0
 37
0.0
 40
246.89939630244709
 41
1.4993646759847521
 42
50.0
 43
0.0
 44
0.0
 50
0.0
 51
0.0
 71
     0
 72
   100
 73
     1
 74
     1
 75
     1
 76
     0
 77
     0
 78
     0
  0
ENDTAB
  0
TABLE
  2
LTYPE
 70
     1
  0
LTYPE
  2
CONTINUOUS
 70
     0
  3
Solid line
 72
    65
 73
     0
 40
0.0
  0
ENDTAB
  0
TABLE
  2
LAYER
 70
     1
  0
LAYER
  2
0
 70
     0
 62
     7
  6
CONTINUOUS
  0
ENDTAB
  0
TABLE
  2
STYLE
 70
     2
  0
STYLE
  2
STANDARD
 70
     0
 40
0.0
 41
1.0
 50
0.0
 71
     0
 42
3.0
  3
txt
  4

  0
STYLE
  2
SST
 70
     0
 40
0.0
 41
1.0
 50
0.0
 71
     0
 42
3.5
  3
romans.shx
  4

  0
ENDTAB
  0
TABLE
  2
VIEW
 70
     0
  0
ENDTAB
  0
TABLE
  2
UCS
 70
     0
  0
ENDTAB
  0
TABLE
  2
APPID
 70
     1
  0
APPID
  2
ACAD
 70
     0
  0
ENDTAB
  0
TABLE
  2
DIMSTYLE
 70
     1
  0
DIMSTYLE
  2
STANDARD
 70
     0
  3

  4

  5

  6

  7

 40
1.0
 41
0.18
 42
0.0625
 43
0.38
 44
0.18
 45
0.0
 46
0.0
 47
0.0
 48
0.0
140
0.18
141
0.09
142
0.0
143
25.399999999999999
144
1.0
145
0.0
146
1.0
147
0.09
 71
     0
 72
     0
 73
     1
 74
     1
 75
     0
 76
     0
 77
     0
 78
     0
170
     0
171
     2
172
     0
173
     0
174
     0
175
     0
176
     0
177
     0
178
     0
  0
ENDTAB
  0
ENDSEC
  0
SECTION
  2
BLOCKS
  0
BLOCK
  8
0
  2
$MODEL_SPACE
 70
     0
 10
0.0
 20
0.0
 30
0.0
  3
$MODEL_SPACE
  1

  0
ENDBLK
  5
9
  8
0
  0
BLOCK
 67
     1
  8
0
  2
$PAPER_SPACE
 70
     0
 10
0.0
 20
0.0
 30
0.0
  3
$PAPER_SPACE
  1

  0
ENDBLK
  5
E
 67
     1
  8
0
  0
BLOCK
  8
0
  2
SIMPSON-STRONG-TIE
 70
     0
 10
0.0
 20
0.0
 30
0.0
  3
SIMPSON-STRONG-TIE
  1

  0
TEXT
  5
5D
  8
0
  6
CONTINUOUS
 10
-4.7318727780691416
 20
4.4215860385237811
 30
0.0
 40
2.0
  1
SIMPSON
 50
316.94148639091338
  7
SST
 72
     1
 11
0.0
 21
0.0
 31
0.0
  0
TEXT
  5
5E
  8
0
  6
CONTINUOUS
 10
-7.9648409725863862
 20
3.4769825481547749
 30
0.0
 40
2.0
  1
Strong-Tie
 50
316.94148639091338
  7
SST
 72
     1
 11
-2.0499999999999541
 21
-2.0499999999999541
 31
0.0
  0
ENDBLK
  5
5F
  8
0
  0
ENDSEC
  0
SECTION
  2
ENTITIES
  0
CIRCLE
  5
29
  8
0
 10
-22.999999999999979
 20
173.0
 30
0.0
 40
2.5
  0
CIRCLE
  5
2A
  8
0
 10
-12.99999999999998
 20
163.0
 30
0.0
 40
2.5
  0
CIRCLE
  5
2B
  8
0
 10
-12.99999999999998
 20
183.0
 30
0.0
 40
2.5
  0
CIRCLE
  5
2C
  8
0
 10
-22.999999999999979
 20
93.000000000000014
 30
0.0
 40
2.5
  0
LINE
  5
2D
  8
0
 10
-31.0
 20
196.0
 30
0.0
 11
-31.0
 21
0.0
 31
0.0
  0
LINE
  5
2E
  8
0
 10
-31.0
 20
0.0
 30
0.0
 11
31.0
 21
0.0
 31
0.0
  0
LINE
  5
2F
  8
0
 10
31.0
 20
0.0
 30
0.0
 11
31.0
 21
196.0
 31
0.0
  0
LINE
  5
30
  8
0
 10
31.0
 20
196.0
 30
0.0
 11
-31.0
 21
196.0
 31
0.0
  0
LINE
  5
31
  8
0
 10
-2.9999999999999849
 20
196.0
 30
0.0
 11
-2.9999999999999849
 21
0.0
 31
0.0
  0
LINE
  5
32
  8
0
 10
3.0000000000000142
 20
0.0
 30
0.0
 11
3.0000000000000142
 21
196.0
 31
0.0
  0
CIRCLE
  5
33
  8
0
 10
-12.99999999999998
 20
23.0
 30
0.0
 40
2.5
  0
CIRCLE
  5
34
  8
0
 10
-12.99999999999998
 20
43.000000000000028
 30
0.0
 40
2.5
  0
CIRCLE
  5
35
  8
0
 10
-22.999999999999979
 20
53.000000000000028
 30
0.0
 40
2.5
  0
CIRCLE
  5
36
  8
0
 10
-22.999999999999979
 20
73.000000000000028
 30
0.0
 40
2.5
  0
CIRCLE
  5
37
  8
0
 10
-12.99999999999998
 20
83.000000000000014
 30
0.0
 40
2.5
  0
CIRCLE
  5
38
  8
0
 10
-12.99999999999998
 20
63.000000000000028
 30
0.0
 40
2.5
  0
CIRCLE
  5
39
  8
0
 10
-12.99999999999998
 20
103.0
 30
0.0
 40
2.5
  0
CIRCLE
  5
3A
  8
0
 10
-22.999999999999979
 20
113.0
 30
0.0
 40
2.5
  0
CIRCLE
  5
3B
  8
0
 10
-12.99999999999998
 20
123.0
 30
0.0
 40
2.5
  0
CIRCLE
  5
3C
  8
0
 10
-22.999999999999979
 20
153.0
 30
0.0
 40
2.5
  0
CIRCLE
  5
3D
  8
0
 10
-22.999999999999979
 20
133.0
 30
0.0
 40
2.5
  0
CIRCLE
  5
3E
  8
0
 10
-12.99999999999998
 20
143.0
 30
0.0
 40
2.5
  0
CIRCLE
  5
3F
  8
0
 10
-22.999999999999979
 20
33.000000000000028
 30
0.0
 40
2.5
  0
CIRCLE
  5
40
  8
0
 10
-22.999999999999979
 20
13.0
 30
0.0
 40
2.5
  0
CIRCLE
  5
41
  8
0
 10
13.000000000000011
 20
13.0
 30
0.0
 40
2.5
  0
CIRCLE
  5
42
  8
0
 10
13.000000000000011
 20
13.0
 30
0.0
 40
2.5
  0
CIRCLE
  5
43
  8
0
 10
23.0
 20
23.0
 30
0.0
 40
2.5
  0
CIRCLE
  5
44
  8
0
 10
13.000000000000011
 20
133.0
 30
0.0
 40
2.5
  0
CIRCLE
  5
45
  8
0
 10
23.0
 20
83.000000000000014
 30
0.0
 40
2.5
  0
CIRCLE
  5
46
  8
0
 10
13.000000000000011
 20
53.000000000000028
 30
0.0
 40
2.5
  0
CIRCLE
  5
47
  8
0
 10
13.000000000000011
 20
33.000000000000028
 30
0.0
 40
2.5
  0
CIRCLE
  5
48
  8
0
 10
23.0
 20
43.000000000000028
 30
0.0
 40
2.5
  0
CIRCLE
  5
49
  8
0
 10
23.0
 20
63.000000000000028
 30
0.0
 40
2.5
  0
CIRCLE
  5
4A
  8
0
 10
13.000000000000011
 20
73.000000000000028
 30
0.0
 40
2.5
  0
CIRCLE
  5
4B
  8
0
 10
13.000000000000011
 20
93.000000000000014
 30
0.0
 40
2.5
  0
CIRCLE
  5
4C
  8
0
 10
23.0
 20
103.0
 30
0.0
 40
2.5
  0
CIRCLE
  5
4D
  8
0
 10
13.000000000000011
 20
113.0
 30
0.0
 40
2.5
  0
CIRCLE
  5
4E
  8
0
 10
23.0
 20
123.0
 30
0.0
 40
2.5
  0
CIRCLE
  5
4F
  8
0
 10
23.0
 20
163.0
 30
0.0
 40
2.5
  0
CIRCLE
  5
50
  8
0
 10
23.0
 20
143.0
 30
0.0
 40
2.5
  0
CIRCLE
  5
51
  8
0
 10
13.000000000000011
 20
153.0
 30
0.0
 40
2.5
  0
CIRCLE
  5
52
  8
0
 10
13.000000000000011
 20
173.0
 30
0.0
 40
2.5
  0
CIRCLE
  5
53
  8
0
 10
23.0
 20
183.0
 30
0.0
 40
2.5
  0
POINT
  5
54
  8
0
 10
31.0
 20
196.0
 30
0.0
  0
POINT
  5
55
  8
0
 10
-31.0
 20
196.0
 30
0.0
  0
POINT
  5
56
  8
0
 10
3.0000000000000142
 20
196.0
 30
0.0
  0
POINT
  5
57
  8
0
 10
-2.9999999999999849
 20
196.0
 30
0.0
  0
POINT
  5
58
  8
0
 10
-31.0
 20
196.0
 30
0.0
  0
POINT
  5
59
  8
0
 10
31.0
 20
196.0
 30
0.0
  0
INSERT
  5
5A
  8
0
  2
SIMPSON-STRONG-TIE
 10
12.600000000000019
 20
187.0
 30
0.0
  0
ENDSEC
  0
EOF
