  0
SECTION
  2
HEADER
  9
$ACADVER
  1
AC1009
  9
$INSBASE
 10
0.0
 20
0.0
 30
0.0
  9
$EXTMIN
 10
-32.071067811865447
 20
-122.0710678118654
 30
0.0
  9
$EXTMAX
 10
32.071067811865447
 20
0.0
 30
0.0
  9
$LIMMIN
 10
0.0
 20
0.0
  9
$LIMMAX
 10
420.0
 20
297.0
  9
$ORTHOMODE
 70
     1
  9
$REGENMODE
 70
     1
  9
$FILLMODE
 70
     1
  9
$QTEXTMODE
 70
     0
  9
$MIRRTEXT
 70
     1
  9
$DRAGMODE
 70
     2
  9
$LTSCALE
 40
1.0
  9
$OSMODE
 70
    47
  9
$ATTMODE
 70
     1
  9
$TEXTSIZE
 40
3.5
  9
$TRACEWID
 40
0.05
  9
$TEXTSTYLE
  7
SST
  9
$CLAYER
  8
0
  9
$CELTYPE
  6
BYLAYER
  9
$CECOLOR
 62
   256
  9
$DIMSCALE
 40
2.0
  9
$DIMASZ
 40
2.0
  9
$DIMEXO
 40
1.0
  9
$DIMDLI
 40
10.0
  9
$DIMRND
 40
0.0
  9
$DIMDLE
 40
0.0
  9
$DIMEXE
 40
1.0
  9
$DIMTP
 40
0.0
  9
$DIMTM
 40
0.0
  9
$DIMTXT
 40
3.5
  9
$DIMCEN
 40
2.5
  9
$DIMTSZ
 40
0.0
  9
$DIMTOL
 70
     0
  9
$DIMLIM
 70
     0
  9
$DIMTIH
 70
     0
  9
$DIMTOH
 70
     0
  9
$DIMSE1
 70
     0
  9
$DIMSE2
 70
     0
  9
$DIMTAD
 70
     1
  9
$DIMZIN
 70
     8
  9
$DIMBLK
  1

  9
$DIMASO
 70
     1
  9
$DIMSHO
 70
     1
  9
$DIMPOST
  1

  9
$DIMAPOST
  1

  9
$DIMALT
 70
     0
  9
$DIMALTD
 70
     2
  9
$DIMALTF
 40
25.399999999999999
  9
$DIMLFAC
 40
1.0
  9
$DIMTOFL
 70
     1
  9
$DIMTVP
 40
0.0
  9
$DIMTIX
 70
     0
  9
$DIMSOXD
 70
     0
  9
$DIMSAH
 70
     0
  9
$DIMBLK1
  1

  9
$DIMBLK2
  1

  9
$DIMSTYLE
  2
STANDARD
  9
$DIMCLRD
 70
     0
  9
$DIMCLRE
 70
     0
  9
$DIMCLRT
 70
     0
  9
$DIMTFAC
 40
1.0
  9
$DIMGAP
 40
1.0
  9
$LUNITS
 70
     2
  9
$LUPREC
 70
     4
  9
$SKETCHINC
 40
0.1
  9
$FILLETRAD
 40
10.0
  9
$AUNITS
 70
     0
  9
$AUPREC
 70
     2
  9
$MENU
  1
acad
  9
$ELEVATION
 40
0.0
  9
$PELEVATION
 40
0.0
  9
$THICKNESS
 40
0.0
  9
$LIMCHECK
 70
     0
  9
$BLIPMODE
 70
     0
  9
$CHAMFERA
 40
10.0
  9
$CHAMFERB
 40
10.0
  9
$SKPOLY
 70
     0
  9
$TDCREATE
 40
2449450.3780568289
  9
$TDUPDATE
 40
2453443.5695699421
  9
$TDINDWG
 40
1.4584523032000001
  9
$TDUSRTIMER
 40
1.4584523032000001
  9
$USRTIMER
 70
     1
  9
$ANGBASE
 50
0.0
  9
$ANGDIR
 70
     0
  9
$PDMODE
 70
     0
  9
$PDSIZE
 40
0.0
  9
$PLINEWID
 40
0.0
  9
$COORDS
 70
     1
  9
$SPLFRAME
 70
     0
  9
$SPLINETYPE
 70
     6
  9
$SPLINESEGS
 70
     8
  9
$ATTDIA
 70
     0
  9
$ATTREQ
 70
     1
  9
$HANDLING
 70
     1
  9
$HANDSEED
  5
FBC
  9
$SURFTAB1
 70
     6
  9
$SURFTAB2
 70
     6
  9
$SURFTYPE
 70
     6
  9
$SURFU
 70
     6
  9
$SURFV
 70
     6
  9
$UCSNAME
  2

  9
$UCSORG
 10
0.0
 20
0.0
 30
0.0
  9
$UCSXDIR
 10
1.0
 20
0.0
 30
0.0
  9
$UCSYDIR
 10
0.0
 20
1.0
 30
0.0
  9
$PUCSNAME
  2

  9
$PUCSORG
 10
0.0
 20
0.0
 30
0.0
  9
$PUCSXDIR
 10
1.0
 20
0.0
 30
0.0
  9
$PUCSYDIR
 10
0.0
 20
1.0
 30
0.0
  9
$USERI1
 70
     0
  9
$USERI2
 70
     0
  9
$USERI3
 70
     0
  9
$USERI4
 70
     0
  9
$USERI5
 70
     0
  9
$USERR1
 40
0.0
  9
$USERR2
 40
0.0
  9
$USERR3
 40
0.0
  9
$USERR4
 40
0.0
  9
$USERR5
 40
0.0
  9
$WORLDVIEW
 70
     1
  9
$SHADEDGE
 70
     3
  9
$SHADEDIF
 70
    70
  9
$TILEMODE
 70
     1
  9
$MAXACTVP
 70
    16
  9
$PLIMCHECK
 70
     0
  9
$PEXTMIN
 10
1.0000000000000000E+020
 20
1.0000000000000000E+020
 30
1.0000000000000000E+020
  9
$PEXTMAX
 10
-1.0000000000000000E+020
 20
-1.0000000000000000E+020
 30
-1.0000000000000000E+020
  9
$PLIMMIN
 10
0.0
 20
0.0
  9
$PLIMMAX
 10
420.0
 20
297.0
  9
$UNITMODE
 70
     0
  9
$VISRETAIN
 70
     0
  9
$PLINEGEN
 70
     0
  9
$PSLTSCALE
 70
     1
  0
ENDSEC
  0
SECTION
  2
TABLES
  0
TABLE
  2
VPORT
 70
     2
  0
VPORT
  2
*ACTIVE
 70
     0
 10
0.0
 20
0.0
 11
1.0
 21
1.0
 12
158.41003509751769
 22
142.34034289939669
 13
0.0
 23
0.0
 14
0.1
 24
0.1
 15
10.0
 25
10.0
 16
0.0
 26
0.0
 36
1.0
 17
0.0
 27
0.0
 37
0.0
 40
660.92984024061036
 41
1.4993646759847521
 42
50.0
 43
0.0
 44
0.0
 50
0.0
 51
0.0
 71
     0
 72
   100
 73
     1
 74
     1
 75
     1
 76
     0
 77
     0
 78
     0
  0
ENDTAB
  0
TABLE
  2
LTYPE
 70
     2
  0
LTYPE
  2
CONTINUOUS
 70
     0
  3
Solid line
 72
    65
 73
     0
 40
0.0
  0
LTYPE
  2
HIDDEN
 70
     0
  3
__ __ __ __ __ __ __ __ __ __ __ __ __ __ __ __
 72
    65
 73
     2
 40
0.375
 49
0.25
 49
-0.125
  0
ENDTAB
  0
TABLE
  2
LAYER
 70
     1
  0
LAYER
  2
0
 70
     0
 62
     7
  6
CONTINUOUS
  0
ENDTAB
  0
TABLE
  2
STYLE
 70
     2
  0
STYLE
  2
STANDARD
 70
     0
 40
0.0
 41
1.0
 50
0.0
 71
     0
 42
3.0
  3
txt
  4

  0
STYLE
  2
SST
 70
     0
 40
0.0
 41
1.0
 50
0.0
 71
     0
 42
3.5
  3
romans.shx
  4

  0
ENDTAB
  0
TABLE
  2
VIEW
 70
     0
  0
ENDTAB
  0
TABLE
  2
UCS
 70
     0
  0
ENDTAB
  0
TABLE
  2
APPID
 70
     1
  0
APPID
  2
ACAD
 70
     0
  0
ENDTAB
  0
TABLE
  2
DIMSTYLE
 70
     2
  0
DIMSTYLE
  2
NORDIC
 70
     0
  3

  4

  5

  6

  7

 40
2.0
 41
2.0
 42
1.0
 43
10.0
 44
1.0
 45
0.0
 46
0.0
 47
0.0
 48
0.0
140
3.5
141
2.5
142
0.0
143
25.399999999999999
144
1.0
145
0.0
146
1.0
147
1.0
 71
     0
 72
     0
 73
     0
 74
     0
 75
     0
 76
     0
 77
     1
 78
     8
170
     0
171
     2
172
     1
173
     0
174
     0
175
     0
176
     0
177
     0
178
     0
  0
DIMSTYLE
  2
STANDARD
 70
     0
  3

  4

  5

  6

  7

 40
2.0
 41
2.0
 42
1.0
 43
10.0
 44
1.0
 45
0.0
 46
0.0
 47
0.0
 48
0.0
140
3.5
141
2.5
142
0.0
143
25.399999999999999
144
1.0
145
0.0
146
1.0
147
1.0
 71
     0
 72
     0
 73
     0
 74
     0
 75
     0
 76
     0
 77
     1
 78
     8
170
     0
171
     2
172
     1
173
     0
174
     0
175
     0
176
     0
177
     0
178
     0
  0
ENDTAB
  0
ENDSEC
  0
SECTION
  2
BLOCKS
  0
BLOCK
  8
0
  2
$MODEL_SPACE
 70
     0
 10
0.0
 20
0.0
 30
0.0
  3
$MODEL_SPACE
  1

  0
ENDBLK
  5
9
  8
0
  0
BLOCK
 67
     1
  8
0
  2
$PAPER_SPACE
 70
     0
 10
0.0
 20
0.0
 30
0.0
  3
$PAPER_SPACE
  1

  0
ENDBLK
  5
E
 67
     1
  8
0
  0
BLOCK
  8
0
  2
SIMPSON-STRONG-TIE
 70
     0
 10
0.0
 20
0.0
 30
0.0
  3
SIMPSON-STRONG-TIE
  1

  0
TEXT
  5
69
  8
0
  6
CONTINUOUS
 10
-4.7318727780691416
 20
4.4215860385237811
 30
0.0
 40
2.0
  1
SIMPSON
 50
316.94148639091338
  7
SST
 72
     1
 11
0.0
 21
0.0
 31
0.0
  0
TEXT
  5
6A
  8
0
  6
CONTINUOUS
 10
-7.9648409725863862
 20
3.4769825481547749
 30
0.0
 40
2.0
  1
Strong-Tie
 50
316.94148639091338
  7
SST
 72
     1
 11
-2.0499999999999541
 21
-2.0499999999999541
 31
0.0
  0
ENDBLK
  5
6B
  8
0
  0
ENDSEC
  0
SECTION
  2
ENTITIES
  0
LINE
  5
2A
  8
0
 10
29.999999999999972
 20
0.0
 30
0.0
 11
-29.999999999999972
 21
0.0
 31
0.0
  0
LINE
  5
2B
  8
0
 10
-19.999999999999972
 20
-120.0
 30
0.0
 11
19.999999999999972
 21
-120.0
 31
0.0
  0
LINE
  5
2C
  8
0
 10
29.999999999999972
 20
-110.0
 30
0.0
 11
29.999999999999972
 21
0.0
 31
0.0
  0
POLYLINE
  5
2D
  8
0
 10
0.0000000000000284
 20
-59.928932188134461
 30
0.0
 66
     1
 70
     8
  0
VERTEX
  8
0
  5
80
 10
2.84000e-014
 20
-59.9289
 30
0.000000
  70
    32
  0
VERTEX
  8
0
  5
81
 10
-0.245338
 20
-59.9374
 30
0.000000
  70
    32
  0
VERTEX
  8
0
  5
82
 10
-0.490086
 20
-59.9630
 30
0.000000
  70
    32
  0
VERTEX
  8
0
  5
83
 10
-0.733652
 20
-60.0055
 30
0.000000
  70
    32
  0
VERTEX
  8
0
  5
84
 10
-0.975452
 20
-60.0648
 30
0.000000
  70
    32
  0
VERTEX
  8
0
  5
85
 10
-1.21490
 20
-60.1408
 30
0.000000
  70
    32
  0
VERTEX
  8
0
  5
86
 10
-1.45142
 20
-60.2334
 30
0.000000
  70
    32
  0
VERTEX
  8
0
  5
87
 10
-1.68445
 20
-60.3423
 30
0.000000
  70
    32
  0
VERTEX
  8
0
  5
88
 10
-1.91342
 20
-60.4672
 30
0.000000
  70
    32
  0
VERTEX
  8
0
  5
89
 10
-2.13778
 20
-60.6078
 30
0.000000
  70
    32
  0
VERTEX
  8
0
  5
8A
 10
-2.35698
 20
-60.7639
 30
0.000000
  70
    32
  0
VERTEX
  8
0
  5
8B
 10
-2.57051
 20
-60.9349
 30
0.000000
  70
    32
  0
VERTEX
  8
0
  5
8C
 10
-2.77785
 20
-61.1206
 30
0.000000
  70
    32
  0
VERTEX
  8
0
  5
8D
 10
-2.97850
 20
-61.3205
 30
0.000000
  70
    32
  0
VERTEX
  8
0
  5
8E
 10
-3.17197
 20
-61.5340
 30
0.000000
  70
    32
  0
VERTEX
  8
0
  5
8F
 10
-3.35779
 20
-61.7607
 30
0.000000
  70
    32
  0
VERTEX
  8
0
  5
90
 10
-3.53553
 20
-62.0000
 30
0.000000
  70
    32
  0
VERTEX
  8
0
  5
91
 10
-3.70476
 20
-62.2514
 30
0.000000
  70
    32
  0
VERTEX
  8
0
  5
92
 10
-3.86505
 20
-62.5142
 30
0.000000
  70
    32
  0
VERTEX
  8
0
  5
93
 10
-4.01604
 20
-62.7878
 30
0.000000
  70
    32
  0
VERTEX
  8
0
  5
94
 10
-4.15735
 20
-63.0715
 30
0.000000
  70
    32
  0
VERTEX
  8
0
  5
95
 10
-4.28864
 20
-63.3647
 30
0.000000
  70
    32
  0
VERTEX
  8
0
  5
96
 10
-4.40961
 20
-63.6667
 30
0.000000
  70
    32
  0
VERTEX
  8
0
  5
97
 10
-4.51995
 20
-63.9767
 30
0.000000
  70
    32
  0
VERTEX
  8
0
  5
98
 10
-4.61940
 20
-64.2940
 30
0.000000
  70
    32
  0
VERTEX
  8
0
  5
99
 10
-4.70772
 20
-64.6178
 30
0.000000
  70
    32
  0
VERTEX
  8
0
  5
9A
 10
-4.78470
 20
-64.9474
 30
0.000000
  70
    32
  0
VERTEX
  8
0
  5
9B
 10
-4.85016
 20
-65.2819
 30
0.000000
  70
    32
  0
VERTEX
  8
0
  5
9C
 10
-4.90393
 20
-65.6205
 30
0.000000
  70
    32
  0
VERTEX
  8
0
  5
9D
 10
-4.94588
 20
-65.9625
 30
0.000000
  70
    32
  0
VERTEX
  8
0
  5
9E
 10
-4.97592
 20
-66.3069
 30
0.000000
  70
    32
  0
VERTEX
  8
0
  5
9F
 10
-4.99398
 20
-66.6530
 30
0.000000
  70
    32
  0
VERTEX
  8
0
  5
A0
 10
-5.00000
 20
-67.0000
 30
0.000000
  70
    32
  0
VERTEX
  8
0
  5
A1
 10
-4.99398
 20
-67.3470
 30
0.000000
  70
    32
  0
VERTEX
  8
0
  5
A2
 10
-4.97592
 20
-67.6931
 30
0.000000
  70
    32
  0
VERTEX
  8
0
  5
A3
 10
-4.94588
 20
-68.0375
 30
0.000000
  70
    32
  0
VERTEX
  8
0
  5
A4
 10
-4.90393
 20
-68.3795
 30
0.000000
  70
    32
  0
VERTEX
  8
0
  5
A5
 10
-4.85016
 20
-68.7181
 30
0.000000
  70
    32
  0
VERTEX
  8
0
  5
A6
 10
-4.78470
 20
-69.0526
 30
0.000000
  70
    32
  0
VERTEX
  8
0
  5
A7
 10
-4.70772
 20
-69.3822
 30
0.000000
  70
    32
  0
VERTEX
  8
0
  5
A8
 10
-4.61940
 20
-69.7060
 30
0.000000
  70
    32
  0
VERTEX
  8
0
  5
A9
 10
-4.51995
 20
-70.0233
 30
0.000000
  70
    32
  0
VERTEX
  8
0
  5
AA
 10
-4.40961
 20
-70.3333
 30
0.000000
  70
    32
  0
VERTEX
  8
0
  5
AB
 10
-4.28864
 20
-70.6353
 30
0.000000
  70
    32
  0
VERTEX
  8
0
  5
AC
 10
-4.15735
 20
-70.9285
 30
0.000000
  70
    32
  0
VERTEX
  8
0
  5
AD
 10
-4.01604
 20
-71.2122
 30
0.000000
  70
    32
  0
VERTEX
  8
0
  5
AE
 10
-3.86505
 20
-71.4858
 30
0.000000
  70
    32
  0
VERTEX
  8
0
  5
AF
 10
-3.70476
 20
-71.7486
 30
0.000000
  70
    32
  0
VERTEX
  8
0
  5
B0
 10
-3.53553
 20
-72.0000
 30
0.000000
  70
    32
  0
VERTEX
  8
0
  5
B1
 10
-3.35779
 20
-72.2393
 30
0.000000
  70
    32
  0
VERTEX
  8
0
  5
B2
 10
-3.17197
 20
-72.4660
 30
0.000000
  70
    32
  0
VERTEX
  8
0
  5
B3
 10
-2.97850
 20
-72.6795
 30
0.000000
  70
    32
  0
VERTEX
  8
0
  5
B4
 10
-2.77785
 20
-72.8794
 30
0.000000
  70
    32
  0
VERTEX
  8
0
  5
B5
 10
-2.57051
 20
-73.0651
 30
0.000000
  70
    32
  0
VERTEX
  8
0
  5
B6
 10
-2.35698
 20
-73.2361
 30
0.000000
  70
    32
  0
VERTEX
  8
0
  5
B7
 10
-2.13778
 20
-73.3922
 30
0.000000
  70
    32
  0
VERTEX
  8
0
  5
B8
 10
-1.91342
 20
-73.5328
 30
0.000000
  70
    32
  0
VERTEX
  8
0
  5
B9
 10
-1.68445
 20
-73.6577
 30
0.000000
  70
    32
  0
VERTEX
  8
0
  5
BA
 10
-1.45142
 20
-73.7666
 30
0.000000
  70
    32
  0
VERTEX
  8
0
  5
BB
 10
-1.21490
 20
-73.8592
 30
0.000000
  70
    32
  0
VERTEX
  8
0
  5
BC
 10
-0.975452
 20
-73.9352
 30
0.000000
  70
    32
  0
VERTEX
  8
0
  5
BD
 10
-0.733652
 20
-73.9945
 30
0.000000
  70
    32
  0
VERTEX
  8
0
  5
BE
 10
-0.490086
 20
-74.0370
 30
0.000000
  70
    32
  0
VERTEX
  8
0
  5
BF
 10
-0.245338
 20
-74.0626
 30
0.000000
  70
    32
  0
VERTEX
  8
0
  5
C0
 10
2.77877e-014
 20
-74.0711
 30
0.000000
  70
    32
  0
VERTEX
  8
0
  5
C1
 10
0.245338
 20
-74.0626
 30
0.000000
  70
    32
  0
VERTEX
  8
0
  5
C2
 10
0.490086
 20
-74.0370
 30
0.000000
  70
    32
  0
VERTEX
  8
0
  5
C3
 10
0.733652
 20
-73.9945
 30
0.000000
  70
    32
  0
VERTEX
  8
0
  5
C4
 10
0.975452
 20
-73.9352
 30
0.000000
  70
    32
  0
VERTEX
  8
0
  5
C5
 10
1.21490
 20
-73.8592
 30
0.000000
  70
    32
  0
VERTEX
  8
0
  5
C6
 10
1.45142
 20
-73.7666
 30
0.000000
  70
    32
  0
VERTEX
  8
0
  5
C7
 10
1.68445
 20
-73.6577
 30
0.000000
  70
    32
  0
VERTEX
  8
0
  5
C8
 10
1.91342
 20
-73.5328
 30
0.000000
  70
    32
  0
VERTEX
  8
0
  5
C9
 10
2.13778
 20
-73.3922
 30
0.000000
  70
    32
  0
VERTEX
  8
0
  5
CA
 10
2.35698
 20
-73.2361
 30
0.000000
  70
    32
  0
VERTEX
  8
0
  5
CB
 10
2.57051
 20
-73.0651
 30
0.000000
  70
    32
  0
VERTEX
  8
0
  5
CC
 10
2.77785
 20
-72.8794
 30
0.000000
  70
    32
  0
VERTEX
  8
0
  5
CD
 10
2.97850
 20
-72.6795
 30
0.000000
  70
    32
  0
VERTEX
  8
0
  5
CE
 10
3.17197
 20
-72.4660
 30
0.000000
  70
    32
  0
VERTEX
  8
0
  5
CF
 10
3.35779
 20
-72.2393
 30
0.000000
  70
    32
  0
VERTEX
  8
0
  5
D0
 10
3.53553
 20
-72.0000
 30
0.000000
  70
    32
  0
VERTEX
  8
0
  5
D1
 10
3.70476
 20
-71.7486
 30
0.000000
  70
    32
  0
VERTEX
  8
0
  5
D2
 10
3.86505
 20
-71.4858
 30
0.000000
  70
    32
  0
VERTEX
  8
0
  5
D3
 10
4.01604
 20
-71.2122
 30
0.000000
  70
    32
  0
VERTEX
  8
0
  5
D4
 10
4.15735
 20
-70.9285
 30
0.000000
  70
    32
  0
VERTEX
  8
0
  5
D5
 10
4.28864
 20
-70.6353
 30
0.000000
  70
    32
  0
VERTEX
  8
0
  5
D6
 10
4.40961
 20
-70.3333
 30
0.000000
  70
    32
  0
VERTEX
  8
0
  5
D7
 10
4.51995
 20
-70.0233
 30
0.000000
  70
    32
  0
VERTEX
  8
0
  5
D8
 10
4.61940
 20
-69.7060
 30
0.000000
  70
    32
  0
VERTEX
  8
0
  5
D9
 10
4.70772
 20
-69.3822
 30
0.000000
  70
    32
  0
VERTEX
  8
0
  5
DA
 10
4.78470
 20
-69.0526
 30
0.000000
  70
    32
  0
VERTEX
  8
0
  5
DB
 10
4.85016
 20
-68.7181
 30
0.000000
  70
    32
  0
VERTEX
  8
0
  5
DC
 10
4.90393
 20
-68.3795
 30
0.000000
  70
    32
  0
VERTEX
  8
0
  5
DD
 10
4.94588
 20
-68.0375
 30
0.000000
  70
    32
  0
VERTEX
  8
0
  5
DE
 10
4.97592
 20
-67.6931
 30
0.000000
  70
    32
  0
VERTEX
  8
0
  5
DF
 10
4.99398
 20
-67.3470
 30
0.000000
  70
    32
  0
VERTEX
  8
0
  5
E0
 10
5.00000
 20
-67.0000
 30
0.000000
  70
    32
  0
VERTEX
  8
0
  5
E1
 10
4.99398
 20
-66.6530
 30
0.000000
  70
    32
  0
VERTEX
  8
0
  5
E2
 10
4.97592
 20
-66.3069
 30
0.000000
  70
    32
  0
VERTEX
  8
0
  5
E3
 10
4.94588
 20
-65.9625
 30
0.000000
  70
    32
  0
VERTEX
  8
0
  5
E4
 10
4.90393
 20
-65.6205
 30
0.000000
  70
    32
  0
VERTEX
  8
0
  5
E5
 10
4.85016
 20
-65.2819
 30
0.000000
  70
    32
  0
VERTEX
  8
0
  5
E6
 10
4.78470
 20
-64.9474
 30
0.000000
  70
    32
  0
VERTEX
  8
0
  5
E7
 10
4.70772
 20
-64.6178
 30
0.000000
  70
    32
  0
VERTEX
  8
0
  5
E8
 10
4.61940
 20
-64.2940
 30
0.000000
  70
    32
  0
VERTEX
  8
0
  5
E9
 10
4.51995
 20
-63.9767
 30
0.000000
  70
    32
  0
VERTEX
  8
0
  5
EA
 10
4.40961
 20
-63.6667
 30
0.000000
  70
    32
  0
VERTEX
  8
0
  5
EB
 10
4.28864
 20
-63.3647
 30
0.000000
  70
    32
  0
VERTEX
  8
0
  5
EC
 10
4.15735
 20
-63.0715
 30
0.000000
  70
    32
  0
VERTEX
  8
0
  5
ED
 10
4.01604
 20
-62.7878
 30
0.000000
  70
    32
  0
VERTEX
  8
0
  5
EE
 10
3.86505
 20
-62.5142
 30
0.000000
  70
    32
  0
VERTEX
  8
0
  5
EF
 10
3.70476
 20
-62.2514
 30
0.000000
  70
    32
  0
VERTEX
  8
0
  5
F0
 10
3.53553
 20
-62.0000
 30
0.000000
  70
    32
  0
VERTEX
  8
0
  5
F1
 10
3.35779
 20
-61.7607
 30
0.000000
  70
    32
  0
VERTEX
  8
0
  5
F2
 10
3.17197
 20
-61.5340
 30
0.000000
  70
    32
  0
VERTEX
  8
0
  5
F3
 10
2.97850
 20
-61.3205
 30
0.000000
  70
    32
  0
VERTEX
  8
0
  5
F4
 10
2.77785
 20
-61.1206
 30
0.000000
  70
    32
  0
VERTEX
  8
0
  5
F5
 10
2.57051
 20
-60.9349
 30
0.000000
  70
    32
  0
VERTEX
  8
0
  5
F6
 10
2.35698
 20
-60.7639
 30
0.000000
  70
    32
  0
VERTEX
  8
0
  5
F7
 10
2.13778
 20
-60.6078
 30
0.000000
  70
    32
  0
VERTEX
  8
0
  5
F8
 10
1.91342
 20
-60.4672
 30
0.000000
  70
    32
  0
VERTEX
  8
0
  5
F9
 10
1.68445
 20
-60.3423
 30
0.000000
  70
    32
  0
VERTEX
  8
0
  5
FA
 10
1.45142
 20
-60.2334
 30
0.000000
  70
    32
  0
VERTEX
  8
0
  5
FB
 10
1.21490
 20
-60.1408
 30
0.000000
  70
    32
  0
VERTEX
  8
0
  5
FC
 10
0.975452
 20
-60.0648
 30
0.000000
  70
    32
  0
VERTEX
  8
0
  5
FD
 10
0.733652
 20
-60.0055
 30
0.000000
  70
    32
  0
VERTEX
  8
0
  5
FE
 10
0.490086
 20
-59.9630
 30
0.000000
  70
    32
  0
VERTEX
  8
0
  5
FF
 10
0.245338
 20
-59.9374
 30
0.000000
  70
    32
  0
VERTEX
  8
0
  5
100
 10
2.84000e-014
 20
-59.9289
 30
0.000000
  70
    32
  0
SEQEND
  8
0
  5
101
  0
POLYLINE
  5
2E
  8
0
 10
4.7140452079103321
 20
-69.357022603955102
 30
0.0
 66
     1
 70
     8
  0
VERTEX
  8
0
  5
102
 10
4.71405
 20
-69.3570
 30
0.000000
  70
    32
  0
VERTEX
  8
0
  5
103
 10
4.68112
 20
-69.2931
 30
0.000000
  70
    32
  0
VERTEX
  8
0
  5
104
 10
4.64646
 20
-69.2297
 30
0.000000
  70
    32
  0
VERTEX
  8
0
  5
105
 10
4.61008
 20
-69.1668
 30
0.000000
  70
    32
  0
VERTEX
  8
0
  5
106
 10
4.57200
 20
-69.1043
 30
0.000000
  70
    32
  0
VERTEX
  8
0
  5
107
 10
4.53223
 20
-69.0424
 30
0.000000
  70
    32
  0
VERTEX
  8
0
  5
108
 10
4.49078
 20
-68.9810
 30
0.000000
  70
    32
  0
VERTEX
  8
0
  5
109
 10
4.44767
 20
-68.9203
 30
0.000000
  70
    32
  0
VERTEX
  8
0
  5
10A
 10
4.40291
 20
-68.8601
 30
0.000000
  70
    32
  0
VERTEX
  8
0
  5
10B
 10
4.35653
 20
-68.8005
 30
0.000000
  70
    32
  0
VERTEX
  8
0
  5
10C
 10
4.30853
 20
-68.7416
 30
0.000000
  70
    32
  0
VERTEX
  8
0
  5
10D
 10
4.25894
 20
-68.6833
 30
0.000000
  70
    32
  0
VERTEX
  8
0
  5
10E
 10
4.20777
 20
-68.6257
 30
0.000000
  70
    32
  0
VERTEX
  8
0
  5
10F
 10
4.15505
 20
-68.5689
 30
0.000000
  70
    32
  0
VERTEX
  8
0
  5
110
 10
4.10079
 20
-68.5127
 30
0.000000
  70
    32
  0
VERTEX
  8
0
  5
111
 10
4.04501
 20
-68.4573
 30
0.000000
  70
    32
  0
VERTEX
  8
0
  5
112
 10
3.98774
 20
-68.4027
 30
0.000000
  70
    32
  0
VERTEX
  8
0
  5
113
 10
3.92899
 20
-68.3489
 30
0.000000
  70
    32
  0
VERTEX
  8
0
  5
114
 10
3.86879
 20
-68.2958
 30
0.000000
  70
    32
  0
VERTEX
  8
0
  5
115
 10
3.80716
 20
-68.2436
 30
0.000000
  70
    32
  0
VERTEX
  8
0
  5
116
 10
3.74412
 20
-68.1923
 30
0.000000
  70
    32
  0
VERTEX
  8
0
  5
117
 10
3.67969
 20
-68.1418
 30
0.000000
  70
    32
  0
VERTEX
  8
0
  5
118
 10
3.61390
 20
-68.0922
 30
0.000000
  70
    32
  0
VERTEX
  8
0
  5
119
 10
3.54678
 20
-68.0435
 30
0.000000
  70
    32
  0
VERTEX
  8
0
  5
11A
 10
3.47834
 20
-67.9957
 30
0.000000
  70
    32
  0
VERTEX
  8
0
  5
11B
 10
3.40862
 20
-67.9489
 30
0.000000
  70
    32
  0
VERTEX
  8
0
  5
11C
 10
3.33763
 20
-67.9030
 30
0.000000
  70
    32
  0
VERTEX
  8
0
  5
11D
 10
3.26541
 20
-67.8581
 30
0.000000
  70
    32
  0
VERTEX
  8
0
  5
11E
 10
3.19199
 20
-67.8142
 30
0.000000
  70
    32
  0
VERTEX
  8
0
  5
11F
 10
3.11738
 20
-67.7713
 30
0.000000
  70
    32
  0
VERTEX
  8
0
  5
120
 10
3.04162
 20
-67.7294
 30
0.000000
  70
    32
  0
VERTEX
  8
0
  5
121
 10
2.96473
 20
-67.6886
 30
0.000000
  70
    32
  0
VERTEX
  8
0
  5
122
 10
2.88675
 20
-67.6488
 30
0.000000
  70
    32
  0
VERTEX
  8
0
  5
123
 10
2.80770
 20
-67.6101
 30
0.000000
  70
    32
  0
VERTEX
  8
0
  5
124
 10
2.72761
 20
-67.5724
 30
0.000000
  70
    32
  0
VERTEX
  8
0
  5
125
 10
2.64651
 20
-67.5359
 30
0.000000
  70
    32
  0
VERTEX
  8
0
  5
126
 10
2.56444
 20
-67.5004
 30
0.000000
  70
    32
  0
VERTEX
  8
0
  5
127
 10
2.48141
 20
-67.4661
 30
0.000000
  70
    32
  0
VERTEX
  8
0
  5
128
 10
2.39747
 20
-67.4329
 30
0.000000
  70
    32
  0
VERTEX
  8
0
  5
129
 10
2.31264
 20
-67.4009
 30
0.000000
  70
    32
  0
VERTEX
  8
0
  5
12A
 10
2.22695
 20
-67.3700
 30
0.000000
  70
    32
  0
VERTEX
  8
0
  5
12B
 10
2.14044
 20
-67.3403
 30
0.000000
  70
    32
  0
VERTEX
  8
0
  5
12C
 10
2.05314
 20
-67.3118
 30
0.000000
  70
    32
  0
VERTEX
  8
0
  5
12D
 10
1.96508
 20
-67.2845
 30
0.000000
  70
    32
  0
VERTEX
  8
0
  5
12E
 10
1.87629
 20
-67.2584
 30
0.000000
  70
    32
  0
VERTEX
  8
0
  5
12F
 10
1.78681
 20
-67.2335
 30
0.000000
  70
    32
  0
VERTEX
  8
0
  5
130
 10
1.69666
 20
-67.2098
 30
0.000000
  70
    32
  0
VERTEX
  8
0
  5
131
 10
1.60589
 20
-67.1873
 30
0.000000
  70
    32
  0
VERTEX
  8
0
  5
132
 10
1.51453
 20
-67.1661
 30
0.000000
  70
    32
  0
VERTEX
  8
0
  5
133
 10
1.42260
 20
-67.1461
 30
0.000000
  70
    32
  0
VERTEX
  8
0
  5
134
 10
1.33015
 20
-67.1274
 30
0.000000
  70
    32
  0
VERTEX
  8
0
  5
135
 10
1.23721
 20
-67.1099
 30
0.000000
  70
    32
  0
VERTEX
  8
0
  5
136
 10
1.14381
 20
-67.0938
 30
0.000000
  70
    32
  0
VERTEX
  8
0
  5
137
 10
1.04998
 20
-67.0788
 30
0.000000
  70
    32
  0
VERTEX
  8
0
  5
138
 10
0.955769
 20
-67.0652
 30
0.000000
  70
    32
  0
VERTEX
  8
0
  5
139
 10
0.861202
 20
-67.0528
 30
0.000000
  70
    32
  0
VERTEX
  8
0
  5
13A
 10
0.766317
 20
-67.0418
 30
0.000000
  70
    32
  0
VERTEX
  8
0
  5
13B
 10
0.671149
 20
-67.0320
 30
0.000000
  70
    32
  0
VERTEX
  8
0
  5
13C
 10
0.575732
 20
-67.0235
 30
0.000000
  70
    32
  0
VERTEX
  8
0
  5
13D
 10
0.480103
 20
-67.0163
 30
0.000000
  70
    32
  0
VERTEX
  8
0
  5
13E
 10
0.384295
 20
-67.0105
 30
0.000000
  70
    32
  0
VERTEX
  8
0
  5
13F
 10
0.288346
 20
-67.0059
 30
0.000000
  70
    32
  0
VERTEX
  8
0
  5
140
 10
0.192290
 20
-67.0026
 30
0.000000
  70
    32
  0
VERTEX
  8
0
  5
141
 10
0.0961628
 20
-67.0007
 30
0.000000
  70
    32
  0
VERTEX
  8
0
  5
142
 10
3.47493e-014
 20
-67.0000
 30
0.000000
  70
    32
  0
VERTEX
  8
0
  5
143
 10
-0.0961628
 20
-67.0007
 30
0.000000
  70
    32
  0
VERTEX
  8
0
  5
144
 10
-0.192290
 20
-67.0026
 30
0.000000
  70
    32
  0
VERTEX
  8
0
  5
145
 10
-0.288346
 20
-67.0059
 30
0.000000
  70
    32
  0
VERTEX
  8
0
  5
146
 10
-0.384295
 20
-67.0105
 30
0.000000
  70
    32
  0
VERTEX
  8
0
  5
147
 10
-0.480103
 20
-67.0163
 30
0.000000
  70
    32
  0
VERTEX
  8
0
  5
148
 10
-0.575732
 20
-67.0235
 30
0.000000
  70
    32
  0
VERTEX
  8
0
  5
149
 10
-0.671149
 20
-67.0320
 30
0.000000
  70
    32
  0
VERTEX
  8
0
  5
14A
 10
-0.766317
 20
-67.0418
 30
0.000000
  70
    32
  0
VERTEX
  8
0
  5
14B
 10
-0.861202
 20
-67.0528
 30
0.000000
  70
    32
  0
VERTEX
  8
0
  5
14C
 10
-0.955769
 20
-67.0652
 30
0.000000
  70
    32
  0
VERTEX
  8
0
  5
14D
 10
-1.04998
 20
-67.0788
 30
0.000000
  70
    32
  0
VERTEX
  8
0
  5
14E
 10
-1.14381
 20
-67.0938
 30
0.000000
  70
    32
  0
VERTEX
  8
0
  5
14F
 10
-1.23721
 20
-67.1099
 30
0.000000
  70
    32
  0
VERTEX
  8
0
  5
150
 10
-1.33015
 20
-67.1274
 30
0.000000
  70
    32
  0
VERTEX
  8
0
  5
151
 10
-1.42260
 20
-67.1461
 30
0.000000
  70
    32
  0
VERTEX
  8
0
  5
152
 10
-1.51453
 20
-67.1661
 30
0.000000
  70
    32
  0
VERTEX
  8
0
  5
153
 10
-1.60589
 20
-67.1873
 30
0.000000
  70
    32
  0
VERTEX
  8
0
  5
154
 10
-1.69666
 20
-67.2098
 30
0.000000
  70
    32
  0
VERTEX
  8
0
  5
155
 10
-1.78681
 20
-67.2335
 30
0.000000
  70
    32
  0
VERTEX
  8
0
  5
156
 10
-1.87629
 20
-67.2584
 30
0.000000
  70
    32
  0
VERTEX
  8
0
  5
157
 10
-1.96508
 20
-67.2845
 30
0.000000
  70
    32
  0
VERTEX
  8
0
  5
158
 10
-2.05314
 20
-67.3118
 30
0.000000
  70
    32
  0
VERTEX
  8
0
  5
159
 10
-2.14044
 20
-67.3403
 30
0.000000
  70
    32
  0
VERTEX
  8
0
  5
15A
 10
-2.22695
 20
-67.3700
 30
0.000000
  70
    32
  0
VERTEX
  8
0
  5
15B
 10
-2.31264
 20
-67.4009
 30
0.000000
  70
    32
  0
VERTEX
  8
0
  5
15C
 10
-2.39747
 20
-67.4329
 30
0.000000
  70
    32
  0
VERTEX
  8
0
  5
15D
 10
-2.48141
 20
-67.4661
 30
0.000000
  70
    32
  0
VERTEX
  8
0
  5
15E
 10
-2.56444
 20
-67.5004
 30
0.000000
  70
    32
  0
VERTEX
  8
0
  5
15F
 10
-2.64651
 20
-67.5359
 30
0.000000
  70
    32
  0
VERTEX
  8
0
  5
160
 10
-2.72761
 20
-67.5724
 30
0.000000
  70
    32
  0
VERTEX
  8
0
  5
161
 10
-2.80770
 20
-67.6101
 30
0.000000
  70
    32
  0
VERTEX
  8
0
  5
162
 10
-2.88675
 20
-67.6488
 30
0.000000
  70
    32
  0
VERTEX
  8
0
  5
163
 10
-2.96473
 20
-67.6886
 30
0.000000
  70
    32
  0
VERTEX
  8
0
  5
164
 10
-3.04162
 20
-67.7294
 30
0.000000
  70
    32
  0
VERTEX
  8
0
  5
165
 10
-3.11738
 20
-67.7713
 30
0.000000
  70
    32
  0
VERTEX
  8
0
  5
166
 10
-3.19199
 20
-67.8142
 30
0.000000
  70
    32
  0
VERTEX
  8
0
  5
167
 10
-3.26541
 20
-67.8581
 30
0.000000
  70
    32
  0
VERTEX
  8
0
  5
168
 10
-3.33763
 20
-67.9030
 30
0.000000
  70
    32
  0
VERTEX
  8
0
  5
169
 10
-3.40862
 20
-67.9489
 30
0.000000
  70
    32
  0
VERTEX
  8
0
  5
16A
 10
-3.47834
 20
-67.9957
 30
0.000000
  70
    32
  0
VERTEX
  8
0
  5
16B
 10
-3.54678
 20
-68.0435
 30
0.000000
  70
    32
  0
VERTEX
  8
0
  5
16C
 10
-3.61390
 20
-68.0922
 30
0.000000
  70
    32
  0
VERTEX
  8
0
  5
16D
 10
-3.67969
 20
-68.1418
 30
0.000000
  70
    32
  0
VERTEX
  8
0
  5
16E
 10
-3.74412
 20
-68.1923
 30
0.000000
  70
    32
  0
VERTEX
  8
0
  5
16F
 10
-3.80716
 20
-68.2436
 30
0.000000
  70
    32
  0
VERTEX
  8
0
  5
170
 10
-3.86879
 20
-68.2958
 30
0.000000
  70
    32
  0
VERTEX
  8
0
  5
171
 10
-3.92899
 20
-68.3489
 30
0.000000
  70
    32
  0
VERTEX
  8
0
  5
172
 10
-3.98774
 20
-68.4027
 30
0.000000
  70
    32
  0
VERTEX
  8
0
  5
173
 10
-4.04501
 20
-68.4573
 30
0.000000
  70
    32
  0
VERTEX
  8
0
  5
174
 10
-4.10079
 20
-68.5127
 30
0.000000
  70
    32
  0
VERTEX
  8
0
  5
175
 10
-4.15505
 20
-68.5689
 30
0.000000
  70
    32
  0
VERTEX
  8
0
  5
176
 10
-4.20777
 20
-68.6257
 30
0.000000
  70
    32
  0
VERTEX
  8
0
  5
177
 10
-4.25894
 20
-68.6833
 30
0.000000
  70
    32
  0
VERTEX
  8
0
  5
178
 10
-4.30853
 20
-68.7416
 30
0.000000
  70
    32
  0
VERTEX
  8
0
  5
179
 10
-4.35653
 20
-68.8005
 30
0.000000
  70
    32
  0
VERTEX
  8
0
  5
17A
 10
-4.40291
 20
-68.8601
 30
0.000000
  70
    32
  0
VERTEX
  8
0
  5
17B
 10
-4.44767
 20
-68.9203
 30
0.000000
  70
    32
  0
VERTEX
  8
0
  5
17C
 10
-4.49078
 20
-68.9810
 30
0.000000
  70
    32
  0
VERTEX
  8
0
  5
17D
 10
-4.53223
 20
-69.0424
 30
0.000000
  70
    32
  0
VERTEX
  8
0
  5
17E
 10
-4.57200
 20
-69.1043
 30
0.000000
  70
    32
  0
VERTEX
  8
0
  5
17F
 10
-4.61008
 20
-69.1668
 30
0.000000
  70
    32
  0
VERTEX
  8
0
  5
180
 10
-4.64646
 20
-69.2297
 30
0.000000
  70
    32
  0
VERTEX
  8
0
  5
181
 10
-4.68112
 20
-69.2931
 30
0.000000
  70
    32
  0
VERTEX
  8
0
  5
182
 10
-4.71405
 20
-69.3570
 30
0.000000
  70
    32
  0
SEQEND
  8
0
  5
183
  0
POLYLINE
  5
2F
  8
0
 10
2.7000000000000375
 20
-72.161879502661719
 30
0.0
 66
     1
 70
     8
  0
VERTEX
  8
0
  5
184
 10
2.70000
 20
-72.1619
 30
0.000000
  70
    32
  0
VERTEX
  8
0
  5
185
 10
2.69675
 20
-72.0682
 30
0.000000
  70
    32
  0
VERTEX
  8
0
  5
186
 10
2.68700
 20
-71.9747
 30
0.000000
  70
    32
  0
VERTEX
  8
0
  5
187
 10
2.67078
 20
-71.8817
 30
0.000000
  70
    32
  0
VERTEX
  8
0
  5
188
 10
2.64812
 20
-71.7894
 30
0.000000
  70
    32
  0
VERTEX
  8
0
  5
189
 10
2.61908
 20
-71.6980
 30
0.000000
  70
    32
  0
VERTEX
  8
0
  5
18A
 10
2.58374
 20
-71.6077
 30
0.000000
  70
    32
  0
VERTEX
  8
0
  5
18B
 10
2.54217
 20
-71.5187
 30
0.000000
  70
    32
  0
VERTEX
  8
0
  5
18C
 10
2.49447
 20
-71.4313
 30
0.000000
  70
    32
  0
VERTEX
  8
0
  5
18D
 10
2.44077
 20
-71.3456
 30
0.000000
  70
    32
  0
VERTEX
  8
0
  5
18E
 10
2.38119
 20
-71.2619
 30
0.000000
  70
    32
  0
VERTEX
  8
0
  5
18F
 10
2.31587
 20
-71.1804
 30
0.000000
  70
    32
  0
VERTEX
  8
0
  5
190
 10
2.24497
 20
-71.1012
 30
0.000000
  70
    32
  0
VERTEX
  8
0
  5
191
 10
2.16866
 20
-71.0246
 30
0.000000
  70
    32
  0
VERTEX
  8
0
  5
192
 10
2.08713
 20
-70.9507
 30
0.000000
  70
    32
  0
VERTEX
  8
0
  5
193
 10
2.00057
 20
-70.8797
 30
0.000000
  70
    32
  0
VERTEX
  8
0
  5
194
 10
1.90919
 20
-70.8119
 30
0.000000
  70
    32
  0
VERTEX
  8
0
  5
195
 10
1.81321
 20
-70.7473
 30
0.000000
  70
    32
  0
VERTEX
  8
0
  5
196
 10
1.71286
 20
-70.6861
 30
0.000000
  70
    32
  0
VERTEX
  8
0
  5
197
 10
1.60839
 20
-70.6284
 30
0.000000
  70
    32
  0
VERTEX
  8
0
  5
198
 10
1.50004
 20
-70.5744
 30
0.000000
  70
    32
  0
VERTEX
  8
0
  5
199
 10
1.38808
 20
-70.5243
 30
0.000000
  70
    32
  0
VERTEX
  8
0
  5
19A
 10
1.27277
 20
-70.4781
 30
0.000000
  70
    32
  0
VERTEX
  8
0
  5
19B
 10
1.15440
 20
-70.4360
 30
0.000000
  70
    32
  0
VERTEX
  8
0
  5
19C
 10
1.03325
 20
-70.3980
 30
0.000000
  70
    32
  0
VERTEX
  8
0
  5
19D
 10
0.909603
 20
-70.3643
 30
0.000000
  70
    32
  0
VERTEX
  8
0
  5
19E
 10
0.783769
 20
-70.3349
 30
0.000000
  70
    32
  0
VERTEX
  8
0
  5
19F
 10
0.656046
 20
-70.3099
 30
0.000000
  70
    32
  0
VERTEX
  8
0
  5
1A0
 10
0.526744
 20
-70.2894
 30
0.000000
  70
    32
  0
VERTEX
  8
0
  5
1A1
 10
0.396172
 20
-70.2734
 30
0.000000
  70
    32
  0
VERTEX
  8
0
  5
1A2
 10
0.264646
 20
-70.2619
 30
0.000000
  70
    32
  0
VERTEX
  8
0
  5
1A3
 10
0.132483
 20
-70.2550
 30
0.000000
  70
    32
  0
VERTEX
  8
0
  5
1A4
 10
1.35039e-014
 20
-70.2527
 30
0.000000
  70
    32
  0
VERTEX
  8
0
  5
1A5
 10
-0.132483
 20
-70.2550
 30
0.000000
  70
    32
  0
VERTEX
  8
0
  5
1A6
 10
-0.264646
 20
-70.2619
 30
0.000000
  70
    32
  0
VERTEX
  8
0
  5
1A7
 10
-0.396172
 20
-70.2734
 30
0.000000
  70
    32
  0
VERTEX
  8
0
  5
1A8
 10
-0.526744
 20
-70.2894
 30
0.000000
  70
    32
  0
VERTEX
  8
0
  5
1A9
 10
-0.656046
 20
-70.3099
 30
0.000000
  70
    32
  0
VERTEX
  8
0
  5
1AA
 10
-0.783769
 20
-70.3349
 30
0.000000
  70
    32
  0
VERTEX
  8
0
  5
1AB
 10
-0.909603
 20
-70.3643
 30
0.000000
  70
    32
  0
VERTEX
  8
0
  5
1AC
 10
-1.03325
 20
-70.3980
 30
0.000000
  70
    32
  0
VERTEX
  8
0
  5
1AD
 10
-1.15440
 20
-70.4360
 30
0.000000
  70
    32
  0
VERTEX
  8
0
  5
1AE
 10
-1.27277
 20
-70.4781
 30
0.000000
  70
    32
  0
VERTEX
  8
0
  5
1AF
 10
-1.38808
 20
-70.5243
 30
0.000000
  70
    32
  0
VERTEX
  8
0
  5
1B0
 10
-1.50004
 20
-70.5744
 30
0.000000
  70
    32
  0
VERTEX
  8
0
  5
1B1
 10
-1.60839
 20
-70.6284
 30
0.000000
  70
    32
  0
VERTEX
  8
0
  5
1B2
 10
-1.71286
 20
-70.6861
 30
0.000000
  70
    32
  0
VERTEX
  8
0
  5
1B3
 10
-1.81321
 20
-70.7473
 30
0.000000
  70
    32
  0
VERTEX
  8
0
  5
1B4
 10
-1.90919
 20
-70.8119
 30
0.000000
  70
    32
  0
VERTEX
  8
0
  5
1B5
 10
-2.00057
 20
-70.8797
 30
0.000000
  70
    32
  0
VERTEX
  8
0
  5
1B6
 10
-2.08713
 20
-70.9507
 30
0.000000
  70
    32
  0
VERTEX
  8
0
  5
1B7
 10
-2.16866
 20
-71.0246
 30
0.000000
  70
    32
  0
VERTEX
  8
0
  5
1B8
 10
-2.24497
 20
-71.1012
 30
0.000000
  70
    32
  0
VERTEX
  8
0
  5
1B9
 10
-2.31587
 20
-71.1804
 30
0.000000
  70
    32
  0
VERTEX
  8
0
  5
1BA
 10
-2.38119
 20
-71.2619
 30
0.000000
  70
    32
  0
VERTEX
  8
0
  5
1BB
 10
-2.44077
 20
-71.3456
 30
0.000000
  70
    32
  0
VERTEX
  8
0
  5
1BC
 10
-2.49447
 20
-71.4313
 30
0.000000
  70
    32
  0
VERTEX
  8
0
  5
1BD
 10
-2.54217
 20
-71.5187
 30
0.000000
  70
    32
  0
VERTEX
  8
0
  5
1BE
 10
-2.58374
 20
-71.6077
 30
0.000000
  70
    32
  0
VERTEX
  8
0
  5
1BF
 10
-2.61908
 20
-71.6980
 30
0.000000
  70
    32
  0
VERTEX
  8
0
  5
1C0
 10
-2.64812
 20
-71.7894
 30
0.000000
  70
    32
  0
VERTEX
  8
0
  5
1C1
 10
-2.67078
 20
-71.8817
 30
0.000000
  70
    32
  0
VERTEX
  8
0
  5
1C2
 10
-2.68700
 20
-71.9747
 30
0.000000
  70
    32
  0
VERTEX
  8
0
  5
1C3
 10
-2.69675
 20
-72.0682
 30
0.000000
  70
    32
  0
VERTEX
  8
0
  5
1C4
 10
-2.70000
 20
-72.1619
 30
0.000000
  70
    32
  0
VERTEX
  8
0
  5
1C5
 10
-2.69675
 20
-72.2556
 30
0.000000
  70
    32
  0
VERTEX
  8
0
  5
1C6
 10
-2.68700
 20
-72.3490
 30
0.000000
  70
    32
  0
VERTEX
  8
0
  5
1C7
 10
-2.67078
 20
-72.4420
 30
0.000000
  70
    32
  0
VERTEX
  8
0
  5
1C8
 10
-2.64812
 20
-72.5343
 30
0.000000
  70
    32
  0
VERTEX
  8
0
  5
1C9
 10
-2.61908
 20
-72.6258
 30
0.000000
  70
    32
  0
VERTEX
  8
0
  5
1CA
 10
-2.58374
 20
-72.7161
 30
0.000000
  70
    32
  0
VERTEX
  8
0
  5
1CB
 10
-2.54217
 20
-72.8051
 30
0.000000
  70
    32
  0
VERTEX
  8
0
  5
1CC
 10
-2.49447
 20
-72.8925
 30
0.000000
  70
    32
  0
VERTEX
  8
0
  5
1CD
 10
-2.44077
 20
-72.9782
 30
0.000000
  70
    32
  0
VERTEX
  8
0
  5
1CE
 10
-2.38119
 20
-73.0619
 30
0.000000
  70
    32
  0
VERTEX
  8
0
  5
1CF
 10
-2.31587
 20
-73.1434
 30
0.000000
  70
    32
  0
VERTEX
  8
0
  5
1D0
 10
-2.24497
 20
-73.2226
 30
0.000000
  70
    32
  0
VERTEX
  8
0
  5
1D1
 10
-2.16866
 20
-73.2992
 30
0.000000
  70
    32
  0
VERTEX
  8
0
  5
1D2
 10
-2.08713
 20
-73.3731
 30
0.000000
  70
    32
  0
VERTEX
  8
0
  5
1D3
 10
-2.00057
 20
-73.4440
 30
0.000000
  70
    32
  0
VERTEX
  8
0
  5
1D4
 10
-1.90919
 20
-73.5119
 30
0.000000
  70
    32
  0
VERTEX
  8
0
  5
1D5
 10
-1.81321
 20
-73.5765
 30
0.000000
  70
    32
  0
VERTEX
  8
0
  5
1D6
 10
-1.71286
 20
-73.6377
 30
0.000000
  70
    32
  0
VERTEX
  8
0
  5
1D7
 10
-1.60839
 20
-73.6954
 30
0.000000
  70
    32
  0
VERTEX
  8
0
  5
1D8
 10
-1.50004
 20
-73.7493
 30
0.000000
  70
    32
  0
VERTEX
  8
0
  5
1D9
 10
-1.38808
 20
-73.7994
 30
0.000000
  70
    32
  0
VERTEX
  8
0
  5
1DA
 10
-1.27277
 20
-73.8456
 30
0.000000
  70
    32
  0
VERTEX
  8
0
  5
1DB
 10
-1.15440
 20
-73.8878
 30
0.000000
  70
    32
  0
VERTEX
  8
0
  5
1DC
 10
-1.03325
 20
-73.9257
 30
0.000000
  70
    32
  0
VERTEX
  8
0
  5
1DD
 10
-0.909603
 20
-73.9595
 30
0.000000
  70
    32
  0
VERTEX
  8
0
  5
1DE
 10
-0.783769
 20
-73.9889
 30
0.000000
  70
    32
  0
VERTEX
  8
0
  5
1DF
 10
-0.656046
 20
-74.0139
 30
0.000000
  70
    32
  0
VERTEX
  8
0
  5
1E0
 10
-0.526744
 20
-74.0344
 30
0.000000
  70
    32
  0
VERTEX
  8
0
  5
1E1
 10
-0.396172
 20
-74.0504
 30
0.000000
  70
    32
  0
VERTEX
  8
0
  5
1E2
 10
-0.264646
 20
-74.0619
 30
0.000000
  70
    32
  0
VERTEX
  8
0
  5
1E3
 10
-0.132483
 20
-74.0688
 30
0.000000
  70
    32
  0
VERTEX
  8
0
  5
1E4
 10
4.29654e-014
 20
-74.0711
 30
0.000000
  70
    32
  0
VERTEX
  8
0
  5
1E5
 10
0.132483
 20
-74.0688
 30
0.000000
  70
    32
  0
VERTEX
  8
0
  5
1E6
 10
0.264646
 20
-74.0619
 30
0.000000
  70
    32
  0
VERTEX
  8
0
  5
1E7
 10
0.396172
 20
-74.0504
 30
0.000000
  70
    32
  0
VERTEX
  8
0
  5
1E8
 10
0.526744
 20
-74.0344
 30
0.000000
  70
    32
  0
VERTEX
  8
0
  5
1E9
 10
0.656046
 20
-74.0139
 30
0.000000
  70
    32
  0
VERTEX
  8
0
  5
1EA
 10
0.783769
 20
-73.9889
 30
0.000000
  70
    32
  0
VERTEX
  8
0
  5
1EB
 10
0.909603
 20
-73.9595
 30
0.000000
  70
    32
  0
VERTEX
  8
0
  5
1EC
 10
1.03325
 20
-73.9257
 30
0.000000
  70
    32
  0
VERTEX
  8
0
  5
1ED
 10
1.15440
 20
-73.8878
 30
0.000000
  70
    32
  0
VERTEX
  8
0
  5
1EE
 10
1.27277
 20
-73.8456
 30
0.000000
  70
    32
  0
VERTEX
  8
0
  5
1EF
 10
1.38808
 20
-73.7994
 30
0.000000
  70
    32
  0
VERTEX
  8
0
  5
1F0
 10
1.50004
 20
-73.7493
 30
0.000000
  70
    32
  0
VERTEX
  8
0
  5
1F1
 10
1.60839
 20
-73.6954
 30
0.000000
  70
    32
  0
VERTEX
  8
0
  5
1F2
 10
1.71286
 20
-73.6377
 30
0.000000
  70
    32
  0
VERTEX
  8
0
  5
1F3
 10
1.81321
 20
-73.5765
 30
0.000000
  70
    32
  0
VERTEX
  8
0
  5
1F4
 10
1.90919
 20
-73.5119
 30
0.000000
  70
    32
  0
VERTEX
  8
0
  5
1F5
 10
2.00057
 20
-73.4440
 30
0.000000
  70
    32
  0
VERTEX
  8
0
  5
1F6
 10
2.08713
 20
-73.3731
 30
0.000000
  70
    32
  0
VERTEX
  8
0
  5
1F7
 10
2.16866
 20
-73.2992
 30
0.000000
  70
    32
  0
VERTEX
  8
0
  5
1F8
 10
2.24497
 20
-73.2226
 30
0.000000
  70
    32
  0
VERTEX
  8
0
  5
1F9
 10
2.31587
 20
-73.1434
 30
0.000000
  70
    32
  0
VERTEX
  8
0
  5
1FA
 10
2.38119
 20
-73.0619
 30
0.000000
  70
    32
  0
VERTEX
  8
0
  5
1FB
 10
2.44077
 20
-72.9782
 30
0.000000
  70
    32
  0
VERTEX
  8
0
  5
1FC
 10
2.49447
 20
-72.8925
 30
0.000000
  70
    32
  0
VERTEX
  8
0
  5
1FD
 10
2.54217
 20
-72.8051
 30
0.000000
  70
    32
  0
VERTEX
  8
0
  5
1FE
 10
2.58374
 20
-72.7161
 30
0.000000
  70
    32
  0
VERTEX
  8
0
  5
1FF
 10
2.61908
 20
-72.6258
 30
0.000000
  70
    32
  0
VERTEX
  8
0
  5
200
 10
2.64812
 20
-72.5343
 30
0.000000
  70
    32
  0
VERTEX
  8
0
  5
201
 10
2.67078
 20
-72.4420
 30
0.000000
  70
    32
  0
VERTEX
  8
0
  5
202
 10
2.68700
 20
-72.3490
 30
0.000000
  70
    32
  0
VERTEX
  8
0
  5
203
 10
2.69675
 20
-72.2556
 30
0.000000
  70
    32
  0
VERTEX
  8
0
  5
204
 10
2.70000
 20
-72.1619
 30
0.000000
  70
    32
  0
SEQEND
  8
0
  5
205
  0
POLYLINE
  5
30
  8
0
 10
20.000000000000028
 20
-59.928932188134461
 30
0.0
 66
     1
 70
     8
  0
VERTEX
  8
0
  5
206
 10
20.0000
 20
-59.9289
 30
0.000000
  70
    32
  0
VERTEX
  8
0
  5
207
 10
19.7547
 20
-59.9374
 30
0.000000
  70
    32
  0
VERTEX
  8
0
  5
208
 10
19.5099
 20
-59.9630
 30
0.000000
  70
    32
  0
VERTEX
  8
0
  5
209
 10
19.2663
 20
-60.0055
 30
0.000000
  70
    32
  0
VERTEX
  8
0
  5
20A
 10
19.0245
 20
-60.0648
 30
0.000000
  70
    32
  0
VERTEX
  8
0
  5
20B
 10
18.7851
 20
-60.1408
 30
0.000000
  70
    32
  0
VERTEX
  8
0
  5
20C
 10
18.5486
 20
-60.2334
 30
0.000000
  70
    32
  0
VERTEX
  8
0
  5
20D
 10
18.3156
 20
-60.3423
 30
0.000000
  70
    32
  0
VERTEX
  8
0
  5
20E
 10
18.0866
 20
-60.4672
 30
0.000000
  70
    32
  0
VERTEX
  8
0
  5
20F
 10
17.8622
 20
-60.6078
 30
0.000000
  70
    32
  0
VERTEX
  8
0
  5
210
 10
17.6430
 20
-60.7639
 30
0.000000
  70
    32
  0
VERTEX
  8
0
  5
211
 10
17.4295
 20
-60.9349
 30
0.000000
  70
    32
  0
VERTEX
  8
0
  5
212
 10
17.2221
 20
-61.1206
 30
0.000000
  70
    32
  0
VERTEX
  8
0
  5
213
 10
17.0215
 20
-61.3205
 30
0.000000
  70
    32
  0
VERTEX
  8
0
  5
214
 10
16.8280
 20
-61.5340
 30
0.000000
  70
    32
  0
VERTEX
  8
0
  5
215
 10
16.6422
 20
-61.7607
 30
0.000000
  70
    32
  0
VERTEX
  8
0
  5
216
 10
16.4645
 20
-62.0000
 30
0.000000
  70
    32
  0
VERTEX
  8
0
  5
217
 10
16.2952
 20
-62.2514
 30
0.000000
  70
    32
  0
VERTEX
  8
0
  5
218
 10
16.1349
 20
-62.5142
 30
0.000000
  70
    32
  0
VERTEX
  8
0
  5
219
 10
15.9840
 20
-62.7878
 30
0.000000
  70
    32
  0
VERTEX
  8
0
  5
21A
 10
15.8427
 20
-63.0715
 30
0.000000
  70
    32
  0
VERTEX
  8
0
  5
21B
 10
15.7114
 20
-63.3647
 30
0.000000
  70
    32
  0
VERTEX
  8
0
  5
21C
 10
15.5904
 20
-63.6667
 30
0.000000
  70
    32
  0
VERTEX
  8
0
  5
21D
 10
15.4801
 20
-63.9767
 30
0.000000
  70
    32
  0
VERTEX
  8
0
  5
21E
 10
15.3806
 20
-64.2940
 30
0.000000
  70
    32
  0
VERTEX
  8
0
  5
21F
 10
15.2923
 20
-64.6178
 30
0.000000
  70
    32
  0
VERTEX
  8
0
  5
220
 10
15.2153
 20
-64.9474
 30
0.000000
  70
    32
  0
VERTEX
  8
0
  5
221
 10
15.1498
 20
-65.2819
 30
0.000000
  70
    32
  0
VERTEX
  8
0
  5
222
 10
15.0961
 20
-65.6205
 30
0.000000
  70
    32
  0
VERTEX
  8
0
  5
223
 10
15.0541
 20
-65.9625
 30
0.000000
  70
    32
  0
VERTEX
  8
0
  5
224
 10
15.0241
 20
-66.3069
 30
0.000000
  70
    32
  0
VERTEX
  8
0
  5
225
 10
15.0060
 20
-66.6530
 30
0.000000
  70
    32
  0
VERTEX
  8
0
  5
226
 10
15.0000
 20
-67.0000
 30
0.000000
  70
    32
  0
VERTEX
  8
0
  5
227
 10
15.0060
 20
-67.3470
 30
0.000000
  70
    32
  0
VERTEX
  8
0
  5
228
 10
15.0241
 20
-67.6931
 30
0.000000
  70
    32
  0
VERTEX
  8
0
  5
229
 10
15.0541
 20
-68.0375
 30
0.000000
  70
    32
  0
VERTEX
  8
0
  5
22A
 10
15.0961
 20
-68.3795
 30
0.000000
  70
    32
  0
VERTEX
  8
0
  5
22B
 10
15.1498
 20
-68.7181
 30
0.000000
  70
    32
  0
VERTEX
  8
0
  5
22C
 10
15.2153
 20
-69.0526
 30
0.000000
  70
    32
  0
VERTEX
  8
0
  5
22D
 10
15.2923
 20
-69.3822
 30
0.000000
  70
    32
  0
VERTEX
  8
0
  5
22E
 10
15.3806
 20
-69.7060
 30
0.000000
  70
    32
  0
VERTEX
  8
0
  5
22F
 10
15.4801
 20
-70.0233
 30
0.000000
  70
    32
  0
VERTEX
  8
0
  5
230
 10
15.5904
 20
-70.3333
 30
0.000000
  70
    32
  0
VERTEX
  8
0
  5
231
 10
15.7114
 20
-70.6353
 30
0.000000
  70
    32
  0
VERTEX
  8
0
  5
232
 10
15.8427
 20
-70.9285
 30
0.000000
  70
    32
  0
VERTEX
  8
0
  5
233
 10
15.9840
 20
-71.2122
 30
0.000000
  70
    32
  0
VERTEX
  8
0
  5
234
 10
16.1349
 20
-71.4858
 30
0.000000
  70
    32
  0
VERTEX
  8
0
  5
235
 10
16.2952
 20
-71.7486
 30
0.000000
  70
    32
  0
VERTEX
  8
0
  5
236
 10
16.4645
 20
-72.0000
 30
0.000000
  70
    32
  0
VERTEX
  8
0
  5
237
 10
16.6422
 20
-72.2393
 30
0.000000
  70
    32
  0
VERTEX
  8
0
  5
238
 10
16.8280
 20
-72.4660
 30
0.000000
  70
    32
  0
VERTEX
  8
0
  5
239
 10
17.0215
 20
-72.6795
 30
0.000000
  70
    32
  0
VERTEX
  8
0
  5
23A
 10
17.2221
 20
-72.8794
 30
0.000000
  70
    32
  0
VERTEX
  8
0
  5
23B
 10
17.4295
 20
-73.0651
 30
0.000000
  70
    32
  0
VERTEX
  8
0
  5
23C
 10
17.6430
 20
-73.2361
 30
0.000000
  70
    32
  0
VERTEX
  8
0
  5
23D
 10
17.8622
 20
-73.3922
 30
0.000000
  70
    32
  0
VERTEX
  8
0
  5
23E
 10
18.0866
 20
-73.5328
 30
0.000000
  70
    32
  0
VERTEX
  8
0
  5
23F
 10
18.3156
 20
-73.6577
 30
0.000000
  70
    32
  0
VERTEX
  8
0
  5
240
 10
18.5486
 20
-73.7666
 30
0.000000
  70
    32
  0
VERTEX
  8
0
  5
241
 10
18.7851
 20
-73.8592
 30
0.000000
  70
    32
  0
VERTEX
  8
0
  5
242
 10
19.0245
 20
-73.9352
 30
0.000000
  70
    32
  0
VERTEX
  8
0
  5
243
 10
19.2663
 20
-73.9945
 30
0.000000
  70
    32
  0
VERTEX
  8
0
  5
244
 10
19.5099
 20
-74.0370
 30
0.000000
  70
    32
  0
VERTEX
  8
0
  5
245
 10
19.7547
 20
-74.0626
 30
0.000000
  70
    32
  0
VERTEX
  8
0
  5
246
 10
20.0000
 20
-74.0711
 30
0.000000
  70
    32
  0
VERTEX
  8
0
  5
247
 10
20.2453
 20
-74.0626
 30
0.000000
  70
    32
  0
VERTEX
  8
0
  5
248
 10
20.4901
 20
-74.0370
 30
0.000000
  70
    32
  0
VERTEX
  8
0
  5
249
 10
20.7337
 20
-73.9945
 30
0.000000
  70
    32
  0
VERTEX
  8
0
  5
24A
 10
20.9755
 20
-73.9352
 30
0.000000
  70
    32
  0
VERTEX
  8
0
  5
24B
 10
21.2149
 20
-73.8592
 30
0.000000
  70
    32
  0
VERTEX
  8
0
  5
24C
 10
21.4514
 20
-73.7666
 30
0.000000
  70
    32
  0
VERTEX
  8
0
  5
24D
 10
21.6844
 20
-73.6577
 30
0.000000
  70
    32
  0
VERTEX
  8
0
  5
24E
 10
21.9134
 20
-73.5328
 30
0.000000
  70
    32
  0
VERTEX
  8
0
  5
24F
 10
22.1378
 20
-73.3922
 30
0.000000
  70
    32
  0
VERTEX
  8
0
  5
250
 10
22.3570
 20
-73.2361
 30
0.000000
  70
    32
  0
VERTEX
  8
0
  5
251
 10
22.5705
 20
-73.0651
 30
0.000000
  70
    32
  0
VERTEX
  8
0
  5
252
 10
22.7779
 20
-72.8794
 30
0.000000
  70
    32
  0
VERTEX
  8
0
  5
253
 10
22.9785
 20
-72.6795
 30
0.000000
  70
    32
  0
VERTEX
  8
0
  5
254
 10
23.1720
 20
-72.4660
 30
0.000000
  70
    32
  0
VERTEX
  8
0
  5
255
 10
23.3578
 20
-72.2393
 30
0.000000
  70
    32
  0
VERTEX
  8
0
  5
256
 10
23.5355
 20
-72.0000
 30
0.000000
  70
    32
  0
VERTEX
  8
0
  5
257
 10
23.7048
 20
-71.7486
 30
0.000000
  70
    32
  0
VERTEX
  8
0
  5
258
 10
23.8651
 20
-71.4858
 30
0.000000
  70
    32
  0
VERTEX
  8
0
  5
259
 10
24.0160
 20
-71.2122
 30
0.000000
  70
    32
  0
VERTEX
  8
0
  5
25A
 10
24.1573
 20
-70.9285
 30
0.000000
  70
    32
  0
VERTEX
  8
0
  5
25B
 10
24.2886
 20
-70.6353
 30
0.000000
  70
    32
  0
VERTEX
  8
0
  5
25C
 10
24.4096
 20
-70.3333
 30
0.000000
  70
    32
  0
VERTEX
  8
0
  5
25D
 10
24.5199
 20
-70.0233
 30
0.000000
  70
    32
  0
VERTEX
  8
0
  5
25E
 10
24.6194
 20
-69.7060
 30
0.000000
  70
    32
  0
VERTEX
  8
0
  5
25F
 10
24.7077
 20
-69.3822
 30
0.000000
  70
    32
  0
VERTEX
  8
0
  5
260
 10
24.7847
 20
-69.0526
 30
0.000000
  70
    32
  0
VERTEX
  8
0
  5
261
 10
24.8502
 20
-68.7181
 30
0.000000
  70
    32
  0
VERTEX
  8
0
  5
262
 10
24.9039
 20
-68.3795
 30
0.000000
  70
    32
  0
VERTEX
  8
0
  5
263
 10
24.9459
 20
-68.0375
 30
0.000000
  70
    32
  0
VERTEX
  8
0
  5
264
 10
24.9759
 20
-67.6931
 30
0.000000
  70
    32
  0
VERTEX
  8
0
  5
265
 10
24.9940
 20
-67.3470
 30
0.000000
  70
    32
  0
VERTEX
  8
0
  5
266
 10
25.0000
 20
-67.0000
 30
0.000000
  70
    32
  0
VERTEX
  8
0
  5
267
 10
24.9940
 20
-66.6530
 30
0.000000
  70
    32
  0
VERTEX
  8
0
  5
268
 10
24.9759
 20
-66.3069
 30
0.000000
  70
    32
  0
VERTEX
  8
0
  5
269
 10
24.9459
 20
-65.9625
 30
0.000000
  70
    32
  0
VERTEX
  8
0
  5
26A
 10
24.9039
 20
-65.6205
 30
0.000000
  70
    32
  0
VERTEX
  8
0
  5
26B
 10
24.8502
 20
-65.2819
 30
0.000000
  70
    32
  0
VERTEX
  8
0
  5
26C
 10
24.7847
 20
-64.9474
 30
0.000000
  70
    32
  0
VERTEX
  8
0
  5
26D
 10
24.7077
 20
-64.6178
 30
0.000000
  70
    32
  0
VERTEX
  8
0
  5
26E
 10
24.6194
 20
-64.2940
 30
0.000000
  70
    32
  0
VERTEX
  8
0
  5
26F
 10
24.5199
 20
-63.9767
 30
0.000000
  70
    32
  0
VERTEX
  8
0
  5
270
 10
24.4096
 20
-63.6667
 30
0.000000
  70
    32
  0
VERTEX
  8
0
  5
271
 10
24.2886
 20
-63.3647
 30
0.000000
  70
    32
  0
VERTEX
  8
0
  5
272
 10
24.1573
 20
-63.0715
 30
0.000000
  70
    32
  0
VERTEX
  8
0
  5
273
 10
24.0160
 20
-62.7878
 30
0.000000
  70
    32
  0
VERTEX
  8
0
  5
274
 10
23.8651
 20
-62.5142
 30
0.000000
  70
    32
  0
VERTEX
  8
0
  5
275
 10
23.7048
 20
-62.2514
 30
0.000000
  70
    32
  0
VERTEX
  8
0
  5
276
 10
23.5355
 20
-62.0000
 30
0.000000
  70
    32
  0
VERTEX
  8
0
  5
277
 10
23.3578
 20
-61.7607
 30
0.000000
  70
    32
  0
VERTEX
  8
0
  5
278
 10
23.1720
 20
-61.5340
 30
0.000000
  70
    32
  0
VERTEX
  8
0
  5
279
 10
22.9785
 20
-61.3205
 30
0.000000
  70
    32
  0
VERTEX
  8
0
  5
27A
 10
22.7779
 20
-61.1206
 30
0.000000
  70
    32
  0
VERTEX
  8
0
  5
27B
 10
22.5705
 20
-60.9349
 30
0.000000
  70
    32
  0
VERTEX
  8
0
  5
27C
 10
22.3570
 20
-60.7639
 30
0.000000
  70
    32
  0
VERTEX
  8
0
  5
27D
 10
22.1378
 20
-60.6078
 30
0.000000
  70
    32
  0
VERTEX
  8
0
  5
27E
 10
21.9134
 20
-60.4672
 30
0.000000
  70
    32
  0
VERTEX
  8
0
  5
27F
 10
21.6844
 20
-60.3423
 30
0.000000
  70
    32
  0
VERTEX
  8
0
  5
280
 10
21.4514
 20
-60.2334
 30
0.000000
  70
    32
  0
VERTEX
  8
0
  5
281
 10
21.2149
 20
-60.1408
 30
0.000000
  70
    32
  0
VERTEX
  8
0
  5
282
 10
20.9755
 20
-60.0648
 30
0.000000
  70
    32
  0
VERTEX
  8
0
  5
283
 10
20.7337
 20
-60.0055
 30
0.000000
  70
    32
  0
VERTEX
  8
0
  5
284
 10
20.4901
 20
-59.9630
 30
0.000000
  70
    32
  0
VERTEX
  8
0
  5
285
 10
20.2453
 20
-59.9374
 30
0.000000
  70
    32
  0
VERTEX
  8
0
  5
286
 10
20.0000
 20
-59.9289
 30
0.000000
  70
    32
  0
SEQEND
  8
0
  5
287
  0
POLYLINE
  5
31
  8
0
 10
24.714045207910331
 20
-69.357022603955102
 30
0.0
 66
     1
 70
     8
  0
VERTEX
  8
0
  5
288
 10
24.7140
 20
-69.3570
 30
0.000000
  70
    32
  0
VERTEX
  8
0
  5
289
 10
24.6811
 20
-69.2931
 30
0.000000
  70
    32
  0
VERTEX
  8
0
  5
28A
 10
24.6465
 20
-69.2297
 30
0.000000
  70
    32
  0
VERTEX
  8
0
  5
28B
 10
24.6101
 20
-69.1668
 30
0.000000
  70
    32
  0
VERTEX
  8
0
  5
28C
 10
24.5720
 20
-69.1043
 30
0.000000
  70
    32
  0
VERTEX
  8
0
  5
28D
 10
24.5322
 20
-69.0424
 30
0.000000
  70
    32
  0
VERTEX
  8
0
  5
28E
 10
24.4908
 20
-68.9810
 30
0.000000
  70
    32
  0
VERTEX
  8
0
  5
28F
 10
24.4477
 20
-68.9203
 30
0.000000
  70
    32
  0
VERTEX
  8
0
  5
290
 10
24.4029
 20
-68.8601
 30
0.000000
  70
    32
  0
VERTEX
  8
0
  5
291
 10
24.3565
 20
-68.8005
 30
0.000000
  70
    32
  0
VERTEX
  8
0
  5
292
 10
24.3085
 20
-68.7416
 30
0.000000
  70
    32
  0
VERTEX
  8
0
  5
293
 10
24.2589
 20
-68.6833
 30
0.000000
  70
    32
  0
VERTEX
  8
0
  5
294
 10
24.2078
 20
-68.6257
 30
0.000000
  70
    32
  0
VERTEX
  8
0
  5
295
 10
24.1550
 20
-68.5689
 30
0.000000
  70
    32
  0
VERTEX
  8
0
  5
296
 10
24.1008
 20
-68.5127
 30
0.000000
  70
    32
  0
VERTEX
  8
0
  5
297
 10
24.0450
 20
-68.4573
 30
0.000000
  70
    32
  0
VERTEX
  8
0
  5
298
 10
23.9877
 20
-68.4027
 30
0.000000
  70
    32
  0
VERTEX
  8
0
  5
299
 10
23.9290
 20
-68.3489
 30
0.000000
  70
    32
  0
VERTEX
  8
0
  5
29A
 10
23.8688
 20
-68.2958
 30
0.000000
  70
    32
  0
VERTEX
  8
0
  5
29B
 10
23.8072
 20
-68.2436
 30
0.000000
  70
    32
  0
VERTEX
  8
0
  5
29C
 10
23.7441
 20
-68.1923
 30
0.000000
  70
    32
  0
VERTEX
  8
0
  5
29D
 10
23.6797
 20
-68.1418
 30
0.000000
  70
    32
  0
VERTEX
  8
0
  5
29E
 10
23.6139
 20
-68.0922
 30
0.000000
  70
    32
  0
VERTEX
  8
0
  5
29F
 10
23.5468
 20
-68.0435
 30
0.000000
  70
    32
  0
VERTEX
  8
0
  5
2A0
 10
23.4783
 20
-67.9957
 30
0.000000
  70
    32
  0
VERTEX
  8
0
  5
2A1
 10
23.4086
 20
-67.9489
 30
0.000000
  70
    32
  0
VERTEX
  8
0
  5
2A2
 10
23.3376
 20
-67.9030
 30
0.000000
  70
    32
  0
VERTEX
  8
0
  5
2A3
 10
23.2654
 20
-67.8581
 30
0.000000
  70
    32
  0
VERTEX
  8
0
  5
2A4
 10
23.1920
 20
-67.8142
 30
0.000000
  70
    32
  0
VERTEX
  8
0
  5
2A5
 10
23.1174
 20
-67.7713
 30
0.000000
  70
    32
  0
VERTEX
  8
0
  5
2A6
 10
23.0416
 20
-67.7294
 30
0.000000
  70
    32
  0
VERTEX
  8
0
  5
2A7
 10
22.9647
 20
-67.6886
 30
0.000000
  70
    32
  0
VERTEX
  8
0
  5
2A8
 10
22.8868
 20
-67.6488
 30
0.000000
  70
    32
  0
VERTEX
  8
0
  5
2A9
 10
22.8077
 20
-67.6101
 30
0.000000
  70
    32
  0
VERTEX
  8
0
  5
2AA
 10
22.7276
 20
-67.5724
 30
0.000000
  70
    32
  0
VERTEX
  8
0
  5
2AB
 10
22.6465
 20
-67.5359
 30
0.000000
  70
    32
  0
VERTEX
  8
0
  5
2AC
 10
22.5644
 20
-67.5004
 30
0.000000
  70
    32
  0
VERTEX
  8
0
  5
2AD
 10
22.4814
 20
-67.4661
 30
0.000000
  70
    32
  0
VERTEX
  8
0
  5
2AE
 10
22.3975
 20
-67.4329
 30
0.000000
  70
    32
  0
VERTEX
  8
0
  5
2AF
 10
22.3126
 20
-67.4009
 30
0.000000
  70
    32
  0
VERTEX
  8
0
  5
2B0
 10
22.2269
 20
-67.3700
 30
0.000000
  70
    32
  0
VERTEX
  8
0
  5
2B1
 10
22.1404
 20
-67.3403
 30
0.000000
  70
    32
  0
VERTEX
  8
0
  5
2B2
 10
22.0531
 20
-67.3118
 30
0.000000
  70
    32
  0
VERTEX
  8
0
  5
2B3
 10
21.9651
 20
-67.2845
 30
0.000000
  70
    32
  0
VERTEX
  8
0
  5
2B4
 10
21.8763
 20
-67.2584
 30
0.000000
  70
    32
  0
VERTEX
  8
0
  5
2B5
 10
21.7868
 20
-67.2335
 30
0.000000
  70
    32
  0
VERTEX
  8
0
  5
2B6
 10
21.6967
 20
-67.2098
 30
0.000000
  70
    32
  0
VERTEX
  8
0
  5
2B7
 10
21.6059
 20
-67.1873
 30
0.000000
  70
    32
  0
VERTEX
  8
0
  5
2B8
 10
21.5145
 20
-67.1661
 30
0.000000
  70
    32
  0
VERTEX
  8
0
  5
2B9
 10
21.4226
 20
-67.1461
 30
0.000000
  70
    32
  0
VERTEX
  8
0
  5
2BA
 10
21.3302
 20
-67.1274
 30
0.000000
  70
    32
  0
VERTEX
  8
0
  5
2BB
 10
21.2372
 20
-67.1099
 30
0.000000
  70
    32
  0
VERTEX
  8
0
  5
2BC
 10
21.1438
 20
-67.0938
 30
0.000000
  70
    32
  0
VERTEX
  8
0
  5
2BD
 10
21.0500
 20
-67.0788
 30
0.000000
  70
    32
  0
VERTEX
  8
0
  5
2BE
 10
20.9558
 20
-67.0652
 30
0.000000
  70
    32
  0
VERTEX
  8
0
  5
2BF
 10
20.8612
 20
-67.0528
 30
0.000000
  70
    32
  0
VERTEX
  8
0
  5
2C0
 10
20.7663
 20
-67.0418
 30
0.000000
  70
    32
  0
VERTEX
  8
0
  5
2C1
 10
20.6711
 20
-67.0320
 30
0.000000
  70
    32
  0
VERTEX
  8
0
  5
2C2
 10
20.5757
 20
-67.0235
 30
0.000000
  70
    32
  0
VERTEX
  8
0
  5
2C3
 10
20.4801
 20
-67.0163
 30
0.000000
  70
    32
  0
VERTEX
  8
0
  5
2C4
 10
20.3843
 20
-67.0105
 30
0.000000
  70
    32
  0
VERTEX
  8
0
  5
2C5
 10
20.2883
 20
-67.0059
 30
0.000000
  70
    32
  0
VERTEX
  8
0
  5
2C6
 10
20.1923
 20
-67.0026
 30
0.000000
  70
    32
  0
VERTEX
  8
0
  5
2C7
 10
20.0962
 20
-67.0007
 30
0.000000
  70
    32
  0
VERTEX
  8
0
  5
2C8
 10
20.0000
 20
-67.0000
 30
0.000000
  70
    32
  0
VERTEX
  8
0
  5
2C9
 10
19.9038
 20
-67.0007
 30
0.000000
  70
    32
  0
VERTEX
  8
0
  5
2CA
 10
19.8077
 20
-67.0026
 30
0.000000
  70
    32
  0
VERTEX
  8
0
  5
2CB
 10
19.7117
 20
-67.0059
 30
0.000000
  70
    32
  0
VERTEX
  8
0
  5
2CC
 10
19.6157
 20
-67.0105
 30
0.000000
  70
    32
  0
VERTEX
  8
0
  5
2CD
 10
19.5199
 20
-67.0163
 30
0.000000
  70
    32
  0
VERTEX
  8
0
  5
2CE
 10
19.4243
 20
-67.0235
 30
0.000000
  70
    32
  0
VERTEX
  8
0
  5
2CF
 10
19.3289
 20
-67.0320
 30
0.000000
  70
    32
  0
VERTEX
  8
0
  5
2D0
 10
19.2337
 20
-67.0418
 30
0.000000
  70
    32
  0
VERTEX
  8
0
  5
2D1
 10
19.1388
 20
-67.0528
 30
0.000000
  70
    32
  0
VERTEX
  8
0
  5
2D2
 10
19.0442
 20
-67.0652
 30
0.000000
  70
    32
  0
VERTEX
  8
0
  5
2D3
 10
18.9500
 20
-67.0788
 30
0.000000
  70
    32
  0
VERTEX
  8
0
  5
2D4
 10
18.8562
 20
-67.0938
 30
0.000000
  70
    32
  0
VERTEX
  8
0
  5
2D5
 10
18.7628
 20
-67.1099
 30
0.000000
  70
    32
  0
VERTEX
  8
0
  5
2D6
 10
18.6698
 20
-67.1274
 30
0.000000
  70
    32
  0
VERTEX
  8
0
  5
2D7
 10
18.5774
 20
-67.1461
 30
0.000000
  70
    32
  0
VERTEX
  8
0
  5
2D8
 10
18.4855
 20
-67.1661
 30
0.000000
  70
    32
  0
VERTEX
  8
0
  5
2D9
 10
18.3941
 20
-67.1873
 30
0.000000
  70
    32
  0
VERTEX
  8
0
  5
2DA
 10
18.3033
 20
-67.2098
 30
0.000000
  70
    32
  0
VERTEX
  8
0
  5
2DB
 10
18.2132
 20
-67.2335
 30
0.000000
  70
    32
  0
VERTEX
  8
0
  5
2DC
 10
18.1237
 20
-67.2584
 30
0.000000
  70
    32
  0
VERTEX
  8
0
  5
2DD
 10
18.0349
 20
-67.2845
 30
0.000000
  70
    32
  0
VERTEX
  8
0
  5
2DE
 10
17.9469
 20
-67.3118
 30
0.000000
  70
    32
  0
VERTEX
  8
0
  5
2DF
 10
17.8596
 20
-67.3403
 30
0.000000
  70
    32
  0
VERTEX
  8
0
  5
2E0
 10
17.7731
 20
-67.3700
 30
0.000000
  70
    32
  0
VERTEX
  8
0
  5
2E1
 10
17.6874
 20
-67.4009
 30
0.000000
  70
    32
  0
VERTEX
  8
0
  5
2E2
 10
17.6025
 20
-67.4329
 30
0.000000
  70
    32
  0
VERTEX
  8
0
  5
2E3
 10
17.5186
 20
-67.4661
 30
0.000000
  70
    32
  0
VERTEX
  8
0
  5
2E4
 10
17.4356
 20
-67.5004
 30
0.000000
  70
    32
  0
VERTEX
  8
0
  5
2E5
 10
17.3535
 20
-67.5359
 30
0.000000
  70
    32
  0
VERTEX
  8
0
  5
2E6
 10
17.2724
 20
-67.5724
 30
0.000000
  70
    32
  0
VERTEX
  8
0
  5
2E7
 10
17.1923
 20
-67.6101
 30
0.000000
  70
    32
  0
VERTEX
  8
0
  5
2E8
 10
17.1132
 20
-67.6488
 30
0.000000
  70
    32
  0
VERTEX
  8
0
  5
2E9
 10
17.0353
 20
-67.6886
 30
0.000000
  70
    32
  0
VERTEX
  8
0
  5
2EA
 10
16.9584
 20
-67.7294
 30
0.000000
  70
    32
  0
VERTEX
  8
0
  5
2EB
 10
16.8826
 20
-67.7713
 30
0.000000
  70
    32
  0
VERTEX
  8
0
  5
2EC
 10
16.8080
 20
-67.8142
 30
0.000000
  70
    32
  0
VERTEX
  8
0
  5
2ED
 10
16.7346
 20
-67.8581
 30
0.000000
  70
    32
  0
VERTEX
  8
0
  5
2EE
 10
16.6624
 20
-67.9030
 30
0.000000
  70
    32
  0
VERTEX
  8
0
  5
2EF
 10
16.5914
 20
-67.9489
 30
0.000000
  70
    32
  0
VERTEX
  8
0
  5
2F0
 10
16.5217
 20
-67.9957
 30
0.000000
  70
    32
  0
VERTEX
  8
0
  5
2F1
 10
16.4532
 20
-68.0435
 30
0.000000
  70
    32
  0
VERTEX
  8
0
  5
2F2
 10
16.3861
 20
-68.0922
 30
0.000000
  70
    32
  0
VERTEX
  8
0
  5
2F3
 10
16.3203
 20
-68.1418
 30
0.000000
  70
    32
  0
VERTEX
  8
0
  5
2F4
 10
16.2559
 20
-68.1923
 30
0.000000
  70
    32
  0
VERTEX
  8
0
  5
2F5
 10
16.1928
 20
-68.2436
 30
0.000000
  70
    32
  0
VERTEX
  8
0
  5
2F6
 10
16.1312
 20
-68.2958
 30
0.000000
  70
    32
  0
VERTEX
  8
0
  5
2F7
 10
16.0710
 20
-68.3489
 30
0.000000
  70
    32
  0
VERTEX
  8
0
  5
2F8
 10
16.0123
 20
-68.4027
 30
0.000000
  70
    32
  0
VERTEX
  8
0
  5
2F9
 10
15.9550
 20
-68.4573
 30
0.000000
  70
    32
  0
VERTEX
  8
0
  5
2FA
 10
15.8992
 20
-68.5127
 30
0.000000
  70
    32
  0
VERTEX
  8
0
  5
2FB
 10
15.8450
 20
-68.5689
 30
0.000000
  70
    32
  0
VERTEX
  8
0
  5
2FC
 10
15.7922
 20
-68.6257
 30
0.000000
  70
    32
  0
VERTEX
  8
0
  5
2FD
 10
15.7411
 20
-68.6833
 30
0.000000
  70
    32
  0
VERTEX
  8
0
  5
2FE
 10
15.6915
 20
-68.7416
 30
0.000000
  70
    32
  0
VERTEX
  8
0
  5
2FF
 10
15.6435
 20
-68.8005
 30
0.000000
  70
    32
  0
VERTEX
  8
0
  5
300
 10
15.5971
 20
-68.8601
 30
0.000000
  70
    32
  0
VERTEX
  8
0
  5
301
 10
15.5523
 20
-68.9203
 30
0.000000
  70
    32
  0
VERTEX
  8
0
  5
302
 10
15.5092
 20
-68.9810
 30
0.000000
  70
    32
  0
VERTEX
  8
0
  5
303
 10
15.4678
 20
-69.0424
 30
0.000000
  70
    32
  0
VERTEX
  8
0
  5
304
 10
15.4280
 20
-69.1043
 30
0.000000
  70
    32
  0
VERTEX
  8
0
  5
305
 10
15.3899
 20
-69.1668
 30
0.000000
  70
    32
  0
VERTEX
  8
0
  5
306
 10
15.3535
 20
-69.2297
 30
0.000000
  70
    32
  0
VERTEX
  8
0
  5
307
 10
15.3189
 20
-69.2931
 30
0.000000
  70
    32
  0
VERTEX
  8
0
  5
308
 10
15.2860
 20
-69.3570
 30
0.000000
  70
    32
  0
SEQEND
  8
0
  5
309
  0
POLYLINE
  5
32
  8
0
 10
22.700000000000038
 20
-72.161879502661719
 30
0.0
 66
     1
 70
     8
  0
VERTEX
  8
0
  5
30A
 10
22.7000
 20
-72.1619
 30
0.000000
  70
    32
  0
VERTEX
  8
0
  5
30B
 10
22.6967
 20
-72.0682
 30
0.000000
  70
    32
  0
VERTEX
  8
0
  5
30C
 10
22.6870
 20
-71.9747
 30
0.000000
  70
    32
  0
VERTEX
  8
0
  5
30D
 10
22.6708
 20
-71.8817
 30
0.000000
  70
    32
  0
VERTEX
  8
0
  5
30E
 10
22.6481
 20
-71.7894
 30
0.000000
  70
    32
  0
VERTEX
  8
0
  5
30F
 10
22.6191
 20
-71.6980
 30
0.000000
  70
    32
  0
VERTEX
  8
0
  5
310
 10
22.5837
 20
-71.6077
 30
0.000000
  70
    32
  0
VERTEX
  8
0
  5
311
 10
22.5422
 20
-71.5187
 30
0.000000
  70
    32
  0
VERTEX
  8
0
  5
312
 10
22.4945
 20
-71.4313
 30
0.000000
  70
    32
  0
VERTEX
  8
0
  5
313
 10
22.4408
 20
-71.3456
 30
0.000000
  70
    32
  0
VERTEX
  8
0
  5
314
 10
22.3812
 20
-71.2619
 30
0.000000
  70
    32
  0
VERTEX
  8
0
  5
315
 10
22.3159
 20
-71.1804
 30
0.000000
  70
    32
  0
VERTEX
  8
0
  5
316
 10
22.2450
 20
-71.1012
 30
0.000000
  70
    32
  0
VERTEX
  8
0
  5
317
 10
22.1687
 20
-71.0246
 30
0.000000
  70
    32
  0
VERTEX
  8
0
  5
318
 10
22.0871
 20
-70.9507
 30
0.000000
  70
    32
  0
VERTEX
  8
0
  5
319
 10
22.0006
 20
-70.8797
 30
0.000000
  70
    32
  0
VERTEX
  8
0
  5
31A
 10
21.9092
 20
-70.8119
 30
0.000000
  70
    32
  0
VERTEX
  8
0
  5
31B
 10
21.8132
 20
-70.7473
 30
0.000000
  70
    32
  0
VERTEX
  8
0
  5
31C
 10
21.7129
 20
-70.6861
 30
0.000000
  70
    32
  0
VERTEX
  8
0
  5
31D
 10
21.6084
 20
-70.6284
 30
0.000000
  70
    32
  0
VERTEX
  8
0
  5
31E
 10
21.5000
 20
-70.5744
 30
0.000000
  70
    32
  0
VERTEX
  8
0
  5
31F
 10
21.3881
 20
-70.5243
 30
0.000000
  70
    32
  0
VERTEX
  8
0
  5
320
 10
21.2728
 20
-70.4781
 30
0.000000
  70
    32
  0
VERTEX
  8
0
  5
321
 10
21.1544
 20
-70.4360
 30
0.000000
  70
    32
  0
VERTEX
  8
0
  5
322
 10
21.0332
 20
-70.3980
 30
0.000000
  70
    32
  0
VERTEX
  8
0
  5
323
 10
20.9096
 20
-70.3643
 30
0.000000
  70
    32
  0
VERTEX
  8
0
  5
324
 10
20.7838
 20
-70.3349
 30
0.000000
  70
    32
  0
VERTEX
  8
0
  5
325
 10
20.6560
 20
-70.3099
 30
0.000000
  70
    32
  0
VERTEX
  8
0
  5
326
 10
20.5267
 20
-70.2894
 30
0.000000
  70
    32
  0
VERTEX
  8
0
  5
327
 10
20.3962
 20
-70.2734
 30
0.000000
  70
    32
  0
VERTEX
  8
0
  5
328
 10
20.2646
 20
-70.2619
 30
0.000000
  70
    32
  0
VERTEX
  8
0
  5
329
 10
20.1325
 20
-70.2550
 30
0.000000
  70
    32
  0
VERTEX
  8
0
  5
32A
 10
20.0000
 20
-70.2527
 30
0.000000
  70
    32
  0
VERTEX
  8
0
  5
32B
 10
19.8675
 20
-70.2550
 30
0.000000
  70
    32
  0
VERTEX
  8
0
  5
32C
 10
19.7354
 20
-70.2619
 30
0.000000
  70
    32
  0
VERTEX
  8
0
  5
32D
 10
19.6038
 20
-70.2734
 30
0.000000
  70
    32
  0
VERTEX
  8
0
  5
32E
 10
19.4733
 20
-70.2894
 30
0.000000
  70
    32
  0
VERTEX
  8
0
  5
32F
 10
19.3440
 20
-70.3099
 30
0.000000
  70
    32
  0
VERTEX
  8
0
  5
330
 10
19.2162
 20
-70.3349
 30
0.000000
  70
    32
  0
VERTEX
  8
0
  5
331
 10
19.0904
 20
-70.3643
 30
0.000000
  70
    32
  0
VERTEX
  8
0
  5
332
 10
18.9668
 20
-70.3980
 30
0.000000
  70
    32
  0
VERTEX
  8
0
  5
333
 10
18.8456
 20
-70.4360
 30
0.000000
  70
    32
  0
VERTEX
  8
0
  5
334
 10
18.7272
 20
-70.4781
 30
0.000000
  70
    32
  0
VERTEX
  8
0
  5
335
 10
18.6119
 20
-70.5243
 30
0.000000
  70
    32
  0
VERTEX
  8
0
  5
336
 10
18.5000
 20
-70.5744
 30
0.000000
  70
    32
  0
VERTEX
  8
0
  5
337
 10
18.3916
 20
-70.6284
 30
0.000000
  70
    32
  0
VERTEX
  8
0
  5
338
 10
18.2871
 20
-70.6861
 30
0.000000
  70
    32
  0
VERTEX
  8
0
  5
339
 10
18.1868
 20
-70.7473
 30
0.000000
  70
    32
  0
VERTEX
  8
0
  5
33A
 10
18.0908
 20
-70.8119
 30
0.000000
  70
    32
  0
VERTEX
  8
0
  5
33B
 10
17.9994
 20
-70.8797
 30
0.000000
  70
    32
  0
VERTEX
  8
0
  5
33C
 10
17.9129
 20
-70.9507
 30
0.000000
  70
    32
  0
VERTEX
  8
0
  5
33D
 10
17.8313
 20
-71.0246
 30
0.000000
  70
    32
  0
VERTEX
  8
0
  5
33E
 10
17.7550
 20
-71.1012
 30
0.000000
  70
    32
  0
VERTEX
  8
0
  5
33F
 10
17.6841
 20
-71.1804
 30
0.000000
  70
    32
  0
VERTEX
  8
0
  5
340
 10
17.6188
 20
-71.2619
 30
0.000000
  70
    32
  0
VERTEX
  8
0
  5
341
 10
17.5592
 20
-71.3456
 30
0.000000
  70
    32
  0
VERTEX
  8
0
  5
342
 10
17.5055
 20
-71.4313
 30
0.000000
  70
    32
  0
VERTEX
  8
0
  5
343
 10
17.4578
 20
-71.5187
 30
0.000000
  70
    32
  0
VERTEX
  8
0
  5
344
 10
17.4163
 20
-71.6077
 30
0.000000
  70
    32
  0
VERTEX
  8
0
  5
345
 10
17.3809
 20
-71.6980
 30
0.000000
  70
    32
  0
VERTEX
  8
0
  5
346
 10
17.3519
 20
-71.7894
 30
0.000000
  70
    32
  0
VERTEX
  8
0
  5
347
 10
17.3292
 20
-71.8817
 30
0.000000
  70
    32
  0
VERTEX
  8
0
  5
348
 10
17.3130
 20
-71.9747
 30
0.000000
  70
    32
  0
VERTEX
  8
0
  5
349
 10
17.3033
 20
-72.0682
 30
0.000000
  70
    32
  0
VERTEX
  8
0
  5
34A
 10
17.3000
 20
-72.1619
 30
0.000000
  70
    32
  0
VERTEX
  8
0
  5
34B
 10
17.3033
 20
-72.2556
 30
0.000000
  70
    32
  0
VERTEX
  8
0
  5
34C
 10
17.3130
 20
-72.3490
 30
0.000000
  70
    32
  0
VERTEX
  8
0
  5
34D
 10
17.3292
 20
-72.4420
 30
0.000000
  70
    32
  0
VERTEX
  8
0
  5
34E
 10
17.3519
 20
-72.5343
 30
0.000000
  70
    32
  0
VERTEX
  8
0
  5
34F
 10
17.3809
 20
-72.6258
 30
0.000000
  70
    32
  0
VERTEX
  8
0
  5
350
 10
17.4163
 20
-72.7161
 30
0.000000
  70
    32
  0
VERTEX
  8
0
  5
351
 10
17.4578
 20
-72.8051
 30
0.000000
  70
    32
  0
VERTEX
  8
0
  5
352
 10
17.5055
 20
-72.8925
 30
0.000000
  70
    32
  0
VERTEX
  8
0
  5
353
 10
17.5592
 20
-72.9782
 30
0.000000
  70
    32
  0
VERTEX
  8
0
  5
354
 10
17.6188
 20
-73.0619
 30
0.000000
  70
    32
  0
VERTEX
  8
0
  5
355
 10
17.6841
 20
-73.1434
 30
0.000000
  70
    32
  0
VERTEX
  8
0
  5
356
 10
17.7550
 20
-73.2226
 30
0.000000
  70
    32
  0
VERTEX
  8
0
  5
357
 10
17.8313
 20
-73.2992
 30
0.000000
  70
    32
  0
VERTEX
  8
0
  5
358
 10
17.9129
 20
-73.3731
 30
0.000000
  70
    32
  0
VERTEX
  8
0
  5
359
 10
17.9994
 20
-73.4440
 30
0.000000
  70
    32
  0
VERTEX
  8
0
  5
35A
 10
18.0908
 20
-73.5119
 30
0.000000
  70
    32
  0
VERTEX
  8
0
  5
35B
 10
18.1868
 20
-73.5765
 30
0.000000
  70
    32
  0
VERTEX
  8
0
  5
35C
 10
18.2871
 20
-73.6377
 30
0.000000
  70
    32
  0
VERTEX
  8
0
  5
35D
 10
18.3916
 20
-73.6954
 30
0.000000
  70
    32
  0
VERTEX
  8
0
  5
35E
 10
18.5000
 20
-73.7493
 30
0.000000
  70
    32
  0
VERTEX
  8
0
  5
35F
 10
18.6119
 20
-73.7994
 30
0.000000
  70
    32
  0
VERTEX
  8
0
  5
360
 10
18.7272
 20
-73.8456
 30
0.000000
  70
    32
  0
VERTEX
  8
0
  5
361
 10
18.8456
 20
-73.8878
 30
0.000000
  70
    32
  0
VERTEX
  8
0
  5
362
 10
18.9668
 20
-73.9257
 30
0.000000
  70
    32
  0
VERTEX
  8
0
  5
363
 10
19.0904
 20
-73.9595
 30
0.000000
  70
    32
  0
VERTEX
  8
0
  5
364
 10
19.2162
 20
-73.9889
 30
0.000000
  70
    32
  0
VERTEX
  8
0
  5
365
 10
19.3440
 20
-74.0139
 30
0.000000
  70
    32
  0
VERTEX
  8
0
  5
366
 10
19.4733
 20
-74.0344
 30
0.000000
  70
    32
  0
VERTEX
  8
0
  5
367
 10
19.6038
 20
-74.0504
 30
0.000000
  70
    32
  0
VERTEX
  8
0
  5
368
 10
19.7354
 20
-74.0619
 30
0.000000
  70
    32
  0
VERTEX
  8
0
  5
369
 10
19.8675
 20
-74.0688
 30
0.000000
  70
    32
  0
VERTEX
  8
0
  5
36A
 10
20.0000
 20
-74.0711
 30
0.000000
  70
    32
  0
VERTEX
  8
0
  5
36B
 10
20.1325
 20
-74.0688
 30
0.000000
  70
    32
  0
VERTEX
  8
0
  5
36C
 10
20.2646
 20
-74.0619
 30
0.000000
  70
    32
  0
VERTEX
  8
0
  5
36D
 10
20.3962
 20
-74.0504
 30
0.000000
  70
    32
  0
VERTEX
  8
0
  5
36E
 10
20.5267
 20
-74.0344
 30
0.000000
  70
    32
  0
VERTEX
  8
0
  5
36F
 10
20.6560
 20
-74.0139
 30
0.000000
  70
    32
  0
VERTEX
  8
0
  5
370
 10
20.7838
 20
-73.9889
 30
0.000000
  70
    32
  0
VERTEX
  8
0
  5
371
 10
20.9096
 20
-73.9595
 30
0.000000
  70
    32
  0
VERTEX
  8
0
  5
372
 10
21.0332
 20
-73.9257
 30
0.000000
  70
    32
  0
VERTEX
  8
0
  5
373
 10
21.1544
 20
-73.8878
 30
0.000000
  70
    32
  0
VERTEX
  8
0
  5
374
 10
21.2728
 20
-73.8456
 30
0.000000
  70
    32
  0
VERTEX
  8
0
  5
375
 10
21.3881
 20
-73.7994
 30
0.000000
  70
    32
  0
VERTEX
  8
0
  5
376
 10
21.5000
 20
-73.7493
 30
0.000000
  70
    32
  0
VERTEX
  8
0
  5
377
 10
21.6084
 20
-73.6954
 30
0.000000
  70
    32
  0
VERTEX
  8
0
  5
378
 10
21.7129
 20
-73.6377
 30
0.000000
  70
    32
  0
VERTEX
  8
0
  5
379
 10
21.8132
 20
-73.5765
 30
0.000000
  70
    32
  0
VERTEX
  8
0
  5
37A
 10
21.9092
 20
-73.5119
 30
0.000000
  70
    32
  0
VERTEX
  8
0
  5
37B
 10
22.0006
 20
-73.4440
 30
0.000000
  70
    32
  0
VERTEX
  8
0
  5
37C
 10
22.0871
 20
-73.3731
 30
0.000000
  70
    32
  0
VERTEX
  8
0
  5
37D
 10
22.1687
 20
-73.2992
 30
0.000000
  70
    32
  0
VERTEX
  8
0
  5
37E
 10
22.2450
 20
-73.2226
 30
0.000000
  70
    32
  0
VERTEX
  8
0
  5
37F
 10
22.3159
 20
-73.1434
 30
0.000000
  70
    32
  0
VERTEX
  8
0
  5
380
 10
22.3812
 20
-73.0619
 30
0.000000
  70
    32
  0
VERTEX
  8
0
  5
381
 10
22.4408
 20
-72.9782
 30
0.000000
  70
    32
  0
VERTEX
  8
0
  5
382
 10
22.4945
 20
-72.8925
 30
0.000000
  70
    32
  0
VERTEX
  8
0
  5
383
 10
22.5422
 20
-72.8051
 30
0.000000
  70
    32
  0
VERTEX
  8
0
  5
384
 10
22.5837
 20
-72.7161
 30
0.000000
  70
    32
  0
VERTEX
  8
0
  5
385
 10
22.6191
 20
-72.6258
 30
0.000000
  70
    32
  0
VERTEX
  8
0
  5
386
 10
22.6481
 20
-72.5343
 30
0.000000
  70
    32
  0
VERTEX
  8
0
  5
387
 10
22.6708
 20
-72.4420
 30
0.000000
  70
    32
  0
VERTEX
  8
0
  5
388
 10
22.6870
 20
-72.3490
 30
0.000000
  70
    32
  0
VERTEX
  8
0
  5
389
 10
22.6967
 20
-72.2556
 30
0.000000
  70
    32
  0
VERTEX
  8
0
  5
38A
 10
22.7000
 20
-72.1619
 30
0.000000
  70
    32
  0
SEQEND
  8
0
  5
38B
  0
CIRCLE
  5
33
  8
0
 10
19.999999999999972
 20
-35.0
 30
0.0
 40
5.0
  0
CIRCLE
  5
34
  8
0
 10
19.999999999999972
 20
-35.0
 30
0.0
 40
2.7000000000000002
  0
POLYLINE
  5
35
  8
0
 10
22.700000000000038
 20
-87.161879502661719
 30
0.0
 66
     1
 70
     8
  0
VERTEX
  8
0
  5
38C
 10
22.7000
 20
-87.1619
 30
0.000000
  70
    32
  0
VERTEX
  8
0
  5
38D
 10
22.6967
 20
-87.0682
 30
0.000000
  70
    32
  0
VERTEX
  8
0
  5
38E
 10
22.6870
 20
-86.9747
 30
0.000000
  70
    32
  0
VERTEX
  8
0
  5
38F
 10
22.6708
 20
-86.8817
 30
0.000000
  70
    32
  0
VERTEX
  8
0
  5
390
 10
22.6481
 20
-86.7894
 30
0.000000
  70
    32
  0
VERTEX
  8
0
  5
391
 10
22.6191
 20
-86.6980
 30
0.000000
  70
    32
  0
VERTEX
  8
0
  5
392
 10
22.5837
 20
-86.6077
 30
0.000000
  70
    32
  0
VERTEX
  8
0
  5
393
 10
22.5422
 20
-86.5187
 30
0.000000
  70
    32
  0
VERTEX
  8
0
  5
394
 10
22.4945
 20
-86.4313
 30
0.000000
  70
    32
  0
VERTEX
  8
0
  5
395
 10
22.4408
 20
-86.3456
 30
0.000000
  70
    32
  0
VERTEX
  8
0
  5
396
 10
22.3812
 20
-86.2619
 30
0.000000
  70
    32
  0
VERTEX
  8
0
  5
397
 10
22.3159
 20
-86.1804
 30
0.000000
  70
    32
  0
VERTEX
  8
0
  5
398
 10
22.2450
 20
-86.1012
 30
0.000000
  70
    32
  0
VERTEX
  8
0
  5
399
 10
22.1687
 20
-86.0246
 30
0.000000
  70
    32
  0
VERTEX
  8
0
  5
39A
 10
22.0871
 20
-85.9507
 30
0.000000
  70
    32
  0
VERTEX
  8
0
  5
39B
 10
22.0006
 20
-85.8797
 30
0.000000
  70
    32
  0
VERTEX
  8
0
  5
39C
 10
21.9092
 20
-85.8119
 30
0.000000
  70
    32
  0
VERTEX
  8
0
  5
39D
 10
21.8132
 20
-85.7473
 30
0.000000
  70
    32
  0
VERTEX
  8
0
  5
39E
 10
21.7129
 20
-85.6861
 30
0.000000
  70
    32
  0
VERTEX
  8
0
  5
39F
 10
21.6084
 20
-85.6284
 30
0.000000
  70
    32
  0
VERTEX
  8
0
  5
3A0
 10
21.5000
 20
-85.5744
 30
0.000000
  70
    32
  0
VERTEX
  8
0
  5
3A1
 10
21.3881
 20
-85.5243
 30
0.000000
  70
    32
  0
VERTEX
  8
0
  5
3A2
 10
21.2728
 20
-85.4781
 30
0.000000
  70
    32
  0
VERTEX
  8
0
  5
3A3
 10
21.1544
 20
-85.4360
 30
0.000000
  70
    32
  0
VERTEX
  8
0
  5
3A4
 10
21.0332
 20
-85.3980
 30
0.000000
  70
    32
  0
VERTEX
  8
0
  5
3A5
 10
20.9096
 20
-85.3643
 30
0.000000
  70
    32
  0
VERTEX
  8
0
  5
3A6
 10
20.7838
 20
-85.3349
 30
0.000000
  70
    32
  0
VERTEX
  8
0
  5
3A7
 10
20.6560
 20
-85.3099
 30
0.000000
  70
    32
  0
VERTEX
  8
0
  5
3A8
 10
20.5267
 20
-85.2894
 30
0.000000
  70
    32
  0
VERTEX
  8
0
  5
3A9
 10
20.3962
 20
-85.2734
 30
0.000000
  70
    32
  0
VERTEX
  8
0
  5
3AA
 10
20.2646
 20
-85.2619
 30
0.000000
  70
    32
  0
VERTEX
  8
0
  5
3AB
 10
20.1325
 20
-85.2550
 30
0.000000
  70
    32
  0
VERTEX
  8
0
  5
3AC
 10
20.0000
 20
-85.2527
 30
0.000000
  70
    32
  0
VERTEX
  8
0
  5
3AD
 10
19.8675
 20
-85.2550
 30
0.000000
  70
    32
  0
VERTEX
  8
0
  5
3AE
 10
19.7354
 20
-85.2619
 30
0.000000
  70
    32
  0
VERTEX
  8
0
  5
3AF
 10
19.6038
 20
-85.2734
 30
0.000000
  70
    32
  0
VERTEX
  8
0
  5
3B0
 10
19.4733
 20
-85.2894
 30
0.000000
  70
    32
  0
VERTEX
  8
0
  5
3B1
 10
19.3440
 20
-85.3099
 30
0.000000
  70
    32
  0
VERTEX
  8
0
  5
3B2
 10
19.2162
 20
-85.3349
 30
0.000000
  70
    32
  0
VERTEX
  8
0
  5
3B3
 10
19.0904
 20
-85.3643
 30
0.000000
  70
    32
  0
VERTEX
  8
0
  5
3B4
 10
18.9668
 20
-85.3980
 30
0.000000
  70
    32
  0
VERTEX
  8
0
  5
3B5
 10
18.8456
 20
-85.4360
 30
0.000000
  70
    32
  0
VERTEX
  8
0
  5
3B6
 10
18.7272
 20
-85.4781
 30
0.000000
  70
    32
  0
VERTEX
  8
0
  5
3B7
 10
18.6119
 20
-85.5243
 30
0.000000
  70
    32
  0
VERTEX
  8
0
  5
3B8
 10
18.5000
 20
-85.5744
 30
0.000000
  70
    32
  0
VERTEX
  8
0
  5
3B9
 10
18.3916
 20
-85.6284
 30
0.000000
  70
    32
  0
VERTEX
  8
0
  5
3BA
 10
18.2871
 20
-85.6861
 30
0.000000
  70
    32
  0
VERTEX
  8
0
  5
3BB
 10
18.1868
 20
-85.7473
 30
0.000000
  70
    32
  0
VERTEX
  8
0
  5
3BC
 10
18.0908
 20
-85.8119
 30
0.000000
  70
    32
  0
VERTEX
  8
0
  5
3BD
 10
17.9994
 20
-85.8797
 30
0.000000
  70
    32
  0
VERTEX
  8
0
  5
3BE
 10
17.9129
 20
-85.9507
 30
0.000000
  70
    32
  0
VERTEX
  8
0
  5
3BF
 10
17.8313
 20
-86.0246
 30
0.000000
  70
    32
  0
VERTEX
  8
0
  5
3C0
 10
17.7550
 20
-86.1012
 30
0.000000
  70
    32
  0
VERTEX
  8
0
  5
3C1
 10
17.6841
 20
-86.1804
 30
0.000000
  70
    32
  0
VERTEX
  8
0
  5
3C2
 10
17.6188
 20
-86.2619
 30
0.000000
  70
    32
  0
VERTEX
  8
0
  5
3C3
 10
17.5592
 20
-86.3456
 30
0.000000
  70
    32
  0
VERTEX
  8
0
  5
3C4
 10
17.5055
 20
-86.4313
 30
0.000000
  70
    32
  0
VERTEX
  8
0
  5
3C5
 10
17.4578
 20
-86.5187
 30
0.000000
  70
    32
  0
VERTEX
  8
0
  5
3C6
 10
17.4163
 20
-86.6077
 30
0.000000
  70
    32
  0
VERTEX
  8
0
  5
3C7
 10
17.3809
 20
-86.6980
 30
0.000000
  70
    32
  0
VERTEX
  8
0
  5
3C8
 10
17.3519
 20
-86.7894
 30
0.000000
  70
    32
  0
VERTEX
  8
0
  5
3C9
 10
17.3292
 20
-86.8817
 30
0.000000
  70
    32
  0
VERTEX
  8
0
  5
3CA
 10
17.3130
 20
-86.9747
 30
0.000000
  70
    32
  0
VERTEX
  8
0
  5
3CB
 10
17.3033
 20
-87.0682
 30
0.000000
  70
    32
  0
VERTEX
  8
0
  5
3CC
 10
17.3000
 20
-87.1619
 30
0.000000
  70
    32
  0
VERTEX
  8
0
  5
3CD
 10
17.3033
 20
-87.2556
 30
0.000000
  70
    32
  0
VERTEX
  8
0
  5
3CE
 10
17.3130
 20
-87.3490
 30
0.000000
  70
    32
  0
VERTEX
  8
0
  5
3CF
 10
17.3292
 20
-87.4420
 30
0.000000
  70
    32
  0
VERTEX
  8
0
  5
3D0
 10
17.3519
 20
-87.5343
 30
0.000000
  70
    32
  0
VERTEX
  8
0
  5
3D1
 10
17.3809
 20
-87.6258
 30
0.000000
  70
    32
  0
VERTEX
  8
0
  5
3D2
 10
17.4163
 20
-87.7161
 30
0.000000
  70
    32
  0
VERTEX
  8
0
  5
3D3
 10
17.4578
 20
-87.8051
 30
0.000000
  70
    32
  0
VERTEX
  8
0
  5
3D4
 10
17.5055
 20
-87.8925
 30
0.000000
  70
    32
  0
VERTEX
  8
0
  5
3D5
 10
17.5592
 20
-87.9782
 30
0.000000
  70
    32
  0
VERTEX
  8
0
  5
3D6
 10
17.6188
 20
-88.0619
 30
0.000000
  70
    32
  0
VERTEX
  8
0
  5
3D7
 10
17.6841
 20
-88.1434
 30
0.000000
  70
    32
  0
VERTEX
  8
0
  5
3D8
 10
17.7550
 20
-88.2226
 30
0.000000
  70
    32
  0
VERTEX
  8
0
  5
3D9
 10
17.8313
 20
-88.2992
 30
0.000000
  70
    32
  0
VERTEX
  8
0
  5
3DA
 10
17.9129
 20
-88.3731
 30
0.000000
  70
    32
  0
VERTEX
  8
0
  5
3DB
 10
17.9994
 20
-88.4440
 30
0.000000
  70
    32
  0
VERTEX
  8
0
  5
3DC
 10
18.0908
 20
-88.5119
 30
0.000000
  70
    32
  0
VERTEX
  8
0
  5
3DD
 10
18.1868
 20
-88.5765
 30
0.000000
  70
    32
  0
VERTEX
  8
0
  5
3DE
 10
18.2871
 20
-88.6377
 30
0.000000
  70
    32
  0
VERTEX
  8
0
  5
3DF
 10
18.3916
 20
-88.6954
 30
0.000000
  70
    32
  0
VERTEX
  8
0
  5
3E0
 10
18.5000
 20
-88.7493
 30
0.000000
  70
    32
  0
VERTEX
  8
0
  5
3E1
 10
18.6119
 20
-88.7994
 30
0.000000
  70
    32
  0
VERTEX
  8
0
  5
3E2
 10
18.7272
 20
-88.8456
 30
0.000000
  70
    32
  0
VERTEX
  8
0
  5
3E3
 10
18.8456
 20
-88.8878
 30
0.000000
  70
    32
  0
VERTEX
  8
0
  5
3E4
 10
18.9668
 20
-88.9257
 30
0.000000
  70
    32
  0
VERTEX
  8
0
  5
3E5
 10
19.0904
 20
-88.9595
 30
0.000000
  70
    32
  0
VERTEX
  8
0
  5
3E6
 10
19.2162
 20
-88.9889
 30
0.000000
  70
    32
  0
VERTEX
  8
0
  5
3E7
 10
19.3440
 20
-89.0139
 30
0.000000
  70
    32
  0
VERTEX
  8
0
  5
3E8
 10
19.4733
 20
-89.0344
 30
0.000000
  70
    32
  0
VERTEX
  8
0
  5
3E9
 10
19.6038
 20
-89.0504
 30
0.000000
  70
    32
  0
VERTEX
  8
0
  5
3EA
 10
19.7354
 20
-89.0619
 30
0.000000
  70
    32
  0
VERTEX
  8
0
  5
3EB
 10
19.8675
 20
-89.0688
 30
0.000000
  70
    32
  0
VERTEX
  8
0
  5
3EC
 10
20.0000
 20
-89.0711
 30
0.000000
  70
    32
  0
VERTEX
  8
0
  5
3ED
 10
20.1325
 20
-89.0688
 30
0.000000
  70
    32
  0
VERTEX
  8
0
  5
3EE
 10
20.2646
 20
-89.0619
 30
0.000000
  70
    32
  0
VERTEX
  8
0
  5
3EF
 10
20.3962
 20
-89.0504
 30
0.000000
  70
    32
  0
VERTEX
  8
0
  5
3F0
 10
20.5267
 20
-89.0344
 30
0.000000
  70
    32
  0
VERTEX
  8
0
  5
3F1
 10
20.6560
 20
-89.0139
 30
0.000000
  70
    32
  0
VERTEX
  8
0
  5
3F2
 10
20.7838
 20
-88.9889
 30
0.000000
  70
    32
  0
VERTEX
  8
0
  5
3F3
 10
20.9096
 20
-88.9595
 30
0.000000
  70
    32
  0
VERTEX
  8
0
  5
3F4
 10
21.0332
 20
-88.9257
 30
0.000000
  70
    32
  0
VERTEX
  8
0
  5
3F5
 10
21.1544
 20
-88.8878
 30
0.000000
  70
    32
  0
VERTEX
  8
0
  5
3F6
 10
21.2728
 20
-88.8456
 30
0.000000
  70
    32
  0
VERTEX
  8
0
  5
3F7
 10
21.3881
 20
-88.7994
 30
0.000000
  70
    32
  0
VERTEX
  8
0
  5
3F8
 10
21.5000
 20
-88.7493
 30
0.000000
  70
    32
  0
VERTEX
  8
0
  5
3F9
 10
21.6084
 20
-88.6954
 30
0.000000
  70
    32
  0
VERTEX
  8
0
  5
3FA
 10
21.7129
 20
-88.6377
 30
0.000000
  70
    32
  0
VERTEX
  8
0
  5
3FB
 10
21.8132
 20
-88.5765
 30
0.000000
  70
    32
  0
VERTEX
  8
0
  5
3FC
 10
21.9092
 20
-88.5119
 30
0.000000
  70
    32
  0
VERTEX
  8
0
  5
3FD
 10
22.0006
 20
-88.4440
 30
0.000000
  70
    32
  0
VERTEX
  8
0
  5
3FE
 10
22.0871
 20
-88.3731
 30
0.000000
  70
    32
  0
VERTEX
  8
0
  5
3FF
 10
22.1687
 20
-88.2992
 30
0.000000
  70
    32
  0
VERTEX
  8
0
  5
400
 10
22.2450
 20
-88.2226
 30
0.000000
  70
    32
  0
VERTEX
  8
0
  5
401
 10
22.3159
 20
-88.1434
 30
0.000000
  70
    32
  0
VERTEX
  8
0
  5
402
 10
22.3812
 20
-88.0619
 30
0.000000
  70
    32
  0
VERTEX
  8
0
  5
403
 10
22.4408
 20
-87.9782
 30
0.000000
  70
    32
  0
VERTEX
  8
0
  5
404
 10
22.4945
 20
-87.8925
 30
0.000000
  70
    32
  0
VERTEX
  8
0
  5
405
 10
22.5422
 20
-87.8051
 30
0.000000
  70
    32
  0
VERTEX
  8
0
  5
406
 10
22.5837
 20
-87.7161
 30
0.000000
  70
    32
  0
VERTEX
  8
0
  5
407
 10
22.6191
 20
-87.6258
 30
0.000000
  70
    32
  0
VERTEX
  8
0
  5
408
 10
22.6481
 20
-87.5343
 30
0.000000
  70
    32
  0
VERTEX
  8
0
  5
409
 10
22.6708
 20
-87.4420
 30
0.000000
  70
    32
  0
VERTEX
  8
0
  5
40A
 10
22.6870
 20
-87.3490
 30
0.000000
  70
    32
  0
VERTEX
  8
0
  5
40B
 10
22.6967
 20
-87.2556
 30
0.000000
  70
    32
  0
VERTEX
  8
0
  5
40C
 10
22.7000
 20
-87.1619
 30
0.000000
  70
    32
  0
SEQEND
  8
0
  5
40D
  0
POLYLINE
  5
36
  8
0
 10
24.714045207910331
 20
-84.357022603955087
 30
0.0
 66
     1
 70
     8
  0
VERTEX
  8
0
  5
40E
 10
24.7140
 20
-84.3570
 30
0.000000
  70
    32
  0
VERTEX
  8
0
  5
40F
 10
24.6811
 20
-84.2931
 30
0.000000
  70
    32
  0
VERTEX
  8
0
  5
410
 10
24.6465
 20
-84.2297
 30
0.000000
  70
    32
  0
VERTEX
  8
0
  5
411
 10
24.6101
 20
-84.1668
 30
0.000000
  70
    32
  0
VERTEX
  8
0
  5
412
 10
24.5720
 20
-84.1043
 30
0.000000
  70
    32
  0
VERTEX
  8
0
  5
413
 10
24.5322
 20
-84.0424
 30
0.000000
  70
    32
  0
VERTEX
  8
0
  5
414
 10
24.4908
 20
-83.9810
 30
0.000000
  70
    32
  0
VERTEX
  8
0
  5
415
 10
24.4477
 20
-83.9203
 30
0.000000
  70
    32
  0
VERTEX
  8
0
  5
416
 10
24.4029
 20
-83.8601
 30
0.000000
  70
    32
  0
VERTEX
  8
0
  5
417
 10
24.3565
 20
-83.8005
 30
0.000000
  70
    32
  0
VERTEX
  8
0
  5
418
 10
24.3085
 20
-83.7416
 30
0.000000
  70
    32
  0
VERTEX
  8
0
  5
419
 10
24.2589
 20
-83.6833
 30
0.000000
  70
    32
  0
VERTEX
  8
0
  5
41A
 10
24.2078
 20
-83.6257
 30
0.000000
  70
    32
  0
VERTEX
  8
0
  5
41B
 10
24.1550
 20
-83.5689
 30
0.000000
  70
    32
  0
VERTEX
  8
0
  5
41C
 10
24.1008
 20
-83.5127
 30
0.000000
  70
    32
  0
VERTEX
  8
0
  5
41D
 10
24.0450
 20
-83.4573
 30
0.000000
  70
    32
  0
VERTEX
  8
0
  5
41E
 10
23.9877
 20
-83.4027
 30
0.000000
  70
    32
  0
VERTEX
  8
0
  5
41F
 10
23.9290
 20
-83.3489
 30
0.000000
  70
    32
  0
VERTEX
  8
0
  5
420
 10
23.8688
 20
-83.2958
 30
0.000000
  70
    32
  0
VERTEX
  8
0
  5
421
 10
23.8072
 20
-83.2436
 30
0.000000
  70
    32
  0
VERTEX
  8
0
  5
422
 10
23.7441
 20
-83.1923
 30
0.000000
  70
    32
  0
VERTEX
  8
0
  5
423
 10
23.6797
 20
-83.1418
 30
0.000000
  70
    32
  0
VERTEX
  8
0
  5
424
 10
23.6139
 20
-83.0922
 30
0.000000
  70
    32
  0
VERTEX
  8
0
  5
425
 10
23.5468
 20
-83.0435
 30
0.000000
  70
    32
  0
VERTEX
  8
0
  5
426
 10
23.4783
 20
-82.9957
 30
0.000000
  70
    32
  0
VERTEX
  8
0
  5
427
 10
23.4086
 20
-82.9489
 30
0.000000
  70
    32
  0
VERTEX
  8
0
  5
428
 10
23.3376
 20
-82.9030
 30
0.000000
  70
    32
  0
VERTEX
  8
0
  5
429
 10
23.2654
 20
-82.8581
 30
0.000000
  70
    32
  0
VERTEX
  8
0
  5
42A
 10
23.1920
 20
-82.8142
 30
0.000000
  70
    32
  0
VERTEX
  8
0
  5
42B
 10
23.1174
 20
-82.7713
 30
0.000000
  70
    32
  0
VERTEX
  8
0
  5
42C
 10
23.0416
 20
-82.7294
 30
0.000000
  70
    32
  0
VERTEX
  8
0
  5
42D
 10
22.9647
 20
-82.6886
 30
0.000000
  70
    32
  0
VERTEX
  8
0
  5
42E
 10
22.8868
 20
-82.6488
 30
0.000000
  70
    32
  0
VERTEX
  8
0
  5
42F
 10
22.8077
 20
-82.6101
 30
0.000000
  70
    32
  0
VERTEX
  8
0
  5
430
 10
22.7276
 20
-82.5724
 30
0.000000
  70
    32
  0
VERTEX
  8
0
  5
431
 10
22.6465
 20
-82.5359
 30
0.000000
  70
    32
  0
VERTEX
  8
0
  5
432
 10
22.5644
 20
-82.5004
 30
0.000000
  70
    32
  0
VERTEX
  8
0
  5
433
 10
22.4814
 20
-82.4661
 30
0.000000
  70
    32
  0
VERTEX
  8
0
  5
434
 10
22.3975
 20
-82.4329
 30
0.000000
  70
    32
  0
VERTEX
  8
0
  5
435
 10
22.3126
 20
-82.4009
 30
0.000000
  70
    32
  0
VERTEX
  8
0
  5
436
 10
22.2269
 20
-82.3700
 30
0.000000
  70
    32
  0
VERTEX
  8
0
  5
437
 10
22.1404
 20
-82.3403
 30
0.000000
  70
    32
  0
VERTEX
  8
0
  5
438
 10
22.0531
 20
-82.3118
 30
0.000000
  70
    32
  0
VERTEX
  8
0
  5
439
 10
21.9651
 20
-82.2845
 30
0.000000
  70
    32
  0
VERTEX
  8
0
  5
43A
 10
21.8763
 20
-82.2584
 30
0.000000
  70
    32
  0
VERTEX
  8
0
  5
43B
 10
21.7868
 20
-82.2335
 30
0.000000
  70
    32
  0
VERTEX
  8
0
  5
43C
 10
21.6967
 20
-82.2098
 30
0.000000
  70
    32
  0
VERTEX
  8
0
  5
43D
 10
21.6059
 20
-82.1873
 30
0.000000
  70
    32
  0
VERTEX
  8
0
  5
43E
 10
21.5145
 20
-82.1661
 30
0.000000
  70
    32
  0
VERTEX
  8
0
  5
43F
 10
21.4226
 20
-82.1461
 30
0.000000
  70
    32
  0
VERTEX
  8
0
  5
440
 10
21.3302
 20
-82.1274
 30
0.000000
  70
    32
  0
VERTEX
  8
0
  5
441
 10
21.2372
 20
-82.1099
 30
0.000000
  70
    32
  0
VERTEX
  8
0
  5
442
 10
21.1438
 20
-82.0938
 30
0.000000
  70
    32
  0
VERTEX
  8
0
  5
443
 10
21.0500
 20
-82.0788
 30
0.000000
  70
    32
  0
VERTEX
  8
0
  5
444
 10
20.9558
 20
-82.0652
 30
0.000000
  70
    32
  0
VERTEX
  8
0
  5
445
 10
20.8612
 20
-82.0528
 30
0.000000
  70
    32
  0
VERTEX
  8
0
  5
446
 10
20.7663
 20
-82.0418
 30
0.000000
  70
    32
  0
VERTEX
  8
0
  5
447
 10
20.6711
 20
-82.0320
 30
0.000000
  70
    32
  0
VERTEX
  8
0
  5
448
 10
20.5757
 20
-82.0235
 30
0.000000
  70
    32
  0
VERTEX
  8
0
  5
449
 10
20.4801
 20
-82.0163
 30
0.000000
  70
    32
  0
VERTEX
  8
0
  5
44A
 10
20.3843
 20
-82.0105
 30
0.000000
  70
    32
  0
VERTEX
  8
0
  5
44B
 10
20.2883
 20
-82.0059
 30
0.000000
  70
    32
  0
VERTEX
  8
0
  5
44C
 10
20.1923
 20
-82.0026
 30
0.000000
  70
    32
  0
VERTEX
  8
0
  5
44D
 10
20.0962
 20
-82.0007
 30
0.000000
  70
    32
  0
VERTEX
  8
0
  5
44E
 10
20.0000
 20
-82.0000
 30
0.000000
  70
    32
  0
VERTEX
  8
0
  5
44F
 10
19.9038
 20
-82.0007
 30
0.000000
  70
    32
  0
VERTEX
  8
0
  5
450
 10
19.8077
 20
-82.0026
 30
0.000000
  70
    32
  0
VERTEX
  8
0
  5
451
 10
19.7117
 20
-82.0059
 30
0.000000
  70
    32
  0
VERTEX
  8
0
  5
452
 10
19.6157
 20
-82.0105
 30
0.000000
  70
    32
  0
VERTEX
  8
0
  5
453
 10
19.5199
 20
-82.0163
 30
0.000000
  70
    32
  0
VERTEX
  8
0
  5
454
 10
19.4243
 20
-82.0235
 30
0.000000
  70
    32
  0
VERTEX
  8
0
  5
455
 10
19.3289
 20
-82.0320
 30
0.000000
  70
    32
  0
VERTEX
  8
0
  5
456
 10
19.2337
 20
-82.0418
 30
0.000000
  70
    32
  0
VERTEX
  8
0
  5
457
 10
19.1388
 20
-82.0528
 30
0.000000
  70
    32
  0
VERTEX
  8
0
  5
458
 10
19.0442
 20
-82.0652
 30
0.000000
  70
    32
  0
VERTEX
  8
0
  5
459
 10
18.9500
 20
-82.0788
 30
0.000000
  70
    32
  0
VERTEX
  8
0
  5
45A
 10
18.8562
 20
-82.0938
 30
0.000000
  70
    32
  0
VERTEX
  8
0
  5
45B
 10
18.7628
 20
-82.1099
 30
0.000000
  70
    32
  0
VERTEX
  8
0
  5
45C
 10
18.6698
 20
-82.1274
 30
0.000000
  70
    32
  0
VERTEX
  8
0
  5
45D
 10
18.5774
 20
-82.1461
 30
0.000000
  70
    32
  0
VERTEX
  8
0
  5
45E
 10
18.4855
 20
-82.1661
 30
0.000000
  70
    32
  0
VERTEX
  8
0
  5
45F
 10
18.3941
 20
-82.1873
 30
0.000000
  70
    32
  0
VERTEX
  8
0
  5
460
 10
18.3033
 20
-82.2098
 30
0.000000
  70
    32
  0
VERTEX
  8
0
  5
461
 10
18.2132
 20
-82.2335
 30
0.000000
  70
    32
  0
VERTEX
  8
0
  5
462
 10
18.1237
 20
-82.2584
 30
0.000000
  70
    32
  0
VERTEX
  8
0
  5
463
 10
18.0349
 20
-82.2845
 30
0.000000
  70
    32
  0
VERTEX
  8
0
  5
464
 10
17.9469
 20
-82.3118
 30
0.000000
  70
    32
  0
VERTEX
  8
0
  5
465
 10
17.8596
 20
-82.3403
 30
0.000000
  70
    32
  0
VERTEX
  8
0
  5
466
 10
17.7731
 20
-82.3700
 30
0.000000
  70
    32
  0
VERTEX
  8
0
  5
467
 10
17.6874
 20
-82.4009
 30
0.000000
  70
    32
  0
VERTEX
  8
0
  5
468
 10
17.6025
 20
-82.4329
 30
0.000000
  70
    32
  0
VERTEX
  8
0
  5
469
 10
17.5186
 20
-82.4661
 30
0.000000
  70
    32
  0
VERTEX
  8
0
  5
46A
 10
17.4356
 20
-82.5004
 30
0.000000
  70
    32
  0
VERTEX
  8
0
  5
46B
 10
17.3535
 20
-82.5359
 30
0.000000
  70
    32
  0
VERTEX
  8
0
  5
46C
 10
17.2724
 20
-82.5724
 30
0.000000
  70
    32
  0
VERTEX
  8
0
  5
46D
 10
17.1923
 20
-82.6101
 30
0.000000
  70
    32
  0
VERTEX
  8
0
  5
46E
 10
17.1132
 20
-82.6488
 30
0.000000
  70
    32
  0
VERTEX
  8
0
  5
46F
 10
17.0353
 20
-82.6886
 30
0.000000
  70
    32
  0
VERTEX
  8
0
  5
470
 10
16.9584
 20
-82.7294
 30
0.000000
  70
    32
  0
VERTEX
  8
0
  5
471
 10
16.8826
 20
-82.7713
 30
0.000000
  70
    32
  0
VERTEX
  8
0
  5
472
 10
16.8080
 20
-82.8142
 30
0.000000
  70
    32
  0
VERTEX
  8
0
  5
473
 10
16.7346
 20
-82.8581
 30
0.000000
  70
    32
  0
VERTEX
  8
0
  5
474
 10
16.6624
 20
-82.9030
 30
0.000000
  70
    32
  0
VERTEX
  8
0
  5
475
 10
16.5914
 20
-82.9489
 30
0.000000
  70
    32
  0
VERTEX
  8
0
  5
476
 10
16.5217
 20
-82.9957
 30
0.000000
  70
    32
  0
VERTEX
  8
0
  5
477
 10
16.4532
 20
-83.0435
 30
0.000000
  70
    32
  0
VERTEX
  8
0
  5
478
 10
16.3861
 20
-83.0922
 30
0.000000
  70
    32
  0
VERTEX
  8
0
  5
479
 10
16.3203
 20
-83.1418
 30
0.000000
  70
    32
  0
VERTEX
  8
0
  5
47A
 10
16.2559
 20
-83.1923
 30
0.000000
  70
    32
  0
VERTEX
  8
0
  5
47B
 10
16.1928
 20
-83.2436
 30
0.000000
  70
    32
  0
VERTEX
  8
0
  5
47C
 10
16.1312
 20
-83.2958
 30
0.000000
  70
    32
  0
VERTEX
  8
0
  5
47D
 10
16.0710
 20
-83.3489
 30
0.000000
  70
    32
  0
VERTEX
  8
0
  5
47E
 10
16.0123
 20
-83.4027
 30
0.000000
  70
    32
  0
VERTEX
  8
0
  5
47F
 10
15.9550
 20
-83.4573
 30
0.000000
  70
    32
  0
VERTEX
  8
0
  5
480
 10
15.8992
 20
-83.5127
 30
0.000000
  70
    32
  0
VERTEX
  8
0
  5
481
 10
15.8450
 20
-83.5689
 30
0.000000
  70
    32
  0
VERTEX
  8
0
  5
482
 10
15.7922
 20
-83.6257
 30
0.000000
  70
    32
  0
VERTEX
  8
0
  5
483
 10
15.7411
 20
-83.6833
 30
0.000000
  70
    32
  0
VERTEX
  8
0
  5
484
 10
15.6915
 20
-83.7416
 30
0.000000
  70
    32
  0
VERTEX
  8
0
  5
485
 10
15.6435
 20
-83.8005
 30
0.000000
  70
    32
  0
VERTEX
  8
0
  5
486
 10
15.5971
 20
-83.8601
 30
0.000000
  70
    32
  0
VERTEX
  8
0
  5
487
 10
15.5523
 20
-83.9203
 30
0.000000
  70
    32
  0
VERTEX
  8
0
  5
488
 10
15.5092
 20
-83.9810
 30
0.000000
  70
    32
  0
VERTEX
  8
0
  5
489
 10
15.4678
 20
-84.0424
 30
0.000000
  70
    32
  0
VERTEX
  8
0
  5
48A
 10
15.4280
 20
-84.1043
 30
0.000000
  70
    32
  0
VERTEX
  8
0
  5
48B
 10
15.3899
 20
-84.1668
 30
0.000000
  70
    32
  0
VERTEX
  8
0
  5
48C
 10
15.3535
 20
-84.2297
 30
0.000000
  70
    32
  0
VERTEX
  8
0
  5
48D
 10
15.3189
 20
-84.2931
 30
0.000000
  70
    32
  0
VERTEX
  8
0
  5
48E
 10
15.2860
 20
-84.3570
 30
0.000000
  70
    32
  0
SEQEND
  8
0
  5
48F
  0
POLYLINE
  5
37
  8
0
 10
20.000000000000028
 20
-74.928932188134453
 30
0.0
 66
     1
 70
     8
  0
VERTEX
  8
0
  5
490
 10
20.0000
 20
-74.9289
 30
0.000000
  70
    32
  0
VERTEX
  8
0
  5
491
 10
19.7547
 20
-74.9374
 30
0.000000
  70
    32
  0
VERTEX
  8
0
  5
492
 10
19.5099
 20
-74.9630
 30
0.000000
  70
    32
  0
VERTEX
  8
0
  5
493
 10
19.2663
 20
-75.0055
 30
0.000000
  70
    32
  0
VERTEX
  8
0
  5
494
 10
19.0245
 20
-75.0648
 30
0.000000
  70
    32
  0
VERTEX
  8
0
  5
495
 10
18.7851
 20
-75.1408
 30
0.000000
  70
    32
  0
VERTEX
  8
0
  5
496
 10
18.5486
 20
-75.2334
 30
0.000000
  70
    32
  0
VERTEX
  8
0
  5
497
 10
18.3156
 20
-75.3423
 30
0.000000
  70
    32
  0
VERTEX
  8
0
  5
498
 10
18.0866
 20
-75.4672
 30
0.000000
  70
    32
  0
VERTEX
  8
0
  5
499
 10
17.8622
 20
-75.6078
 30
0.000000
  70
    32
  0
VERTEX
  8
0
  5
49A
 10
17.6430
 20
-75.7639
 30
0.000000
  70
    32
  0
VERTEX
  8
0
  5
49B
 10
17.4295
 20
-75.9349
 30
0.000000
  70
    32
  0
VERTEX
  8
0
  5
49C
 10
17.2221
 20
-76.1206
 30
0.000000
  70
    32
  0
VERTEX
  8
0
  5
49D
 10
17.0215
 20
-76.3205
 30
0.000000
  70
    32
  0
VERTEX
  8
0
  5
49E
 10
16.8280
 20
-76.5340
 30
0.000000
  70
    32
  0
VERTEX
  8
0
  5
49F
 10
16.6422
 20
-76.7607
 30
0.000000
  70
    32
  0
VERTEX
  8
0
  5
4A0
 10
16.4645
 20
-77.0000
 30
0.000000
  70
    32
  0
VERTEX
  8
0
  5
4A1
 10
16.2952
 20
-77.2514
 30
0.000000
  70
    32
  0
VERTEX
  8
0
  5
4A2
 10
16.1349
 20
-77.5142
 30
0.000000
  70
    32
  0
VERTEX
  8
0
  5
4A3
 10
15.9840
 20
-77.7878
 30
0.000000
  70
    32
  0
VERTEX
  8
0
  5
4A4
 10
15.8427
 20
-78.0715
 30
0.000000
  70
    32
  0
VERTEX
  8
0
  5
4A5
 10
15.7114
 20
-78.3647
 30
0.000000
  70
    32
  0
VERTEX
  8
0
  5
4A6
 10
15.5904
 20
-78.6667
 30
0.000000
  70
    32
  0
VERTEX
  8
0
  5
4A7
 10
15.4801
 20
-78.9767
 30
0.000000
  70
    32
  0
VERTEX
  8
0
  5
4A8
 10
15.3806
 20
-79.2940
 30
0.000000
  70
    32
  0
VERTEX
  8
0
  5
4A9
 10
15.2923
 20
-79.6178
 30
0.000000
  70
    32
  0
VERTEX
  8
0
  5
4AA
 10
15.2153
 20
-79.9474
 30
0.000000
  70
    32
  0
VERTEX
  8
0
  5
4AB
 10
15.1498
 20
-80.2819
 30
0.000000
  70
    32
  0
VERTEX
  8
0
  5
4AC
 10
15.0961
 20
-80.6205
 30
0.000000
  70
    32
  0
VERTEX
  8
0
  5
4AD
 10
15.0541
 20
-80.9625
 30
0.000000
  70
    32
  0
VERTEX
  8
0
  5
4AE
 10
15.0241
 20
-81.3069
 30
0.000000
  70
    32
  0
VERTEX
  8
0
  5
4AF
 10
15.0060
 20
-81.6530
 30
0.000000
  70
    32
  0
VERTEX
  8
0
  5
4B0
 10
15.0000
 20
-82.0000
 30
0.000000
  70
    32
  0
VERTEX
  8
0
  5
4B1
 10
15.0060
 20
-82.3470
 30
0.000000
  70
    32
  0
VERTEX
  8
0
  5
4B2
 10
15.0241
 20
-82.6931
 30
0.000000
  70
    32
  0
VERTEX
  8
0
  5
4B3
 10
15.0541
 20
-83.0375
 30
0.000000
  70
    32
  0
VERTEX
  8
0
  5
4B4
 10
15.0961
 20
-83.3795
 30
0.000000
  70
    32
  0
VERTEX
  8
0
  5
4B5
 10
15.1498
 20
-83.7181
 30
0.000000
  70
    32
  0
VERTEX
  8
0
  5
4B6
 10
15.2153
 20
-84.0526
 30
0.000000
  70
    32
  0
VERTEX
  8
0
  5
4B7
 10
15.2923
 20
-84.3822
 30
0.000000
  70
    32
  0
VERTEX
  8
0
  5
4B8
 10
15.3806
 20
-84.7060
 30
0.000000
  70
    32
  0
VERTEX
  8
0
  5
4B9
 10
15.4801
 20
-85.0233
 30
0.000000
  70
    32
  0
VERTEX
  8
0
  5
4BA
 10
15.5904
 20
-85.3333
 30
0.000000
  70
    32
  0
VERTEX
  8
0
  5
4BB
 10
15.7114
 20
-85.6353
 30
0.000000
  70
    32
  0
VERTEX
  8
0
  5
4BC
 10
15.8427
 20
-85.9285
 30
0.000000
  70
    32
  0
VERTEX
  8
0
  5
4BD
 10
15.9840
 20
-86.2122
 30
0.000000
  70
    32
  0
VERTEX
  8
0
  5
4BE
 10
16.1349
 20
-86.4858
 30
0.000000
  70
    32
  0
VERTEX
  8
0
  5
4BF
 10
16.2952
 20
-86.7486
 30
0.000000
  70
    32
  0
VERTEX
  8
0
  5
4C0
 10
16.4645
 20
-87.0000
 30
0.000000
  70
    32
  0
VERTEX
  8
0
  5
4C1
 10
16.6422
 20
-87.2393
 30
0.000000
  70
    32
  0
VERTEX
  8
0
  5
4C2
 10
16.8280
 20
-87.4660
 30
0.000000
  70
    32
  0
VERTEX
  8
0
  5
4C3
 10
17.0215
 20
-87.6795
 30
0.000000
  70
    32
  0
VERTEX
  8
0
  5
4C4
 10
17.2221
 20
-87.8794
 30
0.000000
  70
    32
  0
VERTEX
  8
0
  5
4C5
 10
17.4295
 20
-88.0651
 30
0.000000
  70
    32
  0
VERTEX
  8
0
  5
4C6
 10
17.6430
 20
-88.2361
 30
0.000000
  70
    32
  0
VERTEX
  8
0
  5
4C7
 10
17.8622
 20
-88.3922
 30
0.000000
  70
    32
  0
VERTEX
  8
0
  5
4C8
 10
18.0866
 20
-88.5328
 30
0.000000
  70
    32
  0
VERTEX
  8
0
  5
4C9
 10
18.3156
 20
-88.6577
 30
0.000000
  70
    32
  0
VERTEX
  8
0
  5
4CA
 10
18.5486
 20
-88.7666
 30
0.000000
  70
    32
  0
VERTEX
  8
0
  5
4CB
 10
18.7851
 20
-88.8592
 30
0.000000
  70
    32
  0
VERTEX
  8
0
  5
4CC
 10
19.0245
 20
-88.9352
 30
0.000000
  70
    32
  0
VERTEX
  8
0
  5
4CD
 10
19.2663
 20
-88.9945
 30
0.000000
  70
    32
  0
VERTEX
  8
0
  5
4CE
 10
19.5099
 20
-89.0370
 30
0.000000
  70
    32
  0
VERTEX
  8
0
  5
4CF
 10
19.7547
 20
-89.0626
 30
0.000000
  70
    32
  0
VERTEX
  8
0
  5
4D0
 10
20.0000
 20
-89.0711
 30
0.000000
  70
    32
  0
VERTEX
  8
0
  5
4D1
 10
20.2453
 20
-89.0626
 30
0.000000
  70
    32
  0
VERTEX
  8
0
  5
4D2
 10
20.4901
 20
-89.0370
 30
0.000000
  70
    32
  0
VERTEX
  8
0
  5
4D3
 10
20.7337
 20
-88.9945
 30
0.000000
  70
    32
  0
VERTEX
  8
0
  5
4D4
 10
20.9755
 20
-88.9352
 30
0.000000
  70
    32
  0
VERTEX
  8
0
  5
4D5
 10
21.2149
 20
-88.8592
 30
0.000000
  70
    32
  0
VERTEX
  8
0
  5
4D6
 10
21.4514
 20
-88.7666
 30
0.000000
  70
    32
  0
VERTEX
  8
0
  5
4D7
 10
21.6844
 20
-88.6577
 30
0.000000
  70
    32
  0
VERTEX
  8
0
  5
4D8
 10
21.9134
 20
-88.5328
 30
0.000000
  70
    32
  0
VERTEX
  8
0
  5
4D9
 10
22.1378
 20
-88.3922
 30
0.000000
  70
    32
  0
VERTEX
  8
0
  5
4DA
 10
22.3570
 20
-88.2361
 30
0.000000
  70
    32
  0
VERTEX
  8
0
  5
4DB
 10
22.5705
 20
-88.0651
 30
0.000000
  70
    32
  0
VERTEX
  8
0
  5
4DC
 10
22.7779
 20
-87.8794
 30
0.000000
  70
    32
  0
VERTEX
  8
0
  5
4DD
 10
22.9785
 20
-87.6795
 30
0.000000
  70
    32
  0
VERTEX
  8
0
  5
4DE
 10
23.1720
 20
-87.4660
 30
0.000000
  70
    32
  0
VERTEX
  8
0
  5
4DF
 10
23.3578
 20
-87.2393
 30
0.000000
  70
    32
  0
VERTEX
  8
0
  5
4E0
 10
23.5355
 20
-87.0000
 30
0.000000
  70
    32
  0
VERTEX
  8
0
  5
4E1
 10
23.7048
 20
-86.7486
 30
0.000000
  70
    32
  0
VERTEX
  8
0
  5
4E2
 10
23.8651
 20
-86.4858
 30
0.000000
  70
    32
  0
VERTEX
  8
0
  5
4E3
 10
24.0160
 20
-86.2122
 30
0.000000
  70
    32
  0
VERTEX
  8
0
  5
4E4
 10
24.1573
 20
-85.9285
 30
0.000000
  70
    32
  0
VERTEX
  8
0
  5
4E5
 10
24.2886
 20
-85.6353
 30
0.000000
  70
    32
  0
VERTEX
  8
0
  5
4E6
 10
24.4096
 20
-85.3333
 30
0.000000
  70
    32
  0
VERTEX
  8
0
  5
4E7
 10
24.5199
 20
-85.0233
 30
0.000000
  70
    32
  0
VERTEX
  8
0
  5
4E8
 10
24.6194
 20
-84.7060
 30
0.000000
  70
    32
  0
VERTEX
  8
0
  5
4E9
 10
24.7077
 20
-84.3822
 30
0.000000
  70
    32
  0
VERTEX
  8
0
  5
4EA
 10
24.7847
 20
-84.0526
 30
0.000000
  70
    32
  0
VERTEX
  8
0
  5
4EB
 10
24.8502
 20
-83.7181
 30
0.000000
  70
    32
  0
VERTEX
  8
0
  5
4EC
 10
24.9039
 20
-83.3795
 30
0.000000
  70
    32
  0
VERTEX
  8
0
  5
4ED
 10
24.9459
 20
-83.0375
 30
0.000000
  70
    32
  0
VERTEX
  8
0
  5
4EE
 10
24.9759
 20
-82.6931
 30
0.000000
  70
    32
  0
VERTEX
  8
0
  5
4EF
 10
24.9940
 20
-82.3470
 30
0.000000
  70
    32
  0
VERTEX
  8
0
  5
4F0
 10
25.0000
 20
-82.0000
 30
0.000000
  70
    32
  0
VERTEX
  8
0
  5
4F1
 10
24.9940
 20
-81.6530
 30
0.000000
  70
    32
  0
VERTEX
  8
0
  5
4F2
 10
24.9759
 20
-81.3069
 30
0.000000
  70
    32
  0
VERTEX
  8
0
  5
4F3
 10
24.9459
 20
-80.9625
 30
0.000000
  70
    32
  0
VERTEX
  8
0
  5
4F4
 10
24.9039
 20
-80.6205
 30
0.000000
  70
    32
  0
VERTEX
  8
0
  5
4F5
 10
24.8502
 20
-80.2819
 30
0.000000
  70
    32
  0
VERTEX
  8
0
  5
4F6
 10
24.7847
 20
-79.9474
 30
0.000000
  70
    32
  0
VERTEX
  8
0
  5
4F7
 10
24.7077
 20
-79.6178
 30
0.000000
  70
    32
  0
VERTEX
  8
0
  5
4F8
 10
24.6194
 20
-79.2940
 30
0.000000
  70
    32
  0
VERTEX
  8
0
  5
4F9
 10
24.5199
 20
-78.9767
 30
0.000000
  70
    32
  0
VERTEX
  8
0
  5
4FA
 10
24.4096
 20
-78.6667
 30
0.000000
  70
    32
  0
VERTEX
  8
0
  5
4FB
 10
24.2886
 20
-78.3647
 30
0.000000
  70
    32
  0
VERTEX
  8
0
  5
4FC
 10
24.1573
 20
-78.0715
 30
0.000000
  70
    32
  0
VERTEX
  8
0
  5
4FD
 10
24.0160
 20
-77.7878
 30
0.000000
  70
    32
  0
VERTEX
  8
0
  5
4FE
 10
23.8651
 20
-77.5142
 30
0.000000
  70
    32
  0
VERTEX
  8
0
  5
4FF
 10
23.7048
 20
-77.2514
 30
0.000000
  70
    32
  0
VERTEX
  8
0
  5
500
 10
23.5355
 20
-77.0000
 30
0.000000
  70
    32
  0
VERTEX
  8
0
  5
501
 10
23.3578
 20
-76.7607
 30
0.000000
  70
    32
  0
VERTEX
  8
0
  5
502
 10
23.1720
 20
-76.5340
 30
0.000000
  70
    32
  0
VERTEX
  8
0
  5
503
 10
22.9785
 20
-76.3205
 30
0.000000
  70
    32
  0
VERTEX
  8
0
  5
504
 10
22.7779
 20
-76.1206
 30
0.000000
  70
    32
  0
VERTEX
  8
0
  5
505
 10
22.5705
 20
-75.9349
 30
0.000000
  70
    32
  0
VERTEX
  8
0
  5
506
 10
22.3570
 20
-75.7639
 30
0.000000
  70
    32
  0
VERTEX
  8
0
  5
507
 10
22.1378
 20
-75.6078
 30
0.000000
  70
    32
  0
VERTEX
  8
0
  5
508
 10
21.9134
 20
-75.4672
 30
0.000000
  70
    32
  0
VERTEX
  8
0
  5
509
 10
21.6844
 20
-75.3423
 30
0.000000
  70
    32
  0
VERTEX
  8
0
  5
50A
 10
21.4514
 20
-75.2334
 30
0.000000
  70
    32
  0
VERTEX
  8
0
  5
50B
 10
21.2149
 20
-75.1408
 30
0.000000
  70
    32
  0
VERTEX
  8
0
  5
50C
 10
20.9755
 20
-75.0648
 30
0.000000
  70
    32
  0
VERTEX
  8
0
  5
50D
 10
20.7337
 20
-75.0055
 30
0.000000
  70
    32
  0
VERTEX
  8
0
  5
50E
 10
20.4901
 20
-74.9630
 30
0.000000
  70
    32
  0
VERTEX
  8
0
  5
50F
 10
20.2453
 20
-74.9374
 30
0.000000
  70
    32
  0
VERTEX
  8
0
  5
510
 10
20.0000
 20
-74.9289
 30
0.000000
  70
    32
  0
SEQEND
  8
0
  5
511
  0
POLYLINE
  5
38
  8
0
 10
2.7000000000000375
 20
-87.161879502661719
 30
0.0
 66
     1
 70
     8
  0
VERTEX
  8
0
  5
512
 10
2.70000
 20
-87.1619
 30
0.000000
  70
    32
  0
VERTEX
  8
0
  5
513
 10
2.69675
 20
-87.0682
 30
0.000000
  70
    32
  0
VERTEX
  8
0
  5
514
 10
2.68700
 20
-86.9747
 30
0.000000
  70
    32
  0
VERTEX
  8
0
  5
515
 10
2.67078
 20
-86.8817
 30
0.000000
  70
    32
  0
VERTEX
  8
0
  5
516
 10
2.64812
 20
-86.7894
 30
0.000000
  70
    32
  0
VERTEX
  8
0
  5
517
 10
2.61908
 20
-86.6980
 30
0.000000
  70
    32
  0
VERTEX
  8
0
  5
518
 10
2.58374
 20
-86.6077
 30
0.000000
  70
    32
  0
VERTEX
  8
0
  5
519
 10
2.54217
 20
-86.5187
 30
0.000000
  70
    32
  0
VERTEX
  8
0
  5
51A
 10
2.49447
 20
-86.4313
 30
0.000000
  70
    32
  0
VERTEX
  8
0
  5
51B
 10
2.44077
 20
-86.3456
 30
0.000000
  70
    32
  0
VERTEX
  8
0
  5
51C
 10
2.38119
 20
-86.2619
 30
0.000000
  70
    32
  0
VERTEX
  8
0
  5
51D
 10
2.31587
 20
-86.1804
 30
0.000000
  70
    32
  0
VERTEX
  8
0
  5
51E
 10
2.24497
 20
-86.1012
 30
0.000000
  70
    32
  0
VERTEX
  8
0
  5
51F
 10
2.16866
 20
-86.0246
 30
0.000000
  70
    32
  0
VERTEX
  8
0
  5
520
 10
2.08713
 20
-85.9507
 30
0.000000
  70
    32
  0
VERTEX
  8
0
  5
521
 10
2.00057
 20
-85.8797
 30
0.000000
  70
    32
  0
VERTEX
  8
0
  5
522
 10
1.90919
 20
-85.8119
 30
0.000000
  70
    32
  0
VERTEX
  8
0
  5
523
 10
1.81321
 20
-85.7473
 30
0.000000
  70
    32
  0
VERTEX
  8
0
  5
524
 10
1.71286
 20
-85.6861
 30
0.000000
  70
    32
  0
VERTEX
  8
0
  5
525
 10
1.60839
 20
-85.6284
 30
0.000000
  70
    32
  0
VERTEX
  8
0
  5
526
 10
1.50004
 20
-85.5744
 30
0.000000
  70
    32
  0
VERTEX
  8
0
  5
527
 10
1.38808
 20
-85.5243
 30
0.000000
  70
    32
  0
VERTEX
  8
0
  5
528
 10
1.27277
 20
-85.4781
 30
0.000000
  70
    32
  0
VERTEX
  8
0
  5
529
 10
1.15440
 20
-85.4360
 30
0.000000
  70
    32
  0
VERTEX
  8
0
  5
52A
 10
1.03325
 20
-85.3980
 30
0.000000
  70
    32
  0
VERTEX
  8
0
  5
52B
 10
0.909603
 20
-85.3643
 30
0.000000
  70
    32
  0
VERTEX
  8
0
  5
52C
 10
0.783769
 20
-85.3349
 30
0.000000
  70
    32
  0
VERTEX
  8
0
  5
52D
 10
0.656046
 20
-85.3099
 30
0.000000
  70
    32
  0
VERTEX
  8
0
  5
52E
 10
0.526744
 20
-85.2894
 30
0.000000
  70
    32
  0
VERTEX
  8
0
  5
52F
 10
0.396172
 20
-85.2734
 30
0.000000
  70
    32
  0
VERTEX
  8
0
  5
530
 10
0.264646
 20
-85.2619
 30
0.000000
  70
    32
  0
VERTEX
  8
0
  5
531
 10
0.132483
 20
-85.2550
 30
0.000000
  70
    32
  0
VERTEX
  8
0
  5
532
 10
1.35039e-014
 20
-85.2527
 30
0.000000
  70
    32
  0
VERTEX
  8
0
  5
533
 10
-0.132483
 20
-85.2550
 30
0.000000
  70
    32
  0
VERTEX
  8
0
  5
534
 10
-0.264646
 20
-85.2619
 30
0.000000
  70
    32
  0
VERTEX
  8
0
  5
535
 10
-0.396172
 20
-85.2734
 30
0.000000
  70
    32
  0
VERTEX
  8
0
  5
536
 10
-0.526744
 20
-85.2894
 30
0.000000
  70
    32
  0
VERTEX
  8
0
  5
537
 10
-0.656046
 20
-85.3099
 30
0.000000
  70
    32
  0
VERTEX
  8
0
  5
538
 10
-0.783769
 20
-85.3349
 30
0.000000
  70
    32
  0
VERTEX
  8
0
  5
539
 10
-0.909603
 20
-85.3643
 30
0.000000
  70
    32
  0
VERTEX
  8
0
  5
53A
 10
-1.03325
 20
-85.3980
 30
0.000000
  70
    32
  0
VERTEX
  8
0
  5
53B
 10
-1.15440
 20
-85.4360
 30
0.000000
  70
    32
  0
VERTEX
  8
0
  5
53C
 10
-1.27277
 20
-85.4781
 30
0.000000
  70
    32
  0
VERTEX
  8
0
  5
53D
 10
-1.38808
 20
-85.5243
 30
0.000000
  70
    32
  0
VERTEX
  8
0
  5
53E
 10
-1.50004
 20
-85.5744
 30
0.000000
  70
    32
  0
VERTEX
  8
0
  5
53F
 10
-1.60839
 20
-85.6284
 30
0.000000
  70
    32
  0
VERTEX
  8
0
  5
540
 10
-1.71286
 20
-85.6861
 30
0.000000
  70
    32
  0
VERTEX
  8
0
  5
541
 10
-1.81321
 20
-85.7473
 30
0.000000
  70
    32
  0
VERTEX
  8
0
  5
542
 10
-1.90919
 20
-85.8119
 30
0.000000
  70
    32
  0
VERTEX
  8
0
  5
543
 10
-2.00057
 20
-85.8797
 30
0.000000
  70
    32
  0
VERTEX
  8
0
  5
544
 10
-2.08713
 20
-85.9507
 30
0.000000
  70
    32
  0
VERTEX
  8
0
  5
545
 10
-2.16866
 20
-86.0246
 30
0.000000
  70
    32
  0
VERTEX
  8
0
  5
546
 10
-2.24497
 20
-86.1012
 30
0.000000
  70
    32
  0
VERTEX
  8
0
  5
547
 10
-2.31587
 20
-86.1804
 30
0.000000
  70
    32
  0
VERTEX
  8
0
  5
548
 10
-2.38119
 20
-86.2619
 30
0.000000
  70
    32
  0
VERTEX
  8
0
  5
549
 10
-2.44077
 20
-86.3456
 30
0.000000
  70
    32
  0
VERTEX
  8
0
  5
54A
 10
-2.49447
 20
-86.4313
 30
0.000000
  70
    32
  0
VERTEX
  8
0
  5
54B
 10
-2.54217
 20
-86.5187
 30
0.000000
  70
    32
  0
VERTEX
  8
0
  5
54C
 10
-2.58374
 20
-86.6077
 30
0.000000
  70
    32
  0
VERTEX
  8
0
  5
54D
 10
-2.61908
 20
-86.6980
 30
0.000000
  70
    32
  0
VERTEX
  8
0
  5
54E
 10
-2.64812
 20
-86.7894
 30
0.000000
  70
    32
  0
VERTEX
  8
0
  5
54F
 10
-2.67078
 20
-86.8817
 30
0.000000
  70
    32
  0
VERTEX
  8
0
  5
550
 10
-2.68700
 20
-86.9747
 30
0.000000
  70
    32
  0
VERTEX
  8
0
  5
551
 10
-2.69675
 20
-87.0682
 30
0.000000
  70
    32
  0
VERTEX
  8
0
  5
552
 10
-2.70000
 20
-87.1619
 30
0.000000
  70
    32
  0
VERTEX
  8
0
  5
553
 10
-2.69675
 20
-87.2556
 30
0.000000
  70
    32
  0
VERTEX
  8
0
  5
554
 10
-2.68700
 20
-87.3490
 30
0.000000
  70
    32
  0
VERTEX
  8
0
  5
555
 10
-2.67078
 20
-87.4420
 30
0.000000
  70
    32
  0
VERTEX
  8
0
  5
556
 10
-2.64812
 20
-87.5343
 30
0.000000
  70
    32
  0
VERTEX
  8
0
  5
557
 10
-2.61908
 20
-87.6258
 30
0.000000
  70
    32
  0
VERTEX
  8
0
  5
558
 10
-2.58374
 20
-87.7161
 30
0.000000
  70
    32
  0
VERTEX
  8
0
  5
559
 10
-2.54217
 20
-87.8051
 30
0.000000
  70
    32
  0
VERTEX
  8
0
  5
55A
 10
-2.49447
 20
-87.8925
 30
0.000000
  70
    32
  0
VERTEX
  8
0
  5
55B
 10
-2.44077
 20
-87.9782
 30
0.000000
  70
    32
  0
VERTEX
  8
0
  5
55C
 10
-2.38119
 20
-88.0619
 30
0.000000
  70
    32
  0
VERTEX
  8
0
  5
55D
 10
-2.31587
 20
-88.1434
 30
0.000000
  70
    32
  0
VERTEX
  8
0
  5
55E
 10
-2.24497
 20
-88.2226
 30
0.000000
  70
    32
  0
VERTEX
  8
0
  5
55F
 10
-2.16866
 20
-88.2992
 30
0.000000
  70
    32
  0
VERTEX
  8
0
  5
560
 10
-2.08713
 20
-88.3731
 30
0.000000
  70
    32
  0
VERTEX
  8
0
  5
561
 10
-2.00057
 20
-88.4440
 30
0.000000
  70
    32
  0
VERTEX
  8
0
  5
562
 10
-1.90919
 20
-88.5119
 30
0.000000
  70
    32
  0
VERTEX
  8
0
  5
563
 10
-1.81321
 20
-88.5765
 30
0.000000
  70
    32
  0
VERTEX
  8
0
  5
564
 10
-1.71286
 20
-88.6377
 30
0.000000
  70
    32
  0
VERTEX
  8
0
  5
565
 10
-1.60839
 20
-88.6954
 30
0.000000
  70
    32
  0
VERTEX
  8
0
  5
566
 10
-1.50004
 20
-88.7493
 30
0.000000
  70
    32
  0
VERTEX
  8
0
  5
567
 10
-1.38808
 20
-88.7994
 30
0.000000
  70
    32
  0
VERTEX
  8
0
  5
568
 10
-1.27277
 20
-88.8456
 30
0.000000
  70
    32
  0
VERTEX
  8
0
  5
569
 10
-1.15440
 20
-88.8878
 30
0.000000
  70
    32
  0
VERTEX
  8
0
  5
56A
 10
-1.03325
 20
-88.9257
 30
0.000000
  70
    32
  0
VERTEX
  8
0
  5
56B
 10
-0.909603
 20
-88.9595
 30
0.000000
  70
    32
  0
VERTEX
  8
0
  5
56C
 10
-0.783769
 20
-88.9889
 30
0.000000
  70
    32
  0
VERTEX
  8
0
  5
56D
 10
-0.656046
 20
-89.0139
 30
0.000000
  70
    32
  0
VERTEX
  8
0
  5
56E
 10
-0.526744
 20
-89.0344
 30
0.000000
  70
    32
  0
VERTEX
  8
0
  5
56F
 10
-0.396172
 20
-89.0504
 30
0.000000
  70
    32
  0
VERTEX
  8
0
  5
570
 10
-0.264646
 20
-89.0619
 30
0.000000
  70
    32
  0
VERTEX
  8
0
  5
571
 10
-0.132483
 20
-89.0688
 30
0.000000
  70
    32
  0
VERTEX
  8
0
  5
572
 10
4.29654e-014
 20
-89.0711
 30
0.000000
  70
    32
  0
VERTEX
  8
0
  5
573
 10
0.132483
 20
-89.0688
 30
0.000000
  70
    32
  0
VERTEX
  8
0
  5
574
 10
0.264646
 20
-89.0619
 30
0.000000
  70
    32
  0
VERTEX
  8
0
  5
575
 10
0.396172
 20
-89.0504
 30
0.000000
  70
    32
  0
VERTEX
  8
0
  5
576
 10
0.526744
 20
-89.0344
 30
0.000000
  70
    32
  0
VERTEX
  8
0
  5
577
 10
0.656046
 20
-89.0139
 30
0.000000
  70
    32
  0
VERTEX
  8
0
  5
578
 10
0.783769
 20
-88.9889
 30
0.000000
  70
    32
  0
VERTEX
  8
0
  5
579
 10
0.909603
 20
-88.9595
 30
0.000000
  70
    32
  0
VERTEX
  8
0
  5
57A
 10
1.03325
 20
-88.9257
 30
0.000000
  70
    32
  0
VERTEX
  8
0
  5
57B
 10
1.15440
 20
-88.8878
 30
0.000000
  70
    32
  0
VERTEX
  8
0
  5
57C
 10
1.27277
 20
-88.8456
 30
0.000000
  70
    32
  0
VERTEX
  8
0
  5
57D
 10
1.38808
 20
-88.7994
 30
0.000000
  70
    32
  0
VERTEX
  8
0
  5
57E
 10
1.50004
 20
-88.7493
 30
0.000000
  70
    32
  0
VERTEX
  8
0
  5
57F
 10
1.60839
 20
-88.6954
 30
0.000000
  70
    32
  0
VERTEX
  8
0
  5
580
 10
1.71286
 20
-88.6377
 30
0.000000
  70
    32
  0
VERTEX
  8
0
  5
581
 10
1.81321
 20
-88.5765
 30
0.000000
  70
    32
  0
VERTEX
  8
0
  5
582
 10
1.90919
 20
-88.5119
 30
0.000000
  70
    32
  0
VERTEX
  8
0
  5
583
 10
2.00057
 20
-88.4440
 30
0.000000
  70
    32
  0
VERTEX
  8
0
  5
584
 10
2.08713
 20
-88.3731
 30
0.000000
  70
    32
  0
VERTEX
  8
0
  5
585
 10
2.16866
 20
-88.2992
 30
0.000000
  70
    32
  0
VERTEX
  8
0
  5
586
 10
2.24497
 20
-88.2226
 30
0.000000
  70
    32
  0
VERTEX
  8
0
  5
587
 10
2.31587
 20
-88.1434
 30
0.000000
  70
    32
  0
VERTEX
  8
0
  5
588
 10
2.38119
 20
-88.0619
 30
0.000000
  70
    32
  0
VERTEX
  8
0
  5
589
 10
2.44077
 20
-87.9782
 30
0.000000
  70
    32
  0
VERTEX
  8
0
  5
58A
 10
2.49447
 20
-87.8925
 30
0.000000
  70
    32
  0
VERTEX
  8
0
  5
58B
 10
2.54217
 20
-87.8051
 30
0.000000
  70
    32
  0
VERTEX
  8
0
  5
58C
 10
2.58374
 20
-87.7161
 30
0.000000
  70
    32
  0
VERTEX
  8
0
  5
58D
 10
2.61908
 20
-87.6258
 30
0.000000
  70
    32
  0
VERTEX
  8
0
  5
58E
 10
2.64812
 20
-87.5343
 30
0.000000
  70
    32
  0
VERTEX
  8
0
  5
58F
 10
2.67078
 20
-87.4420
 30
0.000000
  70
    32
  0
VERTEX
  8
0
  5
590
 10
2.68700
 20
-87.3490
 30
0.000000
  70
    32
  0
VERTEX
  8
0
  5
591
 10
2.69675
 20
-87.2556
 30
0.000000
  70
    32
  0
VERTEX
  8
0
  5
592
 10
2.70000
 20
-87.1619
 30
0.000000
  70
    32
  0
SEQEND
  8
0
  5
593
  0
POLYLINE
  5
39
  8
0
 10
4.7140452079103321
 20
-84.357022603955087
 30
0.0
 66
     1
 70
     8
  0
VERTEX
  8
0
  5
594
 10
4.71405
 20
-84.3570
 30
0.000000
  70
    32
  0
VERTEX
  8
0
  5
595
 10
4.68112
 20
-84.2931
 30
0.000000
  70
    32
  0
VERTEX
  8
0
  5
596
 10
4.64646
 20
-84.2297
 30
0.000000
  70
    32
  0
VERTEX
  8
0
  5
597
 10
4.61008
 20
-84.1668
 30
0.000000
  70
    32
  0
VERTEX
  8
0
  5
598
 10
4.57200
 20
-84.1043
 30
0.000000
  70
    32
  0
VERTEX
  8
0
  5
599
 10
4.53223
 20
-84.0424
 30
0.000000
  70
    32
  0
VERTEX
  8
0
  5
59A
 10
4.49078
 20
-83.9810
 30
0.000000
  70
    32
  0
VERTEX
  8
0
  5
59B
 10
4.44767
 20
-83.9203
 30
0.000000
  70
    32
  0
VERTEX
  8
0
  5
59C
 10
4.40291
 20
-83.8601
 30
0.000000
  70
    32
  0
VERTEX
  8
0
  5
59D
 10
4.35653
 20
-83.8005
 30
0.000000
  70
    32
  0
VERTEX
  8
0
  5
59E
 10
4.30853
 20
-83.7416
 30
0.000000
  70
    32
  0
VERTEX
  8
0
  5
59F
 10
4.25894
 20
-83.6833
 30
0.000000
  70
    32
  0
VERTEX
  8
0
  5
5A0
 10
4.20777
 20
-83.6257
 30
0.000000
  70
    32
  0
VERTEX
  8
0
  5
5A1
 10
4.15505
 20
-83.5689
 30
0.000000
  70
    32
  0
VERTEX
  8
0
  5
5A2
 10
4.10079
 20
-83.5127
 30
0.000000
  70
    32
  0
VERTEX
  8
0
  5
5A3
 10
4.04501
 20
-83.4573
 30
0.000000
  70
    32
  0
VERTEX
  8
0
  5
5A4
 10
3.98774
 20
-83.4027
 30
0.000000
  70
    32
  0
VERTEX
  8
0
  5
5A5
 10
3.92899
 20
-83.3489
 30
0.000000
  70
    32
  0
VERTEX
  8
0
  5
5A6
 10
3.86879
 20
-83.2958
 30
0.000000
  70
    32
  0
VERTEX
  8
0
  5
5A7
 10
3.80716
 20
-83.2436
 30
0.000000
  70
    32
  0
VERTEX
  8
0
  5
5A8
 10
3.74412
 20
-83.1923
 30
0.000000
  70
    32
  0
VERTEX
  8
0
  5
5A9
 10
3.67969
 20
-83.1418
 30
0.000000
  70
    32
  0
VERTEX
  8
0
  5
5AA
 10
3.61390
 20
-83.0922
 30
0.000000
  70
    32
  0
VERTEX
  8
0
  5
5AB
 10
3.54678
 20
-83.0435
 30
0.000000
  70
    32
  0
VERTEX
  8
0
  5
5AC
 10
3.47834
 20
-82.9957
 30
0.000000
  70
    32
  0
VERTEX
  8
0
  5
5AD
 10
3.40862
 20
-82.9489
 30
0.000000
  70
    32
  0
VERTEX
  8
0
  5
5AE
 10
3.33763
 20
-82.9030
 30
0.000000
  70
    32
  0
VERTEX
  8
0
  5
5AF
 10
3.26541
 20
-82.8581
 30
0.000000
  70
    32
  0
VERTEX
  8
0
  5
5B0
 10
3.19199
 20
-82.8142
 30
0.000000
  70
    32
  0
VERTEX
  8
0
  5
5B1
 10
3.11738
 20
-82.7713
 30
0.000000
  70
    32
  0
VERTEX
  8
0
  5
5B2
 10
3.04162
 20
-82.7294
 30
0.000000
  70
    32
  0
VERTEX
  8
0
  5
5B3
 10
2.96473
 20
-82.6886
 30
0.000000
  70
    32
  0
VERTEX
  8
0
  5
5B4
 10
2.88675
 20
-82.6488
 30
0.000000
  70
    32
  0
VERTEX
  8
0
  5
5B5
 10
2.80770
 20
-82.6101
 30
0.000000
  70
    32
  0
VERTEX
  8
0
  5
5B6
 10
2.72761
 20
-82.5724
 30
0.000000
  70
    32
  0
VERTEX
  8
0
  5
5B7
 10
2.64651
 20
-82.5359
 30
0.000000
  70
    32
  0
VERTEX
  8
0
  5
5B8
 10
2.56444
 20
-82.5004
 30
0.000000
  70
    32
  0
VERTEX
  8
0
  5
5B9
 10
2.48141
 20
-82.4661
 30
0.000000
  70
    32
  0
VERTEX
  8
0
  5
5BA
 10
2.39747
 20
-82.4329
 30
0.000000
  70
    32
  0
VERTEX
  8
0
  5
5BB
 10
2.31264
 20
-82.4009
 30
0.000000
  70
    32
  0
VERTEX
  8
0
  5
5BC
 10
2.22695
 20
-82.3700
 30
0.000000
  70
    32
  0
VERTEX
  8
0
  5
5BD
 10
2.14044
 20
-82.3403
 30
0.000000
  70
    32
  0
VERTEX
  8
0
  5
5BE
 10
2.05314
 20
-82.3118
 30
0.000000
  70
    32
  0
VERTEX
  8
0
  5
5BF
 10
1.96508
 20
-82.2845
 30
0.000000
  70
    32
  0
VERTEX
  8
0
  5
5C0
 10
1.87629
 20
-82.2584
 30
0.000000
  70
    32
  0
VERTEX
  8
0
  5
5C1
 10
1.78681
 20
-82.2335
 30
0.000000
  70
    32
  0
VERTEX
  8
0
  5
5C2
 10
1.69666
 20
-82.2098
 30
0.000000
  70
    32
  0
VERTEX
  8
0
  5
5C3
 10
1.60589
 20
-82.1873
 30
0.000000
  70
    32
  0
VERTEX
  8
0
  5
5C4
 10
1.51453
 20
-82.1661
 30
0.000000
  70
    32
  0
VERTEX
  8
0
  5
5C5
 10
1.42260
 20
-82.1461
 30
0.000000
  70
    32
  0
VERTEX
  8
0
  5
5C6
 10
1.33015
 20
-82.1274
 30
0.000000
  70
    32
  0
VERTEX
  8
0
  5
5C7
 10
1.23721
 20
-82.1099
 30
0.000000
  70
    32
  0
VERTEX
  8
0
  5
5C8
 10
1.14381
 20
-82.0938
 30
0.000000
  70
    32
  0
VERTEX
  8
0
  5
5C9
 10
1.04998
 20
-82.0788
 30
0.000000
  70
    32
  0
VERTEX
  8
0
  5
5CA
 10
0.955769
 20
-82.0652
 30
0.000000
  70
    32
  0
VERTEX
  8
0
  5
5CB
 10
0.861202
 20
-82.0528
 30
0.000000
  70
    32
  0
VERTEX
  8
0
  5
5CC
 10
0.766317
 20
-82.0418
 30
0.000000
  70
    32
  0
VERTEX
  8
0
  5
5CD
 10
0.671149
 20
-82.0320
 30
0.000000
  70
    32
  0
VERTEX
  8
0
  5
5CE
 10
0.575732
 20
-82.0235
 30
0.000000
  70
    32
  0
VERTEX
  8
0
  5
5CF
 10
0.480103
 20
-82.0163
 30
0.000000
  70
    32
  0
VERTEX
  8
0
  5
5D0
 10
0.384295
 20
-82.0105
 30
0.000000
  70
    32
  0
VERTEX
  8
0
  5
5D1
 10
0.288346
 20
-82.0059
 30
0.000000
  70
    32
  0
VERTEX
  8
0
  5
5D2
 10
0.192290
 20
-82.0026
 30
0.000000
  70
    32
  0
VERTEX
  8
0
  5
5D3
 10
0.0961628
 20
-82.0007
 30
0.000000
  70
    32
  0
VERTEX
  8
0
  5
5D4
 10
3.47493e-014
 20
-82.0000
 30
0.000000
  70
    32
  0
VERTEX
  8
0
  5
5D5
 10
-0.0961628
 20
-82.0007
 30
0.000000
  70
    32
  0
VERTEX
  8
0
  5
5D6
 10
-0.192290
 20
-82.0026
 30
0.000000
  70
    32
  0
VERTEX
  8
0
  5
5D7
 10
-0.288346
 20
-82.0059
 30
0.000000
  70
    32
  0
VERTEX
  8
0
  5
5D8
 10
-0.384295
 20
-82.0105
 30
0.000000
  70
    32
  0
VERTEX
  8
0
  5
5D9
 10
-0.480103
 20
-82.0163
 30
0.000000
  70
    32
  0
VERTEX
  8
0
  5
5DA
 10
-0.575732
 20
-82.0235
 30
0.000000
  70
    32
  0
VERTEX
  8
0
  5
5DB
 10
-0.671149
 20
-82.0320
 30
0.000000
  70
    32
  0
VERTEX
  8
0
  5
5DC
 10
-0.766317
 20
-82.0418
 30
0.000000
  70
    32
  0
VERTEX
  8
0
  5
5DD
 10
-0.861202
 20
-82.0528
 30
0.000000
  70
    32
  0
VERTEX
  8
0
  5
5DE
 10
-0.955769
 20
-82.0652
 30
0.000000
  70
    32
  0
VERTEX
  8
0
  5
5DF
 10
-1.04998
 20
-82.0788
 30
0.000000
  70
    32
  0
VERTEX
  8
0
  5
5E0
 10
-1.14381
 20
-82.0938
 30
0.000000
  70
    32
  0
VERTEX
  8
0
  5
5E1
 10
-1.23721
 20
-82.1099
 30
0.000000
  70
    32
  0
VERTEX
  8
0
  5
5E2
 10
-1.33015
 20
-82.1274
 30
0.000000
  70
    32
  0
VERTEX
  8
0
  5
5E3
 10
-1.42260
 20
-82.1461
 30
0.000000
  70
    32
  0
VERTEX
  8
0
  5
5E4
 10
-1.51453
 20
-82.1661
 30
0.000000
  70
    32
  0
VERTEX
  8
0
  5
5E5
 10
-1.60589
 20
-82.1873
 30
0.000000
  70
    32
  0
VERTEX
  8
0
  5
5E6
 10
-1.69666
 20
-82.2098
 30
0.000000
  70
    32
  0
VERTEX
  8
0
  5
5E7
 10
-1.78681
 20
-82.2335
 30
0.000000
  70
    32
  0
VERTEX
  8
0
  5
5E8
 10
-1.87629
 20
-82.2584
 30
0.000000
  70
    32
  0
VERTEX
  8
0
  5
5E9
 10
-1.96508
 20
-82.2845
 30
0.000000
  70
    32
  0
VERTEX
  8
0
  5
5EA
 10
-2.05314
 20
-82.3118
 30
0.000000
  70
    32
  0
VERTEX
  8
0
  5
5EB
 10
-2.14044
 20
-82.3403
 30
0.000000
  70
    32
  0
VERTEX
  8
0
  5
5EC
 10
-2.22695
 20
-82.3700
 30
0.000000
  70
    32
  0
VERTEX
  8
0
  5
5ED
 10
-2.31264
 20
-82.4009
 30
0.000000
  70
    32
  0
VERTEX
  8
0
  5
5EE
 10
-2.39747
 20
-82.4329
 30
0.000000
  70
    32
  0
VERTEX
  8
0
  5
5EF
 10
-2.48141
 20
-82.4661
 30
0.000000
  70
    32
  0
VERTEX
  8
0
  5
5F0
 10
-2.56444
 20
-82.5004
 30
0.000000
  70
    32
  0
VERTEX
  8
0
  5
5F1
 10
-2.64651
 20
-82.5359
 30
0.000000
  70
    32
  0
VERTEX
  8
0
  5
5F2
 10
-2.72761
 20
-82.5724
 30
0.000000
  70
    32
  0
VERTEX
  8
0
  5
5F3
 10
-2.80770
 20
-82.6101
 30
0.000000
  70
    32
  0
VERTEX
  8
0
  5
5F4
 10
-2.88675
 20
-82.6488
 30
0.000000
  70
    32
  0
VERTEX
  8
0
  5
5F5
 10
-2.96473
 20
-82.6886
 30
0.000000
  70
    32
  0
VERTEX
  8
0
  5
5F6
 10
-3.04162
 20
-82.7294
 30
0.000000
  70
    32
  0
VERTEX
  8
0
  5
5F7
 10
-3.11738
 20
-82.7713
 30
0.000000
  70
    32
  0
VERTEX
  8
0
  5
5F8
 10
-3.19199
 20
-82.8142
 30
0.000000
  70
    32
  0
VERTEX
  8
0
  5
5F9
 10
-3.26541
 20
-82.8581
 30
0.000000
  70
    32
  0
VERTEX
  8
0
  5
5FA
 10
-3.33763
 20
-82.9030
 30
0.000000
  70
    32
  0
VERTEX
  8
0
  5
5FB
 10
-3.40862
 20
-82.9489
 30
0.000000
  70
    32
  0
VERTEX
  8
0
  5
5FC
 10
-3.47834
 20
-82.9957
 30
0.000000
  70
    32
  0
VERTEX
  8
0
  5
5FD
 10
-3.54678
 20
-83.0435
 30
0.000000
  70
    32
  0
VERTEX
  8
0
  5
5FE
 10
-3.61390
 20
-83.0922
 30
0.000000
  70
    32
  0
VERTEX
  8
0
  5
5FF
 10
-3.67969
 20
-83.1418
 30
0.000000
  70
    32
  0
VERTEX
  8
0
  5
600
 10
-3.74412
 20
-83.1923
 30
0.000000
  70
    32
  0
VERTEX
  8
0
  5
601
 10
-3.80716
 20
-83.2436
 30
0.000000
  70
    32
  0
VERTEX
  8
0
  5
602
 10
-3.86879
 20
-83.2958
 30
0.000000
  70
    32
  0
VERTEX
  8
0
  5
603
 10
-3.92899
 20
-83.3489
 30
0.000000
  70
    32
  0
VERTEX
  8
0
  5
604
 10
-3.98774
 20
-83.4027
 30
0.000000
  70
    32
  0
VERTEX
  8
0
  5
605
 10
-4.04501
 20
-83.4573
 30
0.000000
  70
    32
  0
VERTEX
  8
0
  5
606
 10
-4.10079
 20
-83.5127
 30
0.000000
  70
    32
  0
VERTEX
  8
0
  5
607
 10
-4.15505
 20
-83.5689
 30
0.000000
  70
    32
  0
VERTEX
  8
0
  5
608
 10
-4.20777
 20
-83.6257
 30
0.000000
  70
    32
  0
VERTEX
  8
0
  5
609
 10
-4.25894
 20
-83.6833
 30
0.000000
  70
    32
  0
VERTEX
  8
0
  5
60A
 10
-4.30853
 20
-83.7416
 30
0.000000
  70
    32
  0
VERTEX
  8
0
  5
60B
 10
-4.35653
 20
-83.8005
 30
0.000000
  70
    32
  0
VERTEX
  8
0
  5
60C
 10
-4.40291
 20
-83.8601
 30
0.000000
  70
    32
  0
VERTEX
  8
0
  5
60D
 10
-4.44767
 20
-83.9203
 30
0.000000
  70
    32
  0
VERTEX
  8
0
  5
60E
 10
-4.49078
 20
-83.9810
 30
0.000000
  70
    32
  0
VERTEX
  8
0
  5
60F
 10
-4.53223
 20
-84.0424
 30
0.000000
  70
    32
  0
VERTEX
  8
0
  5
610
 10
-4.57200
 20
-84.1043
 30
0.000000
  70
    32
  0
VERTEX
  8
0
  5
611
 10
-4.61008
 20
-84.1668
 30
0.000000
  70
    32
  0
VERTEX
  8
0
  5
612
 10
-4.64646
 20
-84.2297
 30
0.000000
  70
    32
  0
VERTEX
  8
0
  5
613
 10
-4.68112
 20
-84.2931
 30
0.000000
  70
    32
  0
VERTEX
  8
0
  5
614
 10
-4.71405
 20
-84.3570
 30
0.000000
  70
    32
  0
SEQEND
  8
0
  5
615
  0
POLYLINE
  5
3A
  8
0
 10
0.0000000000000284
 20
-74.928932188134453
 30
0.0
 66
     1
 70
     8
  0
VERTEX
  8
0
  5
616
 10
2.84000e-014
 20
-74.9289
 30
0.000000
  70
    32
  0
VERTEX
  8
0
  5
617
 10
-0.245338
 20
-74.9374
 30
0.000000
  70
    32
  0
VERTEX
  8
0
  5
618
 10
-0.490086
 20
-74.9630
 30
0.000000
  70
    32
  0
VERTEX
  8
0
  5
619
 10
-0.733652
 20
-75.0055
 30
0.000000
  70
    32
  0
VERTEX
  8
0
  5
61A
 10
-0.975452
 20
-75.0648
 30
0.000000
  70
    32
  0
VERTEX
  8
0
  5
61B
 10
-1.21490
 20
-75.1408
 30
0.000000
  70
    32
  0
VERTEX
  8
0
  5
61C
 10
-1.45142
 20
-75.2334
 30
0.000000
  70
    32
  0
VERTEX
  8
0
  5
61D
 10
-1.68445
 20
-75.3423
 30
0.000000
  70
    32
  0
VERTEX
  8
0
  5
61E
 10
-1.91342
 20
-75.4672
 30
0.000000
  70
    32
  0
VERTEX
  8
0
  5
61F
 10
-2.13778
 20
-75.6078
 30
0.000000
  70
    32
  0
VERTEX
  8
0
  5
620
 10
-2.35698
 20
-75.7639
 30
0.000000
  70
    32
  0
VERTEX
  8
0
  5
621
 10
-2.57051
 20
-75.9349
 30
0.000000
  70
    32
  0
VERTEX
  8
0
  5
622
 10
-2.77785
 20
-76.1206
 30
0.000000
  70
    32
  0
VERTEX
  8
0
  5
623
 10
-2.97850
 20
-76.3205
 30
0.000000
  70
    32
  0
VERTEX
  8
0
  5
624
 10
-3.17197
 20
-76.5340
 30
0.000000
  70
    32
  0
VERTEX
  8
0
  5
625
 10
-3.35779
 20
-76.7607
 30
0.000000
  70
    32
  0
VERTEX
  8
0
  5
626
 10
-3.53553
 20
-77.0000
 30
0.000000
  70
    32
  0
VERTEX
  8
0
  5
627
 10
-3.70476
 20
-77.2514
 30
0.000000
  70
    32
  0
VERTEX
  8
0
  5
628
 10
-3.86505
 20
-77.5142
 30
0.000000
  70
    32
  0
VERTEX
  8
0
  5
629
 10
-4.01604
 20
-77.7878
 30
0.000000
  70
    32
  0
VERTEX
  8
0
  5
62A
 10
-4.15735
 20
-78.0715
 30
0.000000
  70
    32
  0
VERTEX
  8
0
  5
62B
 10
-4.28864
 20
-78.3647
 30
0.000000
  70
    32
  0
VERTEX
  8
0
  5
62C
 10
-4.40961
 20
-78.6667
 30
0.000000
  70
    32
  0
VERTEX
  8
0
  5
62D
 10
-4.51995
 20
-78.9767
 30
0.000000
  70
    32
  0
VERTEX
  8
0
  5
62E
 10
-4.61940
 20
-79.2940
 30
0.000000
  70
    32
  0
VERTEX
  8
0
  5
62F
 10
-4.70772
 20
-79.6178
 30
0.000000
  70
    32
  0
VERTEX
  8
0
  5
630
 10
-4.78470
 20
-79.9474
 30
0.000000
  70
    32
  0
VERTEX
  8
0
  5
631
 10
-4.85016
 20
-80.2819
 30
0.000000
  70
    32
  0
VERTEX
  8
0
  5
632
 10
-4.90393
 20
-80.6205
 30
0.000000
  70
    32
  0
VERTEX
  8
0
  5
633
 10
-4.94588
 20
-80.9625
 30
0.000000
  70
    32
  0
VERTEX
  8
0
  5
634
 10
-4.97592
 20
-81.3069
 30
0.000000
  70
    32
  0
VERTEX
  8
0
  5
635
 10
-4.99398
 20
-81.6530
 30
0.000000
  70
    32
  0
VERTEX
  8
0
  5
636
 10
-5.00000
 20
-82.0000
 30
0.000000
  70
    32
  0
VERTEX
  8
0
  5
637
 10
-4.99398
 20
-82.3470
 30
0.000000
  70
    32
  0
VERTEX
  8
0
  5
638
 10
-4.97592
 20
-82.6931
 30
0.000000
  70
    32
  0
VERTEX
  8
0
  5
639
 10
-4.94588
 20
-83.0375
 30
0.000000
  70
    32
  0
VERTEX
  8
0
  5
63A
 10
-4.90393
 20
-83.3795
 30
0.000000
  70
    32
  0
VERTEX
  8
0
  5
63B
 10
-4.85016
 20
-83.7181
 30
0.000000
  70
    32
  0
VERTEX
  8
0
  5
63C
 10
-4.78470
 20
-84.0526
 30
0.000000
  70
    32
  0
VERTEX
  8
0
  5
63D
 10
-4.70772
 20
-84.3822
 30
0.000000
  70
    32
  0
VERTEX
  8
0
  5
63E
 10
-4.61940
 20
-84.7060
 30
0.000000
  70
    32
  0
VERTEX
  8
0
  5
63F
 10
-4.51995
 20
-85.0233
 30
0.000000
  70
    32
  0
VERTEX
  8
0
  5
640
 10
-4.40961
 20
-85.3333
 30
0.000000
  70
    32
  0
VERTEX
  8
0
  5
641
 10
-4.28864
 20
-85.6353
 30
0.000000
  70
    32
  0
VERTEX
  8
0
  5
642
 10
-4.15735
 20
-85.9285
 30
0.000000
  70
    32
  0
VERTEX
  8
0
  5
643
 10
-4.01604
 20
-86.2122
 30
0.000000
  70
    32
  0
VERTEX
  8
0
  5
644
 10
-3.86505
 20
-86.4858
 30
0.000000
  70
    32
  0
VERTEX
  8
0
  5
645
 10
-3.70476
 20
-86.7486
 30
0.000000
  70
    32
  0
VERTEX
  8
0
  5
646
 10
-3.53553
 20
-87.0000
 30
0.000000
  70
    32
  0
VERTEX
  8
0
  5
647
 10
-3.35779
 20
-87.2393
 30
0.000000
  70
    32
  0
VERTEX
  8
0
  5
648
 10
-3.17197
 20
-87.4660
 30
0.000000
  70
    32
  0
VERTEX
  8
0
  5
649
 10
-2.97850
 20
-87.6795
 30
0.000000
  70
    32
  0
VERTEX
  8
0
  5
64A
 10
-2.77785
 20
-87.8794
 30
0.000000
  70
    32
  0
VERTEX
  8
0
  5
64B
 10
-2.57051
 20
-88.0651
 30
0.000000
  70
    32
  0
VERTEX
  8
0
  5
64C
 10
-2.35698
 20
-88.2361
 30
0.000000
  70
    32
  0
VERTEX
  8
0
  5
64D
 10
-2.13778
 20
-88.3922
 30
0.000000
  70
    32
  0
VERTEX
  8
0
  5
64E
 10
-1.91342
 20
-88.5328
 30
0.000000
  70
    32
  0
VERTEX
  8
0
  5
64F
 10
-1.68445
 20
-88.6577
 30
0.000000
  70
    32
  0
VERTEX
  8
0
  5
650
 10
-1.45142
 20
-88.7666
 30
0.000000
  70
    32
  0
VERTEX
  8
0
  5
651
 10
-1.21490
 20
-88.8592
 30
0.000000
  70
    32
  0
VERTEX
  8
0
  5
652
 10
-0.975452
 20
-88.9352
 30
0.000000
  70
    32
  0
VERTEX
  8
0
  5
653
 10
-0.733652
 20
-88.9945
 30
0.000000
  70
    32
  0
VERTEX
  8
0
  5
654
 10
-0.490086
 20
-89.0370
 30
0.000000
  70
    32
  0
VERTEX
  8
0
  5
655
 10
-0.245338
 20
-89.0626
 30
0.000000
  70
    32
  0
VERTEX
  8
0
  5
656
 10
2.77877e-014
 20
-89.0711
 30
0.000000
  70
    32
  0
VERTEX
  8
0
  5
657
 10
0.245338
 20
-89.0626
 30
0.000000
  70
    32
  0
VERTEX
  8
0
  5
658
 10
0.490086
 20
-89.0370
 30
0.000000
  70
    32
  0
VERTEX
  8
0
  5
659
 10
0.733652
 20
-88.9945
 30
0.000000
  70
    32
  0
VERTEX
  8
0
  5
65A
 10
0.975452
 20
-88.9352
 30
0.000000
  70
    32
  0
VERTEX
  8
0
  5
65B
 10
1.21490
 20
-88.8592
 30
0.000000
  70
    32
  0
VERTEX
  8
0
  5
65C
 10
1.45142
 20
-88.7666
 30
0.000000
  70
    32
  0
VERTEX
  8
0
  5
65D
 10
1.68445
 20
-88.6577
 30
0.000000
  70
    32
  0
VERTEX
  8
0
  5
65E
 10
1.91342
 20
-88.5328
 30
0.000000
  70
    32
  0
VERTEX
  8
0
  5
65F
 10
2.13778
 20
-88.3922
 30
0.000000
  70
    32
  0
VERTEX
  8
0
  5
660
 10
2.35698
 20
-88.2361
 30
0.000000
  70
    32
  0
VERTEX
  8
0
  5
661
 10
2.57051
 20
-88.0651
 30
0.000000
  70
    32
  0
VERTEX
  8
0
  5
662
 10
2.77785
 20
-87.8794
 30
0.000000
  70
    32
  0
VERTEX
  8
0
  5
663
 10
2.97850
 20
-87.6795
 30
0.000000
  70
    32
  0
VERTEX
  8
0
  5
664
 10
3.17197
 20
-87.4660
 30
0.000000
  70
    32
  0
VERTEX
  8
0
  5
665
 10
3.35779
 20
-87.2393
 30
0.000000
  70
    32
  0
VERTEX
  8
0
  5
666
 10
3.53553
 20
-87.0000
 30
0.000000
  70
    32
  0
VERTEX
  8
0
  5
667
 10
3.70476
 20
-86.7486
 30
0.000000
  70
    32
  0
VERTEX
  8
0
  5
668
 10
3.86505
 20
-86.4858
 30
0.000000
  70
    32
  0
VERTEX
  8
0
  5
669
 10
4.01604
 20
-86.2122
 30
0.000000
  70
    32
  0
VERTEX
  8
0
  5
66A
 10
4.15735
 20
-85.9285
 30
0.000000
  70
    32
  0
VERTEX
  8
0
  5
66B
 10
4.28864
 20
-85.6353
 30
0.000000
  70
    32
  0
VERTEX
  8
0
  5
66C
 10
4.40961
 20
-85.3333
 30
0.000000
  70
    32
  0
VERTEX
  8
0
  5
66D
 10
4.51995
 20
-85.0233
 30
0.000000
  70
    32
  0
VERTEX
  8
0
  5
66E
 10
4.61940
 20
-84.7060
 30
0.000000
  70
    32
  0
VERTEX
  8
0
  5
66F
 10
4.70772
 20
-84.3822
 30
0.000000
  70
    32
  0
VERTEX
  8
0
  5
670
 10
4.78470
 20
-84.0526
 30
0.000000
  70
    32
  0
VERTEX
  8
0
  5
671
 10
4.85016
 20
-83.7181
 30
0.000000
  70
    32
  0
VERTEX
  8
0
  5
672
 10
4.90393
 20
-83.3795
 30
0.000000
  70
    32
  0
VERTEX
  8
0
  5
673
 10
4.94588
 20
-83.0375
 30
0.000000
  70
    32
  0
VERTEX
  8
0
  5
674
 10
4.97592
 20
-82.6931
 30
0.000000
  70
    32
  0
VERTEX
  8
0
  5
675
 10
4.99398
 20
-82.3470
 30
0.000000
  70
    32
  0
VERTEX
  8
0
  5
676
 10
5.00000
 20
-82.0000
 30
0.000000
  70
    32
  0
VERTEX
  8
0
  5
677
 10
4.99398
 20
-81.6530
 30
0.000000
  70
    32
  0
VERTEX
  8
0
  5
678
 10
4.97592
 20
-81.3069
 30
0.000000
  70
    32
  0
VERTEX
  8
0
  5
679
 10
4.94588
 20
-80.9625
 30
0.000000
  70
    32
  0
VERTEX
  8
0
  5
67A
 10
4.90393
 20
-80.6205
 30
0.000000
  70
    32
  0
VERTEX
  8
0
  5
67B
 10
4.85016
 20
-80.2819
 30
0.000000
  70
    32
  0
VERTEX
  8
0
  5
67C
 10
4.78470
 20
-79.9474
 30
0.000000
  70
    32
  0
VERTEX
  8
0
  5
67D
 10
4.70772
 20
-79.6178
 30
0.000000
  70
    32
  0
VERTEX
  8
0
  5
67E
 10
4.61940
 20
-79.2940
 30
0.000000
  70
    32
  0
VERTEX
  8
0
  5
67F
 10
4.51995
 20
-78.9767
 30
0.000000
  70
    32
  0
VERTEX
  8
0
  5
680
 10
4.40961
 20
-78.6667
 30
0.000000
  70
    32
  0
VERTEX
  8
0
  5
681
 10
4.28864
 20
-78.3647
 30
0.000000
  70
    32
  0
VERTEX
  8
0
  5
682
 10
4.15735
 20
-78.0715
 30
0.000000
  70
    32
  0
VERTEX
  8
0
  5
683
 10
4.01604
 20
-77.7878
 30
0.000000
  70
    32
  0
VERTEX
  8
0
  5
684
 10
3.86505
 20
-77.5142
 30
0.000000
  70
    32
  0
VERTEX
  8
0
  5
685
 10
3.70476
 20
-77.2514
 30
0.000000
  70
    32
  0
VERTEX
  8
0
  5
686
 10
3.53553
 20
-77.0000
 30
0.000000
  70
    32
  0
VERTEX
  8
0
  5
687
 10
3.35779
 20
-76.7607
 30
0.000000
  70
    32
  0
VERTEX
  8
0
  5
688
 10
3.17197
 20
-76.5340
 30
0.000000
  70
    32
  0
VERTEX
  8
0
  5
689
 10
2.97850
 20
-76.3205
 30
0.000000
  70
    32
  0
VERTEX
  8
0
  5
68A
 10
2.77785
 20
-76.1206
 30
0.000000
  70
    32
  0
VERTEX
  8
0
  5
68B
 10
2.57051
 20
-75.9349
 30
0.000000
  70
    32
  0
VERTEX
  8
0
  5
68C
 10
2.35698
 20
-75.7639
 30
0.000000
  70
    32
  0
VERTEX
  8
0
  5
68D
 10
2.13778
 20
-75.6078
 30
0.000000
  70
    32
  0
VERTEX
  8
0
  5
68E
 10
1.91342
 20
-75.4672
 30
0.000000
  70
    32
  0
VERTEX
  8
0
  5
68F
 10
1.68445
 20
-75.3423
 30
0.000000
  70
    32
  0
VERTEX
  8
0
  5
690
 10
1.45142
 20
-75.2334
 30
0.000000
  70
    32
  0
VERTEX
  8
0
  5
691
 10
1.21490
 20
-75.1408
 30
0.000000
  70
    32
  0
VERTEX
  8
0
  5
692
 10
0.975452
 20
-75.0648
 30
0.000000
  70
    32
  0
VERTEX
  8
0
  5
693
 10
0.733652
 20
-75.0055
 30
0.000000
  70
    32
  0
VERTEX
  8
0
  5
694
 10
0.490086
 20
-74.9630
 30
0.000000
  70
    32
  0
VERTEX
  8
0
  5
695
 10
0.245338
 20
-74.9374
 30
0.000000
  70
    32
  0
VERTEX
  8
0
  5
696
 10
2.84000e-014
 20
-74.9289
 30
0.000000
  70
    32
  0
SEQEND
  8
0
  5
697
  0
POLYLINE
  5
3B
  8
0
 10
0.0000000000000284
 20
-89.928932188134468
 30
0.0
 66
     1
 70
     8
  0
VERTEX
  8
0
  5
698
 10
2.84000e-014
 20
-89.9289
 30
0.000000
  70
    32
  0
VERTEX
  8
0
  5
699
 10
-0.245338
 20
-89.9374
 30
0.000000
  70
    32
  0
VERTEX
  8
0
  5
69A
 10
-0.490086
 20
-89.9630
 30
0.000000
  70
    32
  0
VERTEX
  8
0
  5
69B
 10
-0.733652
 20
-90.0055
 30
0.000000
  70
    32
  0
VERTEX
  8
0
  5
69C
 10
-0.975452
 20
-90.0648
 30
0.000000
  70
    32
  0
VERTEX
  8
0
  5
69D
 10
-1.21490
 20
-90.1408
 30
0.000000
  70
    32
  0
VERTEX
  8
0
  5
69E
 10
-1.45142
 20
-90.2334
 30
0.000000
  70
    32
  0
VERTEX
  8
0
  5
69F
 10
-1.68445
 20
-90.3423
 30
0.000000
  70
    32
  0
VERTEX
  8
0
  5
6A0
 10
-1.91342
 20
-90.4672
 30
0.000000
  70
    32
  0
VERTEX
  8
0
  5
6A1
 10
-2.13778
 20
-90.6078
 30
0.000000
  70
    32
  0
VERTEX
  8
0
  5
6A2
 10
-2.35698
 20
-90.7639
 30
0.000000
  70
    32
  0
VERTEX
  8
0
  5
6A3
 10
-2.57051
 20
-90.9349
 30
0.000000
  70
    32
  0
VERTEX
  8
0
  5
6A4
 10
-2.77785
 20
-91.1206
 30
0.000000
  70
    32
  0
VERTEX
  8
0
  5
6A5
 10
-2.97850
 20
-91.3205
 30
0.000000
  70
    32
  0
VERTEX
  8
0
  5
6A6
 10
-3.17197
 20
-91.5340
 30
0.000000
  70
    32
  0
VERTEX
  8
0
  5
6A7
 10
-3.35779
 20
-91.7607
 30
0.000000
  70
    32
  0
VERTEX
  8
0
  5
6A8
 10
-3.53553
 20
-92.0000
 30
0.000000
  70
    32
  0
VERTEX
  8
0
  5
6A9
 10
-3.70476
 20
-92.2514
 30
0.000000
  70
    32
  0
VERTEX
  8
0
  5
6AA
 10
-3.86505
 20
-92.5142
 30
0.000000
  70
    32
  0
VERTEX
  8
0
  5
6AB
 10
-4.01604
 20
-92.7878
 30
0.000000
  70
    32
  0
VERTEX
  8
0
  5
6AC
 10
-4.15735
 20
-93.0715
 30
0.000000
  70
    32
  0
VERTEX
  8
0
  5
6AD
 10
-4.28864
 20
-93.3647
 30
0.000000
  70
    32
  0
VERTEX
  8
0
  5
6AE
 10
-4.40961
 20
-93.6667
 30
0.000000
  70
    32
  0
VERTEX
  8
0
  5
6AF
 10
-4.51995
 20
-93.9767
 30
0.000000
  70
    32
  0
VERTEX
  8
0
  5
6B0
 10
-4.61940
 20
-94.2940
 30
0.000000
  70
    32
  0
VERTEX
  8
0
  5
6B1
 10
-4.70772
 20
-94.6178
 30
0.000000
  70
    32
  0
VERTEX
  8
0
  5
6B2
 10
-4.78470
 20
-94.9474
 30
0.000000
  70
    32
  0
VERTEX
  8
0
  5
6B3
 10
-4.85016
 20
-95.2819
 30
0.000000
  70
    32
  0
VERTEX
  8
0
  5
6B4
 10
-4.90393
 20
-95.6205
 30
0.000000
  70
    32
  0
VERTEX
  8
0
  5
6B5
 10
-4.94588
 20
-95.9625
 30
0.000000
  70
    32
  0
VERTEX
  8
0
  5
6B6
 10
-4.97592
 20
-96.3069
 30
0.000000
  70
    32
  0
VERTEX
  8
0
  5
6B7
 10
-4.99398
 20
-96.6530
 30
0.000000
  70
    32
  0
VERTEX
  8
0
  5
6B8
 10
-5.00000
 20
-97.0000
 30
0.000000
  70
    32
  0
VERTEX
  8
0
  5
6B9
 10
-4.99398
 20
-97.3470
 30
0.000000
  70
    32
  0
VERTEX
  8
0
  5
6BA
 10
-4.97592
 20
-97.6931
 30
0.000000
  70
    32
  0
VERTEX
  8
0
  5
6BB
 10
-4.94588
 20
-98.0375
 30
0.000000
  70
    32
  0
VERTEX
  8
0
  5
6BC
 10
-4.90393
 20
-98.3795
 30
0.000000
  70
    32
  0
VERTEX
  8
0
  5
6BD
 10
-4.85016
 20
-98.7181
 30
0.000000
  70
    32
  0
VERTEX
  8
0
  5
6BE
 10
-4.78470
 20
-99.0526
 30
0.000000
  70
    32
  0
VERTEX
  8
0
  5
6BF
 10
-4.70772
 20
-99.3822
 30
0.000000
  70
    32
  0
VERTEX
  8
0
  5
6C0
 10
-4.61940
 20
-99.7060
 30
0.000000
  70
    32
  0
VERTEX
  8
0
  5
6C1
 10
-4.51995
 20
-100.023
 30
0.000000
  70
    32
  0
VERTEX
  8
0
  5
6C2
 10
-4.40961
 20
-100.333
 30
0.000000
  70
    32
  0
VERTEX
  8
0
  5
6C3
 10
-4.28864
 20
-100.635
 30
0.000000
  70
    32
  0
VERTEX
  8
0
  5
6C4
 10
-4.15735
 20
-100.928
 30
0.000000
  70
    32
  0
VERTEX
  8
0
  5
6C5
 10
-4.01604
 20
-101.212
 30
0.000000
  70
    32
  0
VERTEX
  8
0
  5
6C6
 10
-3.86505
 20
-101.486
 30
0.000000
  70
    32
  0
VERTEX
  8
0
  5
6C7
 10
-3.70476
 20
-101.749
 30
0.000000
  70
    32
  0
VERTEX
  8
0
  5
6C8
 10
-3.53553
 20
-102.000
 30
0.000000
  70
    32
  0
VERTEX
  8
0
  5
6C9
 10
-3.35779
 20
-102.239
 30
0.000000
  70
    32
  0
VERTEX
  8
0
  5
6CA
 10
-3.17197
 20
-102.466
 30
0.000000
  70
    32
  0
VERTEX
  8
0
  5
6CB
 10
-2.97850
 20
-102.680
 30
0.000000
  70
    32
  0
VERTEX
  8
0
  5
6CC
 10
-2.77785
 20
-102.879
 30
0.000000
  70
    32
  0
VERTEX
  8
0
  5
6CD
 10
-2.57051
 20
-103.065
 30
0.000000
  70
    32
  0
VERTEX
  8
0
  5
6CE
 10
-2.35698
 20
-103.236
 30
0.000000
  70
    32
  0
VERTEX
  8
0
  5
6CF
 10
-2.13778
 20
-103.392
 30
0.000000
  70
    32
  0
VERTEX
  8
0
  5
6D0
 10
-1.91342
 20
-103.533
 30
0.000000
  70
    32
  0
VERTEX
  8
0
  5
6D1
 10
-1.68445
 20
-103.658
 30
0.000000
  70
    32
  0
VERTEX
  8
0
  5
6D2
 10
-1.45142
 20
-103.767
 30
0.000000
  70
    32
  0
VERTEX
  8
0
  5
6D3
 10
-1.21490
 20
-103.859
 30
0.000000
  70
    32
  0
VERTEX
  8
0
  5
6D4
 10
-0.975452
 20
-103.935
 30
0.000000
  70
    32
  0
VERTEX
  8
0
  5
6D5
 10
-0.733652
 20
-103.995
 30
0.000000
  70
    32
  0
VERTEX
  8
0
  5
6D6
 10
-0.490086
 20
-104.037
 30
0.000000
  70
    32
  0
VERTEX
  8
0
  5
6D7
 10
-0.245338
 20
-104.063
 30
0.000000
  70
    32
  0
VERTEX
  8
0
  5
6D8
 10
2.77877e-014
 20
-104.071
 30
0.000000
  70
    32
  0
VERTEX
  8
0
  5
6D9
 10
0.245338
 20
-104.063
 30
0.000000
  70
    32
  0
VERTEX
  8
0
  5
6DA
 10
0.490086
 20
-104.037
 30
0.000000
  70
    32
  0
VERTEX
  8
0
  5
6DB
 10
0.733652
 20
-103.995
 30
0.000000
  70
    32
  0
VERTEX
  8
0
  5
6DC
 10
0.975452
 20
-103.935
 30
0.000000
  70
    32
  0
VERTEX
  8
0
  5
6DD
 10
1.21490
 20
-103.859
 30
0.000000
  70
    32
  0
VERTEX
  8
0
  5
6DE
 10
1.45142
 20
-103.767
 30
0.000000
  70
    32
  0
VERTEX
  8
0
  5
6DF
 10
1.68445
 20
-103.658
 30
0.000000
  70
    32
  0
VERTEX
  8
0
  5
6E0
 10
1.91342
 20
-103.533
 30
0.000000
  70
    32
  0
VERTEX
  8
0
  5
6E1
 10
2.13778
 20
-103.392
 30
0.000000
  70
    32
  0
VERTEX
  8
0
  5
6E2
 10
2.35698
 20
-103.236
 30
0.000000
  70
    32
  0
VERTEX
  8
0
  5
6E3
 10
2.57051
 20
-103.065
 30
0.000000
  70
    32
  0
VERTEX
  8
0
  5
6E4
 10
2.77785
 20
-102.879
 30
0.000000
  70
    32
  0
VERTEX
  8
0
  5
6E5
 10
2.97850
 20
-102.680
 30
0.000000
  70
    32
  0
VERTEX
  8
0
  5
6E6
 10
3.17197
 20
-102.466
 30
0.000000
  70
    32
  0
VERTEX
  8
0
  5
6E7
 10
3.35779
 20
-102.239
 30
0.000000
  70
    32
  0
VERTEX
  8
0
  5
6E8
 10
3.53553
 20
-102.000
 30
0.000000
  70
    32
  0
VERTEX
  8
0
  5
6E9
 10
3.70476
 20
-101.749
 30
0.000000
  70
    32
  0
VERTEX
  8
0
  5
6EA
 10
3.86505
 20
-101.486
 30
0.000000
  70
    32
  0
VERTEX
  8
0
  5
6EB
 10
4.01604
 20
-101.212
 30
0.000000
  70
    32
  0
VERTEX
  8
0
  5
6EC
 10
4.15735
 20
-100.928
 30
0.000000
  70
    32
  0
VERTEX
  8
0
  5
6ED
 10
4.28864
 20
-100.635
 30
0.000000
  70
    32
  0
VERTEX
  8
0
  5
6EE
 10
4.40961
 20
-100.333
 30
0.000000
  70
    32
  0
VERTEX
  8
0
  5
6EF
 10
4.51995
 20
-100.023
 30
0.000000
  70
    32
  0
VERTEX
  8
0
  5
6F0
 10
4.61940
 20
-99.7060
 30
0.000000
  70
    32
  0
VERTEX
  8
0
  5
6F1
 10
4.70772
 20
-99.3822
 30
0.000000
  70
    32
  0
VERTEX
  8
0
  5
6F2
 10
4.78470
 20
-99.0526
 30
0.000000
  70
    32
  0
VERTEX
  8
0
  5
6F3
 10
4.85016
 20
-98.7181
 30
0.000000
  70
    32
  0
VERTEX
  8
0
  5
6F4
 10
4.90393
 20
-98.3795
 30
0.000000
  70
    32
  0
VERTEX
  8
0
  5
6F5
 10
4.94588
 20
-98.0375
 30
0.000000
  70
    32
  0
VERTEX
  8
0
  5
6F6
 10
4.97592
 20
-97.6931
 30
0.000000
  70
    32
  0
VERTEX
  8
0
  5
6F7
 10
4.99398
 20
-97.3470
 30
0.000000
  70
    32
  0
VERTEX
  8
0
  5
6F8
 10
5.00000
 20
-97.0000
 30
0.000000
  70
    32
  0
VERTEX
  8
0
  5
6F9
 10
4.99398
 20
-96.6530
 30
0.000000
  70
    32
  0
VERTEX
  8
0
  5
6FA
 10
4.97592
 20
-96.3069
 30
0.000000
  70
    32
  0
VERTEX
  8
0
  5
6FB
 10
4.94588
 20
-95.9625
 30
0.000000
  70
    32
  0
VERTEX
  8
0
  5
6FC
 10
4.90393
 20
-95.6205
 30
0.000000
  70
    32
  0
VERTEX
  8
0
  5
6FD
 10
4.85016
 20
-95.2819
 30
0.000000
  70
    32
  0
VERTEX
  8
0
  5
6FE
 10
4.78470
 20
-94.9474
 30
0.000000
  70
    32
  0
VERTEX
  8
0
  5
6FF
 10
4.70772
 20
-94.6178
 30
0.000000
  70
    32
  0
VERTEX
  8
0
  5
700
 10
4.61940
 20
-94.2940
 30
0.000000
  70
    32
  0
VERTEX
  8
0
  5
701
 10
4.51995
 20
-93.9767
 30
0.000000
  70
    32
  0
VERTEX
  8
0
  5
702
 10
4.40961
 20
-93.6667
 30
0.000000
  70
    32
  0
VERTEX
  8
0
  5
703
 10
4.28864
 20
-93.3647
 30
0.000000
  70
    32
  0
VERTEX
  8
0
  5
704
 10
4.15735
 20
-93.0715
 30
0.000000
  70
    32
  0
VERTEX
  8
0
  5
705
 10
4.01604
 20
-92.7878
 30
0.000000
  70
    32
  0
VERTEX
  8
0
  5
706
 10
3.86505
 20
-92.5142
 30
0.000000
  70
    32
  0
VERTEX
  8
0
  5
707
 10
3.70476
 20
-92.2514
 30
0.000000
  70
    32
  0
VERTEX
  8
0
  5
708
 10
3.53553
 20
-92.0000
 30
0.000000
  70
    32
  0
VERTEX
  8
0
  5
709
 10
3.35779
 20
-91.7607
 30
0.000000
  70
    32
  0
VERTEX
  8
0
  5
70A
 10
3.17197
 20
-91.5340
 30
0.000000
  70
    32
  0
VERTEX
  8
0
  5
70B
 10
2.97850
 20
-91.3205
 30
0.000000
  70
    32
  0
VERTEX
  8
0
  5
70C
 10
2.77785
 20
-91.1206
 30
0.000000
  70
    32
  0
VERTEX
  8
0
  5
70D
 10
2.57051
 20
-90.9349
 30
0.000000
  70
    32
  0
VERTEX
  8
0
  5
70E
 10
2.35698
 20
-90.7639
 30
0.000000
  70
    32
  0
VERTEX
  8
0
  5
70F
 10
2.13778
 20
-90.6078
 30
0.000000
  70
    32
  0
VERTEX
  8
0
  5
710
 10
1.91342
 20
-90.4672
 30
0.000000
  70
    32
  0
VERTEX
  8
0
  5
711
 10
1.68445
 20
-90.3423
 30
0.000000
  70
    32
  0
VERTEX
  8
0
  5
712
 10
1.45142
 20
-90.2334
 30
0.000000
  70
    32
  0
VERTEX
  8
0
  5
713
 10
1.21490
 20
-90.1408
 30
0.000000
  70
    32
  0
VERTEX
  8
0
  5
714
 10
0.975452
 20
-90.0648
 30
0.000000
  70
    32
  0
VERTEX
  8
0
  5
715
 10
0.733652
 20
-90.0055
 30
0.000000
  70
    32
  0
VERTEX
  8
0
  5
716
 10
0.490086
 20
-89.9630
 30
0.000000
  70
    32
  0
VERTEX
  8
0
  5
717
 10
0.245338
 20
-89.9374
 30
0.000000
  70
    32
  0
VERTEX
  8
0
  5
718
 10
2.84000e-014
 20
-89.9289
 30
0.000000
  70
    32
  0
SEQEND
  8
0
  5
719
  0
POLYLINE
  5
3C
  8
0
 10
4.7140452079103321
 20
-99.357022603955087
 30
0.0
 66
     1
 70
     8
  0
VERTEX
  8
0
  5
71A
 10
4.71405
 20
-99.3570
 30
0.000000
  70
    32
  0
VERTEX
  8
0
  5
71B
 10
4.68112
 20
-99.2931
 30
0.000000
  70
    32
  0
VERTEX
  8
0
  5
71C
 10
4.64646
 20
-99.2297
 30
0.000000
  70
    32
  0
VERTEX
  8
0
  5
71D
 10
4.61008
 20
-99.1668
 30
0.000000
  70
    32
  0
VERTEX
  8
0
  5
71E
 10
4.57200
 20
-99.1043
 30
0.000000
  70
    32
  0
VERTEX
  8
0
  5
71F
 10
4.53223
 20
-99.0424
 30
0.000000
  70
    32
  0
VERTEX
  8
0
  5
720
 10
4.49078
 20
-98.9810
 30
0.000000
  70
    32
  0
VERTEX
  8
0
  5
721
 10
4.44767
 20
-98.9203
 30
0.000000
  70
    32
  0
VERTEX
  8
0
  5
722
 10
4.40291
 20
-98.8601
 30
0.000000
  70
    32
  0
VERTEX
  8
0
  5
723
 10
4.35653
 20
-98.8005
 30
0.000000
  70
    32
  0
VERTEX
  8
0
  5
724
 10
4.30853
 20
-98.7416
 30
0.000000
  70
    32
  0
VERTEX
  8
0
  5
725
 10
4.25894
 20
-98.6833
 30
0.000000
  70
    32
  0
VERTEX
  8
0
  5
726
 10
4.20777
 20
-98.6257
 30
0.000000
  70
    32
  0
VERTEX
  8
0
  5
727
 10
4.15505
 20
-98.5689
 30
0.000000
  70
    32
  0
VERTEX
  8
0
  5
728
 10
4.10079
 20
-98.5127
 30
0.000000
  70
    32
  0
VERTEX
  8
0
  5
729
 10
4.04501
 20
-98.4573
 30
0.000000
  70
    32
  0
VERTEX
  8
0
  5
72A
 10
3.98774
 20
-98.4027
 30
0.000000
  70
    32
  0
VERTEX
  8
0
  5
72B
 10
3.92899
 20
-98.3489
 30
0.000000
  70
    32
  0
VERTEX
  8
0
  5
72C
 10
3.86879
 20
-98.2958
 30
0.000000
  70
    32
  0
VERTEX
  8
0
  5
72D
 10
3.80716
 20
-98.2436
 30
0.000000
  70
    32
  0
VERTEX
  8
0
  5
72E
 10
3.74412
 20
-98.1923
 30
0.000000
  70
    32
  0
VERTEX
  8
0
  5
72F
 10
3.67969
 20
-98.1418
 30
0.000000
  70
    32
  0
VERTEX
  8
0
  5
730
 10
3.61390
 20
-98.0922
 30
0.000000
  70
    32
  0
VERTEX
  8
0
  5
731
 10
3.54678
 20
-98.0435
 30
0.000000
  70
    32
  0
VERTEX
  8
0
  5
732
 10
3.47834
 20
-97.9957
 30
0.000000
  70
    32
  0
VERTEX
  8
0
  5
733
 10
3.40862
 20
-97.9489
 30
0.000000
  70
    32
  0
VERTEX
  8
0
  5
734
 10
3.33763
 20
-97.9030
 30
0.000000
  70
    32
  0
VERTEX
  8
0
  5
735
 10
3.26541
 20
-97.8581
 30
0.000000
  70
    32
  0
VERTEX
  8
0
  5
736
 10
3.19199
 20
-97.8142
 30
0.000000
  70
    32
  0
VERTEX
  8
0
  5
737
 10
3.11738
 20
-97.7713
 30
0.000000
  70
    32
  0
VERTEX
  8
0
  5
738
 10
3.04162
 20
-97.7294
 30
0.000000
  70
    32
  0
VERTEX
  8
0
  5
739
 10
2.96473
 20
-97.6886
 30
0.000000
  70
    32
  0
VERTEX
  8
0
  5
73A
 10
2.88675
 20
-97.6488
 30
0.000000
  70
    32
  0
VERTEX
  8
0
  5
73B
 10
2.80770
 20
-97.6101
 30
0.000000
  70
    32
  0
VERTEX
  8
0
  5
73C
 10
2.72761
 20
-97.5724
 30
0.000000
  70
    32
  0
VERTEX
  8
0
  5
73D
 10
2.64651
 20
-97.5359
 30
0.000000
  70
    32
  0
VERTEX
  8
0
  5
73E
 10
2.56444
 20
-97.5004
 30
0.000000
  70
    32
  0
VERTEX
  8
0
  5
73F
 10
2.48141
 20
-97.4661
 30
0.000000
  70
    32
  0
VERTEX
  8
0
  5
740
 10
2.39747
 20
-97.4329
 30
0.000000
  70
    32
  0
VERTEX
  8
0
  5
741
 10
2.31264
 20
-97.4009
 30
0.000000
  70
    32
  0
VERTEX
  8
0
  5
742
 10
2.22695
 20
-97.3700
 30
0.000000
  70
    32
  0
VERTEX
  8
0
  5
743
 10
2.14044
 20
-97.3403
 30
0.000000
  70
    32
  0
VERTEX
  8
0
  5
744
 10
2.05314
 20
-97.3118
 30
0.000000
  70
    32
  0
VERTEX
  8
0
  5
745
 10
1.96508
 20
-97.2845
 30
0.000000
  70
    32
  0
VERTEX
  8
0
  5
746
 10
1.87629
 20
-97.2584
 30
0.000000
  70
    32
  0
VERTEX
  8
0
  5
747
 10
1.78681
 20
-97.2335
 30
0.000000
  70
    32
  0
VERTEX
  8
0
  5
748
 10
1.69666
 20
-97.2098
 30
0.000000
  70
    32
  0
VERTEX
  8
0
  5
749
 10
1.60589
 20
-97.1873
 30
0.000000
  70
    32
  0
VERTEX
  8
0
  5
74A
 10
1.51453
 20
-97.1661
 30
0.000000
  70
    32
  0
VERTEX
  8
0
  5
74B
 10
1.42260
 20
-97.1461
 30
0.000000
  70
    32
  0
VERTEX
  8
0
  5
74C
 10
1.33015
 20
-97.1274
 30
0.000000
  70
    32
  0
VERTEX
  8
0
  5
74D
 10
1.23721
 20
-97.1099
 30
0.000000
  70
    32
  0
VERTEX
  8
0
  5
74E
 10
1.14381
 20
-97.0938
 30
0.000000
  70
    32
  0
VERTEX
  8
0
  5
74F
 10
1.04998
 20
-97.0788
 30
0.000000
  70
    32
  0
VERTEX
  8
0
  5
750
 10
0.955769
 20
-97.0652
 30
0.000000
  70
    32
  0
VERTEX
  8
0
  5
751
 10
0.861202
 20
-97.0528
 30
0.000000
  70
    32
  0
VERTEX
  8
0
  5
752
 10
0.766317
 20
-97.0418
 30
0.000000
  70
    32
  0
VERTEX
  8
0
  5
753
 10
0.671149
 20
-97.0320
 30
0.000000
  70
    32
  0
VERTEX
  8
0
  5
754
 10
0.575732
 20
-97.0235
 30
0.000000
  70
    32
  0
VERTEX
  8
0
  5
755
 10
0.480103
 20
-97.0163
 30
0.000000
  70
    32
  0
VERTEX
  8
0
  5
756
 10
0.384295
 20
-97.0105
 30
0.000000
  70
    32
  0
VERTEX
  8
0
  5
757
 10
0.288346
 20
-97.0059
 30
0.000000
  70
    32
  0
VERTEX
  8
0
  5
758
 10
0.192290
 20
-97.0026
 30
0.000000
  70
    32
  0
VERTEX
  8
0
  5
759
 10
0.0961628
 20
-97.0007
 30
0.000000
  70
    32
  0
VERTEX
  8
0
  5
75A
 10
3.47493e-014
 20
-97.0000
 30
0.000000
  70
    32
  0
VERTEX
  8
0
  5
75B
 10
-0.0961628
 20
-97.0007
 30
0.000000
  70
    32
  0
VERTEX
  8
0
  5
75C
 10
-0.192290
 20
-97.0026
 30
0.000000
  70
    32
  0
VERTEX
  8
0
  5
75D
 10
-0.288346
 20
-97.0059
 30
0.000000
  70
    32
  0
VERTEX
  8
0
  5
75E
 10
-0.384295
 20
-97.0105
 30
0.000000
  70
    32
  0
VERTEX
  8
0
  5
75F
 10
-0.480103
 20
-97.0163
 30
0.000000
  70
    32
  0
VERTEX
  8
0
  5
760
 10
-0.575732
 20
-97.0235
 30
0.000000
  70
    32
  0
VERTEX
  8
0
  5
761
 10
-0.671149
 20
-97.0320
 30
0.000000
  70
    32
  0
VERTEX
  8
0
  5
762
 10
-0.766317
 20
-97.0418
 30
0.000000
  70
    32
  0
VERTEX
  8
0
  5
763
 10
-0.861202
 20
-97.0528
 30
0.000000
  70
    32
  0
VERTEX
  8
0
  5
764
 10
-0.955769
 20
-97.0652
 30
0.000000
  70
    32
  0
VERTEX
  8
0
  5
765
 10
-1.04998
 20
-97.0788
 30
0.000000
  70
    32
  0
VERTEX
  8
0
  5
766
 10
-1.14381
 20
-97.0938
 30
0.000000
  70
    32
  0
VERTEX
  8
0
  5
767
 10
-1.23721
 20
-97.1099
 30
0.000000
  70
    32
  0
VERTEX
  8
0
  5
768
 10
-1.33015
 20
-97.1274
 30
0.000000
  70
    32
  0
VERTEX
  8
0
  5
769
 10
-1.42260
 20
-97.1461
 30
0.000000
  70
    32
  0
VERTEX
  8
0
  5
76A
 10
-1.51453
 20
-97.1661
 30
0.000000
  70
    32
  0
VERTEX
  8
0
  5
76B
 10
-1.60589
 20
-97.1873
 30
0.000000
  70
    32
  0
VERTEX
  8
0
  5
76C
 10
-1.69666
 20
-97.2098
 30
0.000000
  70
    32
  0
VERTEX
  8
0
  5
76D
 10
-1.78681
 20
-97.2335
 30
0.000000
  70
    32
  0
VERTEX
  8
0
  5
76E
 10
-1.87629
 20
-97.2584
 30
0.000000
  70
    32
  0
VERTEX
  8
0
  5
76F
 10
-1.96508
 20
-97.2845
 30
0.000000
  70
    32
  0
VERTEX
  8
0
  5
770
 10
-2.05314
 20
-97.3118
 30
0.000000
  70
    32
  0
VERTEX
  8
0
  5
771
 10
-2.14044
 20
-97.3403
 30
0.000000
  70
    32
  0
VERTEX
  8
0
  5
772
 10
-2.22695
 20
-97.3700
 30
0.000000
  70
    32
  0
VERTEX
  8
0
  5
773
 10
-2.31264
 20
-97.4009
 30
0.000000
  70
    32
  0
VERTEX
  8
0
  5
774
 10
-2.39747
 20
-97.4329
 30
0.000000
  70
    32
  0
VERTEX
  8
0
  5
775
 10
-2.48141
 20
-97.4661
 30
0.000000
  70
    32
  0
VERTEX
  8
0
  5
776
 10
-2.56444
 20
-97.5004
 30
0.000000
  70
    32
  0
VERTEX
  8
0
  5
777
 10
-2.64651
 20
-97.5359
 30
0.000000
  70
    32
  0
VERTEX
  8
0
  5
778
 10
-2.72761
 20
-97.5724
 30
0.000000
  70
    32
  0
VERTEX
  8
0
  5
779
 10
-2.80770
 20
-97.6101
 30
0.000000
  70
    32
  0
VERTEX
  8
0
  5
77A
 10
-2.88675
 20
-97.6488
 30
0.000000
  70
    32
  0
VERTEX
  8
0
  5
77B
 10
-2.96473
 20
-97.6886
 30
0.000000
  70
    32
  0
VERTEX
  8
0
  5
77C
 10
-3.04162
 20
-97.7294
 30
0.000000
  70
    32
  0
VERTEX
  8
0
  5
77D
 10
-3.11738
 20
-97.7713
 30
0.000000
  70
    32
  0
VERTEX
  8
0
  5
77E
 10
-3.19199
 20
-97.8142
 30
0.000000
  70
    32
  0
VERTEX
  8
0
  5
77F
 10
-3.26541
 20
-97.8581
 30
0.000000
  70
    32
  0
VERTEX
  8
0
  5
780
 10
-3.33763
 20
-97.9030
 30
0.000000
  70
    32
  0
VERTEX
  8
0
  5
781
 10
-3.40862
 20
-97.9489
 30
0.000000
  70
    32
  0
VERTEX
  8
0
  5
782
 10
-3.47834
 20
-97.9957
 30
0.000000
  70
    32
  0
VERTEX
  8
0
  5
783
 10
-3.54678
 20
-98.0435
 30
0.000000
  70
    32
  0
VERTEX
  8
0
  5
784
 10
-3.61390
 20
-98.0922
 30
0.000000
  70
    32
  0
VERTEX
  8
0
  5
785
 10
-3.67969
 20
-98.1418
 30
0.000000
  70
    32
  0
VERTEX
  8
0
  5
786
 10
-3.74412
 20
-98.1923
 30
0.000000
  70
    32
  0
VERTEX
  8
0
  5
787
 10
-3.80716
 20
-98.2436
 30
0.000000
  70
    32
  0
VERTEX
  8
0
  5
788
 10
-3.86879
 20
-98.2958
 30
0.000000
  70
    32
  0
VERTEX
  8
0
  5
789
 10
-3.92899
 20
-98.3489
 30
0.000000
  70
    32
  0
VERTEX
  8
0
  5
78A
 10
-3.98774
 20
-98.4027
 30
0.000000
  70
    32
  0
VERTEX
  8
0
  5
78B
 10
-4.04501
 20
-98.4573
 30
0.000000
  70
    32
  0
VERTEX
  8
0
  5
78C
 10
-4.10079
 20
-98.5127
 30
0.000000
  70
    32
  0
VERTEX
  8
0
  5
78D
 10
-4.15505
 20
-98.5689
 30
0.000000
  70
    32
  0
VERTEX
  8
0
  5
78E
 10
-4.20777
 20
-98.6257
 30
0.000000
  70
    32
  0
VERTEX
  8
0
  5
78F
 10
-4.25894
 20
-98.6833
 30
0.000000
  70
    32
  0
VERTEX
  8
0
  5
790
 10
-4.30853
 20
-98.7416
 30
0.000000
  70
    32
  0
VERTEX
  8
0
  5
791
 10
-4.35653
 20
-98.8005
 30
0.000000
  70
    32
  0
VERTEX
  8
0
  5
792
 10
-4.40291
 20
-98.8601
 30
0.000000
  70
    32
  0
VERTEX
  8
0
  5
793
 10
-4.44767
 20
-98.9203
 30
0.000000
  70
    32
  0
VERTEX
  8
0
  5
794
 10
-4.49078
 20
-98.9810
 30
0.000000
  70
    32
  0
VERTEX
  8
0
  5
795
 10
-4.53223
 20
-99.0424
 30
0.000000
  70
    32
  0
VERTEX
  8
0
  5
796
 10
-4.57200
 20
-99.1043
 30
0.000000
  70
    32
  0
VERTEX
  8
0
  5
797
 10
-4.61008
 20
-99.1668
 30
0.000000
  70
    32
  0
VERTEX
  8
0
  5
798
 10
-4.64646
 20
-99.2297
 30
0.000000
  70
    32
  0
VERTEX
  8
0
  5
799
 10
-4.68112
 20
-99.2931
 30
0.000000
  70
    32
  0
VERTEX
  8
0
  5
79A
 10
-4.71405
 20
-99.3570
 30
0.000000
  70
    32
  0
SEQEND
  8
0
  5
79B
  0
POLYLINE
  5
3D
  8
0
 10
2.7000000000000375
 20
-102.16187950266169
 30
0.0
 66
     1
 70
     8
  0
VERTEX
  8
0
  5
79C
 10
2.70000
 20
-102.162
 30
0.000000
  70
    32
  0
VERTEX
  8
0
  5
79D
 10
2.69675
 20
-102.068
 30
0.000000
  70
    32
  0
VERTEX
  8
0
  5
79E
 10
2.68700
 20
-101.975
 30
0.000000
  70
    32
  0
VERTEX
  8
0
  5
79F
 10
2.67078
 20
-101.882
 30
0.000000
  70
    32
  0
VERTEX
  8
0
  5
7A0
 10
2.64812
 20
-101.789
 30
0.000000
  70
    32
  0
VERTEX
  8
0
  5
7A1
 10
2.61908
 20
-101.698
 30
0.000000
  70
    32
  0
VERTEX
  8
0
  5
7A2
 10
2.58374
 20
-101.608
 30
0.000000
  70
    32
  0
VERTEX
  8
0
  5
7A3
 10
2.54217
 20
-101.519
 30
0.000000
  70
    32
  0
VERTEX
  8
0
  5
7A4
 10
2.49447
 20
-101.431
 30
0.000000
  70
    32
  0
VERTEX
  8
0
  5
7A5
 10
2.44077
 20
-101.346
 30
0.000000
  70
    32
  0
VERTEX
  8
0
  5
7A6
 10
2.38119
 20
-101.262
 30
0.000000
  70
    32
  0
VERTEX
  8
0
  5
7A7
 10
2.31587
 20
-101.180
 30
0.000000
  70
    32
  0
VERTEX
  8
0
  5
7A8
 10
2.24497
 20
-101.101
 30
0.000000
  70
    32
  0
VERTEX
  8
0
  5
7A9
 10
2.16866
 20
-101.025
 30
0.000000
  70
    32
  0
VERTEX
  8
0
  5
7AA
 10
2.08713
 20
-100.951
 30
0.000000
  70
    32
  0
VERTEX
  8
0
  5
7AB
 10
2.00057
 20
-100.880
 30
0.000000
  70
    32
  0
VERTEX
  8
0
  5
7AC
 10
1.90919
 20
-100.812
 30
0.000000
  70
    32
  0
VERTEX
  8
0
  5
7AD
 10
1.81321
 20
-100.747
 30
0.000000
  70
    32
  0
VERTEX
  8
0
  5
7AE
 10
1.71286
 20
-100.686
 30
0.000000
  70
    32
  0
VERTEX
  8
0
  5
7AF
 10
1.60839
 20
-100.628
 30
0.000000
  70
    32
  0
VERTEX
  8
0
  5
7B0
 10
1.50004
 20
-100.574
 30
0.000000
  70
    32
  0
VERTEX
  8
0
  5
7B1
 10
1.38808
 20
-100.524
 30
0.000000
  70
    32
  0
VERTEX
  8
0
  5
7B2
 10
1.27277
 20
-100.478
 30
0.000000
  70
    32
  0
VERTEX
  8
0
  5
7B3
 10
1.15440
 20
-100.436
 30
0.000000
  70
    32
  0
VERTEX
  8
0
  5
7B4
 10
1.03325
 20
-100.398
 30
0.000000
  70
    32
  0
VERTEX
  8
0
  5
7B5
 10
0.909603
 20
-100.364
 30
0.000000
  70
    32
  0
VERTEX
  8
0
  5
7B6
 10
0.783769
 20
-100.335
 30
0.000000
  70
    32
  0
VERTEX
  8
0
  5
7B7
 10
0.656046
 20
-100.310
 30
0.000000
  70
    32
  0
VERTEX
  8
0
  5
7B8
 10
0.526744
 20
-100.289
 30
0.000000
  70
    32
  0
VERTEX
  8
0
  5
7B9
 10
0.396172
 20
-100.273
 30
0.000000
  70
    32
  0
VERTEX
  8
0
  5
7BA
 10
0.264646
 20
-100.262
 30
0.000000
  70
    32
  0
VERTEX
  8
0
  5
7BB
 10
0.132483
 20
-100.255
 30
0.000000
  70
    32
  0
VERTEX
  8
0
  5
7BC
 10
1.35039e-014
 20
-100.253
 30
0.000000
  70
    32
  0
VERTEX
  8
0
  5
7BD
 10
-0.132483
 20
-100.255
 30
0.000000
  70
    32
  0
VERTEX
  8
0
  5
7BE
 10
-0.264646
 20
-100.262
 30
0.000000
  70
    32
  0
VERTEX
  8
0
  5
7BF
 10
-0.396172
 20
-100.273
 30
0.000000
  70
    32
  0
VERTEX
  8
0
  5
7C0
 10
-0.526744
 20
-100.289
 30
0.000000
  70
    32
  0
VERTEX
  8
0
  5
7C1
 10
-0.656046
 20
-100.310
 30
0.000000
  70
    32
  0
VERTEX
  8
0
  5
7C2
 10
-0.783769
 20
-100.335
 30
0.000000
  70
    32
  0
VERTEX
  8
0
  5
7C3
 10
-0.909603
 20
-100.364
 30
0.000000
  70
    32
  0
VERTEX
  8
0
  5
7C4
 10
-1.03325
 20
-100.398
 30
0.000000
  70
    32
  0
VERTEX
  8
0
  5
7C5
 10
-1.15440
 20
-100.436
 30
0.000000
  70
    32
  0
VERTEX
  8
0
  5
7C6
 10
-1.27277
 20
-100.478
 30
0.000000
  70
    32
  0
VERTEX
  8
0
  5
7C7
 10
-1.38808
 20
-100.524
 30
0.000000
  70
    32
  0
VERTEX
  8
0
  5
7C8
 10
-1.50004
 20
-100.574
 30
0.000000
  70
    32
  0
VERTEX
  8
0
  5
7C9
 10
-1.60839
 20
-100.628
 30
0.000000
  70
    32
  0
VERTEX
  8
0
  5
7CA
 10
-1.71286
 20
-100.686
 30
0.000000
  70
    32
  0
VERTEX
  8
0
  5
7CB
 10
-1.81321
 20
-100.747
 30
0.000000
  70
    32
  0
VERTEX
  8
0
  5
7CC
 10
-1.90919
 20
-100.812
 30
0.000000
  70
    32
  0
VERTEX
  8
0
  5
7CD
 10
-2.00057
 20
-100.880
 30
0.000000
  70
    32
  0
VERTEX
  8
0
  5
7CE
 10
-2.08713
 20
-100.951
 30
0.000000
  70
    32
  0
VERTEX
  8
0
  5
7CF
 10
-2.16866
 20
-101.025
 30
0.000000
  70
    32
  0
VERTEX
  8
0
  5
7D0
 10
-2.24497
 20
-101.101
 30
0.000000
  70
    32
  0
VERTEX
  8
0
  5
7D1
 10
-2.31587
 20
-101.180
 30
0.000000
  70
    32
  0
VERTEX
  8
0
  5
7D2
 10
-2.38119
 20
-101.262
 30
0.000000
  70
    32
  0
VERTEX
  8
0
  5
7D3
 10
-2.44077
 20
-101.346
 30
0.000000
  70
    32
  0
VERTEX
  8
0
  5
7D4
 10
-2.49447
 20
-101.431
 30
0.000000
  70
    32
  0
VERTEX
  8
0
  5
7D5
 10
-2.54217
 20
-101.519
 30
0.000000
  70
    32
  0
VERTEX
  8
0
  5
7D6
 10
-2.58374
 20
-101.608
 30
0.000000
  70
    32
  0
VERTEX
  8
0
  5
7D7
 10
-2.61908
 20
-101.698
 30
0.000000
  70
    32
  0
VERTEX
  8
0
  5
7D8
 10
-2.64812
 20
-101.789
 30
0.000000
  70
    32
  0
VERTEX
  8
0
  5
7D9
 10
-2.67078
 20
-101.882
 30
0.000000
  70
    32
  0
VERTEX
  8
0
  5
7DA
 10
-2.68700
 20
-101.975
 30
0.000000
  70
    32
  0
VERTEX
  8
0
  5
7DB
 10
-2.69675
 20
-102.068
 30
0.000000
  70
    32
  0
VERTEX
  8
0
  5
7DC
 10
-2.70000
 20
-102.162
 30
0.000000
  70
    32
  0
VERTEX
  8
0
  5
7DD
 10
-2.69675
 20
-102.256
 30
0.000000
  70
    32
  0
VERTEX
  8
0
  5
7DE
 10
-2.68700
 20
-102.349
 30
0.000000
  70
    32
  0
VERTEX
  8
0
  5
7DF
 10
-2.67078
 20
-102.442
 30
0.000000
  70
    32
  0
VERTEX
  8
0
  5
7E0
 10
-2.64812
 20
-102.534
 30
0.000000
  70
    32
  0
VERTEX
  8
0
  5
7E1
 10
-2.61908
 20
-102.626
 30
0.000000
  70
    32
  0
VERTEX
  8
0
  5
7E2
 10
-2.58374
 20
-102.716
 30
0.000000
  70
    32
  0
VERTEX
  8
0
  5
7E3
 10
-2.54217
 20
-102.805
 30
0.000000
  70
    32
  0
VERTEX
  8
0
  5
7E4
 10
-2.49447
 20
-102.892
 30
0.000000
  70
    32
  0
VERTEX
  8
0
  5
7E5
 10
-2.44077
 20
-102.978
 30
0.000000
  70
    32
  0
VERTEX
  8
0
  5
7E6
 10
-2.38119
 20
-103.062
 30
0.000000
  70
    32
  0
VERTEX
  8
0
  5
7E7
 10
-2.31587
 20
-103.143
 30
0.000000
  70
    32
  0
VERTEX
  8
0
  5
7E8
 10
-2.24497
 20
-103.223
 30
0.000000
  70
    32
  0
VERTEX
  8
0
  5
7E9
 10
-2.16866
 20
-103.299
 30
0.000000
  70
    32
  0
VERTEX
  8
0
  5
7EA
 10
-2.08713
 20
-103.373
 30
0.000000
  70
    32
  0
VERTEX
  8
0
  5
7EB
 10
-2.00057
 20
-103.444
 30
0.000000
  70
    32
  0
VERTEX
  8
0
  5
7EC
 10
-1.90919
 20
-103.512
 30
0.000000
  70
    32
  0
VERTEX
  8
0
  5
7ED
 10
-1.81321
 20
-103.576
 30
0.000000
  70
    32
  0
VERTEX
  8
0
  5
7EE
 10
-1.71286
 20
-103.638
 30
0.000000
  70
    32
  0
VERTEX
  8
0
  5
7EF
 10
-1.60839
 20
-103.695
 30
0.000000
  70
    32
  0
VERTEX
  8
0
  5
7F0
 10
-1.50004
 20
-103.749
 30
0.000000
  70
    32
  0
VERTEX
  8
0
  5
7F1
 10
-1.38808
 20
-103.799
 30
0.000000
  70
    32
  0
VERTEX
  8
0
  5
7F2
 10
-1.27277
 20
-103.846
 30
0.000000
  70
    32
  0
VERTEX
  8
0
  5
7F3
 10
-1.15440
 20
-103.888
 30
0.000000
  70
    32
  0
VERTEX
  8
0
  5
7F4
 10
-1.03325
 20
-103.926
 30
0.000000
  70
    32
  0
VERTEX
  8
0
  5
7F5
 10
-0.909603
 20
-103.959
 30
0.000000
  70
    32
  0
VERTEX
  8
0
  5
7F6
 10
-0.783769
 20
-103.989
 30
0.000000
  70
    32
  0
VERTEX
  8
0
  5
7F7
 10
-0.656046
 20
-104.014
 30
0.000000
  70
    32
  0
VERTEX
  8
0
  5
7F8
 10
-0.526744
 20
-104.034
 30
0.000000
  70
    32
  0
VERTEX
  8
0
  5
7F9
 10
-0.396172
 20
-104.050
 30
0.000000
  70
    32
  0
VERTEX
  8
0
  5
7FA
 10
-0.264646
 20
-104.062
 30
0.000000
  70
    32
  0
VERTEX
  8
0
  5
7FB
 10
-0.132483
 20
-104.069
 30
0.000000
  70
    32
  0
VERTEX
  8
0
  5
7FC
 10
4.29654e-014
 20
-104.071
 30
0.000000
  70
    32
  0
VERTEX
  8
0
  5
7FD
 10
0.132483
 20
-104.069
 30
0.000000
  70
    32
  0
VERTEX
  8
0
  5
7FE
 10
0.264646
 20
-104.062
 30
0.000000
  70
    32
  0
VERTEX
  8
0
  5
7FF
 10
0.396172
 20
-104.050
 30
0.000000
  70
    32
  0
VERTEX
  8
0
  5
800
 10
0.526744
 20
-104.034
 30
0.000000
  70
    32
  0
VERTEX
  8
0
  5
801
 10
0.656046
 20
-104.014
 30
0.000000
  70
    32
  0
VERTEX
  8
0
  5
802
 10
0.783769
 20
-103.989
 30
0.000000
  70
    32
  0
VERTEX
  8
0
  5
803
 10
0.909603
 20
-103.959
 30
0.000000
  70
    32
  0
VERTEX
  8
0
  5
804
 10
1.03325
 20
-103.926
 30
0.000000
  70
    32
  0
VERTEX
  8
0
  5
805
 10
1.15440
 20
-103.888
 30
0.000000
  70
    32
  0
VERTEX
  8
0
  5
806
 10
1.27277
 20
-103.846
 30
0.000000
  70
    32
  0
VERTEX
  8
0
  5
807
 10
1.38808
 20
-103.799
 30
0.000000
  70
    32
  0
VERTEX
  8
0
  5
808
 10
1.50004
 20
-103.749
 30
0.000000
  70
    32
  0
VERTEX
  8
0
  5
809
 10
1.60839
 20
-103.695
 30
0.000000
  70
    32
  0
VERTEX
  8
0
  5
80A
 10
1.71286
 20
-103.638
 30
0.000000
  70
    32
  0
VERTEX
  8
0
  5
80B
 10
1.81321
 20
-103.576
 30
0.000000
  70
    32
  0
VERTEX
  8
0
  5
80C
 10
1.90919
 20
-103.512
 30
0.000000
  70
    32
  0
VERTEX
  8
0
  5
80D
 10
2.00057
 20
-103.444
 30
0.000000
  70
    32
  0
VERTEX
  8
0
  5
80E
 10
2.08713
 20
-103.373
 30
0.000000
  70
    32
  0
VERTEX
  8
0
  5
80F
 10
2.16866
 20
-103.299
 30
0.000000
  70
    32
  0
VERTEX
  8
0
  5
810
 10
2.24497
 20
-103.223
 30
0.000000
  70
    32
  0
VERTEX
  8
0
  5
811
 10
2.31587
 20
-103.143
 30
0.000000
  70
    32
  0
VERTEX
  8
0
  5
812
 10
2.38119
 20
-103.062
 30
0.000000
  70
    32
  0
VERTEX
  8
0
  5
813
 10
2.44077
 20
-102.978
 30
0.000000
  70
    32
  0
VERTEX
  8
0
  5
814
 10
2.49447
 20
-102.892
 30
0.000000
  70
    32
  0
VERTEX
  8
0
  5
815
 10
2.54217
 20
-102.805
 30
0.000000
  70
    32
  0
VERTEX
  8
0
  5
816
 10
2.58374
 20
-102.716
 30
0.000000
  70
    32
  0
VERTEX
  8
0
  5
817
 10
2.61908
 20
-102.626
 30
0.000000
  70
    32
  0
VERTEX
  8
0
  5
818
 10
2.64812
 20
-102.534
 30
0.000000
  70
    32
  0
VERTEX
  8
0
  5
819
 10
2.67078
 20
-102.442
 30
0.000000
  70
    32
  0
VERTEX
  8
0
  5
81A
 10
2.68700
 20
-102.349
 30
0.000000
  70
    32
  0
VERTEX
  8
0
  5
81B
 10
2.69675
 20
-102.256
 30
0.000000
  70
    32
  0
VERTEX
  8
0
  5
81C
 10
2.70000
 20
-102.162
 30
0.000000
  70
    32
  0
SEQEND
  8
0
  5
81D
  0
POLYLINE
  5
3E
  8
0
 10
20.000000000000028
 20
-89.928932188134468
 30
0.0
 66
     1
 70
     8
  0
VERTEX
  8
0
  5
81E
 10
20.0000
 20
-89.9289
 30
0.000000
  70
    32
  0
VERTEX
  8
0
  5
81F
 10
19.7547
 20
-89.9374
 30
0.000000
  70
    32
  0
VERTEX
  8
0
  5
820
 10
19.5099
 20
-89.9630
 30
0.000000
  70
    32
  0
VERTEX
  8
0
  5
821
 10
19.2663
 20
-90.0055
 30
0.000000
  70
    32
  0
VERTEX
  8
0
  5
822
 10
19.0245
 20
-90.0648
 30
0.000000
  70
    32
  0
VERTEX
  8
0
  5
823
 10
18.7851
 20
-90.1408
 30
0.000000
  70
    32
  0
VERTEX
  8
0
  5
824
 10
18.5486
 20
-90.2334
 30
0.000000
  70
    32
  0
VERTEX
  8
0
  5
825
 10
18.3156
 20
-90.3423
 30
0.000000
  70
    32
  0
VERTEX
  8
0
  5
826
 10
18.0866
 20
-90.4672
 30
0.000000
  70
    32
  0
VERTEX
  8
0
  5
827
 10
17.8622
 20
-90.6078
 30
0.000000
  70
    32
  0
VERTEX
  8
0
  5
828
 10
17.6430
 20
-90.7639
 30
0.000000
  70
    32
  0
VERTEX
  8
0
  5
829
 10
17.4295
 20
-90.9349
 30
0.000000
  70
    32
  0
VERTEX
  8
0
  5
82A
 10
17.2221
 20
-91.1206
 30
0.000000
  70
    32
  0
VERTEX
  8
0
  5
82B
 10
17.0215
 20
-91.3205
 30
0.000000
  70
    32
  0
VERTEX
  8
0
  5
82C
 10
16.8280
 20
-91.5340
 30
0.000000
  70
    32
  0
VERTEX
  8
0
  5
82D
 10
16.6422
 20
-91.7607
 30
0.000000
  70
    32
  0
VERTEX
  8
0
  5
82E
 10
16.4645
 20
-92.0000
 30
0.000000
  70
    32
  0
VERTEX
  8
0
  5
82F
 10
16.2952
 20
-92.2514
 30
0.000000
  70
    32
  0
VERTEX
  8
0
  5
830
 10
16.1349
 20
-92.5142
 30
0.000000
  70
    32
  0
VERTEX
  8
0
  5
831
 10
15.9840
 20
-92.7878
 30
0.000000
  70
    32
  0
VERTEX
  8
0
  5
832
 10
15.8427
 20
-93.0715
 30
0.000000
  70
    32
  0
VERTEX
  8
0
  5
833
 10
15.7114
 20
-93.3647
 30
0.000000
  70
    32
  0
VERTEX
  8
0
  5
834
 10
15.5904
 20
-93.6667
 30
0.000000
  70
    32
  0
VERTEX
  8
0
  5
835
 10
15.4801
 20
-93.9767
 30
0.000000
  70
    32
  0
VERTEX
  8
0
  5
836
 10
15.3806
 20
-94.2940
 30
0.000000
  70
    32
  0
VERTEX
  8
0
  5
837
 10
15.2923
 20
-94.6178
 30
0.000000
  70
    32
  0
VERTEX
  8
0
  5
838
 10
15.2153
 20
-94.9474
 30
0.000000
  70
    32
  0
VERTEX
  8
0
  5
839
 10
15.1498
 20
-95.2819
 30
0.000000
  70
    32
  0
VERTEX
  8
0
  5
83A
 10
15.0961
 20
-95.6205
 30
0.000000
  70
    32
  0
VERTEX
  8
0
  5
83B
 10
15.0541
 20
-95.9625
 30
0.000000
  70
    32
  0
VERTEX
  8
0
  5
83C
 10
15.0241
 20
-96.3069
 30
0.000000
  70
    32
  0
VERTEX
  8
0
  5
83D
 10
15.0060
 20
-96.6530
 30
0.000000
  70
    32
  0
VERTEX
  8
0
  5
83E
 10
15.0000
 20
-97.0000
 30
0.000000
  70
    32
  0
VERTEX
  8
0
  5
83F
 10
15.0060
 20
-97.3470
 30
0.000000
  70
    32
  0
VERTEX
  8
0
  5
840
 10
15.0241
 20
-97.6931
 30
0.000000
  70
    32
  0
VERTEX
  8
0
  5
841
 10
15.0541
 20
-98.0375
 30
0.000000
  70
    32
  0
VERTEX
  8
0
  5
842
 10
15.0961
 20
-98.3795
 30
0.000000
  70
    32
  0
VERTEX
  8
0
  5
843
 10
15.1498
 20
-98.7181
 30
0.000000
  70
    32
  0
VERTEX
  8
0
  5
844
 10
15.2153
 20
-99.0526
 30
0.000000
  70
    32
  0
VERTEX
  8
0
  5
845
 10
15.2923
 20
-99.3822
 30
0.000000
  70
    32
  0
VERTEX
  8
0
  5
846
 10
15.3806
 20
-99.7060
 30
0.000000
  70
    32
  0
VERTEX
  8
0
  5
847
 10
15.4801
 20
-100.023
 30
0.000000
  70
    32
  0
VERTEX
  8
0
  5
848
 10
15.5904
 20
-100.333
 30
0.000000
  70
    32
  0
VERTEX
  8
0
  5
849
 10
15.7114
 20
-100.635
 30
0.000000
  70
    32
  0
VERTEX
  8
0
  5
84A
 10
15.8427
 20
-100.928
 30
0.000000
  70
    32
  0
VERTEX
  8
0
  5
84B
 10
15.9840
 20
-101.212
 30
0.000000
  70
    32
  0
VERTEX
  8
0
  5
84C
 10
16.1349
 20
-101.486
 30
0.000000
  70
    32
  0
VERTEX
  8
0
  5
84D
 10
16.2952
 20
-101.749
 30
0.000000
  70
    32
  0
VERTEX
  8
0
  5
84E
 10
16.4645
 20
-102.000
 30
0.000000
  70
    32
  0
VERTEX
  8
0
  5
84F
 10
16.6422
 20
-102.239
 30
0.000000
  70
    32
  0
VERTEX
  8
0
  5
850
 10
16.8280
 20
-102.466
 30
0.000000
  70
    32
  0
VERTEX
  8
0
  5
851
 10
17.0215
 20
-102.680
 30
0.000000
  70
    32
  0
VERTEX
  8
0
  5
852
 10
17.2221
 20
-102.879
 30
0.000000
  70
    32
  0
VERTEX
  8
0
  5
853
 10
17.4295
 20
-103.065
 30
0.000000
  70
    32
  0
VERTEX
  8
0
  5
854
 10
17.6430
 20
-103.236
 30
0.000000
  70
    32
  0
VERTEX
  8
0
  5
855
 10
17.8622
 20
-103.392
 30
0.000000
  70
    32
  0
VERTEX
  8
0
  5
856
 10
18.0866
 20
-103.533
 30
0.000000
  70
    32
  0
VERTEX
  8
0
  5
857
 10
18.3156
 20
-103.658
 30
0.000000
  70
    32
  0
VERTEX
  8
0
  5
858
 10
18.5486
 20
-103.767
 30
0.000000
  70
    32
  0
VERTEX
  8
0
  5
859
 10
18.7851
 20
-103.859
 30
0.000000
  70
    32
  0
VERTEX
  8
0
  5
85A
 10
19.0245
 20
-103.935
 30
0.000000
  70
    32
  0
VERTEX
  8
0
  5
85B
 10
19.2663
 20
-103.995
 30
0.000000
  70
    32
  0
VERTEX
  8
0
  5
85C
 10
19.5099
 20
-104.037
 30
0.000000
  70
    32
  0
VERTEX
  8
0
  5
85D
 10
19.7547
 20
-104.063
 30
0.000000
  70
    32
  0
VERTEX
  8
0
  5
85E
 10
20.0000
 20
-104.071
 30
0.000000
  70
    32
  0
VERTEX
  8
0
  5
85F
 10
20.2453
 20
-104.063
 30
0.000000
  70
    32
  0
VERTEX
  8
0
  5
860
 10
20.4901
 20
-104.037
 30
0.000000
  70
    32
  0
VERTEX
  8
0
  5
861
 10
20.7337
 20
-103.995
 30
0.000000
  70
    32
  0
VERTEX
  8
0
  5
862
 10
20.9755
 20
-103.935
 30
0.000000
  70
    32
  0
VERTEX
  8
0
  5
863
 10
21.2149
 20
-103.859
 30
0.000000
  70
    32
  0
VERTEX
  8
0
  5
864
 10
21.4514
 20
-103.767
 30
0.000000
  70
    32
  0
VERTEX
  8
0
  5
865
 10
21.6844
 20
-103.658
 30
0.000000
  70
    32
  0
VERTEX
  8
0
  5
866
 10
21.9134
 20
-103.533
 30
0.000000
  70
    32
  0
VERTEX
  8
0
  5
867
 10
22.1378
 20
-103.392
 30
0.000000
  70
    32
  0
VERTEX
  8
0
  5
868
 10
22.3570
 20
-103.236
 30
0.000000
  70
    32
  0
VERTEX
  8
0
  5
869
 10
22.5705
 20
-103.065
 30
0.000000
  70
    32
  0
VERTEX
  8
0
  5
86A
 10
22.7779
 20
-102.879
 30
0.000000
  70
    32
  0
VERTEX
  8
0
  5
86B
 10
22.9785
 20
-102.680
 30
0.000000
  70
    32
  0
VERTEX
  8
0
  5
86C
 10
23.1720
 20
-102.466
 30
0.000000
  70
    32
  0
VERTEX
  8
0
  5
86D
 10
23.3578
 20
-102.239
 30
0.000000
  70
    32
  0
VERTEX
  8
0
  5
86E
 10
23.5355
 20
-102.000
 30
0.000000
  70
    32
  0
VERTEX
  8
0
  5
86F
 10
23.7048
 20
-101.749
 30
0.000000
  70
    32
  0
VERTEX
  8
0
  5
870
 10
23.8651
 20
-101.486
 30
0.000000
  70
    32
  0
VERTEX
  8
0
  5
871
 10
24.0160
 20
-101.212
 30
0.000000
  70
    32
  0
VERTEX
  8
0
  5
872
 10
24.1573
 20
-100.928
 30
0.000000
  70
    32
  0
VERTEX
  8
0
  5
873
 10
24.2886
 20
-100.635
 30
0.000000
  70
    32
  0
VERTEX
  8
0
  5
874
 10
24.4096
 20
-100.333
 30
0.000000
  70
    32
  0
VERTEX
  8
0
  5
875
 10
24.5199
 20
-100.023
 30
0.000000
  70
    32
  0
VERTEX
  8
0
  5
876
 10
24.6194
 20
-99.7060
 30
0.000000
  70
    32
  0
VERTEX
  8
0
  5
877
 10
24.7077
 20
-99.3822
 30
0.000000
  70
    32
  0
VERTEX
  8
0
  5
878
 10
24.7847
 20
-99.0526
 30
0.000000
  70
    32
  0
VERTEX
  8
0
  5
879
 10
24.8502
 20
-98.7181
 30
0.000000
  70
    32
  0
VERTEX
  8
0
  5
87A
 10
24.9039
 20
-98.3795
 30
0.000000
  70
    32
  0
VERTEX
  8
0
  5
87B
 10
24.9459
 20
-98.0375
 30
0.000000
  70
    32
  0
VERTEX
  8
0
  5
87C
 10
24.9759
 20
-97.6931
 30
0.000000
  70
    32
  0
VERTEX
  8
0
  5
87D
 10
24.9940
 20
-97.3470
 30
0.000000
  70
    32
  0
VERTEX
  8
0
  5
87E
 10
25.0000
 20
-97.0000
 30
0.000000
  70
    32
  0
VERTEX
  8
0
  5
87F
 10
24.9940
 20
-96.6530
 30
0.000000
  70
    32
  0
VERTEX
  8
0
  5
880
 10
24.9759
 20
-96.3069
 30
0.000000
  70
    32
  0
VERTEX
  8
0
  5
881
 10
24.9459
 20
-95.9625
 30
0.000000
  70
    32
  0
VERTEX
  8
0
  5
882
 10
24.9039
 20
-95.6205
 30
0.000000
  70
    32
  0
VERTEX
  8
0
  5
883
 10
24.8502
 20
-95.2819
 30
0.000000
  70
    32
  0
VERTEX
  8
0
  5
884
 10
24.7847
 20
-94.9474
 30
0.000000
  70
    32
  0
VERTEX
  8
0
  5
885
 10
24.7077
 20
-94.6178
 30
0.000000
  70
    32
  0
VERTEX
  8
0
  5
886
 10
24.6194
 20
-94.2940
 30
0.000000
  70
    32
  0
VERTEX
  8
0
  5
887
 10
24.5199
 20
-93.9767
 30
0.000000
  70
    32
  0
VERTEX
  8
0
  5
888
 10
24.4096
 20
-93.6667
 30
0.000000
  70
    32
  0
VERTEX
  8
0
  5
889
 10
24.2886
 20
-93.3647
 30
0.000000
  70
    32
  0
VERTEX
  8
0
  5
88A
 10
24.1573
 20
-93.0715
 30
0.000000
  70
    32
  0
VERTEX
  8
0
  5
88B
 10
24.0160
 20
-92.7878
 30
0.000000
  70
    32
  0
VERTEX
  8
0
  5
88C
 10
23.8651
 20
-92.5142
 30
0.000000
  70
    32
  0
VERTEX
  8
0
  5
88D
 10
23.7048
 20
-92.2514
 30
0.000000
  70
    32
  0
VERTEX
  8
0
  5
88E
 10
23.5355
 20
-92.0000
 30
0.000000
  70
    32
  0
VERTEX
  8
0
  5
88F
 10
23.3578
 20
-91.7607
 30
0.000000
  70
    32
  0
VERTEX
  8
0
  5
890
 10
23.1720
 20
-91.5340
 30
0.000000
  70
    32
  0
VERTEX
  8
0
  5
891
 10
22.9785
 20
-91.3205
 30
0.000000
  70
    32
  0
VERTEX
  8
0
  5
892
 10
22.7779
 20
-91.1206
 30
0.000000
  70
    32
  0
VERTEX
  8
0
  5
893
 10
22.5705
 20
-90.9349
 30
0.000000
  70
    32
  0
VERTEX
  8
0
  5
894
 10
22.3570
 20
-90.7639
 30
0.000000
  70
    32
  0
VERTEX
  8
0
  5
895
 10
22.1378
 20
-90.6078
 30
0.000000
  70
    32
  0
VERTEX
  8
0
  5
896
 10
21.9134
 20
-90.4672
 30
0.000000
  70
    32
  0
VERTEX
  8
0
  5
897
 10
21.6844
 20
-90.3423
 30
0.000000
  70
    32
  0
VERTEX
  8
0
  5
898
 10
21.4514
 20
-90.2334
 30
0.000000
  70
    32
  0
VERTEX
  8
0
  5
899
 10
21.2149
 20
-90.1408
 30
0.000000
  70
    32
  0
VERTEX
  8
0
  5
89A
 10
20.9755
 20
-90.0648
 30
0.000000
  70
    32
  0
VERTEX
  8
0
  5
89B
 10
20.7337
 20
-90.0055
 30
0.000000
  70
    32
  0
VERTEX
  8
0
  5
89C
 10
20.4901
 20
-89.9630
 30
0.000000
  70
    32
  0
VERTEX
  8
0
  5
89D
 10
20.2453
 20
-89.9374
 30
0.000000
  70
    32
  0
VERTEX
  8
0
  5
89E
 10
20.0000
 20
-89.9289
 30
0.000000
  70
    32
  0
SEQEND
  8
0
  5
89F
  0
POLYLINE
  5
3F
  8
0
 10
24.714045207910331
 20
-99.357022603955087
 30
0.0
 66
     1
 70
     8
  0
VERTEX
  8
0
  5
8A0
 10
24.7140
 20
-99.3570
 30
0.000000
  70
    32
  0
VERTEX
  8
0
  5
8A1
 10
24.6811
 20
-99.2931
 30
0.000000
  70
    32
  0
VERTEX
  8
0
  5
8A2
 10
24.6465
 20
-99.2297
 30
0.000000
  70
    32
  0
VERTEX
  8
0
  5
8A3
 10
24.6101
 20
-99.1668
 30
0.000000
  70
    32
  0
VERTEX
  8
0
  5
8A4
 10
24.5720
 20
-99.1043
 30
0.000000
  70
    32
  0
VERTEX
  8
0
  5
8A5
 10
24.5322
 20
-99.0424
 30
0.000000
  70
    32
  0
VERTEX
  8
0
  5
8A6
 10
24.4908
 20
-98.9810
 30
0.000000
  70
    32
  0
VERTEX
  8
0
  5
8A7
 10
24.4477
 20
-98.9203
 30
0.000000
  70
    32
  0
VERTEX
  8
0
  5
8A8
 10
24.4029
 20
-98.8601
 30
0.000000
  70
    32
  0
VERTEX
  8
0
  5
8A9
 10
24.3565
 20
-98.8005
 30
0.000000
  70
    32
  0
VERTEX
  8
0
  5
8AA
 10
24.3085
 20
-98.7416
 30
0.000000
  70
    32
  0
VERTEX
  8
0
  5
8AB
 10
24.2589
 20
-98.6833
 30
0.000000
  70
    32
  0
VERTEX
  8
0
  5
8AC
 10
24.2078
 20
-98.6257
 30
0.000000
  70
    32
  0
VERTEX
  8
0
  5
8AD
 10
24.1550
 20
-98.5689
 30
0.000000
  70
    32
  0
VERTEX
  8
0
  5
8AE
 10
24.1008
 20
-98.5127
 30
0.000000
  70
    32
  0
VERTEX
  8
0
  5
8AF
 10
24.0450
 20
-98.4573
 30
0.000000
  70
    32
  0
VERTEX
  8
0
  5
8B0
 10
23.9877
 20
-98.4027
 30
0.000000
  70
    32
  0
VERTEX
  8
0
  5
8B1
 10
23.9290
 20
-98.3489
 30
0.000000
  70
    32
  0
VERTEX
  8
0
  5
8B2
 10
23.8688
 20
-98.2958
 30
0.000000
  70
    32
  0
VERTEX
  8
0
  5
8B3
 10
23.8072
 20
-98.2436
 30
0.000000
  70
    32
  0
VERTEX
  8
0
  5
8B4
 10
23.7441
 20
-98.1923
 30
0.000000
  70
    32
  0
VERTEX
  8
0
  5
8B5
 10
23.6797
 20
-98.1418
 30
0.000000
  70
    32
  0
VERTEX
  8
0
  5
8B6
 10
23.6139
 20
-98.0922
 30
0.000000
  70
    32
  0
VERTEX
  8
0
  5
8B7
 10
23.5468
 20
-98.0435
 30
0.000000
  70
    32
  0
VERTEX
  8
0
  5
8B8
 10
23.4783
 20
-97.9957
 30
0.000000
  70
    32
  0
VERTEX
  8
0
  5
8B9
 10
23.4086
 20
-97.9489
 30
0.000000
  70
    32
  0
VERTEX
  8
0
  5
8BA
 10
23.3376
 20
-97.9030
 30
0.000000
  70
    32
  0
VERTEX
  8
0
  5
8BB
 10
23.2654
 20
-97.8581
 30
0.000000
  70
    32
  0
VERTEX
  8
0
  5
8BC
 10
23.1920
 20
-97.8142
 30
0.000000
  70
    32
  0
VERTEX
  8
0
  5
8BD
 10
23.1174
 20
-97.7713
 30
0.000000
  70
    32
  0
VERTEX
  8
0
  5
8BE
 10
23.0416
 20
-97.7294
 30
0.000000
  70
    32
  0
VERTEX
  8
0
  5
8BF
 10
22.9647
 20
-97.6886
 30
0.000000
  70
    32
  0
VERTEX
  8
0
  5
8C0
 10
22.8868
 20
-97.6488
 30
0.000000
  70
    32
  0
VERTEX
  8
0
  5
8C1
 10
22.8077
 20
-97.6101
 30
0.000000
  70
    32
  0
VERTEX
  8
0
  5
8C2
 10
22.7276
 20
-97.5724
 30
0.000000
  70
    32
  0
VERTEX
  8
0
  5
8C3
 10
22.6465
 20
-97.5359
 30
0.000000
  70
    32
  0
VERTEX
  8
0
  5
8C4
 10
22.5644
 20
-97.5004
 30
0.000000
  70
    32
  0
VERTEX
  8
0
  5
8C5
 10
22.4814
 20
-97.4661
 30
0.000000
  70
    32
  0
VERTEX
  8
0
  5
8C6
 10
22.3975
 20
-97.4329
 30
0.000000
  70
    32
  0
VERTEX
  8
0
  5
8C7
 10
22.3126
 20
-97.4009
 30
0.000000
  70
    32
  0
VERTEX
  8
0
  5
8C8
 10
22.2269
 20
-97.3700
 30
0.000000
  70
    32
  0
VERTEX
  8
0
  5
8C9
 10
22.1404
 20
-97.3403
 30
0.000000
  70
    32
  0
VERTEX
  8
0
  5
8CA
 10
22.0531
 20
-97.3118
 30
0.000000
  70
    32
  0
VERTEX
  8
0
  5
8CB
 10
21.9651
 20
-97.2845
 30
0.000000
  70
    32
  0
VERTEX
  8
0
  5
8CC
 10
21.8763
 20
-97.2584
 30
0.000000
  70
    32
  0
VERTEX
  8
0
  5
8CD
 10
21.7868
 20
-97.2335
 30
0.000000
  70
    32
  0
VERTEX
  8
0
  5
8CE
 10
21.6967
 20
-97.2098
 30
0.000000
  70
    32
  0
VERTEX
  8
0
  5
8CF
 10
21.6059
 20
-97.1873
 30
0.000000
  70
    32
  0
VERTEX
  8
0
  5
8D0
 10
21.5145
 20
-97.1661
 30
0.000000
  70
    32
  0
VERTEX
  8
0
  5
8D1
 10
21.4226
 20
-97.1461
 30
0.000000
  70
    32
  0
VERTEX
  8
0
  5
8D2
 10
21.3302
 20
-97.1274
 30
0.000000
  70
    32
  0
VERTEX
  8
0
  5
8D3
 10
21.2372
 20
-97.1099
 30
0.000000
  70
    32
  0
VERTEX
  8
0
  5
8D4
 10
21.1438
 20
-97.0938
 30
0.000000
  70
    32
  0
VERTEX
  8
0
  5
8D5
 10
21.0500
 20
-97.0788
 30
0.000000
  70
    32
  0
VERTEX
  8
0
  5
8D6
 10
20.9558
 20
-97.0652
 30
0.000000
  70
    32
  0
VERTEX
  8
0
  5
8D7
 10
20.8612
 20
-97.0528
 30
0.000000
  70
    32
  0
VERTEX
  8
0
  5
8D8
 10
20.7663
 20
-97.0418
 30
0.000000
  70
    32
  0
VERTEX
  8
0
  5
8D9
 10
20.6711
 20
-97.0320
 30
0.000000
  70
    32
  0
VERTEX
  8
0
  5
8DA
 10
20.5757
 20
-97.0235
 30
0.000000
  70
    32
  0
VERTEX
  8
0
  5
8DB
 10
20.4801
 20
-97.0163
 30
0.000000
  70
    32
  0
VERTEX
  8
0
  5
8DC
 10
20.3843
 20
-97.0105
 30
0.000000
  70
    32
  0
VERTEX
  8
0
  5
8DD
 10
20.2883
 20
-97.0059
 30
0.000000
  70
    32
  0
VERTEX
  8
0
  5
8DE
 10
20.1923
 20
-97.0026
 30
0.000000
  70
    32
  0
VERTEX
  8
0
  5
8DF
 10
20.0962
 20
-97.0007
 30
0.000000
  70
    32
  0
VERTEX
  8
0
  5
8E0
 10
20.0000
 20
-97.0000
 30
0.000000
  70
    32
  0
VERTEX
  8
0
  5
8E1
 10
19.9038
 20
-97.0007
 30
0.000000
  70
    32
  0
VERTEX
  8
0
  5
8E2
 10
19.8077
 20
-97.0026
 30
0.000000
  70
    32
  0
VERTEX
  8
0
  5
8E3
 10
19.7117
 20
-97.0059
 30
0.000000
  70
    32
  0
VERTEX
  8
0
  5
8E4
 10
19.6157
 20
-97.0105
 30
0.000000
  70
    32
  0
VERTEX
  8
0
  5
8E5
 10
19.5199
 20
-97.0163
 30
0.000000
  70
    32
  0
VERTEX
  8
0
  5
8E6
 10
19.4243
 20
-97.0235
 30
0.000000
  70
    32
  0
VERTEX
  8
0
  5
8E7
 10
19.3289
 20
-97.0320
 30
0.000000
  70
    32
  0
VERTEX
  8
0
  5
8E8
 10
19.2337
 20
-97.0418
 30
0.000000
  70
    32
  0
VERTEX
  8
0
  5
8E9
 10
19.1388
 20
-97.0528
 30
0.000000
  70
    32
  0
VERTEX
  8
0
  5
8EA
 10
19.0442
 20
-97.0652
 30
0.000000
  70
    32
  0
VERTEX
  8
0
  5
8EB
 10
18.9500
 20
-97.0788
 30
0.000000
  70
    32
  0
VERTEX
  8
0
  5
8EC
 10
18.8562
 20
-97.0938
 30
0.000000
  70
    32
  0
VERTEX
  8
0
  5
8ED
 10
18.7628
 20
-97.1099
 30
0.000000
  70
    32
  0
VERTEX
  8
0
  5
8EE
 10
18.6698
 20
-97.1274
 30
0.000000
  70
    32
  0
VERTEX
  8
0
  5
8EF
 10
18.5774
 20
-97.1461
 30
0.000000
  70
    32
  0
VERTEX
  8
0
  5
8F0
 10
18.4855
 20
-97.1661
 30
0.000000
  70
    32
  0
VERTEX
  8
0
  5
8F1
 10
18.3941
 20
-97.1873
 30
0.000000
  70
    32
  0
VERTEX
  8
0
  5
8F2
 10
18.3033
 20
-97.2098
 30
0.000000
  70
    32
  0
VERTEX
  8
0
  5
8F3
 10
18.2132
 20
-97.2335
 30
0.000000
  70
    32
  0
VERTEX
  8
0
  5
8F4
 10
18.1237
 20
-97.2584
 30
0.000000
  70
    32
  0
VERTEX
  8
0
  5
8F5
 10
18.0349
 20
-97.2845
 30
0.000000
  70
    32
  0
VERTEX
  8
0
  5
8F6
 10
17.9469
 20
-97.3118
 30
0.000000
  70
    32
  0
VERTEX
  8
0
  5
8F7
 10
17.8596
 20
-97.3403
 30
0.000000
  70
    32
  0
VERTEX
  8
0
  5
8F8
 10
17.7731
 20
-97.3700
 30
0.000000
  70
    32
  0
VERTEX
  8
0
  5
8F9
 10
17.6874
 20
-97.4009
 30
0.000000
  70
    32
  0
VERTEX
  8
0
  5
8FA
 10
17.6025
 20
-97.4329
 30
0.000000
  70
    32
  0
VERTEX
  8
0
  5
8FB
 10
17.5186
 20
-97.4661
 30
0.000000
  70
    32
  0
VERTEX
  8
0
  5
8FC
 10
17.4356
 20
-97.5004
 30
0.000000
  70
    32
  0
VERTEX
  8
0
  5
8FD
 10
17.3535
 20
-97.5359
 30
0.000000
  70
    32
  0
VERTEX
  8
0
  5
8FE
 10
17.2724
 20
-97.5724
 30
0.000000
  70
    32
  0
VERTEX
  8
0
  5
8FF
 10
17.1923
 20
-97.6101
 30
0.000000
  70
    32
  0
VERTEX
  8
0
  5
900
 10
17.1132
 20
-97.6488
 30
0.000000
  70
    32
  0
VERTEX
  8
0
  5
901
 10
17.0353
 20
-97.6886
 30
0.000000
  70
    32
  0
VERTEX
  8
0
  5
902
 10
16.9584
 20
-97.7294
 30
0.000000
  70
    32
  0
VERTEX
  8
0
  5
903
 10
16.8826
 20
-97.7713
 30
0.000000
  70
    32
  0
VERTEX
  8
0
  5
904
 10
16.8080
 20
-97.8142
 30
0.000000
  70
    32
  0
VERTEX
  8
0
  5
905
 10
16.7346
 20
-97.8581
 30
0.000000
  70
    32
  0
VERTEX
  8
0
  5
906
 10
16.6624
 20
-97.9030
 30
0.000000
  70
    32
  0
VERTEX
  8
0
  5
907
 10
16.5914
 20
-97.9489
 30
0.000000
  70
    32
  0
VERTEX
  8
0
  5
908
 10
16.5217
 20
-97.9957
 30
0.000000
  70
    32
  0
VERTEX
  8
0
  5
909
 10
16.4532
 20
-98.0435
 30
0.000000
  70
    32
  0
VERTEX
  8
0
  5
90A
 10
16.3861
 20
-98.0922
 30
0.000000
  70
    32
  0
VERTEX
  8
0
  5
90B
 10
16.3203
 20
-98.1418
 30
0.000000
  70
    32
  0
VERTEX
  8
0
  5
90C
 10
16.2559
 20
-98.1923
 30
0.000000
  70
    32
  0
VERTEX
  8
0
  5
90D
 10
16.1928
 20
-98.2436
 30
0.000000
  70
    32
  0
VERTEX
  8
0
  5
90E
 10
16.1312
 20
-98.2958
 30
0.000000
  70
    32
  0
VERTEX
  8
0
  5
90F
 10
16.0710
 20
-98.3489
 30
0.000000
  70
    32
  0
VERTEX
  8
0
  5
910
 10
16.0123
 20
-98.4027
 30
0.000000
  70
    32
  0
VERTEX
  8
0
  5
911
 10
15.9550
 20
-98.4573
 30
0.000000
  70
    32
  0
VERTEX
  8
0
  5
912
 10
15.8992
 20
-98.5127
 30
0.000000
  70
    32
  0
VERTEX
  8
0
  5
913
 10
15.8450
 20
-98.5689
 30
0.000000
  70
    32
  0
VERTEX
  8
0
  5
914
 10
15.7922
 20
-98.6257
 30
0.000000
  70
    32
  0
VERTEX
  8
0
  5
915
 10
15.7411
 20
-98.6833
 30
0.000000
  70
    32
  0
VERTEX
  8
0
  5
916
 10
15.6915
 20
-98.7416
 30
0.000000
  70
    32
  0
VERTEX
  8
0
  5
917
 10
15.6435
 20
-98.8005
 30
0.000000
  70
    32
  0
VERTEX
  8
0
  5
918
 10
15.5971
 20
-98.8601
 30
0.000000
  70
    32
  0
VERTEX
  8
0
  5
919
 10
15.5523
 20
-98.9203
 30
0.000000
  70
    32
  0
VERTEX
  8
0
  5
91A
 10
15.5092
 20
-98.9810
 30
0.000000
  70
    32
  0
VERTEX
  8
0
  5
91B
 10
15.4678
 20
-99.0424
 30
0.000000
  70
    32
  0
VERTEX
  8
0
  5
91C
 10
15.4280
 20
-99.1043
 30
0.000000
  70
    32
  0
VERTEX
  8
0
  5
91D
 10
15.3899
 20
-99.1668
 30
0.000000
  70
    32
  0
VERTEX
  8
0
  5
91E
 10
15.3535
 20
-99.2297
 30
0.000000
  70
    32
  0
VERTEX
  8
0
  5
91F
 10
15.3189
 20
-99.2931
 30
0.000000
  70
    32
  0
VERTEX
  8
0
  5
920
 10
15.2860
 20
-99.3570
 30
0.000000
  70
    32
  0
SEQEND
  8
0
  5
921
  0
POLYLINE
  5
40
  8
0
 10
22.700000000000038
 20
-102.16187950266169
 30
0.0
 66
     1
 70
     8
  0
VERTEX
  8
0
  5
922
 10
22.7000
 20
-102.162
 30
0.000000
  70
    32
  0
VERTEX
  8
0
  5
923
 10
22.6967
 20
-102.068
 30
0.000000
  70
    32
  0
VERTEX
  8
0
  5
924
 10
22.6870
 20
-101.975
 30
0.000000
  70
    32
  0
VERTEX
  8
0
  5
925
 10
22.6708
 20
-101.882
 30
0.000000
  70
    32
  0
VERTEX
  8
0
  5
926
 10
22.6481
 20
-101.789
 30
0.000000
  70
    32
  0
VERTEX
  8
0
  5
927
 10
22.6191
 20
-101.698
 30
0.000000
  70
    32
  0
VERTEX
  8
0
  5
928
 10
22.5837
 20
-101.608
 30
0.000000
  70
    32
  0
VERTEX
  8
0
  5
929
 10
22.5422
 20
-101.519
 30
0.000000
  70
    32
  0
VERTEX
  8
0
  5
92A
 10
22.4945
 20
-101.431
 30
0.000000
  70
    32
  0
VERTEX
  8
0
  5
92B
 10
22.4408
 20
-101.346
 30
0.000000
  70
    32
  0
VERTEX
  8
0
  5
92C
 10
22.3812
 20
-101.262
 30
0.000000
  70
    32
  0
VERTEX
  8
0
  5
92D
 10
22.3159
 20
-101.180
 30
0.000000
  70
    32
  0
VERTEX
  8
0
  5
92E
 10
22.2450
 20
-101.101
 30
0.000000
  70
    32
  0
VERTEX
  8
0
  5
92F
 10
22.1687
 20
-101.025
 30
0.000000
  70
    32
  0
VERTEX
  8
0
  5
930
 10
22.0871
 20
-100.951
 30
0.000000
  70
    32
  0
VERTEX
  8
0
  5
931
 10
22.0006
 20
-100.880
 30
0.000000
  70
    32
  0
VERTEX
  8
0
  5
932
 10
21.9092
 20
-100.812
 30
0.000000
  70
    32
  0
VERTEX
  8
0
  5
933
 10
21.8132
 20
-100.747
 30
0.000000
  70
    32
  0
VERTEX
  8
0
  5
934
 10
21.7129
 20
-100.686
 30
0.000000
  70
    32
  0
VERTEX
  8
0
  5
935
 10
21.6084
 20
-100.628
 30
0.000000
  70
    32
  0
VERTEX
  8
0
  5
936
 10
21.5000
 20
-100.574
 30
0.000000
  70
    32
  0
VERTEX
  8
0
  5
937
 10
21.3881
 20
-100.524
 30
0.000000
  70
    32
  0
VERTEX
  8
0
  5
938
 10
21.2728
 20
-100.478
 30
0.000000
  70
    32
  0
VERTEX
  8
0
  5
939
 10
21.1544
 20
-100.436
 30
0.000000
  70
    32
  0
VERTEX
  8
0
  5
93A
 10
21.0332
 20
-100.398
 30
0.000000
  70
    32
  0
VERTEX
  8
0
  5
93B
 10
20.9096
 20
-100.364
 30
0.000000
  70
    32
  0
VERTEX
  8
0
  5
93C
 10
20.7838
 20
-100.335
 30
0.000000
  70
    32
  0
VERTEX
  8
0
  5
93D
 10
20.6560
 20
-100.310
 30
0.000000
  70
    32
  0
VERTEX
  8
0
  5
93E
 10
20.5267
 20
-100.289
 30
0.000000
  70
    32
  0
VERTEX
  8
0
  5
93F
 10
20.3962
 20
-100.273
 30
0.000000
  70
    32
  0
VERTEX
  8
0
  5
940
 10
20.2646
 20
-100.262
 30
0.000000
  70
    32
  0
VERTEX
  8
0
  5
941
 10
20.1325
 20
-100.255
 30
0.000000
  70
    32
  0
VERTEX
  8
0
  5
942
 10
20.0000
 20
-100.253
 30
0.000000
  70
    32
  0
VERTEX
  8
0
  5
943
 10
19.8675
 20
-100.255
 30
0.000000
  70
    32
  0
VERTEX
  8
0
  5
944
 10
19.7354
 20
-100.262
 30
0.000000
  70
    32
  0
VERTEX
  8
0
  5
945
 10
19.6038
 20
-100.273
 30
0.000000
  70
    32
  0
VERTEX
  8
0
  5
946
 10
19.4733
 20
-100.289
 30
0.000000
  70
    32
  0
VERTEX
  8
0
  5
947
 10
19.3440
 20
-100.310
 30
0.000000
  70
    32
  0
VERTEX
  8
0
  5
948
 10
19.2162
 20
-100.335
 30
0.000000
  70
    32
  0
VERTEX
  8
0
  5
949
 10
19.0904
 20
-100.364
 30
0.000000
  70
    32
  0
VERTEX
  8
0
  5
94A
 10
18.9668
 20
-100.398
 30
0.000000
  70
    32
  0
VERTEX
  8
0
  5
94B
 10
18.8456
 20
-100.436
 30
0.000000
  70
    32
  0
VERTEX
  8
0
  5
94C
 10
18.7272
 20
-100.478
 30
0.000000
  70
    32
  0
VERTEX
  8
0
  5
94D
 10
18.6119
 20
-100.524
 30
0.000000
  70
    32
  0
VERTEX
  8
0
  5
94E
 10
18.5000
 20
-100.574
 30
0.000000
  70
    32
  0
VERTEX
  8
0
  5
94F
 10
18.3916
 20
-100.628
 30
0.000000
  70
    32
  0
VERTEX
  8
0
  5
950
 10
18.2871
 20
-100.686
 30
0.000000
  70
    32
  0
VERTEX
  8
0
  5
951
 10
18.1868
 20
-100.747
 30
0.000000
  70
    32
  0
VERTEX
  8
0
  5
952
 10
18.0908
 20
-100.812
 30
0.000000
  70
    32
  0
VERTEX
  8
0
  5
953
 10
17.9994
 20
-100.880
 30
0.000000
  70
    32
  0
VERTEX
  8
0
  5
954
 10
17.9129
 20
-100.951
 30
0.000000
  70
    32
  0
VERTEX
  8
0
  5
955
 10
17.8313
 20
-101.025
 30
0.000000
  70
    32
  0
VERTEX
  8
0
  5
956
 10
17.7550
 20
-101.101
 30
0.000000
  70
    32
  0
VERTEX
  8
0
  5
957
 10
17.6841
 20
-101.180
 30
0.000000
  70
    32
  0
VERTEX
  8
0
  5
958
 10
17.6188
 20
-101.262
 30
0.000000
  70
    32
  0
VERTEX
  8
0
  5
959
 10
17.5592
 20
-101.346
 30
0.000000
  70
    32
  0
VERTEX
  8
0
  5
95A
 10
17.5055
 20
-101.431
 30
0.000000
  70
    32
  0
VERTEX
  8
0
  5
95B
 10
17.4578
 20
-101.519
 30
0.000000
  70
    32
  0
VERTEX
  8
0
  5
95C
 10
17.4163
 20
-101.608
 30
0.000000
  70
    32
  0
VERTEX
  8
0
  5
95D
 10
17.3809
 20
-101.698
 30
0.000000
  70
    32
  0
VERTEX
  8
0
  5
95E
 10
17.3519
 20
-101.789
 30
0.000000
  70
    32
  0
VERTEX
  8
0
  5
95F
 10
17.3292
 20
-101.882
 30
0.000000
  70
    32
  0
VERTEX
  8
0
  5
960
 10
17.3130
 20
-101.975
 30
0.000000
  70
    32
  0
VERTEX
  8
0
  5
961
 10
17.3033
 20
-102.068
 30
0.000000
  70
    32
  0
VERTEX
  8
0
  5
962
 10
17.3000
 20
-102.162
 30
0.000000
  70
    32
  0
VERTEX
  8
0
  5
963
 10
17.3033
 20
-102.256
 30
0.000000
  70
    32
  0
VERTEX
  8
0
  5
964
 10
17.3130
 20
-102.349
 30
0.000000
  70
    32
  0
VERTEX
  8
0
  5
965
 10
17.3292
 20
-102.442
 30
0.000000
  70
    32
  0
VERTEX
  8
0
  5
966
 10
17.3519
 20
-102.534
 30
0.000000
  70
    32
  0
VERTEX
  8
0
  5
967
 10
17.3809
 20
-102.626
 30
0.000000
  70
    32
  0
VERTEX
  8
0
  5
968
 10
17.4163
 20
-102.716
 30
0.000000
  70
    32
  0
VERTEX
  8
0
  5
969
 10
17.4578
 20
-102.805
 30
0.000000
  70
    32
  0
VERTEX
  8
0
  5
96A
 10
17.5055
 20
-102.892
 30
0.000000
  70
    32
  0
VERTEX
  8
0
  5
96B
 10
17.5592
 20
-102.978
 30
0.000000
  70
    32
  0
VERTEX
  8
0
  5
96C
 10
17.6188
 20
-103.062
 30
0.000000
  70
    32
  0
VERTEX
  8
0
  5
96D
 10
17.6841
 20
-103.143
 30
0.000000
  70
    32
  0
VERTEX
  8
0
  5
96E
 10
17.7550
 20
-103.223
 30
0.000000
  70
    32
  0
VERTEX
  8
0
  5
96F
 10
17.8313
 20
-103.299
 30
0.000000
  70
    32
  0
VERTEX
  8
0
  5
970
 10
17.9129
 20
-103.373
 30
0.000000
  70
    32
  0
VERTEX
  8
0
  5
971
 10
17.9994
 20
-103.444
 30
0.000000
  70
    32
  0
VERTEX
  8
0
  5
972
 10
18.0908
 20
-103.512
 30
0.000000
  70
    32
  0
VERTEX
  8
0
  5
973
 10
18.1868
 20
-103.576
 30
0.000000
  70
    32
  0
VERTEX
  8
0
  5
974
 10
18.2871
 20
-103.638
 30
0.000000
  70
    32
  0
VERTEX
  8
0
  5
975
 10
18.3916
 20
-103.695
 30
0.000000
  70
    32
  0
VERTEX
  8
0
  5
976
 10
18.5000
 20
-103.749
 30
0.000000
  70
    32
  0
VERTEX
  8
0
  5
977
 10
18.6119
 20
-103.799
 30
0.000000
  70
    32
  0
VERTEX
  8
0
  5
978
 10
18.7272
 20
-103.846
 30
0.000000
  70
    32
  0
VERTEX
  8
0
  5
979
 10
18.8456
 20
-103.888
 30
0.000000
  70
    32
  0
VERTEX
  8
0
  5
97A
 10
18.9668
 20
-103.926
 30
0.000000
  70
    32
  0
VERTEX
  8
0
  5
97B
 10
19.0904
 20
-103.959
 30
0.000000
  70
    32
  0
VERTEX
  8
0
  5
97C
 10
19.2162
 20
-103.989
 30
0.000000
  70
    32
  0
VERTEX
  8
0
  5
97D
 10
19.3440
 20
-104.014
 30
0.000000
  70
    32
  0
VERTEX
  8
0
  5
97E
 10
19.4733
 20
-104.034
 30
0.000000
  70
    32
  0
VERTEX
  8
0
  5
97F
 10
19.6038
 20
-104.050
 30
0.000000
  70
    32
  0
VERTEX
  8
0
  5
980
 10
19.7354
 20
-104.062
 30
0.000000
  70
    32
  0
VERTEX
  8
0
  5
981
 10
19.8675
 20
-104.069
 30
0.000000
  70
    32
  0
VERTEX
  8
0
  5
982
 10
20.0000
 20
-104.071
 30
0.000000
  70
    32
  0
VERTEX
  8
0
  5
983
 10
20.1325
 20
-104.069
 30
0.000000
  70
    32
  0
VERTEX
  8
0
  5
984
 10
20.2646
 20
-104.062
 30
0.000000
  70
    32
  0
VERTEX
  8
0
  5
985
 10
20.3962
 20
-104.050
 30
0.000000
  70
    32
  0
VERTEX
  8
0
  5
986
 10
20.5267
 20
-104.034
 30
0.000000
  70
    32
  0
VERTEX
  8
0
  5
987
 10
20.6560
 20
-104.014
 30
0.000000
  70
    32
  0
VERTEX
  8
0
  5
988
 10
20.7838
 20
-103.989
 30
0.000000
  70
    32
  0
VERTEX
  8
0
  5
989
 10
20.9096
 20
-103.959
 30
0.000000
  70
    32
  0
VERTEX
  8
0
  5
98A
 10
21.0332
 20
-103.926
 30
0.000000
  70
    32
  0
VERTEX
  8
0
  5
98B
 10
21.1544
 20
-103.888
 30
0.000000
  70
    32
  0
VERTEX
  8
0
  5
98C
 10
21.2728
 20
-103.846
 30
0.000000
  70
    32
  0
VERTEX
  8
0
  5
98D
 10
21.3881
 20
-103.799
 30
0.000000
  70
    32
  0
VERTEX
  8
0
  5
98E
 10
21.5000
 20
-103.749
 30
0.000000
  70
    32
  0
VERTEX
  8
0
  5
98F
 10
21.6084
 20
-103.695
 30
0.000000
  70
    32
  0
VERTEX
  8
0
  5
990
 10
21.7129
 20
-103.638
 30
0.000000
  70
    32
  0
VERTEX
  8
0
  5
991
 10
21.8132
 20
-103.576
 30
0.000000
  70
    32
  0
VERTEX
  8
0
  5
992
 10
21.9092
 20
-103.512
 30
0.000000
  70
    32
  0
VERTEX
  8
0
  5
993
 10
22.0006
 20
-103.444
 30
0.000000
  70
    32
  0
VERTEX
  8
0
  5
994
 10
22.0871
 20
-103.373
 30
0.000000
  70
    32
  0
VERTEX
  8
0
  5
995
 10
22.1687
 20
-103.299
 30
0.000000
  70
    32
  0
VERTEX
  8
0
  5
996
 10
22.2450
 20
-103.223
 30
0.000000
  70
    32
  0
VERTEX
  8
0
  5
997
 10
22.3159
 20
-103.143
 30
0.000000
  70
    32
  0
VERTEX
  8
0
  5
998
 10
22.3812
 20
-103.062
 30
0.000000
  70
    32
  0
VERTEX
  8
0
  5
999
 10
22.4408
 20
-102.978
 30
0.000000
  70
    32
  0
VERTEX
  8
0
  5
99A
 10
22.4945
 20
-102.892
 30
0.000000
  70
    32
  0
VERTEX
  8
0
  5
99B
 10
22.5422
 20
-102.805
 30
0.000000
  70
    32
  0
VERTEX
  8
0
  5
99C
 10
22.5837
 20
-102.716
 30
0.000000
  70
    32
  0
VERTEX
  8
0
  5
99D
 10
22.6191
 20
-102.626
 30
0.000000
  70
    32
  0
VERTEX
  8
0
  5
99E
 10
22.6481
 20
-102.534
 30
0.000000
  70
    32
  0
VERTEX
  8
0
  5
99F
 10
22.6708
 20
-102.442
 30
0.000000
  70
    32
  0
VERTEX
  8
0
  5
9A0
 10
22.6870
 20
-102.349
 30
0.000000
  70
    32
  0
VERTEX
  8
0
  5
9A1
 10
22.6967
 20
-102.256
 30
0.000000
  70
    32
  0
VERTEX
  8
0
  5
9A2
 10
22.7000
 20
-102.162
 30
0.000000
  70
    32
  0
SEQEND
  8
0
  5
9A3
  0
CIRCLE
  5
41
  8
0
 10
-20.000000000000028
 20
-50.0
 30
0.0
 40
5.0
  0
CIRCLE
  5
42
  8
0
 10
-20.000000000000028
 20
-50.0
 30
0.0
 40
2.7000000000000002
  0
POLYLINE
  5
43
  8
0
 10
10.0
 20
-99.292893218813333
 30
0.0
 66
     1
 70
     8
  0
VERTEX
  8
0
  5
9A4
 10
10.0000
 20
-99.2929
 30
0.000000
  70
    32
  0
VERTEX
  8
0
  5
9A5
 10
10.2208
 20
-99.2853
 30
0.000000
  70
    32
  0
VERTEX
  8
0
  5
9A6
 10
10.4411
 20
-99.2626
 30
0.000000
  70
    32
  0
VERTEX
  8
0
  5
9A7
 10
10.6603
 20
-99.2248
 30
0.000000
  70
    32
  0
VERTEX
  8
0
  5
9A8
 10
10.8779
 20
-99.1720
 30
0.000000
  70
    32
  0
VERTEX
  8
0
  5
9A9
 10
11.0934
 20
-99.1043
 30
0.000000
  70
    32
  0
VERTEX
  8
0
  5
9AA
 10
11.3063
 20
-99.0219
 30
0.000000
  70
    32
  0
VERTEX
  8
0
  5
9AB
 10
11.5160
 20
-98.9250
 30
0.000000
  70
    32
  0
VERTEX
  8
0
  5
9AC
 10
11.7221
 20
-98.8139
 30
0.000000
  70
    32
  0
VERTEX
  8
0
  5
9AD
 10
11.9240
 20
-98.6887
 30
0.000000
  70
    32
  0
VERTEX
  8
0
  5
9AE
 10
12.1213
 20
-98.5498
 30
0.000000
  70
    32
  0
VERTEX
  8
0
  5
9AF
 10
12.3135
 20
-98.3976
 30
0.000000
  70
    32
  0
VERTEX
  8
0
  5
9B0
 10
12.5001
 20
-98.2323
 30
0.000000
  70
    32
  0
VERTEX
  8
0
  5
9B1
 10
12.6806
 20
-98.0545
 30
0.000000
  70
    32
  0
VERTEX
  8
0
  5
9B2
 10
12.8548
 20
-97.8645
 30
0.000000
  70
    32
  0
VERTEX
  8
0
  5
9B3
 10
13.0220
 20
-97.6627
 30
0.000000
  70
    32
  0
VERTEX
  8
0
  5
9B4
 10
13.1820
 20
-97.4497
 30
0.000000
  70
    32
  0
VERTEX
  8
0
  5
9B5
 10
13.3343
 20
-97.2260
 30
0.000000
  70
    32
  0
VERTEX
  8
0
  5
9B6
 10
13.4785
 20
-96.9922
 30
0.000000
  70
    32
  0
VERTEX
  8
0
  5
9B7
 10
13.6144
 20
-96.7487
 30
0.000000
  70
    32
  0
VERTEX
  8
0
  5
9B8
 10
13.7416
 20
-96.4961
 30
0.000000
  70
    32
  0
VERTEX
  8
0
  5
9B9
 10
13.8598
 20
-96.2352
 30
0.000000
  70
    32
  0
VERTEX
  8
0
  5
9BA
 10
13.9686
 20
-95.9664
 30
0.000000
  70
    32
  0
VERTEX
  8
0
  5
9BB
 10
14.0680
 20
-95.6906
 30
0.000000
  70
    32
  0
VERTEX
  8
0
  5
9BC
 10
14.1575
 20
-95.4082
 30
0.000000
  70
    32
  0
VERTEX
  8
0
  5
9BD
 10
14.2369
 20
-95.1200
 30
0.000000
  70
    32
  0
VERTEX
  8
0
  5
9BE
 10
14.3062
 20
-94.8267
 30
0.000000
  70
    32
  0
VERTEX
  8
0
  5
9BF
 10
14.3651
 20
-94.5290
 30
0.000000
  70
    32
  0
VERTEX
  8
0
  5
9C0
 10
14.4135
 20
-94.2277
 30
0.000000
  70
    32
  0
VERTEX
  8
0
  5
9C1
 10
14.4513
 20
-93.9234
 30
0.000000
  70
    32
  0
VERTEX
  8
0
  5
9C2
 10
14.4783
 20
-93.6168
 30
0.000000
  70
    32
  0
VERTEX
  8
0
  5
9C3
 10
14.4946
 20
-93.3088
 30
0.000000
  70
    32
  0
VERTEX
  8
0
  5
9C4
 10
14.5000
 20
-93.0000
 30
0.000000
  70
    32
  0
VERTEX
  8
0
  5
9C5
 10
14.4946
 20
-92.6912
 30
0.000000
  70
    32
  0
VERTEX
  8
0
  5
9C6
 10
14.4783
 20
-92.3832
 30
0.000000
  70
    32
  0
VERTEX
  8
0
  5
9C7
 10
14.4513
 20
-92.0766
 30
0.000000
  70
    32
  0
VERTEX
  8
0
  5
9C8
 10
14.4135
 20
-91.7723
 30
0.000000
  70
    32
  0
VERTEX
  8
0
  5
9C9
 10
14.3651
 20
-91.4710
 30
0.000000
  70
    32
  0
VERTEX
  8
0
  5
9CA
 10
14.3062
 20
-91.1733
 30
0.000000
  70
    32
  0
VERTEX
  8
0
  5
9CB
 10
14.2369
 20
-90.8800
 30
0.000000
  70
    32
  0
VERTEX
  8
0
  5
9CC
 10
14.1575
 20
-90.5918
 30
0.000000
  70
    32
  0
VERTEX
  8
0
  5
9CD
 10
14.0680
 20
-90.3094
 30
0.000000
  70
    32
  0
VERTEX
  8
0
  5
9CE
 10
13.9686
 20
-90.0336
 30
0.000000
  70
    32
  0
VERTEX
  8
0
  5
9CF
 10
13.8598
 20
-89.7648
 30
0.000000
  70
    32
  0
VERTEX
  8
0
  5
9D0
 10
13.7416
 20
-89.5039
 30
0.000000
  70
    32
  0
VERTEX
  8
0
  5
9D1
 10
13.6144
 20
-89.2513
 30
0.000000
  70
    32
  0
VERTEX
  8
0
  5
9D2
 10
13.4785
 20
-89.0078
 30
0.000000
  70
    32
  0
VERTEX
  8
0
  5
9D3
 10
13.3343
 20
-88.7740
 30
0.000000
  70
    32
  0
VERTEX
  8
0
  5
9D4
 10
13.1820
 20
-88.5503
 30
0.000000
  70
    32
  0
VERTEX
  8
0
  5
9D5
 10
13.0220
 20
-88.3373
 30
0.000000
  70
    32
  0
VERTEX
  8
0
  5
9D6
 10
12.8548
 20
-88.1355
 30
0.000000
  70
    32
  0
VERTEX
  8
0
  5
9D7
 10
12.6806
 20
-87.9455
 30
0.000000
  70
    32
  0
VERTEX
  8
0
  5
9D8
 10
12.5001
 20
-87.7677
 30
0.000000
  70
    32
  0
VERTEX
  8
0
  5
9D9
 10
12.3135
 20
-87.6024
 30
0.000000
  70
    32
  0
VERTEX
  8
0
  5
9DA
 10
12.1213
 20
-87.4502
 30
0.000000
  70
    32
  0
VERTEX
  8
0
  5
9DB
 10
11.9240
 20
-87.3113
 30
0.000000
  70
    32
  0
VERTEX
  8
0
  5
9DC
 10
11.7221
 20
-87.1861
 30
0.000000
  70
    32
  0
VERTEX
  8
0
  5
9DD
 10
11.5160
 20
-87.0750
 30
0.000000
  70
    32
  0
VERTEX
  8
0
  5
9DE
 10
11.3063
 20
-86.9781
 30
0.000000
  70
    32
  0
VERTEX
  8
0
  5
9DF
 10
11.0934
 20
-86.8957
 30
0.000000
  70
    32
  0
VERTEX
  8
0
  5
9E0
 10
10.8779
 20
-86.8280
 30
0.000000
  70
    32
  0
VERTEX
  8
0
  5
9E1
 10
10.6603
 20
-86.7752
 30
0.000000
  70
    32
  0
VERTEX
  8
0
  5
9E2
 10
10.4411
 20
-86.7374
 30
0.000000
  70
    32
  0
VERTEX
  8
0
  5
9E3
 10
10.2208
 20
-86.7147
 30
0.000000
  70
    32
  0
VERTEX
  8
0
  5
9E4
 10
10.0000
 20
-86.7071
 30
0.000000
  70
    32
  0
VERTEX
  8
0
  5
9E5
 10
9.77920
 20
-86.7147
 30
0.000000
  70
    32
  0
VERTEX
  8
0
  5
9E6
 10
9.55892
 20
-86.7374
 30
0.000000
  70
    32
  0
VERTEX
  8
0
  5
9E7
 10
9.33971
 20
-86.7752
 30
0.000000
  70
    32
  0
VERTEX
  8
0
  5
9E8
 10
9.12209
 20
-86.8280
 30
0.000000
  70
    32
  0
VERTEX
  8
0
  5
9E9
 10
8.90659
 20
-86.8957
 30
0.000000
  70
    32
  0
VERTEX
  8
0
  5
9EA
 10
8.69372
 20
-86.9781
 30
0.000000
  70
    32
  0
VERTEX
  8
0
  5
9EB
 10
8.48400
 20
-87.0750
 30
0.000000
  70
    32
  0
VERTEX
  8
0
  5
9EC
 10
8.27792
 20
-87.1861
 30
0.000000
  70
    32
  0
VERTEX
  8
0
  5
9ED
 10
8.07600
 20
-87.3113
 30
0.000000
  70
    32
  0
VERTEX
  8
0
  5
9EE
 10
7.87871
 20
-87.4502
 30
0.000000
  70
    32
  0
VERTEX
  8
0
  5
9EF
 10
7.68654
 20
-87.6024
 30
0.000000
  70
    32
  0
VERTEX
  8
0
  5
9F0
 10
7.49993
 20
-87.7677
 30
0.000000
  70
    32
  0
VERTEX
  8
0
  5
9F1
 10
7.31935
 20
-87.9455
 30
0.000000
  70
    32
  0
VERTEX
  8
0
  5
9F2
 10
7.14523
 20
-88.1355
 30
0.000000
  70
    32
  0
VERTEX
  8
0
  5
9F3
 10
6.97798
 20
-88.3373
 30
0.000000
  70
    32
  0
VERTEX
  8
0
  5
9F4
 10
6.81802
 20
-88.5503
 30
0.000000
  70
    32
  0
VERTEX
  8
0
  5
9F5
 10
6.66572
 20
-88.7740
 30
0.000000
  70
    32
  0
VERTEX
  8
0
  5
9F6
 10
6.52145
 20
-89.0078
 30
0.000000
  70
    32
  0
VERTEX
  8
0
  5
9F7
 10
6.38557
 20
-89.2513
 30
0.000000
  70
    32
  0
VERTEX
  8
0
  5
9F8
 10
6.25839
 20
-89.5039
 30
0.000000
  70
    32
  0
VERTEX
  8
0
  5
9F9
 10
6.14022
 20
-89.7648
 30
0.000000
  70
    32
  0
VERTEX
  8
0
  5
9FA
 10
6.03135
 20
-90.0336
 30
0.000000
  70
    32
  0
VERTEX
  8
0
  5
9FB
 10
5.93205
 20
-90.3094
 30
0.000000
  70
    32
  0
VERTEX
  8
0
  5
9FC
 10
5.84254
 20
-90.5918
 30
0.000000
  70
    32
  0
VERTEX
  8
0
  5
9FD
 10
5.76305
 20
-90.8800
 30
0.000000
  70
    32
  0
VERTEX
  8
0
  5
9FE
 10
5.69377
 20
-91.1733
 30
0.000000
  70
    32
  0
VERTEX
  8
0
  5
9FF
 10
5.63486
 20
-91.4710
 30
0.000000
  70
    32
  0
VERTEX
  8
0
  5
A00
 10
5.58647
 20
-91.7723
 30
0.000000
  70
    32
  0
VERTEX
  8
0
  5
A01
 10
5.54871
 20
-92.0766
 30
0.000000
  70
    32
  0
VERTEX
  8
0
  5
A02
 10
5.52167
 20
-92.3832
 30
0.000000
  70
    32
  0
VERTEX
  8
0
  5
A03
 10
5.50542
 20
-92.6912
 30
0.000000
  70
    32
  0
VERTEX
  8
0
  5
A04
 10
5.50000
 20
-93.0000
 30
0.000000
  70
    32
  0
VERTEX
  8
0
  5
A05
 10
5.50542
 20
-93.3088
 30
0.000000
  70
    32
  0
VERTEX
  8
0
  5
A06
 10
5.52167
 20
-93.6168
 30
0.000000
  70
    32
  0
VERTEX
  8
0
  5
A07
 10
5.54871
 20
-93.9234
 30
0.000000
  70
    32
  0
VERTEX
  8
0
  5
A08
 10
5.58647
 20
-94.2277
 30
0.000000
  70
    32
  0
VERTEX
  8
0
  5
A09
 10
5.63486
 20
-94.5290
 30
0.000000
  70
    32
  0
VERTEX
  8
0
  5
A0A
 10
5.69377
 20
-94.8267
 30
0.000000
  70
    32
  0
VERTEX
  8
0
  5
A0B
 10
5.76305
 20
-95.1200
 30
0.000000
  70
    32
  0
VERTEX
  8
0
  5
A0C
 10
5.84254
 20
-95.4082
 30
0.000000
  70
    32
  0
VERTEX
  8
0
  5
A0D
 10
5.93205
 20
-95.6906
 30
0.000000
  70
    32
  0
VERTEX
  8
0
  5
A0E
 10
6.03135
 20
-95.9664
 30
0.000000
  70
    32
  0
VERTEX
  8
0
  5
A0F
 10
6.14022
 20
-96.2352
 30
0.000000
  70
    32
  0
VERTEX
  8
0
  5
A10
 10
6.25839
 20
-96.4961
 30
0.000000
  70
    32
  0
VERTEX
  8
0
  5
A11
 10
6.38557
 20
-96.7487
 30
0.000000
  70
    32
  0
VERTEX
  8
0
  5
A12
 10
6.52145
 20
-96.9922
 30
0.000000
  70
    32
  0
VERTEX
  8
0
  5
A13
 10
6.66572
 20
-97.2260
 30
0.000000
  70
    32
  0
VERTEX
  8
0
  5
A14
 10
6.81802
 20
-97.4497
 30
0.000000
  70
    32
  0
VERTEX
  8
0
  5
A15
 10
6.97798
 20
-97.6627
 30
0.000000
  70
    32
  0
VERTEX
  8
0
  5
A16
 10
7.14523
 20
-97.8645
 30
0.000000
  70
    32
  0
VERTEX
  8
0
  5
A17
 10
7.31935
 20
-98.0545
 30
0.000000
  70
    32
  0
VERTEX
  8
0
  5
A18
 10
7.49993
 20
-98.2323
 30
0.000000
  70
    32
  0
VERTEX
  8
0
  5
A19
 10
7.68654
 20
-98.3976
 30
0.000000
  70
    32
  0
VERTEX
  8
0
  5
A1A
 10
7.87871
 20
-98.5498
 30
0.000000
  70
    32
  0
VERTEX
  8
0
  5
A1B
 10
8.07600
 20
-98.6887
 30
0.000000
  70
    32
  0
VERTEX
  8
0
  5
A1C
 10
8.27792
 20
-98.8139
 30
0.000000
  70
    32
  0
VERTEX
  8
0
  5
A1D
 10
8.48400
 20
-98.9250
 30
0.000000
  70
    32
  0
VERTEX
  8
0
  5
A1E
 10
8.69372
 20
-99.0219
 30
0.000000
  70
    32
  0
VERTEX
  8
0
  5
A1F
 10
8.90659
 20
-99.1043
 30
0.000000
  70
    32
  0
VERTEX
  8
0
  5
A20
 10
9.12209
 20
-99.1720
 30
0.000000
  70
    32
  0
VERTEX
  8
0
  5
A21
 10
9.33971
 20
-99.2248
 30
0.000000
  70
    32
  0
VERTEX
  8
0
  5
A22
 10
9.55892
 20
-99.2626
 30
0.000000
  70
    32
  0
VERTEX
  8
0
  5
A23
 10
9.77920
 20
-99.2853
 30
0.000000
  70
    32
  0
VERTEX
  8
0
  5
A24
 10
10.0000
 20
-99.2929
 30
0.000000
  70
    32
  0
SEQEND
  8
0
  5
A25
  0
POLYLINE
  5
44
  8
0
 10
7.2023403042498639
 20
-88.071067811865618
 30
0.0
 66
     1
 70
     8
  0
VERTEX
  8
0
  5
A26
 10
7.20234
 20
-88.0711
 30
0.000000
  70
    32
  0
VERTEX
  8
0
  5
A27
 10
7.23944
 20
-88.1118
 30
0.000000
  70
    32
  0
VERTEX
  8
0
  5
A28
 10
7.27685
 20
-88.1520
 30
0.000000
  70
    32
  0
VERTEX
  8
0
  5
A29
 10
7.31455
 20
-88.1916
 30
0.000000
  70
    32
  0
VERTEX
  8
0
  5
A2A
 10
7.35255
 20
-88.2307
 30
0.000000
  70
    32
  0
VERTEX
  8
0
  5
A2B
 10
7.39084
 20
-88.2693
 30
0.000000
  70
    32
  0
VERTEX
  8
0
  5
A2C
 10
7.42942
 20
-88.3072
 30
0.000000
  70
    32
  0
VERTEX
  8
0
  5
A2D
 10
7.46828
 20
-88.3446
 30
0.000000
  70
    32
  0
VERTEX
  8
0
  5
A2E
 10
7.50742
 20
-88.3815
 30
0.000000
  70
    32
  0
VERTEX
  8
0
  5
A2F
 10
7.54683
 20
-88.4177
 30
0.000000
  70
    32
  0
VERTEX
  8
0
  5
A30
 10
7.58651
 20
-88.4534
 30
0.000000
  70
    32
  0
VERTEX
  8
0
  5
A31
 10
7.62646
 20
-88.4885
 30
0.000000
  70
    32
  0
VERTEX
  8
0
  5
A32
 10
7.66667
 20
-88.5230
 30
0.000000
  70
    32
  0
VERTEX
  8
0
  5
A33
 10
7.70713
 20
-88.5569
 30
0.000000
  70
    32
  0
VERTEX
  8
0
  5
A34
 10
7.74785
 20
-88.5902
 30
0.000000
  70
    32
  0
VERTEX
  8
0
  5
A35
 10
7.78881
 20
-88.6229
 30
0.000000
  70
    32
  0
VERTEX
  8
0
  5
A36
 10
7.83002
 20
-88.6550
 30
0.000000
  70
    32
  0
VERTEX
  8
0
  5
A37
 10
7.87146
 20
-88.6865
 30
0.000000
  70
    32
  0
VERTEX
  8
0
  5
A38
 10
7.91314
 20
-88.7174
 30
0.000000
  70
    32
  0
VERTEX
  8
0
  5
A39
 10
7.95505
 20
-88.7477
 30
0.000000
  70
    32
  0
VERTEX
  8
0
  5
A3A
 10
7.99718
 20
-88.7774
 30
0.000000
  70
    32
  0
VERTEX
  8
0
  5
A3B
 10
8.03953
 20
-88.8064
 30
0.000000
  70
    32
  0
VERTEX
  8
0
  5
A3C
 10
8.08210
 20
-88.8349
 30
0.000000
  70
    32
  0
VERTEX
  8
0
  5
A3D
 10
8.12488
 20
-88.8627
 30
0.000000
  70
    32
  0
VERTEX
  8
0
  5
A3E
 10
8.16787
 20
-88.8898
 30
0.000000
  70
    32
  0
VERTEX
  8
0
  5
A3F
 10
8.21105
 20
-88.9164
 30
0.000000
  70
    32
  0
VERTEX
  8
0
  5
A40
 10
8.25444
 20
-88.9423
 30
0.000000
  70
    32
  0
VERTEX
  8
0
  5
A41
 10
8.29801
 20
-88.9676
 30
0.000000
  70
    32
  0
VERTEX
  8
0
  5
A42
 10
8.34177
 20
-88.9922
 30
0.000000
  70
    32
  0
VERTEX
  8
0
  5
A43
 10
8.38572
 20
-89.0162
 30
0.000000
  70
    32
  0
VERTEX
  8
0
  5
A44
 10
8.42984
 20
-89.0395
 30
0.000000
  70
    32
  0
VERTEX
  8
0
  5
A45
 10
8.47413
 20
-89.0622
 30
0.000000
  70
    32
  0
VERTEX
  8
0
  5
A46
 10
8.51860
 20
-89.0843
 30
0.000000
  70
    32
  0
VERTEX
  8
0
  5
A47
 10
8.56322
 20
-89.1057
 30
0.000000
  70
    32
  0
VERTEX
  8
0
  5
A48
 10
8.60800
 20
-89.1264
 30
0.000000
  70
    32
  0
VERTEX
  8
0
  5
A49
 10
8.65294
 20
-89.1465
 30
0.000000
  70
    32
  0
VERTEX
  8
0
  5
A4A
 10
8.69802
 20
-89.1659
 30
0.000000
  70
    32
  0
VERTEX
  8
0
  5
A4B
 10
8.74325
 20
-89.1846
 30
0.000000
  70
    32
  0
VERTEX
  8
0
  5
A4C
 10
8.78861
 20
-89.2027
 30
0.000000
  70
    32
  0
VERTEX
  8
0
  5
A4D
 10
8.83411
 20
-89.2202
 30
0.000000
  70
    32
  0
VERTEX
  8
0
  5
A4E
 10
8.87974
 20
-89.2369
 30
0.000000
  70
    32
  0
VERTEX
  8
0
  5
A4F
 10
8.92549
 20
-89.2530
 30
0.000000
  70
    32
  0
VERTEX
  8
0
  5
A50
 10
8.97136
 20
-89.2684
 30
0.000000
  70
    32
  0
VERTEX
  8
0
  5
A51
 10
9.01734
 20
-89.2832
 30
0.000000
  70
    32
  0
VERTEX
  8
0
  5
A52
 10
9.06342
 20
-89.2972
 30
0.000000
  70
    32
  0
VERTEX
  8
0
  5
A53
 10
9.10962
 20
-89.3106
 30
0.000000
  70
    32
  0
VERTEX
  8
0
  5
A54
 10
9.15590
 20
-89.3233
 30
0.000000
  70
    32
  0
VERTEX
  8
0
  5
A55
 10
9.20229
 20
-89.3354
 30
0.000000
  70
    32
  0
VERTEX
  8
0
  5
A56
 10
9.24876
 20
-89.3467
 30
0.000000
  70
    32
  0
VERTEX
  8
0
  5
A57
 10
9.29531
 20
-89.3574
 30
0.000000
  70
    32
  0
VERTEX
  8
0
  5
A58
 10
9.34194
 20
-89.3674
 30
0.000000
  70
    32
  0
VERTEX
  8
0
  5
A59
 10
9.38864
 20
-89.3767
 30
0.000000
  70
    32
  0
VERTEX
  8
0
  5
A5A
 10
9.43541
 20
-89.3853
 30
0.000000
  70
    32
  0
VERTEX
  8
0
  5
A5B
 10
9.48224
 20
-89.3932
 30
0.000000
  70
    32
  0
VERTEX
  8
0
  5
A5C
 10
9.52913
 20
-89.4005
 30
0.000000
  70
    32
  0
VERTEX
  8
0
  5
A5D
 10
9.57607
 20
-89.4070
 30
0.000000
  70
    32
  0
VERTEX
  8
0
  5
A5E
 10
9.62305
 20
-89.4129
 30
0.000000
  70
    32
  0
VERTEX
  8
0
  5
A5F
 10
9.67008
 20
-89.4181
 30
0.000000
  70
    32
  0
VERTEX
  8
0
  5
A60
 10
9.71714
 20
-89.4226
 30
0.000000
  70
    32
  0
VERTEX
  8
0
  5
A61
 10
9.76424
 20
-89.4264
 30
0.000000
  70
    32
  0
VERTEX
  8
0
  5
A62
 10
9.81136
 20
-89.4295
 30
0.000000
  70
    32
  0
VERTEX
  8
0
  5
A63
 10
9.85850
 20
-89.4319
 30
0.000000
  70
    32
  0
VERTEX
  8
0
  5
A64
 10
9.90566
 20
-89.4336
 30
0.000000
  70
    32
  0
VERTEX
  8
0
  5
A65
 10
9.95283
 20
-89.4347
 30
0.000000
  70
    32
  0
VERTEX
  8
0
  5
A66
 10
10.0000
 20
-89.4350
 30
0.000000
  70
    32
  0
VERTEX
  8
0
  5
A67
 10
10.0472
 20
-89.4347
 30
0.000000
  70
    32
  0
VERTEX
  8
0
  5
A68
 10
10.0943
 20
-89.4336
 30
0.000000
  70
    32
  0
VERTEX
  8
0
  5
A69
 10
10.1415
 20
-89.4319
 30
0.000000
  70
    32
  0
VERTEX
  8
0
  5
A6A
 10
10.1886
 20
-89.4295
 30
0.000000
  70
    32
  0
VERTEX
  8
0
  5
A6B
 10
10.2358
 20
-89.4264
 30
0.000000
  70
    32
  0
VERTEX
  8
0
  5
A6C
 10
10.2829
 20
-89.4226
 30
0.000000
  70
    32
  0
VERTEX
  8
0
  5
A6D
 10
10.3299
 20
-89.4181
 30
0.000000
  70
    32
  0
VERTEX
  8
0
  5
A6E
 10
10.3769
 20
-89.4129
 30
0.000000
  70
    32
  0
VERTEX
  8
0
  5
A6F
 10
10.4239
 20
-89.4070
 30
0.000000
  70
    32
  0
VERTEX
  8
0
  5
A70
 10
10.4709
 20
-89.4005
 30
0.000000
  70
    32
  0
VERTEX
  8
0
  5
A71
 10
10.5178
 20
-89.3932
 30
0.000000
  70
    32
  0
VERTEX
  8
0
  5
A72
 10
10.5646
 20
-89.3853
 30
0.000000
  70
    32
  0
VERTEX
  8
0
  5
A73
 10
10.6114
 20
-89.3767
 30
0.000000
  70
    32
  0
VERTEX
  8
0
  5
A74
 10
10.6581
 20
-89.3674
 30
0.000000
  70
    32
  0
VERTEX
  8
0
  5
A75
 10
10.7047
 20
-89.3574
 30
0.000000
  70
    32
  0
VERTEX
  8
0
  5
A76
 10
10.7512
 20
-89.3467
 30
0.000000
  70
    32
  0
VERTEX
  8
0
  5
A77
 10
10.7977
 20
-89.3354
 30
0.000000
  70
    32
  0
VERTEX
  8
0
  5
A78
 10
10.8441
 20
-89.3233
 30
0.000000
  70
    32
  0
VERTEX
  8
0
  5
A79
 10
10.8904
 20
-89.3106
 30
0.000000
  70
    32
  0
VERTEX
  8
0
  5
A7A
 10
10.9366
 20
-89.2972
 30
0.000000
  70
    32
  0
VERTEX
  8
0
  5
A7B
 10
10.9827
 20
-89.2832
 30
0.000000
  70
    32
  0
VERTEX
  8
0
  5
A7C
 10
11.0286
 20
-89.2684
 30
0.000000
  70
    32
  0
VERTEX
  8
0
  5
A7D
 10
11.0745
 20
-89.2530
 30
0.000000
  70
    32
  0
VERTEX
  8
0
  5
A7E
 10
11.1203
 20
-89.2369
 30
0.000000
  70
    32
  0
VERTEX
  8
0
  5
A7F
 10
11.1659
 20
-89.2202
 30
0.000000
  70
    32
  0
VERTEX
  8
0
  5
A80
 10
11.2114
 20
-89.2027
 30
0.000000
  70
    32
  0
VERTEX
  8
0
  5
A81
 10
11.2567
 20
-89.1846
 30
0.000000
  70
    32
  0
VERTEX
  8
0
  5
A82
 10
11.3020
 20
-89.1659
 30
0.000000
  70
    32
  0
VERTEX
  8
0
  5
A83
 10
11.3471
 20
-89.1465
 30
0.000000
  70
    32
  0
VERTEX
  8
0
  5
A84
 10
11.3920
 20
-89.1264
 30
0.000000
  70
    32
  0
VERTEX
  8
0
  5
A85
 10
11.4368
 20
-89.1057
 30
0.000000
  70
    32
  0
VERTEX
  8
0
  5
A86
 10
11.4814
 20
-89.0843
 30
0.000000
  70
    32
  0
VERTEX
  8
0
  5
A87
 10
11.5259
 20
-89.0622
 30
0.000000
  70
    32
  0
VERTEX
  8
0
  5
A88
 10
11.5702
 20
-89.0395
 30
0.000000
  70
    32
  0
VERTEX
  8
0
  5
A89
 10
11.6143
 20
-89.0162
 30
0.000000
  70
    32
  0
VERTEX
  8
0
  5
A8A
 10
11.6582
 20
-88.9922
 30
0.000000
  70
    32
  0
VERTEX
  8
0
  5
A8B
 10
11.7020
 20
-88.9676
 30
0.000000
  70
    32
  0
VERTEX
  8
0
  5
A8C
 10
11.7456
 20
-88.9423
 30
0.000000
  70
    32
  0
VERTEX
  8
0
  5
A8D
 10
11.7889
 20
-88.9164
 30
0.000000
  70
    32
  0
VERTEX
  8
0
  5
A8E
 10
11.8321
 20
-88.8898
 30
0.000000
  70
    32
  0
VERTEX
  8
0
  5
A8F
 10
11.8751
 20
-88.8627
 30
0.000000
  70
    32
  0
VERTEX
  8
0
  5
A90
 10
11.9179
 20
-88.8349
 30
0.000000
  70
    32
  0
VERTEX
  8
0
  5
A91
 10
11.9605
 20
-88.8064
 30
0.000000
  70
    32
  0
VERTEX
  8
0
  5
A92
 10
12.0028
 20
-88.7774
 30
0.000000
  70
    32
  0
VERTEX
  8
0
  5
A93
 10
12.0450
 20
-88.7477
 30
0.000000
  70
    32
  0
VERTEX
  8
0
  5
A94
 10
12.0869
 20
-88.7174
 30
0.000000
  70
    32
  0
VERTEX
  8
0
  5
A95
 10
12.1285
 20
-88.6865
 30
0.000000
  70
    32
  0
VERTEX
  8
0
  5
A96
 10
12.1700
 20
-88.6550
 30
0.000000
  70
    32
  0
VERTEX
  8
0
  5
A97
 10
12.2112
 20
-88.6229
 30
0.000000
  70
    32
  0
VERTEX
  8
0
  5
A98
 10
12.2522
 20
-88.5902
 30
0.000000
  70
    32
  0
VERTEX
  8
0
  5
A99
 10
12.2929
 20
-88.5569
 30
0.000000
  70
    32
  0
VERTEX
  8
0
  5
A9A
 10
12.3333
 20
-88.5230
 30
0.000000
  70
    32
  0
VERTEX
  8
0
  5
A9B
 10
12.3735
 20
-88.4885
 30
0.000000
  70
    32
  0
VERTEX
  8
0
  5
A9C
 10
12.4135
 20
-88.4534
 30
0.000000
  70
    32
  0
VERTEX
  8
0
  5
A9D
 10
12.4532
 20
-88.4177
 30
0.000000
  70
    32
  0
VERTEX
  8
0
  5
A9E
 10
12.4926
 20
-88.3815
 30
0.000000
  70
    32
  0
VERTEX
  8
0
  5
A9F
 10
12.5317
 20
-88.3446
 30
0.000000
  70
    32
  0
VERTEX
  8
0
  5
AA0
 10
12.5706
 20
-88.3072
 30
0.000000
  70
    32
  0
VERTEX
  8
0
  5
AA1
 10
12.6092
 20
-88.2693
 30
0.000000
  70
    32
  0
VERTEX
  8
0
  5
AA2
 10
12.6474
 20
-88.2307
 30
0.000000
  70
    32
  0
VERTEX
  8
0
  5
AA3
 10
12.6854
 20
-88.1916
 30
0.000000
  70
    32
  0
VERTEX
  8
0
  5
AA4
 10
12.7232
 20
-88.1520
 30
0.000000
  70
    32
  0
VERTEX
  8
0
  5
AA5
 10
12.7606
 20
-88.1118
 30
0.000000
  70
    32
  0
VERTEX
  8
0
  5
AA6
 10
12.7977
 20
-88.0711
 30
0.000000
  70
    32
  0
SEQEND
  8
0
  5
AA7
  0
POLYLINE
  5
45
  8
0
  6
HIDDEN
 62
     8
 10
12.797659695750051
 20
-88.071067811865717
 30
0.0
 66
     1
 70
     8
  0
VERTEX
  8
0
  5
AA8
 10
12.7977
 20
-88.0711
 30
0.000000
  70
    32
  0
VERTEX
  8
0
  5
AA9
 10
12.9316
 20
-87.9164
 30
0.000000
  70
    32
  0
VERTEX
  8
0
  5
AAA
 10
13.0612
 20
-87.7546
 30
0.000000
  70
    32
  0
VERTEX
  8
0
  5
AAB
 10
13.1862
 20
-87.5860
 30
0.000000
  70
    32
  0
VERTEX
  8
0
  5
AAC
 10
13.3065
 20
-87.4107
 30
0.000000
  70
    32
  0
VERTEX
  8
0
  5
AAD
 10
13.4218
 20
-87.2291
 30
0.000000
  70
    32
  0
VERTEX
  8
0
  5
AAE
 10
13.5321
 20
-87.0413
 30
0.000000
  70
    32
  0
VERTEX
  8
0
  5
AAF
 10
13.6370
 20
-86.8478
 30
0.000000
  70
    32
  0
VERTEX
  8
0
  5
AB0
 10
13.7366
 20
-86.6487
 30
0.000000
  70
    32
  0
VERTEX
  8
0
  5
AB1
 10
13.8306
 20
-86.4444
 30
0.000000
  70
    32
  0
VERTEX
  8
0
  5
AB2
 10
13.9189
 20
-86.2352
 30
0.000000
  70
    32
  0
VERTEX
  8
0
  5
AB3
 10
14.0013
 20
-86.0214
 30
0.000000
  70
    32
  0
VERTEX
  8
0
  5
AB4
 10
14.0778
 20
-85.8033
 30
0.000000
  70
    32
  0
VERTEX
  8
0
  5
AB5
 10
14.1482
 20
-85.5813
 30
0.000000
  70
    32
  0
VERTEX
  8
0
  5
AB6
 10
14.2125
 20
-85.3556
 30
0.000000
  70
    32
  0
VERTEX
  8
0
  5
AB7
 10
14.2704
 20
-85.1265
 30
0.000000
  70
    32
  0
VERTEX
  8
0
  5
AB8
 10
14.3220
 20
-84.8946
 30
0.000000
  70
    32
  0
VERTEX
  8
0
  5
AB9
 10
14.3671
 20
-84.6600
 30
0.000000
  70
    32
  0
VERTEX
  8
0
  5
ABA
 10
14.4058
 20
-84.4232
 30
0.000000
  70
    32
  0
VERTEX
  8
0
  5
ABB
 10
14.4378
 20
-84.1844
 30
0.000000
  70
    32
  0
VERTEX
  8
0
  5
ABC
 10
14.4633
 20
-83.9442
 30
0.000000
  70
    32
  0
VERTEX
  8
0
  5
ABD
 10
14.4821
 20
-83.7027
 30
0.000000
  70
    32
  0
VERTEX
  8
0
  5
ABE
 10
14.4942
 20
-83.4603
 30
0.000000
  70
    32
  0
VERTEX
  8
0
  5
ABF
 10
14.4997
 20
-83.2175
 30
0.000000
  70
    32
  0
VERTEX
  8
0
  5
AC0
 10
14.4984
 20
-82.9746
 30
0.000000
  70
    32
  0
VERTEX
  8
0
  5
AC1
 10
14.4904
 20
-82.7320
 30
0.000000
  70
    32
  0
VERTEX
  8
0
  5
AC2
 10
14.4758
 20
-82.4899
 30
0.000000
  70
    32
  0
VERTEX
  8
0
  5
AC3
 10
14.4544
 20
-82.2488
 30
0.000000
  70
    32
  0
VERTEX
  8
0
  5
AC4
 10
14.4265
 20
-82.0091
 30
0.000000
  70
    32
  0
VERTEX
  8
0
  5
AC5
 10
14.3919
 20
-81.7710
 30
0.000000
  70
    32
  0
VERTEX
  8
0
  5
AC6
 10
14.3508
 20
-81.5350
 30
0.000000
  70
    32
  0
VERTEX
  8
0
  5
AC7
 10
14.3032
 20
-81.3014
 30
0.000000
  70
    32
  0
VERTEX
  8
0
  5
AC8
 10
14.2492
 20
-81.0705
 30
0.000000
  70
    32
  0
VERTEX
  8
0
  5
AC9
 10
14.1888
 20
-80.8427
 30
0.000000
  70
    32
  0
VERTEX
  8
0
  5
ACA
 10
14.1222
 20
-80.6184
 30
0.000000
  70
    32
  0
VERTEX
  8
0
  5
ACB
 10
14.0495
 20
-80.3977
 30
0.000000
  70
    32
  0
VERTEX
  8
0
  5
ACC
 10
13.9708
 20
-80.1812
 30
0.000000
  70
    32
  0
VERTEX
  8
0
  5
ACD
 10
13.8861
 20
-79.9691
 30
0.000000
  70
    32
  0
VERTEX
  8
0
  5
ACE
 10
13.7956
 20
-79.7618
 30
0.000000
  70
    32
  0
VERTEX
  8
0
  5
ACF
 10
13.6995
 20
-79.5594
 30
0.000000
  70
    32
  0
VERTEX
  8
0
  5
AD0
 10
13.5979
 20
-79.3624
 30
0.000000
  70
    32
  0
VERTEX
  8
0
  5
AD1
 10
13.4909
 20
-79.1711
 30
0.000000
  70
    32
  0
VERTEX
  8
0
  5
AD2
 10
13.3787
 20
-78.9856
 30
0.000000
  70
    32
  0
VERTEX
  8
0
  5
AD3
 10
13.2614
 20
-78.8063
 30
0.000000
  70
    32
  0
VERTEX
  8
0
  5
AD4
 10
13.1393
 20
-78.6336
 30
0.000000
  70
    32
  0
VERTEX
  8
0
  5
AD5
 10
13.0126
 20
-78.4675
 30
0.000000
  70
    32
  0
VERTEX
  8
0
  5
AD6
 10
12.8813
 20
-78.3084
 30
0.000000
  70
    32
  0
VERTEX
  8
0
  5
AD7
 10
12.7458
 20
-78.1565
 30
0.000000
  70
    32
  0
VERTEX
  8
0
  5
AD8
 10
12.6061
 20
-78.0120
 30
0.000000
  70
    32
  0
VERTEX
  8
0
  5
AD9
 10
12.4626
 20
-77.8751
 30
0.000000
  70
    32
  0
VERTEX
  8
0
  5
ADA
 10
12.3154
 20
-77.7462
 30
0.000000
  70
    32
  0
VERTEX
  8
0
  5
ADB
 10
12.1647
 20
-77.6252
 30
0.000000
  70
    32
  0
VERTEX
  8
0
  5
ADC
 10
12.0109
 20
-77.5125
 30
0.000000
  70
    32
  0
VERTEX
  8
0
  5
ADD
 10
11.8540
 20
-77.4082
 30
0.000000
  70
    32
  0
VERTEX
  8
0
  5
ADE
 10
11.6944
 20
-77.3124
 30
0.000000
  70
    32
  0
VERTEX
  8
0
  5
ADF
 10
11.5322
 20
-77.2253
 30
0.000000
  70
    32
  0
VERTEX
  8
0
  5
AE0
 10
11.3678
 20
-77.1470
 30
0.000000
  70
    32
  0
VERTEX
  8
0
  5
AE1
 10
11.2013
 20
-77.0776
 30
0.000000
  70
    32
  0
VERTEX
  8
0
  5
AE2
 10
11.0330
 20
-77.0173
 30
0.000000
  70
    32
  0
VERTEX
  8
0
  5
AE3
 10
10.8632
 20
-76.9661
 30
0.000000
  70
    32
  0
VERTEX
  8
0
  5
AE4
 10
10.6921
 20
-76.9241
 30
0.000000
  70
    32
  0
VERTEX
  8
0
  5
AE5
 10
10.5200
 20
-76.8914
 30
0.000000
  70
    32
  0
VERTEX
  8
0
  5
AE6
 10
10.3471
 20
-76.8680
 30
0.000000
  70
    32
  0
VERTEX
  8
0
  5
AE7
 10
10.1737
 20
-76.8539
 30
0.000000
  70
    32
  0
VERTEX
  8
0
  5
AE8
 10
10.0000
 20
-76.8492
 30
0.000000
  70
    32
  0
VERTEX
  8
0
  5
AE9
 10
9.82632
 20
-76.8539
 30
0.000000
  70
    32
  0
VERTEX
  8
0
  5
AEA
 10
9.65291
 20
-76.8680
 30
0.000000
  70
    32
  0
VERTEX
  8
0
  5
AEB
 10
9.48001
 20
-76.8914
 30
0.000000
  70
    32
  0
VERTEX
  8
0
  5
AEC
 10
9.30788
 20
-76.9241
 30
0.000000
  70
    32
  0
VERTEX
  8
0
  5
AED
 10
9.13679
 20
-76.9661
 30
0.000000
  70
    32
  0
VERTEX
  8
0
  5
AEE
 10
8.96698
 20
-77.0173
 30
0.000000
  70
    32
  0
VERTEX
  8
0
  5
AEF
 10
8.79871
 20
-77.0776
 30
0.000000
  70
    32
  0
VERTEX
  8
0
  5
AF0
 10
8.63223
 20
-77.1470
 30
0.000000
  70
    32
  0
VERTEX
  8
0
  5
AF1
 10
8.46779
 20
-77.2253
 30
0.000000
  70
    32
  0
VERTEX
  8
0
  5
AF2
 10
8.30563
 20
-77.3124
 30
0.000000
  70
    32
  0
VERTEX
  8
0
  5
AF3
 10
8.14600
 20
-77.4082
 30
0.000000
  70
    32
  0
VERTEX
  8
0
  5
AF4
 10
7.98913
 20
-77.5125
 30
0.000000
  70
    32
  0
VERTEX
  8
0
  5
AF5
 10
7.83526
 20
-77.6252
 30
0.000000
  70
    32
  0
VERTEX
  8
0
  5
AF6
 10
7.68461
 20
-77.7462
 30
0.000000
  70
    32
  0
VERTEX
  8
0
  5
AF7
 10
7.53741
 20
-77.8751
 30
0.000000
  70
    32
  0
VERTEX
  8
0
  5
AF8
 10
7.39388
 20
-78.0120
 30
0.000000
  70
    32
  0
VERTEX
  8
0
  5
AF9
 10
7.25424
 20
-78.1565
 30
0.000000
  70
    32
  0
VERTEX
  8
0
  5
AFA
 10
7.11869
 20
-78.3084
 30
0.000000
  70
    32
  0
VERTEX
  8
0
  5
AFB
 10
6.98743
 20
-78.4675
 30
0.000000
  70
    32
  0
VERTEX
  8
0
  5
AFC
 10
6.86066
 20
-78.6336
 30
0.000000
  70
    32
  0
VERTEX
  8
0
  5
AFD
 10
6.73856
 20
-78.8063
 30
0.000000
  70
    32
  0
VERTEX
  8
0
  5
AFE
 10
6.62133
 20
-78.9856
 30
0.000000
  70
    32
  0
VERTEX
  8
0
  5
AFF
 10
6.50913
 20
-79.1711
 30
0.000000
  70
    32
  0
VERTEX
  8
0
  5
B00
 10
6.40214
 20
-79.3624
 30
0.000000
  70
    32
  0
VERTEX
  8
0
  5
B01
 10
6.30050
 20
-79.5594
 30
0.000000
  70
    32
  0
VERTEX
  8
0
  5
B02
 10
6.20438
 20
-79.7618
 30
0.000000
  70
    32
  0
VERTEX
  8
0
  5
B03
 10
6.11391
 20
-79.9691
 30
0.000000
  70
    32
  0
VERTEX
  8
0
  5
B04
 10
6.02924
 20
-80.1812
 30
0.000000
  70
    32
  0
VERTEX
  8
0
  5
B05
 10
5.95048
 20
-80.3977
 30
0.000000
  70
    32
  0
VERTEX
  8
0
  5
B06
 10
5.87775
 20
-80.6184
 30
0.000000
  70
    32
  0
VERTEX
  8
0
  5
B07
 10
5.81117
 20
-80.8427
 30
0.000000
  70
    32
  0
VERTEX
  8
0
  5
B08
 10
5.75083
 20
-81.0705
 30
0.000000
  70
    32
  0
VERTEX
  8
0
  5
B09
 10
5.69682
 20
-81.3014
 30
0.000000
  70
    32
  0
VERTEX
  8
0
  5
B0A
 10
5.64923
 20
-81.5350
 30
0.000000
  70
    32
  0
VERTEX
  8
0
  5
B0B
 10
5.60811
 20
-81.7710
 30
0.000000
  70
    32
  0
VERTEX
  8
0
  5
B0C
 10
5.57354
 20
-82.0091
 30
0.000000
  70
    32
  0
VERTEX
  8
0
  5
B0D
 10
5.54557
 20
-82.2488
 30
0.000000
  70
    32
  0
VERTEX
  8
0
  5
B0E
 10
5.52424
 20
-82.4899
 30
0.000000
  70
    32
  0
VERTEX
  8
0
  5
B0F
 10
5.50957
 20
-82.7320
 30
0.000000
  70
    32
  0
VERTEX
  8
0
  5
B10
 10
5.50159
 20
-82.9746
 30
0.000000
  70
    32
  0
VERTEX
  8
0
  5
B11
 10
5.50032
 20
-83.2175
 30
0.000000
  70
    32
  0
VERTEX
  8
0
  5
B12
 10
5.50576
 20
-83.4603
 30
0.000000
  70
    32
  0
VERTEX
  8
0
  5
B13
 10
5.51789
 20
-83.7027
 30
0.000000
  70
    32
  0
VERTEX
  8
0
  5
B14
 10
5.53670
 20
-83.9442
 30
0.000000
  70
    32
  0
VERTEX
  8
0
  5
B15
 10
5.56216
 20
-84.1844
 30
0.000000
  70
    32
  0
VERTEX
  8
0
  5
B16
 10
5.59423
 20
-84.4232
 30
0.000000
  70
    32
  0
VERTEX
  8
0
  5
B17
 10
5.63287
 20
-84.6600
 30
0.000000
  70
    32
  0
VERTEX
  8
0
  5
B18
 10
5.67801
 20
-84.8946
 30
0.000000
  70
    32
  0
VERTEX
  8
0
  5
B19
 10
5.72960
 20
-85.1265
 30
0.000000
  70
    32
  0
VERTEX
  8
0
  5
B1A
 10
5.78755
 20
-85.3556
 30
0.000000
  70
    32
  0
VERTEX
  8
0
  5
B1B
 10
5.85177
 20
-85.5813
 30
0.000000
  70
    32
  0
VERTEX
  8
0
  5
B1C
 10
5.92218
 20
-85.8033
 30
0.000000
  70
    32
  0
VERTEX
  8
0
  5
B1D
 10
5.99867
 20
-86.0214
 30
0.000000
  70
    32
  0
VERTEX
  8
0
  5
B1E
 10
6.08111
 20
-86.2352
 30
0.000000
  70
    32
  0
VERTEX
  8
0
  5
B1F
 10
6.16940
 20
-86.4444
 30
0.000000
  70
    32
  0
VERTEX
  8
0
  5
B20
 10
6.26339
 20
-86.6487
 30
0.000000
  70
    32
  0
VERTEX
  8
0
  5
B21
 10
6.36295
 20
-86.8478
 30
0.000000
  70
    32
  0
VERTEX
  8
0
  5
B22
 10
6.46793
 20
-87.0413
 30
0.000000
  70
    32
  0
VERTEX
  8
0
  5
B23
 10
6.57818
 20
-87.2291
 30
0.000000
  70
    32
  0
VERTEX
  8
0
  5
B24
 10
6.69352
 20
-87.4107
 30
0.000000
  70
    32
  0
VERTEX
  8
0
  5
B25
 10
6.81379
 20
-87.5860
 30
0.000000
  70
    32
  0
VERTEX
  8
0
  5
B26
 10
6.93881
 20
-87.7546
 30
0.000000
  70
    32
  0
VERTEX
  8
0
  5
B27
 10
7.06839
 20
-87.9164
 30
0.000000
  70
    32
  0
VERTEX
  8
0
  5
B28
 10
7.20234
 20
-88.0711
 30
0.000000
  70
    32
  0
SEQEND
  8
0
  5
B29
  0
POLYLINE
  5
47
  8
0
 10
-17.299999999999962
 20
-102.16187950266169
 30
0.0
 66
     1
 70
     8
  0
VERTEX
  8
0
  5
B2A
 10
-17.3000
 20
-102.162
 30
0.000000
  70
    32
  0
VERTEX
  8
0
  5
B2B
 10
-17.3033
 20
-102.068
 30
0.000000
  70
    32
  0
VERTEX
  8
0
  5
B2C
 10
-17.3130
 20
-101.975
 30
0.000000
  70
    32
  0
VERTEX
  8
0
  5
B2D
 10
-17.3292
 20
-101.882
 30
0.000000
  70
    32
  0
VERTEX
  8
0
  5
B2E
 10
-17.3519
 20
-101.789
 30
0.000000
  70
    32
  0
VERTEX
  8
0
  5
B2F
 10
-17.3809
 20
-101.698
 30
0.000000
  70
    32
  0
VERTEX
  8
0
  5
B30
 10
-17.4163
 20
-101.608
 30
0.000000
  70
    32
  0
VERTEX
  8
0
  5
B31
 10
-17.4578
 20
-101.519
 30
0.000000
  70
    32
  0
VERTEX
  8
0
  5
B32
 10
-17.5055
 20
-101.431
 30
0.000000
  70
    32
  0
VERTEX
  8
0
  5
B33
 10
-17.5592
 20
-101.346
 30
0.000000
  70
    32
  0
VERTEX
  8
0
  5
B34
 10
-17.6188
 20
-101.262
 30
0.000000
  70
    32
  0
VERTEX
  8
0
  5
B35
 10
-17.6841
 20
-101.180
 30
0.000000
  70
    32
  0
VERTEX
  8
0
  5
B36
 10
-17.7550
 20
-101.101
 30
0.000000
  70
    32
  0
VERTEX
  8
0
  5
B37
 10
-17.8313
 20
-101.025
 30
0.000000
  70
    32
  0
VERTEX
  8
0
  5
B38
 10
-17.9129
 20
-100.951
 30
0.000000
  70
    32
  0
VERTEX
  8
0
  5
B39
 10
-17.9994
 20
-100.880
 30
0.000000
  70
    32
  0
VERTEX
  8
0
  5
B3A
 10
-18.0908
 20
-100.812
 30
0.000000
  70
    32
  0
VERTEX
  8
0
  5
B3B
 10
-18.1868
 20
-100.747
 30
0.000000
  70
    32
  0
VERTEX
  8
0
  5
B3C
 10
-18.2871
 20
-100.686
 30
0.000000
  70
    32
  0
VERTEX
  8
0
  5
B3D
 10
-18.3916
 20
-100.628
 30
0.000000
  70
    32
  0
VERTEX
  8
0
  5
B3E
 10
-18.5000
 20
-100.574
 30
0.000000
  70
    32
  0
VERTEX
  8
0
  5
B3F
 10
-18.6119
 20
-100.524
 30
0.000000
  70
    32
  0
VERTEX
  8
0
  5
B40
 10
-18.7272
 20
-100.478
 30
0.000000
  70
    32
  0
VERTEX
  8
0
  5
B41
 10
-18.8456
 20
-100.436
 30
0.000000
  70
    32
  0
VERTEX
  8
0
  5
B42
 10
-18.9668
 20
-100.398
 30
0.000000
  70
    32
  0
VERTEX
  8
0
  5
B43
 10
-19.0904
 20
-100.364
 30
0.000000
  70
    32
  0
VERTEX
  8
0
  5
B44
 10
-19.2162
 20
-100.335
 30
0.000000
  70
    32
  0
VERTEX
  8
0
  5
B45
 10
-19.3440
 20
-100.310
 30
0.000000
  70
    32
  0
VERTEX
  8
0
  5
B46
 10
-19.4733
 20
-100.289
 30
0.000000
  70
    32
  0
VERTEX
  8
0
  5
B47
 10
-19.6038
 20
-100.273
 30
0.000000
  70
    32
  0
VERTEX
  8
0
  5
B48
 10
-19.7354
 20
-100.262
 30
0.000000
  70
    32
  0
VERTEX
  8
0
  5
B49
 10
-19.8675
 20
-100.255
 30
0.000000
  70
    32
  0
VERTEX
  8
0
  5
B4A
 10
-20.0000
 20
-100.253
 30
0.000000
  70
    32
  0
VERTEX
  8
0
  5
B4B
 10
-20.1325
 20
-100.255
 30
0.000000
  70
    32
  0
VERTEX
  8
0
  5
B4C
 10
-20.2646
 20
-100.262
 30
0.000000
  70
    32
  0
VERTEX
  8
0
  5
B4D
 10
-20.3962
 20
-100.273
 30
0.000000
  70
    32
  0
VERTEX
  8
0
  5
B4E
 10
-20.5267
 20
-100.289
 30
0.000000
  70
    32
  0
VERTEX
  8
0
  5
B4F
 10
-20.6560
 20
-100.310
 30
0.000000
  70
    32
  0
VERTEX
  8
0
  5
B50
 10
-20.7838
 20
-100.335
 30
0.000000
  70
    32
  0
VERTEX
  8
0
  5
B51
 10
-20.9096
 20
-100.364
 30
0.000000
  70
    32
  0
VERTEX
  8
0
  5
B52
 10
-21.0332
 20
-100.398
 30
0.000000
  70
    32
  0
VERTEX
  8
0
  5
B53
 10
-21.1544
 20
-100.436
 30
0.000000
  70
    32
  0
VERTEX
  8
0
  5
B54
 10
-21.2728
 20
-100.478
 30
0.000000
  70
    32
  0
VERTEX
  8
0
  5
B55
 10
-21.3881
 20
-100.524
 30
0.000000
  70
    32
  0
VERTEX
  8
0
  5
B56
 10
-21.5000
 20
-100.574
 30
0.000000
  70
    32
  0
VERTEX
  8
0
  5
B57
 10
-21.6084
 20
-100.628
 30
0.000000
  70
    32
  0
VERTEX
  8
0
  5
B58
 10
-21.7129
 20
-100.686
 30
0.000000
  70
    32
  0
VERTEX
  8
0
  5
B59
 10
-21.8132
 20
-100.747
 30
0.000000
  70
    32
  0
VERTEX
  8
0
  5
B5A
 10
-21.9092
 20
-100.812
 30
0.000000
  70
    32
  0
VERTEX
  8
0
  5
B5B
 10
-22.0006
 20
-100.880
 30
0.000000
  70
    32
  0
VERTEX
  8
0
  5
B5C
 10
-22.0871
 20
-100.951
 30
0.000000
  70
    32
  0
VERTEX
  8
0
  5
B5D
 10
-22.1687
 20
-101.025
 30
0.000000
  70
    32
  0
VERTEX
  8
0
  5
B5E
 10
-22.2450
 20
-101.101
 30
0.000000
  70
    32
  0
VERTEX
  8
0
  5
B5F
 10
-22.3159
 20
-101.180
 30
0.000000
  70
    32
  0
VERTEX
  8
0
  5
B60
 10
-22.3812
 20
-101.262
 30
0.000000
  70
    32
  0
VERTEX
  8
0
  5
B61
 10
-22.4408
 20
-101.346
 30
0.000000
  70
    32
  0
VERTEX
  8
0
  5
B62
 10
-22.4945
 20
-101.431
 30
0.000000
  70
    32
  0
VERTEX
  8
0
  5
B63
 10
-22.5422
 20
-101.519
 30
0.000000
  70
    32
  0
VERTEX
  8
0
  5
B64
 10
-22.5837
 20
-101.608
 30
0.000000
  70
    32
  0
VERTEX
  8
0
  5
B65
 10
-22.6191
 20
-101.698
 30
0.000000
  70
    32
  0
VERTEX
  8
0
  5
B66
 10
-22.6481
 20
-101.789
 30
0.000000
  70
    32
  0
VERTEX
  8
0
  5
B67
 10
-22.6708
 20
-101.882
 30
0.000000
  70
    32
  0
VERTEX
  8
0
  5
B68
 10
-22.6870
 20
-101.975
 30
0.000000
  70
    32
  0
VERTEX
  8
0
  5
B69
 10
-22.6967
 20
-102.068
 30
0.000000
  70
    32
  0
VERTEX
  8
0
  5
B6A
 10
-22.7000
 20
-102.162
 30
0.000000
  70
    32
  0
VERTEX
  8
0
  5
B6B
 10
-22.6967
 20
-102.256
 30
0.000000
  70
    32
  0
VERTEX
  8
0
  5
B6C
 10
-22.6870
 20
-102.349
 30
0.000000
  70
    32
  0
VERTEX
  8
0
  5
B6D
 10
-22.6708
 20
-102.442
 30
0.000000
  70
    32
  0
VERTEX
  8
0
  5
B6E
 10
-22.6481
 20
-102.534
 30
0.000000
  70
    32
  0
VERTEX
  8
0
  5
B6F
 10
-22.6191
 20
-102.626
 30
0.000000
  70
    32
  0
VERTEX
  8
0
  5
B70
 10
-22.5837
 20
-102.716
 30
0.000000
  70
    32
  0
VERTEX
  8
0
  5
B71
 10
-22.5422
 20
-102.805
 30
0.000000
  70
    32
  0
VERTEX
  8
0
  5
B72
 10
-22.4945
 20
-102.892
 30
0.000000
  70
    32
  0
VERTEX
  8
0
  5
B73
 10
-22.4408
 20
-102.978
 30
0.000000
  70
    32
  0
VERTEX
  8
0
  5
B74
 10
-22.3812
 20
-103.062
 30
0.000000
  70
    32
  0
VERTEX
  8
0
  5
B75
 10
-22.3159
 20
-103.143
 30
0.000000
  70
    32
  0
VERTEX
  8
0
  5
B76
 10
-22.2450
 20
-103.223
 30
0.000000
  70
    32
  0
VERTEX
  8
0
  5
B77
 10
-22.1687
 20
-103.299
 30
0.000000
  70
    32
  0
VERTEX
  8
0
  5
B78
 10
-22.0871
 20
-103.373
 30
0.000000
  70
    32
  0
VERTEX
  8
0
  5
B79
 10
-22.0006
 20
-103.444
 30
0.000000
  70
    32
  0
VERTEX
  8
0
  5
B7A
 10
-21.9092
 20
-103.512
 30
0.000000
  70
    32
  0
VERTEX
  8
0
  5
B7B
 10
-21.8132
 20
-103.576
 30
0.000000
  70
    32
  0
VERTEX
  8
0
  5
B7C
 10
-21.7129
 20
-103.638
 30
0.000000
  70
    32
  0
VERTEX
  8
0
  5
B7D
 10
-21.6084
 20
-103.695
 30
0.000000
  70
    32
  0
VERTEX
  8
0
  5
B7E
 10
-21.5000
 20
-103.749
 30
0.000000
  70
    32
  0
VERTEX
  8
0
  5
B7F
 10
-21.3881
 20
-103.799
 30
0.000000
  70
    32
  0
VERTEX
  8
0
  5
B80
 10
-21.2728
 20
-103.846
 30
0.000000
  70
    32
  0
VERTEX
  8
0
  5
B81
 10
-21.1544
 20
-103.888
 30
0.000000
  70
    32
  0
VERTEX
  8
0
  5
B82
 10
-21.0332
 20
-103.926
 30
0.000000
  70
    32
  0
VERTEX
  8
0
  5
B83
 10
-20.9096
 20
-103.959
 30
0.000000
  70
    32
  0
VERTEX
  8
0
  5
B84
 10
-20.7838
 20
-103.989
 30
0.000000
  70
    32
  0
VERTEX
  8
0
  5
B85
 10
-20.6560
 20
-104.014
 30
0.000000
  70
    32
  0
VERTEX
  8
0
  5
B86
 10
-20.5267
 20
-104.034
 30
0.000000
  70
    32
  0
VERTEX
  8
0
  5
B87
 10
-20.3962
 20
-104.050
 30
0.000000
  70
    32
  0
VERTEX
  8
0
  5
B88
 10
-20.2646
 20
-104.062
 30
0.000000
  70
    32
  0
VERTEX
  8
0
  5
B89
 10
-20.1325
 20
-104.069
 30
0.000000
  70
    32
  0
VERTEX
  8
0
  5
B8A
 10
-20.0000
 20
-104.071
 30
0.000000
  70
    32
  0
VERTEX
  8
0
  5
B8B
 10
-19.8675
 20
-104.069
 30
0.000000
  70
    32
  0
VERTEX
  8
0
  5
B8C
 10
-19.7354
 20
-104.062
 30
0.000000
  70
    32
  0
VERTEX
  8
0
  5
B8D
 10
-19.6038
 20
-104.050
 30
0.000000
  70
    32
  0
VERTEX
  8
0
  5
B8E
 10
-19.4733
 20
-104.034
 30
0.000000
  70
    32
  0
VERTEX
  8
0
  5
B8F
 10
-19.3440
 20
-104.014
 30
0.000000
  70
    32
  0
VERTEX
  8
0
  5
B90
 10
-19.2162
 20
-103.989
 30
0.000000
  70
    32
  0
VERTEX
  8
0
  5
B91
 10
-19.0904
 20
-103.959
 30
0.000000
  70
    32
  0
VERTEX
  8
0
  5
B92
 10
-18.9668
 20
-103.926
 30
0.000000
  70
    32
  0
VERTEX
  8
0
  5
B93
 10
-18.8456
 20
-103.888
 30
0.000000
  70
    32
  0
VERTEX
  8
0
  5
B94
 10
-18.7272
 20
-103.846
 30
0.000000
  70
    32
  0
VERTEX
  8
0
  5
B95
 10
-18.6119
 20
-103.799
 30
0.000000
  70
    32
  0
VERTEX
  8
0
  5
B96
 10
-18.5000
 20
-103.749
 30
0.000000
  70
    32
  0
VERTEX
  8
0
  5
B97
 10
-18.3916
 20
-103.695
 30
0.000000
  70
    32
  0
VERTEX
  8
0
  5
B98
 10
-18.2871
 20
-103.638
 30
0.000000
  70
    32
  0
VERTEX
  8
0
  5
B99
 10
-18.1868
 20
-103.576
 30
0.000000
  70
    32
  0
VERTEX
  8
0
  5
B9A
 10
-18.0908
 20
-103.512
 30
0.000000
  70
    32
  0
VERTEX
  8
0
  5
B9B
 10
-17.9994
 20
-103.444
 30
0.000000
  70
    32
  0
VERTEX
  8
0
  5
B9C
 10
-17.9129
 20
-103.373
 30
0.000000
  70
    32
  0
VERTEX
  8
0
  5
B9D
 10
-17.8313
 20
-103.299
 30
0.000000
  70
    32
  0
VERTEX
  8
0
  5
B9E
 10
-17.7550
 20
-103.223
 30
0.000000
  70
    32
  0
VERTEX
  8
0
  5
B9F
 10
-17.6841
 20
-103.143
 30
0.000000
  70
    32
  0
VERTEX
  8
0
  5
BA0
 10
-17.6188
 20
-103.062
 30
0.000000
  70
    32
  0
VERTEX
  8
0
  5
BA1
 10
-17.5592
 20
-102.978
 30
0.000000
  70
    32
  0
VERTEX
  8
0
  5
BA2
 10
-17.5055
 20
-102.892
 30
0.000000
  70
    32
  0
VERTEX
  8
0
  5
BA3
 10
-17.4578
 20
-102.805
 30
0.000000
  70
    32
  0
VERTEX
  8
0
  5
BA4
 10
-17.4163
 20
-102.716
 30
0.000000
  70
    32
  0
VERTEX
  8
0
  5
BA5
 10
-17.3809
 20
-102.626
 30
0.000000
  70
    32
  0
VERTEX
  8
0
  5
BA6
 10
-17.3519
 20
-102.534
 30
0.000000
  70
    32
  0
VERTEX
  8
0
  5
BA7
 10
-17.3292
 20
-102.442
 30
0.000000
  70
    32
  0
VERTEX
  8
0
  5
BA8
 10
-17.3130
 20
-102.349
 30
0.000000
  70
    32
  0
VERTEX
  8
0
  5
BA9
 10
-17.3033
 20
-102.256
 30
0.000000
  70
    32
  0
VERTEX
  8
0
  5
BAA
 10
-17.3000
 20
-102.162
 30
0.000000
  70
    32
  0
SEQEND
  8
0
  5
BAB
  0
POLYLINE
  5
48
  8
0
 10
-15.285954792089669
 20
-99.357022603955087
 30
0.0
 66
     1
 70
     8
  0
VERTEX
  8
0
  5
BAC
 10
-15.2860
 20
-99.3570
 30
0.000000
  70
    32
  0
VERTEX
  8
0
  5
BAD
 10
-15.3189
 20
-99.2931
 30
0.000000
  70
    32
  0
VERTEX
  8
0
  5
BAE
 10
-15.3535
 20
-99.2297
 30
0.000000
  70
    32
  0
VERTEX
  8
0
  5
BAF
 10
-15.3899
 20
-99.1668
 30
0.000000
  70
    32
  0
VERTEX
  8
0
  5
BB0
 10
-15.4280
 20
-99.1043
 30
0.000000
  70
    32
  0
VERTEX
  8
0
  5
BB1
 10
-15.4678
 20
-99.0424
 30
0.000000
  70
    32
  0
VERTEX
  8
0
  5
BB2
 10
-15.5092
 20
-98.9810
 30
0.000000
  70
    32
  0
VERTEX
  8
0
  5
BB3
 10
-15.5523
 20
-98.9203
 30
0.000000
  70
    32
  0
VERTEX
  8
0
  5
BB4
 10
-15.5971
 20
-98.8601
 30
0.000000
  70
    32
  0
VERTEX
  8
0
  5
BB5
 10
-15.6435
 20
-98.8005
 30
0.000000
  70
    32
  0
VERTEX
  8
0
  5
BB6
 10
-15.6915
 20
-98.7416
 30
0.000000
  70
    32
  0
VERTEX
  8
0
  5
BB7
 10
-15.7411
 20
-98.6833
 30
0.000000
  70
    32
  0
VERTEX
  8
0
  5
BB8
 10
-15.7922
 20
-98.6257
 30
0.000000
  70
    32
  0
VERTEX
  8
0
  5
BB9
 10
-15.8450
 20
-98.5689
 30
0.000000
  70
    32
  0
VERTEX
  8
0
  5
BBA
 10
-15.8992
 20
-98.5127
 30
0.000000
  70
    32
  0
VERTEX
  8
0
  5
BBB
 10
-15.9550
 20
-98.4573
 30
0.000000
  70
    32
  0
VERTEX
  8
0
  5
BBC
 10
-16.0123
 20
-98.4027
 30
0.000000
  70
    32
  0
VERTEX
  8
0
  5
BBD
 10
-16.0710
 20
-98.3489
 30
0.000000
  70
    32
  0
VERTEX
  8
0
  5
BBE
 10
-16.1312
 20
-98.2958
 30
0.000000
  70
    32
  0
VERTEX
  8
0
  5
BBF
 10
-16.1928
 20
-98.2436
 30
0.000000
  70
    32
  0
VERTEX
  8
0
  5
BC0
 10
-16.2559
 20
-98.1923
 30
0.000000
  70
    32
  0
VERTEX
  8
0
  5
BC1
 10
-16.3203
 20
-98.1418
 30
0.000000
  70
    32
  0
VERTEX
  8
0
  5
BC2
 10
-16.3861
 20
-98.0922
 30
0.000000
  70
    32
  0
VERTEX
  8
0
  5
BC3
 10
-16.4532
 20
-98.0435
 30
0.000000
  70
    32
  0
VERTEX
  8
0
  5
BC4
 10
-16.5217
 20
-97.9957
 30
0.000000
  70
    32
  0
VERTEX
  8
0
  5
BC5
 10
-16.5914
 20
-97.9489
 30
0.000000
  70
    32
  0
VERTEX
  8
0
  5
BC6
 10
-16.6624
 20
-97.9030
 30
0.000000
  70
    32
  0
VERTEX
  8
0
  5
BC7
 10
-16.7346
 20
-97.8581
 30
0.000000
  70
    32
  0
VERTEX
  8
0
  5
BC8
 10
-16.8080
 20
-97.8142
 30
0.000000
  70
    32
  0
VERTEX
  8
0
  5
BC9
 10
-16.8826
 20
-97.7713
 30
0.000000
  70
    32
  0
VERTEX
  8
0
  5
BCA
 10
-16.9584
 20
-97.7294
 30
0.000000
  70
    32
  0
VERTEX
  8
0
  5
BCB
 10
-17.0353
 20
-97.6886
 30
0.000000
  70
    32
  0
VERTEX
  8
0
  5
BCC
 10
-17.1132
 20
-97.6488
 30
0.000000
  70
    32
  0
VERTEX
  8
0
  5
BCD
 10
-17.1923
 20
-97.6101
 30
0.000000
  70
    32
  0
VERTEX
  8
0
  5
BCE
 10
-17.2724
 20
-97.5724
 30
0.000000
  70
    32
  0
VERTEX
  8
0
  5
BCF
 10
-17.3535
 20
-97.5359
 30
0.000000
  70
    32
  0
VERTEX
  8
0
  5
BD0
 10
-17.4356
 20
-97.5004
 30
0.000000
  70
    32
  0
VERTEX
  8
0
  5
BD1
 10
-17.5186
 20
-97.4661
 30
0.000000
  70
    32
  0
VERTEX
  8
0
  5
BD2
 10
-17.6025
 20
-97.4329
 30
0.000000
  70
    32
  0
VERTEX
  8
0
  5
BD3
 10
-17.6874
 20
-97.4009
 30
0.000000
  70
    32
  0
VERTEX
  8
0
  5
BD4
 10
-17.7731
 20
-97.3700
 30
0.000000
  70
    32
  0
VERTEX
  8
0
  5
BD5
 10
-17.8596
 20
-97.3403
 30
0.000000
  70
    32
  0
VERTEX
  8
0
  5
BD6
 10
-17.9469
 20
-97.3118
 30
0.000000
  70
    32
  0
VERTEX
  8
0
  5
BD7
 10
-18.0349
 20
-97.2845
 30
0.000000
  70
    32
  0
VERTEX
  8
0
  5
BD8
 10
-18.1237
 20
-97.2584
 30
0.000000
  70
    32
  0
VERTEX
  8
0
  5
BD9
 10
-18.2132
 20
-97.2335
 30
0.000000
  70
    32
  0
VERTEX
  8
0
  5
BDA
 10
-18.3033
 20
-97.2098
 30
0.000000
  70
    32
  0
VERTEX
  8
0
  5
BDB
 10
-18.3941
 20
-97.1873
 30
0.000000
  70
    32
  0
VERTEX
  8
0
  5
BDC
 10
-18.4855
 20
-97.1661
 30
0.000000
  70
    32
  0
VERTEX
  8
0
  5
BDD
 10
-18.5774
 20
-97.1461
 30
0.000000
  70
    32
  0
VERTEX
  8
0
  5
BDE
 10
-18.6698
 20
-97.1274
 30
0.000000
  70
    32
  0
VERTEX
  8
0
  5
BDF
 10
-18.7628
 20
-97.1099
 30
0.000000
  70
    32
  0
VERTEX
  8
0
  5
BE0
 10
-18.8562
 20
-97.0938
 30
0.000000
  70
    32
  0
VERTEX
  8
0
  5
BE1
 10
-18.9500
 20
-97.0788
 30
0.000000
  70
    32
  0
VERTEX
  8
0
  5
BE2
 10
-19.0442
 20
-97.0652
 30
0.000000
  70
    32
  0
VERTEX
  8
0
  5
BE3
 10
-19.1388
 20
-97.0528
 30
0.000000
  70
    32
  0
VERTEX
  8
0
  5
BE4
 10
-19.2337
 20
-97.0418
 30
0.000000
  70
    32
  0
VERTEX
  8
0
  5
BE5
 10
-19.3289
 20
-97.0320
 30
0.000000
  70
    32
  0
VERTEX
  8
0
  5
BE6
 10
-19.4243
 20
-97.0235
 30
0.000000
  70
    32
  0
VERTEX
  8
0
  5
BE7
 10
-19.5199
 20
-97.0163
 30
0.000000
  70
    32
  0
VERTEX
  8
0
  5
BE8
 10
-19.6157
 20
-97.0105
 30
0.000000
  70
    32
  0
VERTEX
  8
0
  5
BE9
 10
-19.7117
 20
-97.0059
 30
0.000000
  70
    32
  0
VERTEX
  8
0
  5
BEA
 10
-19.8077
 20
-97.0026
 30
0.000000
  70
    32
  0
VERTEX
  8
0
  5
BEB
 10
-19.9038
 20
-97.0007
 30
0.000000
  70
    32
  0
VERTEX
  8
0
  5
BEC
 10
-20.0000
 20
-97.0000
 30
0.000000
  70
    32
  0
VERTEX
  8
0
  5
BED
 10
-20.0962
 20
-97.0007
 30
0.000000
  70
    32
  0
VERTEX
  8
0
  5
BEE
 10
-20.1923
 20
-97.0026
 30
0.000000
  70
    32
  0
VERTEX
  8
0
  5
BEF
 10
-20.2883
 20
-97.0059
 30
0.000000
  70
    32
  0
VERTEX
  8
0
  5
BF0
 10
-20.3843
 20
-97.0105
 30
0.000000
  70
    32
  0
VERTEX
  8
0
  5
BF1
 10
-20.4801
 20
-97.0163
 30
0.000000
  70
    32
  0
VERTEX
  8
0
  5
BF2
 10
-20.5757
 20
-97.0235
 30
0.000000
  70
    32
  0
VERTEX
  8
0
  5
BF3
 10
-20.6711
 20
-97.0320
 30
0.000000
  70
    32
  0
VERTEX
  8
0
  5
BF4
 10
-20.7663
 20
-97.0418
 30
0.000000
  70
    32
  0
VERTEX
  8
0
  5
BF5
 10
-20.8612
 20
-97.0528
 30
0.000000
  70
    32
  0
VERTEX
  8
0
  5
BF6
 10
-20.9558
 20
-97.0652
 30
0.000000
  70
    32
  0
VERTEX
  8
0
  5
BF7
 10
-21.0500
 20
-97.0788
 30
0.000000
  70
    32
  0
VERTEX
  8
0
  5
BF8
 10
-21.1438
 20
-97.0938
 30
0.000000
  70
    32
  0
VERTEX
  8
0
  5
BF9
 10
-21.2372
 20
-97.1099
 30
0.000000
  70
    32
  0
VERTEX
  8
0
  5
BFA
 10
-21.3302
 20
-97.1274
 30
0.000000
  70
    32
  0
VERTEX
  8
0
  5
BFB
 10
-21.4226
 20
-97.1461
 30
0.000000
  70
    32
  0
VERTEX
  8
0
  5
BFC
 10
-21.5145
 20
-97.1661
 30
0.000000
  70
    32
  0
VERTEX
  8
0
  5
BFD
 10
-21.6059
 20
-97.1873
 30
0.000000
  70
    32
  0
VERTEX
  8
0
  5
BFE
 10
-21.6967
 20
-97.2098
 30
0.000000
  70
    32
  0
VERTEX
  8
0
  5
BFF
 10
-21.7868
 20
-97.2335
 30
0.000000
  70
    32
  0
VERTEX
  8
0
  5
C00
 10
-21.8763
 20
-97.2584
 30
0.000000
  70
    32
  0
VERTEX
  8
0
  5
C01
 10
-21.9651
 20
-97.2845
 30
0.000000
  70
    32
  0
VERTEX
  8
0
  5
C02
 10
-22.0531
 20
-97.3118
 30
0.000000
  70
    32
  0
VERTEX
  8
0
  5
C03
 10
-22.1404
 20
-97.3403
 30
0.000000
  70
    32
  0
VERTEX
  8
0
  5
C04
 10
-22.2269
 20
-97.3700
 30
0.000000
  70
    32
  0
VERTEX
  8
0
  5
C05
 10
-22.3126
 20
-97.4009
 30
0.000000
  70
    32
  0
VERTEX
  8
0
  5
C06
 10
-22.3975
 20
-97.4329
 30
0.000000
  70
    32
  0
VERTEX
  8
0
  5
C07
 10
-22.4814
 20
-97.4661
 30
0.000000
  70
    32
  0
VERTEX
  8
0
  5
C08
 10
-22.5644
 20
-97.5004
 30
0.000000
  70
    32
  0
VERTEX
  8
0
  5
C09
 10
-22.6465
 20
-97.5359
 30
0.000000
  70
    32
  0
VERTEX
  8
0
  5
C0A
 10
-22.7276
 20
-97.5724
 30
0.000000
  70
    32
  0
VERTEX
  8
0
  5
C0B
 10
-22.8077
 20
-97.6101
 30
0.000000
  70
    32
  0
VERTEX
  8
0
  5
C0C
 10
-22.8868
 20
-97.6488
 30
0.000000
  70
    32
  0
VERTEX
  8
0
  5
C0D
 10
-22.9647
 20
-97.6886
 30
0.000000
  70
    32
  0
VERTEX
  8
0
  5
C0E
 10
-23.0416
 20
-97.7294
 30
0.000000
  70
    32
  0
VERTEX
  8
0
  5
C0F
 10
-23.1174
 20
-97.7713
 30
0.000000
  70
    32
  0
VERTEX
  8
0
  5
C10
 10
-23.1920
 20
-97.8142
 30
0.000000
  70
    32
  0
VERTEX
  8
0
  5
C11
 10
-23.2654
 20
-97.8581
 30
0.000000
  70
    32
  0
VERTEX
  8
0
  5
C12
 10
-23.3376
 20
-97.9030
 30
0.000000
  70
    32
  0
VERTEX
  8
0
  5
C13
 10
-23.4086
 20
-97.9489
 30
0.000000
  70
    32
  0
VERTEX
  8
0
  5
C14
 10
-23.4783
 20
-97.9957
 30
0.000000
  70
    32
  0
VERTEX
  8
0
  5
C15
 10
-23.5468
 20
-98.0435
 30
0.000000
  70
    32
  0
VERTEX
  8
0
  5
C16
 10
-23.6139
 20
-98.0922
 30
0.000000
  70
    32
  0
VERTEX
  8
0
  5
C17
 10
-23.6797
 20
-98.1418
 30
0.000000
  70
    32
  0
VERTEX
  8
0
  5
C18
 10
-23.7441
 20
-98.1923
 30
0.000000
  70
    32
  0
VERTEX
  8
0
  5
C19
 10
-23.8072
 20
-98.2436
 30
0.000000
  70
    32
  0
VERTEX
  8
0
  5
C1A
 10
-23.8688
 20
-98.2958
 30
0.000000
  70
    32
  0
VERTEX
  8
0
  5
C1B
 10
-23.9290
 20
-98.3489
 30
0.000000
  70
    32
  0
VERTEX
  8
0
  5
C1C
 10
-23.9877
 20
-98.4027
 30
0.000000
  70
    32
  0
VERTEX
  8
0
  5
C1D
 10
-24.0450
 20
-98.4573
 30
0.000000
  70
    32
  0
VERTEX
  8
0
  5
C1E
 10
-24.1008
 20
-98.5127
 30
0.000000
  70
    32
  0
VERTEX
  8
0
  5
C1F
 10
-24.1550
 20
-98.5689
 30
0.000000
  70
    32
  0
VERTEX
  8
0
  5
C20
 10
-24.2078
 20
-98.6257
 30
0.000000
  70
    32
  0
VERTEX
  8
0
  5
C21
 10
-24.2589
 20
-98.6833
 30
0.000000
  70
    32
  0
VERTEX
  8
0
  5
C22
 10
-24.3085
 20
-98.7416
 30
0.000000
  70
    32
  0
VERTEX
  8
0
  5
C23
 10
-24.3565
 20
-98.8005
 30
0.000000
  70
    32
  0
VERTEX
  8
0
  5
C24
 10
-24.4029
 20
-98.8601
 30
0.000000
  70
    32
  0
VERTEX
  8
0
  5
C25
 10
-24.4477
 20
-98.9203
 30
0.000000
  70
    32
  0
VERTEX
  8
0
  5
C26
 10
-24.4908
 20
-98.9810
 30
0.000000
  70
    32
  0
VERTEX
  8
0
  5
C27
 10
-24.5322
 20
-99.0424
 30
0.000000
  70
    32
  0
VERTEX
  8
0
  5
C28
 10
-24.5720
 20
-99.1043
 30
0.000000
  70
    32
  0
VERTEX
  8
0
  5
C29
 10
-24.6101
 20
-99.1668
 30
0.000000
  70
    32
  0
VERTEX
  8
0
  5
C2A
 10
-24.6465
 20
-99.2297
 30
0.000000
  70
    32
  0
VERTEX
  8
0
  5
C2B
 10
-24.6811
 20
-99.2931
 30
0.000000
  70
    32
  0
VERTEX
  8
0
  5
C2C
 10
-24.7140
 20
-99.3570
 30
0.000000
  70
    32
  0
SEQEND
  8
0
  5
C2D
  0
POLYLINE
  5
49
  8
0
 10
-19.999999999999972
 20
-89.928932188134468
 30
0.0
 66
     1
 70
     8
  0
VERTEX
  8
0
  5
C2E
 10
-20.0000
 20
-89.9289
 30
0.000000
  70
    32
  0
VERTEX
  8
0
  5
C2F
 10
-20.2453
 20
-89.9374
 30
0.000000
  70
    32
  0
VERTEX
  8
0
  5
C30
 10
-20.4901
 20
-89.9630
 30
0.000000
  70
    32
  0
VERTEX
  8
0
  5
C31
 10
-20.7337
 20
-90.0055
 30
0.000000
  70
    32
  0
VERTEX
  8
0
  5
C32
 10
-20.9755
 20
-90.0648
 30
0.000000
  70
    32
  0
VERTEX
  8
0
  5
C33
 10
-21.2149
 20
-90.1408
 30
0.000000
  70
    32
  0
VERTEX
  8
0
  5
C34
 10
-21.4514
 20
-90.2334
 30
0.000000
  70
    32
  0
VERTEX
  8
0
  5
C35
 10
-21.6844
 20
-90.3423
 30
0.000000
  70
    32
  0
VERTEX
  8
0
  5
C36
 10
-21.9134
 20
-90.4672
 30
0.000000
  70
    32
  0
VERTEX
  8
0
  5
C37
 10
-22.1378
 20
-90.6078
 30
0.000000
  70
    32
  0
VERTEX
  8
0
  5
C38
 10
-22.3570
 20
-90.7639
 30
0.000000
  70
    32
  0
VERTEX
  8
0
  5
C39
 10
-22.5705
 20
-90.9349
 30
0.000000
  70
    32
  0
VERTEX
  8
0
  5
C3A
 10
-22.7779
 20
-91.1206
 30
0.000000
  70
    32
  0
VERTEX
  8
0
  5
C3B
 10
-22.9785
 20
-91.3205
 30
0.000000
  70
    32
  0
VERTEX
  8
0
  5
C3C
 10
-23.1720
 20
-91.5340
 30
0.000000
  70
    32
  0
VERTEX
  8
0
  5
C3D
 10
-23.3578
 20
-91.7607
 30
0.000000
  70
    32
  0
VERTEX
  8
0
  5
C3E
 10
-23.5355
 20
-92.0000
 30
0.000000
  70
    32
  0
VERTEX
  8
0
  5
C3F
 10
-23.7048
 20
-92.2514
 30
0.000000
  70
    32
  0
VERTEX
  8
0
  5
C40
 10
-23.8651
 20
-92.5142
 30
0.000000
  70
    32
  0
VERTEX
  8
0
  5
C41
 10
-24.0160
 20
-92.7878
 30
0.000000
  70
    32
  0
VERTEX
  8
0
  5
C42
 10
-24.1573
 20
-93.0715
 30
0.000000
  70
    32
  0
VERTEX
  8
0
  5
C43
 10
-24.2886
 20
-93.3647
 30
0.000000
  70
    32
  0
VERTEX
  8
0
  5
C44
 10
-24.4096
 20
-93.6667
 30
0.000000
  70
    32
  0
VERTEX
  8
0
  5
C45
 10
-24.5199
 20
-93.9767
 30
0.000000
  70
    32
  0
VERTEX
  8
0
  5
C46
 10
-24.6194
 20
-94.2940
 30
0.000000
  70
    32
  0
VERTEX
  8
0
  5
C47
 10
-24.7077
 20
-94.6178
 30
0.000000
  70
    32
  0
VERTEX
  8
0
  5
C48
 10
-24.7847
 20
-94.9474
 30
0.000000
  70
    32
  0
VERTEX
  8
0
  5
C49
 10
-24.8502
 20
-95.2819
 30
0.000000
  70
    32
  0
VERTEX
  8
0
  5
C4A
 10
-24.9039
 20
-95.6205
 30
0.000000
  70
    32
  0
VERTEX
  8
0
  5
C4B
 10
-24.9459
 20
-95.9625
 30
0.000000
  70
    32
  0
VERTEX
  8
0
  5
C4C
 10
-24.9759
 20
-96.3069
 30
0.000000
  70
    32
  0
VERTEX
  8
0
  5
C4D
 10
-24.9940
 20
-96.6530
 30
0.000000
  70
    32
  0
VERTEX
  8
0
  5
C4E
 10
-25.0000
 20
-97.0000
 30
0.000000
  70
    32
  0
VERTEX
  8
0
  5
C4F
 10
-24.9940
 20
-97.3470
 30
0.000000
  70
    32
  0
VERTEX
  8
0
  5
C50
 10
-24.9759
 20
-97.6931
 30
0.000000
  70
    32
  0
VERTEX
  8
0
  5
C51
 10
-24.9459
 20
-98.0375
 30
0.000000
  70
    32
  0
VERTEX
  8
0
  5
C52
 10
-24.9039
 20
-98.3795
 30
0.000000
  70
    32
  0
VERTEX
  8
0
  5
C53
 10
-24.8502
 20
-98.7181
 30
0.000000
  70
    32
  0
VERTEX
  8
0
  5
C54
 10
-24.7847
 20
-99.0526
 30
0.000000
  70
    32
  0
VERTEX
  8
0
  5
C55
 10
-24.7077
 20
-99.3822
 30
0.000000
  70
    32
  0
VERTEX
  8
0
  5
C56
 10
-24.6194
 20
-99.7060
 30
0.000000
  70
    32
  0
VERTEX
  8
0
  5
C57
 10
-24.5199
 20
-100.023
 30
0.000000
  70
    32
  0
VERTEX
  8
0
  5
C58
 10
-24.4096
 20
-100.333
 30
0.000000
  70
    32
  0
VERTEX
  8
0
  5
C59
 10
-24.2886
 20
-100.635
 30
0.000000
  70
    32
  0
VERTEX
  8
0
  5
C5A
 10
-24.1573
 20
-100.928
 30
0.000000
  70
    32
  0
VERTEX
  8
0
  5
C5B
 10
-24.0160
 20
-101.212
 30
0.000000
  70
    32
  0
VERTEX
  8
0
  5
C5C
 10
-23.8651
 20
-101.486
 30
0.000000
  70
    32
  0
VERTEX
  8
0
  5
C5D
 10
-23.7048
 20
-101.749
 30
0.000000
  70
    32
  0
VERTEX
  8
0
  5
C5E
 10
-23.5355
 20
-102.000
 30
0.000000
  70
    32
  0
VERTEX
  8
0
  5
C5F
 10
-23.3578
 20
-102.239
 30
0.000000
  70
    32
  0
VERTEX
  8
0
  5
C60
 10
-23.1720
 20
-102.466
 30
0.000000
  70
    32
  0
VERTEX
  8
0
  5
C61
 10
-22.9785
 20
-102.680
 30
0.000000
  70
    32
  0
VERTEX
  8
0
  5
C62
 10
-22.7779
 20
-102.879
 30
0.000000
  70
    32
  0
VERTEX
  8
0
  5
C63
 10
-22.5705
 20
-103.065
 30
0.000000
  70
    32
  0
VERTEX
  8
0
  5
C64
 10
-22.3570
 20
-103.236
 30
0.000000
  70
    32
  0
VERTEX
  8
0
  5
C65
 10
-22.1378
 20
-103.392
 30
0.000000
  70
    32
  0
VERTEX
  8
0
  5
C66
 10
-21.9134
 20
-103.533
 30
0.000000
  70
    32
  0
VERTEX
  8
0
  5
C67
 10
-21.6844
 20
-103.658
 30
0.000000
  70
    32
  0
VERTEX
  8
0
  5
C68
 10
-21.4514
 20
-103.767
 30
0.000000
  70
    32
  0
VERTEX
  8
0
  5
C69
 10
-21.2149
 20
-103.859
 30
0.000000
  70
    32
  0
VERTEX
  8
0
  5
C6A
 10
-20.9755
 20
-103.935
 30
0.000000
  70
    32
  0
VERTEX
  8
0
  5
C6B
 10
-20.7337
 20
-103.995
 30
0.000000
  70
    32
  0
VERTEX
  8
0
  5
C6C
 10
-20.4901
 20
-104.037
 30
0.000000
  70
    32
  0
VERTEX
  8
0
  5
C6D
 10
-20.2453
 20
-104.063
 30
0.000000
  70
    32
  0
VERTEX
  8
0
  5
C6E
 10
-20.0000
 20
-104.071
 30
0.000000
  70
    32
  0
VERTEX
  8
0
  5
C6F
 10
-19.7547
 20
-104.063
 30
0.000000
  70
    32
  0
VERTEX
  8
0
  5
C70
 10
-19.5099
 20
-104.037
 30
0.000000
  70
    32
  0
VERTEX
  8
0
  5
C71
 10
-19.2663
 20
-103.995
 30
0.000000
  70
    32
  0
VERTEX
  8
0
  5
C72
 10
-19.0245
 20
-103.935
 30
0.000000
  70
    32
  0
VERTEX
  8
0
  5
C73
 10
-18.7851
 20
-103.859
 30
0.000000
  70
    32
  0
VERTEX
  8
0
  5
C74
 10
-18.5486
 20
-103.767
 30
0.000000
  70
    32
  0
VERTEX
  8
0
  5
C75
 10
-18.3156
 20
-103.658
 30
0.000000
  70
    32
  0
VERTEX
  8
0
  5
C76
 10
-18.0866
 20
-103.533
 30
0.000000
  70
    32
  0
VERTEX
  8
0
  5
C77
 10
-17.8622
 20
-103.392
 30
0.000000
  70
    32
  0
VERTEX
  8
0
  5
C78
 10
-17.6430
 20
-103.236
 30
0.000000
  70
    32
  0
VERTEX
  8
0
  5
C79
 10
-17.4295
 20
-103.065
 30
0.000000
  70
    32
  0
VERTEX
  8
0
  5
C7A
 10
-17.2221
 20
-102.879
 30
0.000000
  70
    32
  0
VERTEX
  8
0
  5
C7B
 10
-17.0215
 20
-102.680
 30
0.000000
  70
    32
  0
VERTEX
  8
0
  5
C7C
 10
-16.8280
 20
-102.466
 30
0.000000
  70
    32
  0
VERTEX
  8
0
  5
C7D
 10
-16.6422
 20
-102.239
 30
0.000000
  70
    32
  0
VERTEX
  8
0
  5
C7E
 10
-16.4645
 20
-102.000
 30
0.000000
  70
    32
  0
VERTEX
  8
0
  5
C7F
 10
-16.2952
 20
-101.749
 30
0.000000
  70
    32
  0
VERTEX
  8
0
  5
C80
 10
-16.1349
 20
-101.486
 30
0.000000
  70
    32
  0
VERTEX
  8
0
  5
C81
 10
-15.9840
 20
-101.212
 30
0.000000
  70
    32
  0
VERTEX
  8
0
  5
C82
 10
-15.8427
 20
-100.928
 30
0.000000
  70
    32
  0
VERTEX
  8
0
  5
C83
 10
-15.7114
 20
-100.635
 30
0.000000
  70
    32
  0
VERTEX
  8
0
  5
C84
 10
-15.5904
 20
-100.333
 30
0.000000
  70
    32
  0
VERTEX
  8
0
  5
C85
 10
-15.4801
 20
-100.023
 30
0.000000
  70
    32
  0
VERTEX
  8
0
  5
C86
 10
-15.3806
 20
-99.7060
 30
0.000000
  70
    32
  0
VERTEX
  8
0
  5
C87
 10
-15.2923
 20
-99.3822
 30
0.000000
  70
    32
  0
VERTEX
  8
0
  5
C88
 10
-15.2153
 20
-99.0526
 30
0.000000
  70
    32
  0
VERTEX
  8
0
  5
C89
 10
-15.1498
 20
-98.7181
 30
0.000000
  70
    32
  0
VERTEX
  8
0
  5
C8A
 10
-15.0961
 20
-98.3795
 30
0.000000
  70
    32
  0
VERTEX
  8
0
  5
C8B
 10
-15.0541
 20
-98.0375
 30
0.000000
  70
    32
  0
VERTEX
  8
0
  5
C8C
 10
-15.0241
 20
-97.6931
 30
0.000000
  70
    32
  0
VERTEX
  8
0
  5
C8D
 10
-15.0060
 20
-97.3470
 30
0.000000
  70
    32
  0
VERTEX
  8
0
  5
C8E
 10
-15.0000
 20
-97.0000
 30
0.000000
  70
    32
  0
VERTEX
  8
0
  5
C8F
 10
-15.0060
 20
-96.6530
 30
0.000000
  70
    32
  0
VERTEX
  8
0
  5
C90
 10
-15.0241
 20
-96.3069
 30
0.000000
  70
    32
  0
VERTEX
  8
0
  5
C91
 10
-15.0541
 20
-95.9625
 30
0.000000
  70
    32
  0
VERTEX
  8
0
  5
C92
 10
-15.0961
 20
-95.6205
 30
0.000000
  70
    32
  0
VERTEX
  8
0
  5
C93
 10
-15.1498
 20
-95.2819
 30
0.000000
  70
    32
  0
VERTEX
  8
0
  5
C94
 10
-15.2153
 20
-94.9474
 30
0.000000
  70
    32
  0
VERTEX
  8
0
  5
C95
 10
-15.2923
 20
-94.6178
 30
0.000000
  70
    32
  0
VERTEX
  8
0
  5
C96
 10
-15.3806
 20
-94.2940
 30
0.000000
  70
    32
  0
VERTEX
  8
0
  5
C97
 10
-15.4801
 20
-93.9767
 30
0.000000
  70
    32
  0
VERTEX
  8
0
  5
C98
 10
-15.5904
 20
-93.6667
 30
0.000000
  70
    32
  0
VERTEX
  8
0
  5
C99
 10
-15.7114
 20
-93.3647
 30
0.000000
  70
    32
  0
VERTEX
  8
0
  5
C9A
 10
-15.8427
 20
-93.0715
 30
0.000000
  70
    32
  0
VERTEX
  8
0
  5
C9B
 10
-15.9840
 20
-92.7878
 30
0.000000
  70
    32
  0
VERTEX
  8
0
  5
C9C
 10
-16.1349
 20
-92.5142
 30
0.000000
  70
    32
  0
VERTEX
  8
0
  5
C9D
 10
-16.2952
 20
-92.2514
 30
0.000000
  70
    32
  0
VERTEX
  8
0
  5
C9E
 10
-16.4645
 20
-92.0000
 30
0.000000
  70
    32
  0
VERTEX
  8
0
  5
C9F
 10
-16.6422
 20
-91.7607
 30
0.000000
  70
    32
  0
VERTEX
  8
0
  5
CA0
 10
-16.8280
 20
-91.5340
 30
0.000000
  70
    32
  0
VERTEX
  8
0
  5
CA1
 10
-17.0215
 20
-91.3205
 30
0.000000
  70
    32
  0
VERTEX
  8
0
  5
CA2
 10
-17.2221
 20
-91.1206
 30
0.000000
  70
    32
  0
VERTEX
  8
0
  5
CA3
 10
-17.4295
 20
-90.9349
 30
0.000000
  70
    32
  0
VERTEX
  8
0
  5
CA4
 10
-17.6430
 20
-90.7639
 30
0.000000
  70
    32
  0
VERTEX
  8
0
  5
CA5
 10
-17.8622
 20
-90.6078
 30
0.000000
  70
    32
  0
VERTEX
  8
0
  5
CA6
 10
-18.0866
 20
-90.4672
 30
0.000000
  70
    32
  0
VERTEX
  8
0
  5
CA7
 10
-18.3156
 20
-90.3423
 30
0.000000
  70
    32
  0
VERTEX
  8
0
  5
CA8
 10
-18.5486
 20
-90.2334
 30
0.000000
  70
    32
  0
VERTEX
  8
0
  5
CA9
 10
-18.7851
 20
-90.1408
 30
0.000000
  70
    32
  0
VERTEX
  8
0
  5
CAA
 10
-19.0245
 20
-90.0648
 30
0.000000
  70
    32
  0
VERTEX
  8
0
  5
CAB
 10
-19.2663
 20
-90.0055
 30
0.000000
  70
    32
  0
VERTEX
  8
0
  5
CAC
 10
-19.5099
 20
-89.9630
 30
0.000000
  70
    32
  0
VERTEX
  8
0
  5
CAD
 10
-19.7547
 20
-89.9374
 30
0.000000
  70
    32
  0
VERTEX
  8
0
  5
CAE
 10
-20.0000
 20
-89.9289
 30
0.000000
  70
    32
  0
SEQEND
  8
0
  5
CAF
  0
POLYLINE
  5
4A
  8
0
 10
-19.999999999999972
 20
-74.928932188134453
 30
0.0
 66
     1
 70
     8
  0
VERTEX
  8
0
  5
CB0
 10
-20.0000
 20
-74.9289
 30
0.000000
  70
    32
  0
VERTEX
  8
0
  5
CB1
 10
-20.2453
 20
-74.9374
 30
0.000000
  70
    32
  0
VERTEX
  8
0
  5
CB2
 10
-20.4901
 20
-74.9630
 30
0.000000
  70
    32
  0
VERTEX
  8
0
  5
CB3
 10
-20.7337
 20
-75.0055
 30
0.000000
  70
    32
  0
VERTEX
  8
0
  5
CB4
 10
-20.9755
 20
-75.0648
 30
0.000000
  70
    32
  0
VERTEX
  8
0
  5
CB5
 10
-21.2149
 20
-75.1408
 30
0.000000
  70
    32
  0
VERTEX
  8
0
  5
CB6
 10
-21.4514
 20
-75.2334
 30
0.000000
  70
    32
  0
VERTEX
  8
0
  5
CB7
 10
-21.6844
 20
-75.3423
 30
0.000000
  70
    32
  0
VERTEX
  8
0
  5
CB8
 10
-21.9134
 20
-75.4672
 30
0.000000
  70
    32
  0
VERTEX
  8
0
  5
CB9
 10
-22.1378
 20
-75.6078
 30
0.000000
  70
    32
  0
VERTEX
  8
0
  5
CBA
 10
-22.3570
 20
-75.7639
 30
0.000000
  70
    32
  0
VERTEX
  8
0
  5
CBB
 10
-22.5705
 20
-75.9349
 30
0.000000
  70
    32
  0
VERTEX
  8
0
  5
CBC
 10
-22.7779
 20
-76.1206
 30
0.000000
  70
    32
  0
VERTEX
  8
0
  5
CBD
 10
-22.9785
 20
-76.3205
 30
0.000000
  70
    32
  0
VERTEX
  8
0
  5
CBE
 10
-23.1720
 20
-76.5340
 30
0.000000
  70
    32
  0
VERTEX
  8
0
  5
CBF
 10
-23.3578
 20
-76.7607
 30
0.000000
  70
    32
  0
VERTEX
  8
0
  5
CC0
 10
-23.5355
 20
-77.0000
 30
0.000000
  70
    32
  0
VERTEX
  8
0
  5
CC1
 10
-23.7048
 20
-77.2514
 30
0.000000
  70
    32
  0
VERTEX
  8
0
  5
CC2
 10
-23.8651
 20
-77.5142
 30
0.000000
  70
    32
  0
VERTEX
  8
0
  5
CC3
 10
-24.0160
 20
-77.7878
 30
0.000000
  70
    32
  0
VERTEX
  8
0
  5
CC4
 10
-24.1573
 20
-78.0715
 30
0.000000
  70
    32
  0
VERTEX
  8
0
  5
CC5
 10
-24.2886
 20
-78.3647
 30
0.000000
  70
    32
  0
VERTEX
  8
0
  5
CC6
 10
-24.4096
 20
-78.6667
 30
0.000000
  70
    32
  0
VERTEX
  8
0
  5
CC7
 10
-24.5199
 20
-78.9767
 30
0.000000
  70
    32
  0
VERTEX
  8
0
  5
CC8
 10
-24.6194
 20
-79.2940
 30
0.000000
  70
    32
  0
VERTEX
  8
0
  5
CC9
 10
-24.7077
 20
-79.6178
 30
0.000000
  70
    32
  0
VERTEX
  8
0
  5
CCA
 10
-24.7847
 20
-79.9474
 30
0.000000
  70
    32
  0
VERTEX
  8
0
  5
CCB
 10
-24.8502
 20
-80.2819
 30
0.000000
  70
    32
  0
VERTEX
  8
0
  5
CCC
 10
-24.9039
 20
-80.6205
 30
0.000000
  70
    32
  0
VERTEX
  8
0
  5
CCD
 10
-24.9459
 20
-80.9625
 30
0.000000
  70
    32
  0
VERTEX
  8
0
  5
CCE
 10
-24.9759
 20
-81.3069
 30
0.000000
  70
    32
  0
VERTEX
  8
0
  5
CCF
 10
-24.9940
 20
-81.6530
 30
0.000000
  70
    32
  0
VERTEX
  8
0
  5
CD0
 10
-25.0000
 20
-82.0000
 30
0.000000
  70
    32
  0
VERTEX
  8
0
  5
CD1
 10
-24.9940
 20
-82.3470
 30
0.000000
  70
    32
  0
VERTEX
  8
0
  5
CD2
 10
-24.9759
 20
-82.6931
 30
0.000000
  70
    32
  0
VERTEX
  8
0
  5
CD3
 10
-24.9459
 20
-83.0375
 30
0.000000
  70
    32
  0
VERTEX
  8
0
  5
CD4
 10
-24.9039
 20
-83.3795
 30
0.000000
  70
    32
  0
VERTEX
  8
0
  5
CD5
 10
-24.8502
 20
-83.7181
 30
0.000000
  70
    32
  0
VERTEX
  8
0
  5
CD6
 10
-24.7847
 20
-84.0526
 30
0.000000
  70
    32
  0
VERTEX
  8
0
  5
CD7
 10
-24.7077
 20
-84.3822
 30
0.000000
  70
    32
  0
VERTEX
  8
0
  5
CD8
 10
-24.6194
 20
-84.7060
 30
0.000000
  70
    32
  0
VERTEX
  8
0
  5
CD9
 10
-24.5199
 20
-85.0233
 30
0.000000
  70
    32
  0
VERTEX
  8
0
  5
CDA
 10
-24.4096
 20
-85.3333
 30
0.000000
  70
    32
  0
VERTEX
  8
0
  5
CDB
 10
-24.2886
 20
-85.6353
 30
0.000000
  70
    32
  0
VERTEX
  8
0
  5
CDC
 10
-24.1573
 20
-85.9285
 30
0.000000
  70
    32
  0
VERTEX
  8
0
  5
CDD
 10
-24.0160
 20
-86.2122
 30
0.000000
  70
    32
  0
VERTEX
  8
0
  5
CDE
 10
-23.8651
 20
-86.4858
 30
0.000000
  70
    32
  0
VERTEX
  8
0
  5
CDF
 10
-23.7048
 20
-86.7486
 30
0.000000
  70
    32
  0
VERTEX
  8
0
  5
CE0
 10
-23.5355
 20
-87.0000
 30
0.000000
  70
    32
  0
VERTEX
  8
0
  5
CE1
 10
-23.3578
 20
-87.2393
 30
0.000000
  70
    32
  0
VERTEX
  8
0
  5
CE2
 10
-23.1720
 20
-87.4660
 30
0.000000
  70
    32
  0
VERTEX
  8
0
  5
CE3
 10
-22.9785
 20
-87.6795
 30
0.000000
  70
    32
  0
VERTEX
  8
0
  5
CE4
 10
-22.7779
 20
-87.8794
 30
0.000000
  70
    32
  0
VERTEX
  8
0
  5
CE5
 10
-22.5705
 20
-88.0651
 30
0.000000
  70
    32
  0
VERTEX
  8
0
  5
CE6
 10
-22.3570
 20
-88.2361
 30
0.000000
  70
    32
  0
VERTEX
  8
0
  5
CE7
 10
-22.1378
 20
-88.3922
 30
0.000000
  70
    32
  0
VERTEX
  8
0
  5
CE8
 10
-21.9134
 20
-88.5328
 30
0.000000
  70
    32
  0
VERTEX
  8
0
  5
CE9
 10
-21.6844
 20
-88.6577
 30
0.000000
  70
    32
  0
VERTEX
  8
0
  5
CEA
 10
-21.4514
 20
-88.7666
 30
0.000000
  70
    32
  0
VERTEX
  8
0
  5
CEB
 10
-21.2149
 20
-88.8592
 30
0.000000
  70
    32
  0
VERTEX
  8
0
  5
CEC
 10
-20.9755
 20
-88.9352
 30
0.000000
  70
    32
  0
VERTEX
  8
0
  5
CED
 10
-20.7337
 20
-88.9945
 30
0.000000
  70
    32
  0
VERTEX
  8
0
  5
CEE
 10
-20.4901
 20
-89.0370
 30
0.000000
  70
    32
  0
VERTEX
  8
0
  5
CEF
 10
-20.2453
 20
-89.0626
 30
0.000000
  70
    32
  0
VERTEX
  8
0
  5
CF0
 10
-20.0000
 20
-89.0711
 30
0.000000
  70
    32
  0
VERTEX
  8
0
  5
CF1
 10
-19.7547
 20
-89.0626
 30
0.000000
  70
    32
  0
VERTEX
  8
0
  5
CF2
 10
-19.5099
 20
-89.0370
 30
0.000000
  70
    32
  0
VERTEX
  8
0
  5
CF3
 10
-19.2663
 20
-88.9945
 30
0.000000
  70
    32
  0
VERTEX
  8
0
  5
CF4
 10
-19.0245
 20
-88.9352
 30
0.000000
  70
    32
  0
VERTEX
  8
0
  5
CF5
 10
-18.7851
 20
-88.8592
 30
0.000000
  70
    32
  0
VERTEX
  8
0
  5
CF6
 10
-18.5486
 20
-88.7666
 30
0.000000
  70
    32
  0
VERTEX
  8
0
  5
CF7
 10
-18.3156
 20
-88.6577
 30
0.000000
  70
    32
  0
VERTEX
  8
0
  5
CF8
 10
-18.0866
 20
-88.5328
 30
0.000000
  70
    32
  0
VERTEX
  8
0
  5
CF9
 10
-17.8622
 20
-88.3922
 30
0.000000
  70
    32
  0
VERTEX
  8
0
  5
CFA
 10
-17.6430
 20
-88.2361
 30
0.000000
  70
    32
  0
VERTEX
  8
0
  5
CFB
 10
-17.4295
 20
-88.0651
 30
0.000000
  70
    32
  0
VERTEX
  8
0
  5
CFC
 10
-17.2221
 20
-87.8794
 30
0.000000
  70
    32
  0
VERTEX
  8
0
  5
CFD
 10
-17.0215
 20
-87.6795
 30
0.000000
  70
    32
  0
VERTEX
  8
0
  5
CFE
 10
-16.8280
 20
-87.4660
 30
0.000000
  70
    32
  0
VERTEX
  8
0
  5
CFF
 10
-16.6422
 20
-87.2393
 30
0.000000
  70
    32
  0
VERTEX
  8
0
  5
D00
 10
-16.4645
 20
-87.0000
 30
0.000000
  70
    32
  0
VERTEX
  8
0
  5
D01
 10
-16.2952
 20
-86.7486
 30
0.000000
  70
    32
  0
VERTEX
  8
0
  5
D02
 10
-16.1349
 20
-86.4858
 30
0.000000
  70
    32
  0
VERTEX
  8
0
  5
D03
 10
-15.9840
 20
-86.2122
 30
0.000000
  70
    32
  0
VERTEX
  8
0
  5
D04
 10
-15.8427
 20
-85.9285
 30
0.000000
  70
    32
  0
VERTEX
  8
0
  5
D05
 10
-15.7114
 20
-85.6353
 30
0.000000
  70
    32
  0
VERTEX
  8
0
  5
D06
 10
-15.5904
 20
-85.3333
 30
0.000000
  70
    32
  0
VERTEX
  8
0
  5
D07
 10
-15.4801
 20
-85.0233
 30
0.000000
  70
    32
  0
VERTEX
  8
0
  5
D08
 10
-15.3806
 20
-84.7060
 30
0.000000
  70
    32
  0
VERTEX
  8
0
  5
D09
 10
-15.2923
 20
-84.3822
 30
0.000000
  70
    32
  0
VERTEX
  8
0
  5
D0A
 10
-15.2153
 20
-84.0526
 30
0.000000
  70
    32
  0
VERTEX
  8
0
  5
D0B
 10
-15.1498
 20
-83.7181
 30
0.000000
  70
    32
  0
VERTEX
  8
0
  5
D0C
 10
-15.0961
 20
-83.3795
 30
0.000000
  70
    32
  0
VERTEX
  8
0
  5
D0D
 10
-15.0541
 20
-83.0375
 30
0.000000
  70
    32
  0
VERTEX
  8
0
  5
D0E
 10
-15.0241
 20
-82.6931
 30
0.000000
  70
    32
  0
VERTEX
  8
0
  5
D0F
 10
-15.0060
 20
-82.3470
 30
0.000000
  70
    32
  0
VERTEX
  8
0
  5
D10
 10
-15.0000
 20
-82.0000
 30
0.000000
  70
    32
  0
VERTEX
  8
0
  5
D11
 10
-15.0060
 20
-81.6530
 30
0.000000
  70
    32
  0
VERTEX
  8
0
  5
D12
 10
-15.0241
 20
-81.3069
 30
0.000000
  70
    32
  0
VERTEX
  8
0
  5
D13
 10
-15.0541
 20
-80.9625
 30
0.000000
  70
    32
  0
VERTEX
  8
0
  5
D14
 10
-15.0961
 20
-80.6205
 30
0.000000
  70
    32
  0
VERTEX
  8
0
  5
D15
 10
-15.1498
 20
-80.2819
 30
0.000000
  70
    32
  0
VERTEX
  8
0
  5
D16
 10
-15.2153
 20
-79.9474
 30
0.000000
  70
    32
  0
VERTEX
  8
0
  5
D17
 10
-15.2923
 20
-79.6178
 30
0.000000
  70
    32
  0
VERTEX
  8
0
  5
D18
 10
-15.3806
 20
-79.2940
 30
0.000000
  70
    32
  0
VERTEX
  8
0
  5
D19
 10
-15.4801
 20
-78.9767
 30
0.000000
  70
    32
  0
VERTEX
  8
0
  5
D1A
 10
-15.5904
 20
-78.6667
 30
0.000000
  70
    32
  0
VERTEX
  8
0
  5
D1B
 10
-15.7114
 20
-78.3647
 30
0.000000
  70
    32
  0
VERTEX
  8
0
  5
D1C
 10
-15.8427
 20
-78.0715
 30
0.000000
  70
    32
  0
VERTEX
  8
0
  5
D1D
 10
-15.9840
 20
-77.7878
 30
0.000000
  70
    32
  0
VERTEX
  8
0
  5
D1E
 10
-16.1349
 20
-77.5142
 30
0.000000
  70
    32
  0
VERTEX
  8
0
  5
D1F
 10
-16.2952
 20
-77.2514
 30
0.000000
  70
    32
  0
VERTEX
  8
0
  5
D20
 10
-16.4645
 20
-77.0000
 30
0.000000
  70
    32
  0
VERTEX
  8
0
  5
D21
 10
-16.6422
 20
-76.7607
 30
0.000000
  70
    32
  0
VERTEX
  8
0
  5
D22
 10
-16.8280
 20
-76.5340
 30
0.000000
  70
    32
  0
VERTEX
  8
0
  5
D23
 10
-17.0215
 20
-76.3205
 30
0.000000
  70
    32
  0
VERTEX
  8
0
  5
D24
 10
-17.2221
 20
-76.1206
 30
0.000000
  70
    32
  0
VERTEX
  8
0
  5
D25
 10
-17.4295
 20
-75.9349
 30
0.000000
  70
    32
  0
VERTEX
  8
0
  5
D26
 10
-17.6430
 20
-75.7639
 30
0.000000
  70
    32
  0
VERTEX
  8
0
  5
D27
 10
-17.8622
 20
-75.6078
 30
0.000000
  70
    32
  0
VERTEX
  8
0
  5
D28
 10
-18.0866
 20
-75.4672
 30
0.000000
  70
    32
  0
VERTEX
  8
0
  5
D29
 10
-18.3156
 20
-75.3423
 30
0.000000
  70
    32
  0
VERTEX
  8
0
  5
D2A
 10
-18.5486
 20
-75.2334
 30
0.000000
  70
    32
  0
VERTEX
  8
0
  5
D2B
 10
-18.7851
 20
-75.1408
 30
0.000000
  70
    32
  0
VERTEX
  8
0
  5
D2C
 10
-19.0245
 20
-75.0648
 30
0.000000
  70
    32
  0
VERTEX
  8
0
  5
D2D
 10
-19.2663
 20
-75.0055
 30
0.000000
  70
    32
  0
VERTEX
  8
0
  5
D2E
 10
-19.5099
 20
-74.9630
 30
0.000000
  70
    32
  0
VERTEX
  8
0
  5
D2F
 10
-19.7547
 20
-74.9374
 30
0.000000
  70
    32
  0
VERTEX
  8
0
  5
D30
 10
-20.0000
 20
-74.9289
 30
0.000000
  70
    32
  0
SEQEND
  8
0
  5
D31
  0
POLYLINE
  5
4B
  8
0
 10
-15.285954792089669
 20
-84.357022603955087
 30
0.0
 66
     1
 70
     8
  0
VERTEX
  8
0
  5
D32
 10
-15.2860
 20
-84.3570
 30
0.000000
  70
    32
  0
VERTEX
  8
0
  5
D33
 10
-15.3189
 20
-84.2931
 30
0.000000
  70
    32
  0
VERTEX
  8
0
  5
D34
 10
-15.3535
 20
-84.2297
 30
0.000000
  70
    32
  0
VERTEX
  8
0
  5
D35
 10
-15.3899
 20
-84.1668
 30
0.000000
  70
    32
  0
VERTEX
  8
0
  5
D36
 10
-15.4280
 20
-84.1043
 30
0.000000
  70
    32
  0
VERTEX
  8
0
  5
D37
 10
-15.4678
 20
-84.0424
 30
0.000000
  70
    32
  0
VERTEX
  8
0
  5
D38
 10
-15.5092
 20
-83.9810
 30
0.000000
  70
    32
  0
VERTEX
  8
0
  5
D39
 10
-15.5523
 20
-83.9203
 30
0.000000
  70
    32
  0
VERTEX
  8
0
  5
D3A
 10
-15.5971
 20
-83.8601
 30
0.000000
  70
    32
  0
VERTEX
  8
0
  5
D3B
 10
-15.6435
 20
-83.8005
 30
0.000000
  70
    32
  0
VERTEX
  8
0
  5
D3C
 10
-15.6915
 20
-83.7416
 30
0.000000
  70
    32
  0
VERTEX
  8
0
  5
D3D
 10
-15.7411
 20
-83.6833
 30
0.000000
  70
    32
  0
VERTEX
  8
0
  5
D3E
 10
-15.7922
 20
-83.6257
 30
0.000000
  70
    32
  0
VERTEX
  8
0
  5
D3F
 10
-15.8450
 20
-83.5689
 30
0.000000
  70
    32
  0
VERTEX
  8
0
  5
D40
 10
-15.8992
 20
-83.5127
 30
0.000000
  70
    32
  0
VERTEX
  8
0
  5
D41
 10
-15.9550
 20
-83.4573
 30
0.000000
  70
    32
  0
VERTEX
  8
0
  5
D42
 10
-16.0123
 20
-83.4027
 30
0.000000
  70
    32
  0
VERTEX
  8
0
  5
D43
 10
-16.0710
 20
-83.3489
 30
0.000000
  70
    32
  0
VERTEX
  8
0
  5
D44
 10
-16.1312
 20
-83.2958
 30
0.000000
  70
    32
  0
VERTEX
  8
0
  5
D45
 10
-16.1928
 20
-83.2436
 30
0.000000
  70
    32
  0
VERTEX
  8
0
  5
D46
 10
-16.2559
 20
-83.1923
 30
0.000000
  70
    32
  0
VERTEX
  8
0
  5
D47
 10
-16.3203
 20
-83.1418
 30
0.000000
  70
    32
  0
VERTEX
  8
0
  5
D48
 10
-16.3861
 20
-83.0922
 30
0.000000
  70
    32
  0
VERTEX
  8
0
  5
D49
 10
-16.4532
 20
-83.0435
 30
0.000000
  70
    32
  0
VERTEX
  8
0
  5
D4A
 10
-16.5217
 20
-82.9957
 30
0.000000
  70
    32
  0
VERTEX
  8
0
  5
D4B
 10
-16.5914
 20
-82.9489
 30
0.000000
  70
    32
  0
VERTEX
  8
0
  5
D4C
 10
-16.6624
 20
-82.9030
 30
0.000000
  70
    32
  0
VERTEX
  8
0
  5
D4D
 10
-16.7346
 20
-82.8581
 30
0.000000
  70
    32
  0
VERTEX
  8
0
  5
D4E
 10
-16.8080
 20
-82.8142
 30
0.000000
  70
    32
  0
VERTEX
  8
0
  5
D4F
 10
-16.8826
 20
-82.7713
 30
0.000000
  70
    32
  0
VERTEX
  8
0
  5
D50
 10
-16.9584
 20
-82.7294
 30
0.000000
  70
    32
  0
VERTEX
  8
0
  5
D51
 10
-17.0353
 20
-82.6886
 30
0.000000
  70
    32
  0
VERTEX
  8
0
  5
D52
 10
-17.1132
 20
-82.6488
 30
0.000000
  70
    32
  0
VERTEX
  8
0
  5
D53
 10
-17.1923
 20
-82.6101
 30
0.000000
  70
    32
  0
VERTEX
  8
0
  5
D54
 10
-17.2724
 20
-82.5724
 30
0.000000
  70
    32
  0
VERTEX
  8
0
  5
D55
 10
-17.3535
 20
-82.5359
 30
0.000000
  70
    32
  0
VERTEX
  8
0
  5
D56
 10
-17.4356
 20
-82.5004
 30
0.000000
  70
    32
  0
VERTEX
  8
0
  5
D57
 10
-17.5186
 20
-82.4661
 30
0.000000
  70
    32
  0
VERTEX
  8
0
  5
D58
 10
-17.6025
 20
-82.4329
 30
0.000000
  70
    32
  0
VERTEX
  8
0
  5
D59
 10
-17.6874
 20
-82.4009
 30
0.000000
  70
    32
  0
VERTEX
  8
0
  5
D5A
 10
-17.7731
 20
-82.3700
 30
0.000000
  70
    32
  0
VERTEX
  8
0
  5
D5B
 10
-17.8596
 20
-82.3403
 30
0.000000
  70
    32
  0
VERTEX
  8
0
  5
D5C
 10
-17.9469
 20
-82.3118
 30
0.000000
  70
    32
  0
VERTEX
  8
0
  5
D5D
 10
-18.0349
 20
-82.2845
 30
0.000000
  70
    32
  0
VERTEX
  8
0
  5
D5E
 10
-18.1237
 20
-82.2584
 30
0.000000
  70
    32
  0
VERTEX
  8
0
  5
D5F
 10
-18.2132
 20
-82.2335
 30
0.000000
  70
    32
  0
VERTEX
  8
0
  5
D60
 10
-18.3033
 20
-82.2098
 30
0.000000
  70
    32
  0
VERTEX
  8
0
  5
D61
 10
-18.3941
 20
-82.1873
 30
0.000000
  70
    32
  0
VERTEX
  8
0
  5
D62
 10
-18.4855
 20
-82.1661
 30
0.000000
  70
    32
  0
VERTEX
  8
0
  5
D63
 10
-18.5774
 20
-82.1461
 30
0.000000
  70
    32
  0
VERTEX
  8
0
  5
D64
 10
-18.6698
 20
-82.1274
 30
0.000000
  70
    32
  0
VERTEX
  8
0
  5
D65
 10
-18.7628
 20
-82.1099
 30
0.000000
  70
    32
  0
VERTEX
  8
0
  5
D66
 10
-18.8562
 20
-82.0938
 30
0.000000
  70
    32
  0
VERTEX
  8
0
  5
D67
 10
-18.9500
 20
-82.0788
 30
0.000000
  70
    32
  0
VERTEX
  8
0
  5
D68
 10
-19.0442
 20
-82.0652
 30
0.000000
  70
    32
  0
VERTEX
  8
0
  5
D69
 10
-19.1388
 20
-82.0528
 30
0.000000
  70
    32
  0
VERTEX
  8
0
  5
D6A
 10
-19.2337
 20
-82.0418
 30
0.000000
  70
    32
  0
VERTEX
  8
0
  5
D6B
 10
-19.3289
 20
-82.0320
 30
0.000000
  70
    32
  0
VERTEX
  8
0
  5
D6C
 10
-19.4243
 20
-82.0235
 30
0.000000
  70
    32
  0
VERTEX
  8
0
  5
D6D
 10
-19.5199
 20
-82.0163
 30
0.000000
  70
    32
  0
VERTEX
  8
0
  5
D6E
 10
-19.6157
 20
-82.0105
 30
0.000000
  70
    32
  0
VERTEX
  8
0
  5
D6F
 10
-19.7117
 20
-82.0059
 30
0.000000
  70
    32
  0
VERTEX
  8
0
  5
D70
 10
-19.8077
 20
-82.0026
 30
0.000000
  70
    32
  0
VERTEX
  8
0
  5
D71
 10
-19.9038
 20
-82.0007
 30
0.000000
  70
    32
  0
VERTEX
  8
0
  5
D72
 10
-20.0000
 20
-82.0000
 30
0.000000
  70
    32
  0
VERTEX
  8
0
  5
D73
 10
-20.0962
 20
-82.0007
 30
0.000000
  70
    32
  0
VERTEX
  8
0
  5
D74
 10
-20.1923
 20
-82.0026
 30
0.000000
  70
    32
  0
VERTEX
  8
0
  5
D75
 10
-20.2883
 20
-82.0059
 30
0.000000
  70
    32
  0
VERTEX
  8
0
  5
D76
 10
-20.3843
 20
-82.0105
 30
0.000000
  70
    32
  0
VERTEX
  8
0
  5
D77
 10
-20.4801
 20
-82.0163
 30
0.000000
  70
    32
  0
VERTEX
  8
0
  5
D78
 10
-20.5757
 20
-82.0235
 30
0.000000
  70
    32
  0
VERTEX
  8
0
  5
D79
 10
-20.6711
 20
-82.0320
 30
0.000000
  70
    32
  0
VERTEX
  8
0
  5
D7A
 10
-20.7663
 20
-82.0418
 30
0.000000
  70
    32
  0
VERTEX
  8
0
  5
D7B
 10
-20.8612
 20
-82.0528
 30
0.000000
  70
    32
  0
VERTEX
  8
0
  5
D7C
 10
-20.9558
 20
-82.0652
 30
0.000000
  70
    32
  0
VERTEX
  8
0
  5
D7D
 10
-21.0500
 20
-82.0788
 30
0.000000
  70
    32
  0
VERTEX
  8
0
  5
D7E
 10
-21.1438
 20
-82.0938
 30
0.000000
  70
    32
  0
VERTEX
  8
0
  5
D7F
 10
-21.2372
 20
-82.1099
 30
0.000000
  70
    32
  0
VERTEX
  8
0
  5
D80
 10
-21.3302
 20
-82.1274
 30
0.000000
  70
    32
  0
VERTEX
  8
0
  5
D81
 10
-21.4226
 20
-82.1461
 30
0.000000
  70
    32
  0
VERTEX
  8
0
  5
D82
 10
-21.5145
 20
-82.1661
 30
0.000000
  70
    32
  0
VERTEX
  8
0
  5
D83
 10
-21.6059
 20
-82.1873
 30
0.000000
  70
    32
  0
VERTEX
  8
0
  5
D84
 10
-21.6967
 20
-82.2098
 30
0.000000
  70
    32
  0
VERTEX
  8
0
  5
D85
 10
-21.7868
 20
-82.2335
 30
0.000000
  70
    32
  0
VERTEX
  8
0
  5
D86
 10
-21.8763
 20
-82.2584
 30
0.000000
  70
    32
  0
VERTEX
  8
0
  5
D87
 10
-21.9651
 20
-82.2845
 30
0.000000
  70
    32
  0
VERTEX
  8
0
  5
D88
 10
-22.0531
 20
-82.3118
 30
0.000000
  70
    32
  0
VERTEX
  8
0
  5
D89
 10
-22.1404
 20
-82.3403
 30
0.000000
  70
    32
  0
VERTEX
  8
0
  5
D8A
 10
-22.2269
 20
-82.3700
 30
0.000000
  70
    32
  0
VERTEX
  8
0
  5
D8B
 10
-22.3126
 20
-82.4009
 30
0.000000
  70
    32
  0
VERTEX
  8
0
  5
D8C
 10
-22.3975
 20
-82.4329
 30
0.000000
  70
    32
  0
VERTEX
  8
0
  5
D8D
 10
-22.4814
 20
-82.4661
 30
0.000000
  70
    32
  0
VERTEX
  8
0
  5
D8E
 10
-22.5644
 20
-82.5004
 30
0.000000
  70
    32
  0
VERTEX
  8
0
  5
D8F
 10
-22.6465
 20
-82.5359
 30
0.000000
  70
    32
  0
VERTEX
  8
0
  5
D90
 10
-22.7276
 20
-82.5724
 30
0.000000
  70
    32
  0
VERTEX
  8
0
  5
D91
 10
-22.8077
 20
-82.6101
 30
0.000000
  70
    32
  0
VERTEX
  8
0
  5
D92
 10
-22.8868
 20
-82.6488
 30
0.000000
  70
    32
  0
VERTEX
  8
0
  5
D93
 10
-22.9647
 20
-82.6886
 30
0.000000
  70
    32
  0
VERTEX
  8
0
  5
D94
 10
-23.0416
 20
-82.7294
 30
0.000000
  70
    32
  0
VERTEX
  8
0
  5
D95
 10
-23.1174
 20
-82.7713
 30
0.000000
  70
    32
  0
VERTEX
  8
0
  5
D96
 10
-23.1920
 20
-82.8142
 30
0.000000
  70
    32
  0
VERTEX
  8
0
  5
D97
 10
-23.2654
 20
-82.8581
 30
0.000000
  70
    32
  0
VERTEX
  8
0
  5
D98
 10
-23.3376
 20
-82.9030
 30
0.000000
  70
    32
  0
VERTEX
  8
0
  5
D99
 10
-23.4086
 20
-82.9489
 30
0.000000
  70
    32
  0
VERTEX
  8
0
  5
D9A
 10
-23.4783
 20
-82.9957
 30
0.000000
  70
    32
  0
VERTEX
  8
0
  5
D9B
 10
-23.5468
 20
-83.0435
 30
0.000000
  70
    32
  0
VERTEX
  8
0
  5
D9C
 10
-23.6139
 20
-83.0922
 30
0.000000
  70
    32
  0
VERTEX
  8
0
  5
D9D
 10
-23.6797
 20
-83.1418
 30
0.000000
  70
    32
  0
VERTEX
  8
0
  5
D9E
 10
-23.7441
 20
-83.1923
 30
0.000000
  70
    32
  0
VERTEX
  8
0
  5
D9F
 10
-23.8072
 20
-83.2436
 30
0.000000
  70
    32
  0
VERTEX
  8
0
  5
DA0
 10
-23.8688
 20
-83.2958
 30
0.000000
  70
    32
  0
VERTEX
  8
0
  5
DA1
 10
-23.9290
 20
-83.3489
 30
0.000000
  70
    32
  0
VERTEX
  8
0
  5
DA2
 10
-23.9877
 20
-83.4027
 30
0.000000
  70
    32
  0
VERTEX
  8
0
  5
DA3
 10
-24.0450
 20
-83.4573
 30
0.000000
  70
    32
  0
VERTEX
  8
0
  5
DA4
 10
-24.1008
 20
-83.5127
 30
0.000000
  70
    32
  0
VERTEX
  8
0
  5
DA5
 10
-24.1550
 20
-83.5689
 30
0.000000
  70
    32
  0
VERTEX
  8
0
  5
DA6
 10
-24.2078
 20
-83.6257
 30
0.000000
  70
    32
  0
VERTEX
  8
0
  5
DA7
 10
-24.2589
 20
-83.6833
 30
0.000000
  70
    32
  0
VERTEX
  8
0
  5
DA8
 10
-24.3085
 20
-83.7416
 30
0.000000
  70
    32
  0
VERTEX
  8
0
  5
DA9
 10
-24.3565
 20
-83.8005
 30
0.000000
  70
    32
  0
VERTEX
  8
0
  5
DAA
 10
-24.4029
 20
-83.8601
 30
0.000000
  70
    32
  0
VERTEX
  8
0
  5
DAB
 10
-24.4477
 20
-83.9203
 30
0.000000
  70
    32
  0
VERTEX
  8
0
  5
DAC
 10
-24.4908
 20
-83.9810
 30
0.000000
  70
    32
  0
VERTEX
  8
0
  5
DAD
 10
-24.5322
 20
-84.0424
 30
0.000000
  70
    32
  0
VERTEX
  8
0
  5
DAE
 10
-24.5720
 20
-84.1043
 30
0.000000
  70
    32
  0
VERTEX
  8
0
  5
DAF
 10
-24.6101
 20
-84.1668
 30
0.000000
  70
    32
  0
VERTEX
  8
0
  5
DB0
 10
-24.6465
 20
-84.2297
 30
0.000000
  70
    32
  0
VERTEX
  8
0
  5
DB1
 10
-24.6811
 20
-84.2931
 30
0.000000
  70
    32
  0
VERTEX
  8
0
  5
DB2
 10
-24.7140
 20
-84.3570
 30
0.000000
  70
    32
  0
SEQEND
  8
0
  5
DB3
  0
POLYLINE
  5
4C
  8
0
 10
-17.299999999999962
 20
-87.161879502661719
 30
0.0
 66
     1
 70
     8
  0
VERTEX
  8
0
  5
DB4
 10
-17.3000
 20
-87.1619
 30
0.000000
  70
    32
  0
VERTEX
  8
0
  5
DB5
 10
-17.3033
 20
-87.0682
 30
0.000000
  70
    32
  0
VERTEX
  8
0
  5
DB6
 10
-17.3130
 20
-86.9747
 30
0.000000
  70
    32
  0
VERTEX
  8
0
  5
DB7
 10
-17.3292
 20
-86.8817
 30
0.000000
  70
    32
  0
VERTEX
  8
0
  5
DB8
 10
-17.3519
 20
-86.7894
 30
0.000000
  70
    32
  0
VERTEX
  8
0
  5
DB9
 10
-17.3809
 20
-86.6980
 30
0.000000
  70
    32
  0
VERTEX
  8
0
  5
DBA
 10
-17.4163
 20
-86.6077
 30
0.000000
  70
    32
  0
VERTEX
  8
0
  5
DBB
 10
-17.4578
 20
-86.5187
 30
0.000000
  70
    32
  0
VERTEX
  8
0
  5
DBC
 10
-17.5055
 20
-86.4313
 30
0.000000
  70
    32
  0
VERTEX
  8
0
  5
DBD
 10
-17.5592
 20
-86.3456
 30
0.000000
  70
    32
  0
VERTEX
  8
0
  5
DBE
 10
-17.6188
 20
-86.2619
 30
0.000000
  70
    32
  0
VERTEX
  8
0
  5
DBF
 10
-17.6841
 20
-86.1804
 30
0.000000
  70
    32
  0
VERTEX
  8
0
  5
DC0
 10
-17.7550
 20
-86.1012
 30
0.000000
  70
    32
  0
VERTEX
  8
0
  5
DC1
 10
-17.8313
 20
-86.0246
 30
0.000000
  70
    32
  0
VERTEX
  8
0
  5
DC2
 10
-17.9129
 20
-85.9507
 30
0.000000
  70
    32
  0
VERTEX
  8
0
  5
DC3
 10
-17.9994
 20
-85.8797
 30
0.000000
  70
    32
  0
VERTEX
  8
0
  5
DC4
 10
-18.0908
 20
-85.8119
 30
0.000000
  70
    32
  0
VERTEX
  8
0
  5
DC5
 10
-18.1868
 20
-85.7473
 30
0.000000
  70
    32
  0
VERTEX
  8
0
  5
DC6
 10
-18.2871
 20
-85.6861
 30
0.000000
  70
    32
  0
VERTEX
  8
0
  5
DC7
 10
-18.3916
 20
-85.6284
 30
0.000000
  70
    32
  0
VERTEX
  8
0
  5
DC8
 10
-18.5000
 20
-85.5744
 30
0.000000
  70
    32
  0
VERTEX
  8
0
  5
DC9
 10
-18.6119
 20
-85.5243
 30
0.000000
  70
    32
  0
VERTEX
  8
0
  5
DCA
 10
-18.7272
 20
-85.4781
 30
0.000000
  70
    32
  0
VERTEX
  8
0
  5
DCB
 10
-18.8456
 20
-85.4360
 30
0.000000
  70
    32
  0
VERTEX
  8
0
  5
DCC
 10
-18.9668
 20
-85.3980
 30
0.000000
  70
    32
  0
VERTEX
  8
0
  5
DCD
 10
-19.0904
 20
-85.3643
 30
0.000000
  70
    32
  0
VERTEX
  8
0
  5
DCE
 10
-19.2162
 20
-85.3349
 30
0.000000
  70
    32
  0
VERTEX
  8
0
  5
DCF
 10
-19.3440
 20
-85.3099
 30
0.000000
  70
    32
  0
VERTEX
  8
0
  5
DD0
 10
-19.4733
 20
-85.2894
 30
0.000000
  70
    32
  0
VERTEX
  8
0
  5
DD1
 10
-19.6038
 20
-85.2734
 30
0.000000
  70
    32
  0
VERTEX
  8
0
  5
DD2
 10
-19.7354
 20
-85.2619
 30
0.000000
  70
    32
  0
VERTEX
  8
0
  5
DD3
 10
-19.8675
 20
-85.2550
 30
0.000000
  70
    32
  0
VERTEX
  8
0
  5
DD4
 10
-20.0000
 20
-85.2527
 30
0.000000
  70
    32
  0
VERTEX
  8
0
  5
DD5
 10
-20.1325
 20
-85.2550
 30
0.000000
  70
    32
  0
VERTEX
  8
0
  5
DD6
 10
-20.2646
 20
-85.2619
 30
0.000000
  70
    32
  0
VERTEX
  8
0
  5
DD7
 10
-20.3962
 20
-85.2734
 30
0.000000
  70
    32
  0
VERTEX
  8
0
  5
DD8
 10
-20.5267
 20
-85.2894
 30
0.000000
  70
    32
  0
VERTEX
  8
0
  5
DD9
 10
-20.6560
 20
-85.3099
 30
0.000000
  70
    32
  0
VERTEX
  8
0
  5
DDA
 10
-20.7838
 20
-85.3349
 30
0.000000
  70
    32
  0
VERTEX
  8
0
  5
DDB
 10
-20.9096
 20
-85.3643
 30
0.000000
  70
    32
  0
VERTEX
  8
0
  5
DDC
 10
-21.0332
 20
-85.3980
 30
0.000000
  70
    32
  0
VERTEX
  8
0
  5
DDD
 10
-21.1544
 20
-85.4360
 30
0.000000
  70
    32
  0
VERTEX
  8
0
  5
DDE
 10
-21.2728
 20
-85.4781
 30
0.000000
  70
    32
  0
VERTEX
  8
0
  5
DDF
 10
-21.3881
 20
-85.5243
 30
0.000000
  70
    32
  0
VERTEX
  8
0
  5
DE0
 10
-21.5000
 20
-85.5744
 30
0.000000
  70
    32
  0
VERTEX
  8
0
  5
DE1
 10
-21.6084
 20
-85.6284
 30
0.000000
  70
    32
  0
VERTEX
  8
0
  5
DE2
 10
-21.7129
 20
-85.6861
 30
0.000000
  70
    32
  0
VERTEX
  8
0
  5
DE3
 10
-21.8132
 20
-85.7473
 30
0.000000
  70
    32
  0
VERTEX
  8
0
  5
DE4
 10
-21.9092
 20
-85.8119
 30
0.000000
  70
    32
  0
VERTEX
  8
0
  5
DE5
 10
-22.0006
 20
-85.8797
 30
0.000000
  70
    32
  0
VERTEX
  8
0
  5
DE6
 10
-22.0871
 20
-85.9507
 30
0.000000
  70
    32
  0
VERTEX
  8
0
  5
DE7
 10
-22.1687
 20
-86.0246
 30
0.000000
  70
    32
  0
VERTEX
  8
0
  5
DE8
 10
-22.2450
 20
-86.1012
 30
0.000000
  70
    32
  0
VERTEX
  8
0
  5
DE9
 10
-22.3159
 20
-86.1804
 30
0.000000
  70
    32
  0
VERTEX
  8
0
  5
DEA
 10
-22.3812
 20
-86.2619
 30
0.000000
  70
    32
  0
VERTEX
  8
0
  5
DEB
 10
-22.4408
 20
-86.3456
 30
0.000000
  70
    32
  0
VERTEX
  8
0
  5
DEC
 10
-22.4945
 20
-86.4313
 30
0.000000
  70
    32
  0
VERTEX
  8
0
  5
DED
 10
-22.5422
 20
-86.5187
 30
0.000000
  70
    32
  0
VERTEX
  8
0
  5
DEE
 10
-22.5837
 20
-86.6077
 30
0.000000
  70
    32
  0
VERTEX
  8
0
  5
DEF
 10
-22.6191
 20
-86.6980
 30
0.000000
  70
    32
  0
VERTEX
  8
0
  5
DF0
 10
-22.6481
 20
-86.7894
 30
0.000000
  70
    32
  0
VERTEX
  8
0
  5
DF1
 10
-22.6708
 20
-86.8817
 30
0.000000
  70
    32
  0
VERTEX
  8
0
  5
DF2
 10
-22.6870
 20
-86.9747
 30
0.000000
  70
    32
  0
VERTEX
  8
0
  5
DF3
 10
-22.6967
 20
-87.0682
 30
0.000000
  70
    32
  0
VERTEX
  8
0
  5
DF4
 10
-22.7000
 20
-87.1619
 30
0.000000
  70
    32
  0
VERTEX
  8
0
  5
DF5
 10
-22.6967
 20
-87.2556
 30
0.000000
  70
    32
  0
VERTEX
  8
0
  5
DF6
 10
-22.6870
 20
-87.3490
 30
0.000000
  70
    32
  0
VERTEX
  8
0
  5
DF7
 10
-22.6708
 20
-87.4420
 30
0.000000
  70
    32
  0
VERTEX
  8
0
  5
DF8
 10
-22.6481
 20
-87.5343
 30
0.000000
  70
    32
  0
VERTEX
  8
0
  5
DF9
 10
-22.6191
 20
-87.6258
 30
0.000000
  70
    32
  0
VERTEX
  8
0
  5
DFA
 10
-22.5837
 20
-87.7161
 30
0.000000
  70
    32
  0
VERTEX
  8
0
  5
DFB
 10
-22.5422
 20
-87.8051
 30
0.000000
  70
    32
  0
VERTEX
  8
0
  5
DFC
 10
-22.4945
 20
-87.8925
 30
0.000000
  70
    32
  0
VERTEX
  8
0
  5
DFD
 10
-22.4408
 20
-87.9782
 30
0.000000
  70
    32
  0
VERTEX
  8
0
  5
DFE
 10
-22.3812
 20
-88.0619
 30
0.000000
  70
    32
  0
VERTEX
  8
0
  5
DFF
 10
-22.3159
 20
-88.1434
 30
0.000000
  70
    32
  0
VERTEX
  8
0
  5
E00
 10
-22.2450
 20
-88.2226
 30
0.000000
  70
    32
  0
VERTEX
  8
0
  5
E01
 10
-22.1687
 20
-88.2992
 30
0.000000
  70
    32
  0
VERTEX
  8
0
  5
E02
 10
-22.0871
 20
-88.3731
 30
0.000000
  70
    32
  0
VERTEX
  8
0
  5
E03
 10
-22.0006
 20
-88.4440
 30
0.000000
  70
    32
  0
VERTEX
  8
0
  5
E04
 10
-21.9092
 20
-88.5119
 30
0.000000
  70
    32
  0
VERTEX
  8
0
  5
E05
 10
-21.8132
 20
-88.5765
 30
0.000000
  70
    32
  0
VERTEX
  8
0
  5
E06
 10
-21.7129
 20
-88.6377
 30
0.000000
  70
    32
  0
VERTEX
  8
0
  5
E07
 10
-21.6084
 20
-88.6954
 30
0.000000
  70
    32
  0
VERTEX
  8
0
  5
E08
 10
-21.5000
 20
-88.7493
 30
0.000000
  70
    32
  0
VERTEX
  8
0
  5
E09
 10
-21.3881
 20
-88.7994
 30
0.000000
  70
    32
  0
VERTEX
  8
0
  5
E0A
 10
-21.2728
 20
-88.8456
 30
0.000000
  70
    32
  0
VERTEX
  8
0
  5
E0B
 10
-21.1544
 20
-88.8878
 30
0.000000
  70
    32
  0
VERTEX
  8
0
  5
E0C
 10
-21.0332
 20
-88.9257
 30
0.000000
  70
    32
  0
VERTEX
  8
0
  5
E0D
 10
-20.9096
 20
-88.9595
 30
0.000000
  70
    32
  0
VERTEX
  8
0
  5
E0E
 10
-20.7838
 20
-88.9889
 30
0.000000
  70
    32
  0
VERTEX
  8
0
  5
E0F
 10
-20.6560
 20
-89.0139
 30
0.000000
  70
    32
  0
VERTEX
  8
0
  5
E10
 10
-20.5267
 20
-89.0344
 30
0.000000
  70
    32
  0
VERTEX
  8
0
  5
E11
 10
-20.3962
 20
-89.0504
 30
0.000000
  70
    32
  0
VERTEX
  8
0
  5
E12
 10
-20.2646
 20
-89.0619
 30
0.000000
  70
    32
  0
VERTEX
  8
0
  5
E13
 10
-20.1325
 20
-89.0688
 30
0.000000
  70
    32
  0
VERTEX
  8
0
  5
E14
 10
-20.0000
 20
-89.0711
 30
0.000000
  70
    32
  0
VERTEX
  8
0
  5
E15
 10
-19.8675
 20
-89.0688
 30
0.000000
  70
    32
  0
VERTEX
  8
0
  5
E16
 10
-19.7354
 20
-89.0619
 30
0.000000
  70
    32
  0
VERTEX
  8
0
  5
E17
 10
-19.6038
 20
-89.0504
 30
0.000000
  70
    32
  0
VERTEX
  8
0
  5
E18
 10
-19.4733
 20
-89.0344
 30
0.000000
  70
    32
  0
VERTEX
  8
0
  5
E19
 10
-19.3440
 20
-89.0139
 30
0.000000
  70
    32
  0
VERTEX
  8
0
  5
E1A
 10
-19.2162
 20
-88.9889
 30
0.000000
  70
    32
  0
VERTEX
  8
0
  5
E1B
 10
-19.0904
 20
-88.9595
 30
0.000000
  70
    32
  0
VERTEX
  8
0
  5
E1C
 10
-18.9668
 20
-88.9257
 30
0.000000
  70
    32
  0
VERTEX
  8
0
  5
E1D
 10
-18.8456
 20
-88.8878
 30
0.000000
  70
    32
  0
VERTEX
  8
0
  5
E1E
 10
-18.7272
 20
-88.8456
 30
0.000000
  70
    32
  0
VERTEX
  8
0
  5
E1F
 10
-18.6119
 20
-88.7994
 30
0.000000
  70
    32
  0
VERTEX
  8
0
  5
E20
 10
-18.5000
 20
-88.7493
 30
0.000000
  70
    32
  0
VERTEX
  8
0
  5
E21
 10
-18.3916
 20
-88.6954
 30
0.000000
  70
    32
  0
VERTEX
  8
0
  5
E22
 10
-18.2871
 20
-88.6377
 30
0.000000
  70
    32
  0
VERTEX
  8
0
  5
E23
 10
-18.1868
 20
-88.5765
 30
0.000000
  70
    32
  0
VERTEX
  8
0
  5
E24
 10
-18.0908
 20
-88.5119
 30
0.000000
  70
    32
  0
VERTEX
  8
0
  5
E25
 10
-17.9994
 20
-88.4440
 30
0.000000
  70
    32
  0
VERTEX
  8
0
  5
E26
 10
-17.9129
 20
-88.3731
 30
0.000000
  70
    32
  0
VERTEX
  8
0
  5
E27
 10
-17.8313
 20
-88.2992
 30
0.000000
  70
    32
  0
VERTEX
  8
0
  5
E28
 10
-17.7550
 20
-88.2226
 30
0.000000
  70
    32
  0
VERTEX
  8
0
  5
E29
 10
-17.6841
 20
-88.1434
 30
0.000000
  70
    32
  0
VERTEX
  8
0
  5
E2A
 10
-17.6188
 20
-88.0619
 30
0.000000
  70
    32
  0
VERTEX
  8
0
  5
E2B
 10
-17.5592
 20
-87.9782
 30
0.000000
  70
    32
  0
VERTEX
  8
0
  5
E2C
 10
-17.5055
 20
-87.8925
 30
0.000000
  70
    32
  0
VERTEX
  8
0
  5
E2D
 10
-17.4578
 20
-87.8051
 30
0.000000
  70
    32
  0
VERTEX
  8
0
  5
E2E
 10
-17.4163
 20
-87.7161
 30
0.000000
  70
    32
  0
VERTEX
  8
0
  5
E2F
 10
-17.3809
 20
-87.6258
 30
0.000000
  70
    32
  0
VERTEX
  8
0
  5
E30
 10
-17.3519
 20
-87.5343
 30
0.000000
  70
    32
  0
VERTEX
  8
0
  5
E31
 10
-17.3292
 20
-87.4420
 30
0.000000
  70
    32
  0
VERTEX
  8
0
  5
E32
 10
-17.3130
 20
-87.3490
 30
0.000000
  70
    32
  0
VERTEX
  8
0
  5
E33
 10
-17.3033
 20
-87.2556
 30
0.000000
  70
    32
  0
VERTEX
  8
0
  5
E34
 10
-17.3000
 20
-87.1619
 30
0.000000
  70
    32
  0
SEQEND
  8
0
  5
E35
  0
POLYLINE
  5
4D
  8
0
 10
-17.299999999999962
 20
-72.161879502661719
 30
0.0
 66
     1
 70
     8
  0
VERTEX
  8
0
  5
E36
 10
-17.3000
 20
-72.1619
 30
0.000000
  70
    32
  0
VERTEX
  8
0
  5
E37
 10
-17.3033
 20
-72.0682
 30
0.000000
  70
    32
  0
VERTEX
  8
0
  5
E38
 10
-17.3130
 20
-71.9747
 30
0.000000
  70
    32
  0
VERTEX
  8
0
  5
E39
 10
-17.3292
 20
-71.8817
 30
0.000000
  70
    32
  0
VERTEX
  8
0
  5
E3A
 10
-17.3519
 20
-71.7894
 30
0.000000
  70
    32
  0
VERTEX
  8
0
  5
E3B
 10
-17.3809
 20
-71.6980
 30
0.000000
  70
    32
  0
VERTEX
  8
0
  5
E3C
 10
-17.4163
 20
-71.6077
 30
0.000000
  70
    32
  0
VERTEX
  8
0
  5
E3D
 10
-17.4578
 20
-71.5187
 30
0.000000
  70
    32
  0
VERTEX
  8
0
  5
E3E
 10
-17.5055
 20
-71.4313
 30
0.000000
  70
    32
  0
VERTEX
  8
0
  5
E3F
 10
-17.5592
 20
-71.3456
 30
0.000000
  70
    32
  0
VERTEX
  8
0
  5
E40
 10
-17.6188
 20
-71.2619
 30
0.000000
  70
    32
  0
VERTEX
  8
0
  5
E41
 10
-17.6841
 20
-71.1804
 30
0.000000
  70
    32
  0
VERTEX
  8
0
  5
E42
 10
-17.7550
 20
-71.1012
 30
0.000000
  70
    32
  0
VERTEX
  8
0
  5
E43
 10
-17.8313
 20
-71.0246
 30
0.000000
  70
    32
  0
VERTEX
  8
0
  5
E44
 10
-17.9129
 20
-70.9507
 30
0.000000
  70
    32
  0
VERTEX
  8
0
  5
E45
 10
-17.9994
 20
-70.8797
 30
0.000000
  70
    32
  0
VERTEX
  8
0
  5
E46
 10
-18.0908
 20
-70.8119
 30
0.000000
  70
    32
  0
VERTEX
  8
0
  5
E47
 10
-18.1868
 20
-70.7473
 30
0.000000
  70
    32
  0
VERTEX
  8
0
  5
E48
 10
-18.2871
 20
-70.6861
 30
0.000000
  70
    32
  0
VERTEX
  8
0
  5
E49
 10
-18.3916
 20
-70.6284
 30
0.000000
  70
    32
  0
VERTEX
  8
0
  5
E4A
 10
-18.5000
 20
-70.5744
 30
0.000000
  70
    32
  0
VERTEX
  8
0
  5
E4B
 10
-18.6119
 20
-70.5243
 30
0.000000
  70
    32
  0
VERTEX
  8
0
  5
E4C
 10
-18.7272
 20
-70.4781
 30
0.000000
  70
    32
  0
VERTEX
  8
0
  5
E4D
 10
-18.8456
 20
-70.4360
 30
0.000000
  70
    32
  0
VERTEX
  8
0
  5
E4E
 10
-18.9668
 20
-70.3980
 30
0.000000
  70
    32
  0
VERTEX
  8
0
  5
E4F
 10
-19.0904
 20
-70.3643
 30
0.000000
  70
    32
  0
VERTEX
  8
0
  5
E50
 10
-19.2162
 20
-70.3349
 30
0.000000
  70
    32
  0
VERTEX
  8
0
  5
E51
 10
-19.3440
 20
-70.3099
 30
0.000000
  70
    32
  0
VERTEX
  8
0
  5
E52
 10
-19.4733
 20
-70.2894
 30
0.000000
  70
    32
  0
VERTEX
  8
0
  5
E53
 10
-19.6038
 20
-70.2734
 30
0.000000
  70
    32
  0
VERTEX
  8
0
  5
E54
 10
-19.7354
 20
-70.2619
 30
0.000000
  70
    32
  0
VERTEX
  8
0
  5
E55
 10
-19.8675
 20
-70.2550
 30
0.000000
  70
    32
  0
VERTEX
  8
0
  5
E56
 10
-20.0000
 20
-70.2527
 30
0.000000
  70
    32
  0
VERTEX
  8
0
  5
E57
 10
-20.1325
 20
-70.2550
 30
0.000000
  70
    32
  0
VERTEX
  8
0
  5
E58
 10
-20.2646
 20
-70.2619
 30
0.000000
  70
    32
  0
VERTEX
  8
0
  5
E59
 10
-20.3962
 20
-70.2734
 30
0.000000
  70
    32
  0
VERTEX
  8
0
  5
E5A
 10
-20.5267
 20
-70.2894
 30
0.000000
  70
    32
  0
VERTEX
  8
0
  5
E5B
 10
-20.6560
 20
-70.3099
 30
0.000000
  70
    32
  0
VERTEX
  8
0
  5
E5C
 10
-20.7838
 20
-70.3349
 30
0.000000
  70
    32
  0
VERTEX
  8
0
  5
E5D
 10
-20.9096
 20
-70.3643
 30
0.000000
  70
    32
  0
VERTEX
  8
0
  5
E5E
 10
-21.0332
 20
-70.3980
 30
0.000000
  70
    32
  0
VERTEX
  8
0
  5
E5F
 10
-21.1544
 20
-70.4360
 30
0.000000
  70
    32
  0
VERTEX
  8
0
  5
E60
 10
-21.2728
 20
-70.4781
 30
0.000000
  70
    32
  0
VERTEX
  8
0
  5
E61
 10
-21.3881
 20
-70.5243
 30
0.000000
  70
    32
  0
VERTEX
  8
0
  5
E62
 10
-21.5000
 20
-70.5744
 30
0.000000
  70
    32
  0
VERTEX
  8
0
  5
E63
 10
-21.6084
 20
-70.6284
 30
0.000000
  70
    32
  0
VERTEX
  8
0
  5
E64
 10
-21.7129
 20
-70.6861
 30
0.000000
  70
    32
  0
VERTEX
  8
0
  5
E65
 10
-21.8132
 20
-70.7473
 30
0.000000
  70
    32
  0
VERTEX
  8
0
  5
E66
 10
-21.9092
 20
-70.8119
 30
0.000000
  70
    32
  0
VERTEX
  8
0
  5
E67
 10
-22.0006
 20
-70.8797
 30
0.000000
  70
    32
  0
VERTEX
  8
0
  5
E68
 10
-22.0871
 20
-70.9507
 30
0.000000
  70
    32
  0
VERTEX
  8
0
  5
E69
 10
-22.1687
 20
-71.0246
 30
0.000000
  70
    32
  0
VERTEX
  8
0
  5
E6A
 10
-22.2450
 20
-71.1012
 30
0.000000
  70
    32
  0
VERTEX
  8
0
  5
E6B
 10
-22.3159
 20
-71.1804
 30
0.000000
  70
    32
  0
VERTEX
  8
0
  5
E6C
 10
-22.3812
 20
-71.2619
 30
0.000000
  70
    32
  0
VERTEX
  8
0
  5
E6D
 10
-22.4408
 20
-71.3456
 30
0.000000
  70
    32
  0
VERTEX
  8
0
  5
E6E
 10
-22.4945
 20
-71.4313
 30
0.000000
  70
    32
  0
VERTEX
  8
0
  5
E6F
 10
-22.5422
 20
-71.5187
 30
0.000000
  70
    32
  0
VERTEX
  8
0
  5
E70
 10
-22.5837
 20
-71.6077
 30
0.000000
  70
    32
  0
VERTEX
  8
0
  5
E71
 10
-22.6191
 20
-71.6980
 30
0.000000
  70
    32
  0
VERTEX
  8
0
  5
E72
 10
-22.6481
 20
-71.7894
 30
0.000000
  70
    32
  0
VERTEX
  8
0
  5
E73
 10
-22.6708
 20
-71.8817
 30
0.000000
  70
    32
  0
VERTEX
  8
0
  5
E74
 10
-22.6870
 20
-71.9747
 30
0.000000
  70
    32
  0
VERTEX
  8
0
  5
E75
 10
-22.6967
 20
-72.0682
 30
0.000000
  70
    32
  0
VERTEX
  8
0
  5
E76
 10
-22.7000
 20
-72.1619
 30
0.000000
  70
    32
  0
VERTEX
  8
0
  5
E77
 10
-22.6967
 20
-72.2556
 30
0.000000
  70
    32
  0
VERTEX
  8
0
  5
E78
 10
-22.6870
 20
-72.3490
 30
0.000000
  70
    32
  0
VERTEX
  8
0
  5
E79
 10
-22.6708
 20
-72.4420
 30
0.000000
  70
    32
  0
VERTEX
  8
0
  5
E7A
 10
-22.6481
 20
-72.5343
 30
0.000000
  70
    32
  0
VERTEX
  8
0
  5
E7B
 10
-22.6191
 20
-72.6258
 30
0.000000
  70
    32
  0
VERTEX
  8
0
  5
E7C
 10
-22.5837
 20
-72.7161
 30
0.000000
  70
    32
  0
VERTEX
  8
0
  5
E7D
 10
-22.5422
 20
-72.8051
 30
0.000000
  70
    32
  0
VERTEX
  8
0
  5
E7E
 10
-22.4945
 20
-72.8925
 30
0.000000
  70
    32
  0
VERTEX
  8
0
  5
E7F
 10
-22.4408
 20
-72.9782
 30
0.000000
  70
    32
  0
VERTEX
  8
0
  5
E80
 10
-22.3812
 20
-73.0619
 30
0.000000
  70
    32
  0
VERTEX
  8
0
  5
E81
 10
-22.3159
 20
-73.1434
 30
0.000000
  70
    32
  0
VERTEX
  8
0
  5
E82
 10
-22.2450
 20
-73.2226
 30
0.000000
  70
    32
  0
VERTEX
  8
0
  5
E83
 10
-22.1687
 20
-73.2992
 30
0.000000
  70
    32
  0
VERTEX
  8
0
  5
E84
 10
-22.0871
 20
-73.3731
 30
0.000000
  70
    32
  0
VERTEX
  8
0
  5
E85
 10
-22.0006
 20
-73.4440
 30
0.000000
  70
    32
  0
VERTEX
  8
0
  5
E86
 10
-21.9092
 20
-73.5119
 30
0.000000
  70
    32
  0
VERTEX
  8
0
  5
E87
 10
-21.8132
 20
-73.5765
 30
0.000000
  70
    32
  0
VERTEX
  8
0
  5
E88
 10
-21.7129
 20
-73.6377
 30
0.000000
  70
    32
  0
VERTEX
  8
0
  5
E89
 10
-21.6084
 20
-73.6954
 30
0.000000
  70
    32
  0
VERTEX
  8
0
  5
E8A
 10
-21.5000
 20
-73.7493
 30
0.000000
  70
    32
  0
VERTEX
  8
0
  5
E8B
 10
-21.3881
 20
-73.7994
 30
0.000000
  70
    32
  0
VERTEX
  8
0
  5
E8C
 10
-21.2728
 20
-73.8456
 30
0.000000
  70
    32
  0
VERTEX
  8
0
  5
E8D
 10
-21.1544
 20
-73.8878
 30
0.000000
  70
    32
  0
VERTEX
  8
0
  5
E8E
 10
-21.0332
 20
-73.9257
 30
0.000000
  70
    32
  0
VERTEX
  8
0
  5
E8F
 10
-20.9096
 20
-73.9595
 30
0.000000
  70
    32
  0
VERTEX
  8
0
  5
E90
 10
-20.7838
 20
-73.9889
 30
0.000000
  70
    32
  0
VERTEX
  8
0
  5
E91
 10
-20.6560
 20
-74.0139
 30
0.000000
  70
    32
  0
VERTEX
  8
0
  5
E92
 10
-20.5267
 20
-74.0344
 30
0.000000
  70
    32
  0
VERTEX
  8
0
  5
E93
 10
-20.3962
 20
-74.0504
 30
0.000000
  70
    32
  0
VERTEX
  8
0
  5
E94
 10
-20.2646
 20
-74.0619
 30
0.000000
  70
    32
  0
VERTEX
  8
0
  5
E95
 10
-20.1325
 20
-74.0688
 30
0.000000
  70
    32
  0
VERTEX
  8
0
  5
E96
 10
-20.0000
 20
-74.0711
 30
0.000000
  70
    32
  0
VERTEX
  8
0
  5
E97
 10
-19.8675
 20
-74.0688
 30
0.000000
  70
    32
  0
VERTEX
  8
0
  5
E98
 10
-19.7354
 20
-74.0619
 30
0.000000
  70
    32
  0
VERTEX
  8
0
  5
E99
 10
-19.6038
 20
-74.0504
 30
0.000000
  70
    32
  0
VERTEX
  8
0
  5
E9A
 10
-19.4733
 20
-74.0344
 30
0.000000
  70
    32
  0
VERTEX
  8
0
  5
E9B
 10
-19.3440
 20
-74.0139
 30
0.000000
  70
    32
  0
VERTEX
  8
0
  5
E9C
 10
-19.2162
 20
-73.9889
 30
0.000000
  70
    32
  0
VERTEX
  8
0
  5
E9D
 10
-19.0904
 20
-73.9595
 30
0.000000
  70
    32
  0
VERTEX
  8
0
  5
E9E
 10
-18.9668
 20
-73.9257
 30
0.000000
  70
    32
  0
VERTEX
  8
0
  5
E9F
 10
-18.8456
 20
-73.8878
 30
0.000000
  70
    32
  0
VERTEX
  8
0
  5
EA0
 10
-18.7272
 20
-73.8456
 30
0.000000
  70
    32
  0
VERTEX
  8
0
  5
EA1
 10
-18.6119
 20
-73.7994
 30
0.000000
  70
    32
  0
VERTEX
  8
0
  5
EA2
 10
-18.5000
 20
-73.7493
 30
0.000000
  70
    32
  0
VERTEX
  8
0
  5
EA3
 10
-18.3916
 20
-73.6954
 30
0.000000
  70
    32
  0
VERTEX
  8
0
  5
EA4
 10
-18.2871
 20
-73.6377
 30
0.000000
  70
    32
  0
VERTEX
  8
0
  5
EA5
 10
-18.1868
 20
-73.5765
 30
0.000000
  70
    32
  0
VERTEX
  8
0
  5
EA6
 10
-18.0908
 20
-73.5119
 30
0.000000
  70
    32
  0
VERTEX
  8
0
  5
EA7
 10
-17.9994
 20
-73.4440
 30
0.000000
  70
    32
  0
VERTEX
  8
0
  5
EA8
 10
-17.9129
 20
-73.3731
 30
0.000000
  70
    32
  0
VERTEX
  8
0
  5
EA9
 10
-17.8313
 20
-73.2992
 30
0.000000
  70
    32
  0
VERTEX
  8
0
  5
EAA
 10
-17.7550
 20
-73.2226
 30
0.000000
  70
    32
  0
VERTEX
  8
0
  5
EAB
 10
-17.6841
 20
-73.1434
 30
0.000000
  70
    32
  0
VERTEX
  8
0
  5
EAC
 10
-17.6188
 20
-73.0619
 30
0.000000
  70
    32
  0
VERTEX
  8
0
  5
EAD
 10
-17.5592
 20
-72.9782
 30
0.000000
  70
    32
  0
VERTEX
  8
0
  5
EAE
 10
-17.5055
 20
-72.8925
 30
0.000000
  70
    32
  0
VERTEX
  8
0
  5
EAF
 10
-17.4578
 20
-72.8051
 30
0.000000
  70
    32
  0
VERTEX
  8
0
  5
EB0
 10
-17.4163
 20
-72.7161
 30
0.000000
  70
    32
  0
VERTEX
  8
0
  5
EB1
 10
-17.3809
 20
-72.6258
 30
0.000000
  70
    32
  0
VERTEX
  8
0
  5
EB2
 10
-17.3519
 20
-72.5343
 30
0.000000
  70
    32
  0
VERTEX
  8
0
  5
EB3
 10
-17.3292
 20
-72.4420
 30
0.000000
  70
    32
  0
VERTEX
  8
0
  5
EB4
 10
-17.3130
 20
-72.3490
 30
0.000000
  70
    32
  0
VERTEX
  8
0
  5
EB5
 10
-17.3033
 20
-72.2556
 30
0.000000
  70
    32
  0
VERTEX
  8
0
  5
EB6
 10
-17.3000
 20
-72.1619
 30
0.000000
  70
    32
  0
SEQEND
  8
0
  5
EB7
  0
POLYLINE
  5
4E
  8
0
 10
-15.285954792089669
 20
-69.357022603955102
 30
0.0
 66
     1
 70
     8
  0
VERTEX
  8
0
  5
EB8
 10
-15.2860
 20
-69.3570
 30
0.000000
  70
    32
  0
VERTEX
  8
0
  5
EB9
 10
-15.3189
 20
-69.2931
 30
0.000000
  70
    32
  0
VERTEX
  8
0
  5
EBA
 10
-15.3535
 20
-69.2297
 30
0.000000
  70
    32
  0
VERTEX
  8
0
  5
EBB
 10
-15.3899
 20
-69.1668
 30
0.000000
  70
    32
  0
VERTEX
  8
0
  5
EBC
 10
-15.4280
 20
-69.1043
 30
0.000000
  70
    32
  0
VERTEX
  8
0
  5
EBD
 10
-15.4678
 20
-69.0424
 30
0.000000
  70
    32
  0
VERTEX
  8
0
  5
EBE
 10
-15.5092
 20
-68.9810
 30
0.000000
  70
    32
  0
VERTEX
  8
0
  5
EBF
 10
-15.5523
 20
-68.9203
 30
0.000000
  70
    32
  0
VERTEX
  8
0
  5
EC0
 10
-15.5971
 20
-68.8601
 30
0.000000
  70
    32
  0
VERTEX
  8
0
  5
EC1
 10
-15.6435
 20
-68.8005
 30
0.000000
  70
    32
  0
VERTEX
  8
0
  5
EC2
 10
-15.6915
 20
-68.7416
 30
0.000000
  70
    32
  0
VERTEX
  8
0
  5
EC3
 10
-15.7411
 20
-68.6833
 30
0.000000
  70
    32
  0
VERTEX
  8
0
  5
EC4
 10
-15.7922
 20
-68.6257
 30
0.000000
  70
    32
  0
VERTEX
  8
0
  5
EC5
 10
-15.8450
 20
-68.5689
 30
0.000000
  70
    32
  0
VERTEX
  8
0
  5
EC6
 10
-15.8992
 20
-68.5127
 30
0.000000
  70
    32
  0
VERTEX
  8
0
  5
EC7
 10
-15.9550
 20
-68.4573
 30
0.000000
  70
    32
  0
VERTEX
  8
0
  5
EC8
 10
-16.0123
 20
-68.4027
 30
0.000000
  70
    32
  0
VERTEX
  8
0
  5
EC9
 10
-16.0710
 20
-68.3489
 30
0.000000
  70
    32
  0
VERTEX
  8
0
  5
ECA
 10
-16.1312
 20
-68.2958
 30
0.000000
  70
    32
  0
VERTEX
  8
0
  5
ECB
 10
-16.1928
 20
-68.2436
 30
0.000000
  70
    32
  0
VERTEX
  8
0
  5
ECC
 10
-16.2559
 20
-68.1923
 30
0.000000
  70
    32
  0
VERTEX
  8
0
  5
ECD
 10
-16.3203
 20
-68.1418
 30
0.000000
  70
    32
  0
VERTEX
  8
0
  5
ECE
 10
-16.3861
 20
-68.0922
 30
0.000000
  70
    32
  0
VERTEX
  8
0
  5
ECF
 10
-16.4532
 20
-68.0435
 30
0.000000
  70
    32
  0
VERTEX
  8
0
  5
ED0
 10
-16.5217
 20
-67.9957
 30
0.000000
  70
    32
  0
VERTEX
  8
0
  5
ED1
 10
-16.5914
 20
-67.9489
 30
0.000000
  70
    32
  0
VERTEX
  8
0
  5
ED2
 10
-16.6624
 20
-67.9030
 30
0.000000
  70
    32
  0
VERTEX
  8
0
  5
ED3
 10
-16.7346
 20
-67.8581
 30
0.000000
  70
    32
  0
VERTEX
  8
0
  5
ED4
 10
-16.8080
 20
-67.8142
 30
0.000000
  70
    32
  0
VERTEX
  8
0
  5
ED5
 10
-16.8826
 20
-67.7713
 30
0.000000
  70
    32
  0
VERTEX
  8
0
  5
ED6
 10
-16.9584
 20
-67.7294
 30
0.000000
  70
    32
  0
VERTEX
  8
0
  5
ED7
 10
-17.0353
 20
-67.6886
 30
0.000000
  70
    32
  0
VERTEX
  8
0
  5
ED8
 10
-17.1132
 20
-67.6488
 30
0.000000
  70
    32
  0
VERTEX
  8
0
  5
ED9
 10
-17.1923
 20
-67.6101
 30
0.000000
  70
    32
  0
VERTEX
  8
0
  5
EDA
 10
-17.2724
 20
-67.5724
 30
0.000000
  70
    32
  0
VERTEX
  8
0
  5
EDB
 10
-17.3535
 20
-67.5359
 30
0.000000
  70
    32
  0
VERTEX
  8
0
  5
EDC
 10
-17.4356
 20
-67.5004
 30
0.000000
  70
    32
  0
VERTEX
  8
0
  5
EDD
 10
-17.5186
 20
-67.4661
 30
0.000000
  70
    32
  0
VERTEX
  8
0
  5
EDE
 10
-17.6025
 20
-67.4329
 30
0.000000
  70
    32
  0
VERTEX
  8
0
  5
EDF
 10
-17.6874
 20
-67.4009
 30
0.000000
  70
    32
  0
VERTEX
  8
0
  5
EE0
 10
-17.7731
 20
-67.3700
 30
0.000000
  70
    32
  0
VERTEX
  8
0
  5
EE1
 10
-17.8596
 20
-67.3403
 30
0.000000
  70
    32
  0
VERTEX
  8
0
  5
EE2
 10
-17.9469
 20
-67.3118
 30
0.000000
  70
    32
  0
VERTEX
  8
0
  5
EE3
 10
-18.0349
 20
-67.2845
 30
0.000000
  70
    32
  0
VERTEX
  8
0
  5
EE4
 10
-18.1237
 20
-67.2584
 30
0.000000
  70
    32
  0
VERTEX
  8
0
  5
EE5
 10
-18.2132
 20
-67.2335
 30
0.000000
  70
    32
  0
VERTEX
  8
0
  5
EE6
 10
-18.3033
 20
-67.2098
 30
0.000000
  70
    32
  0
VERTEX
  8
0
  5
EE7
 10
-18.3941
 20
-67.1873
 30
0.000000
  70
    32
  0
VERTEX
  8
0
  5
EE8
 10
-18.4855
 20
-67.1661
 30
0.000000
  70
    32
  0
VERTEX
  8
0
  5
EE9
 10
-18.5774
 20
-67.1461
 30
0.000000
  70
    32
  0
VERTEX
  8
0
  5
EEA
 10
-18.6698
 20
-67.1274
 30
0.000000
  70
    32
  0
VERTEX
  8
0
  5
EEB
 10
-18.7628
 20
-67.1099
 30
0.000000
  70
    32
  0
VERTEX
  8
0
  5
EEC
 10
-18.8562
 20
-67.0938
 30
0.000000
  70
    32
  0
VERTEX
  8
0
  5
EED
 10
-18.9500
 20
-67.0788
 30
0.000000
  70
    32
  0
VERTEX
  8
0
  5
EEE
 10
-19.0442
 20
-67.0652
 30
0.000000
  70
    32
  0
VERTEX
  8
0
  5
EEF
 10
-19.1388
 20
-67.0528
 30
0.000000
  70
    32
  0
VERTEX
  8
0
  5
EF0
 10
-19.2337
 20
-67.0418
 30
0.000000
  70
    32
  0
VERTEX
  8
0
  5
EF1
 10
-19.3289
 20
-67.0320
 30
0.000000
  70
    32
  0
VERTEX
  8
0
  5
EF2
 10
-19.4243
 20
-67.0235
 30
0.000000
  70
    32
  0
VERTEX
  8
0
  5
EF3
 10
-19.5199
 20
-67.0163
 30
0.000000
  70
    32
  0
VERTEX
  8
0
  5
EF4
 10
-19.6157
 20
-67.0105
 30
0.000000
  70
    32
  0
VERTEX
  8
0
  5
EF5
 10
-19.7117
 20
-67.0059
 30
0.000000
  70
    32
  0
VERTEX
  8
0
  5
EF6
 10
-19.8077
 20
-67.0026
 30
0.000000
  70
    32
  0
VERTEX
  8
0
  5
EF7
 10
-19.9038
 20
-67.0007
 30
0.000000
  70
    32
  0
VERTEX
  8
0
  5
EF8
 10
-20.0000
 20
-67.0000
 30
0.000000
  70
    32
  0
VERTEX
  8
0
  5
EF9
 10
-20.0962
 20
-67.0007
 30
0.000000
  70
    32
  0
VERTEX
  8
0
  5
EFA
 10
-20.1923
 20
-67.0026
 30
0.000000
  70
    32
  0
VERTEX
  8
0
  5
EFB
 10
-20.2883
 20
-67.0059
 30
0.000000
  70
    32
  0
VERTEX
  8
0
  5
EFC
 10
-20.3843
 20
-67.0105
 30
0.000000
  70
    32
  0
VERTEX
  8
0
  5
EFD
 10
-20.4801
 20
-67.0163
 30
0.000000
  70
    32
  0
VERTEX
  8
0
  5
EFE
 10
-20.5757
 20
-67.0235
 30
0.000000
  70
    32
  0
VERTEX
  8
0
  5
EFF
 10
-20.6711
 20
-67.0320
 30
0.000000
  70
    32
  0
VERTEX
  8
0
  5
F00
 10
-20.7663
 20
-67.0418
 30
0.000000
  70
    32
  0
VERTEX
  8
0
  5
F01
 10
-20.8612
 20
-67.0528
 30
0.000000
  70
    32
  0
VERTEX
  8
0
  5
F02
 10
-20.9558
 20
-67.0652
 30
0.000000
  70
    32
  0
VERTEX
  8
0
  5
F03
 10
-21.0500
 20
-67.0788
 30
0.000000
  70
    32
  0
VERTEX
  8
0
  5
F04
 10
-21.1438
 20
-67.0938
 30
0.000000
  70
    32
  0
VERTEX
  8
0
  5
F05
 10
-21.2372
 20
-67.1099
 30
0.000000
  70
    32
  0
VERTEX
  8
0
  5
F06
 10
-21.3302
 20
-67.1274
 30
0.000000
  70
    32
  0
VERTEX
  8
0
  5
F07
 10
-21.4226
 20
-67.1461
 30
0.000000
  70
    32
  0
VERTEX
  8
0
  5
F08
 10
-21.5145
 20
-67.1661
 30
0.000000
  70
    32
  0
VERTEX
  8
0
  5
F09
 10
-21.6059
 20
-67.1873
 30
0.000000
  70
    32
  0
VERTEX
  8
0
  5
F0A
 10
-21.6967
 20
-67.2098
 30
0.000000
  70
    32
  0
VERTEX
  8
0
  5
F0B
 10
-21.7868
 20
-67.2335
 30
0.000000
  70
    32
  0
VERTEX
  8
0
  5
F0C
 10
-21.8763
 20
-67.2584
 30
0.000000
  70
    32
  0
VERTEX
  8
0
  5
F0D
 10
-21.9651
 20
-67.2845
 30
0.000000
  70
    32
  0
VERTEX
  8
0
  5
F0E
 10
-22.0531
 20
-67.3118
 30
0.000000
  70
    32
  0
VERTEX
  8
0
  5
F0F
 10
-22.1404
 20
-67.3403
 30
0.000000
  70
    32
  0
VERTEX
  8
0
  5
F10
 10
-22.2269
 20
-67.3700
 30
0.000000
  70
    32
  0
VERTEX
  8
0
  5
F11
 10
-22.3126
 20
-67.4009
 30
0.000000
  70
    32
  0
VERTEX
  8
0
  5
F12
 10
-22.3975
 20
-67.4329
 30
0.000000
  70
    32
  0
VERTEX
  8
0
  5
F13
 10
-22.4814
 20
-67.4661
 30
0.000000
  70
    32
  0
VERTEX
  8
0
  5
F14
 10
-22.5644
 20
-67.5004
 30
0.000000
  70
    32
  0
VERTEX
  8
0
  5
F15
 10
-22.6465
 20
-67.5359
 30
0.000000
  70
    32
  0
VERTEX
  8
0
  5
F16
 10
-22.7276
 20
-67.5724
 30
0.000000
  70
    32
  0
VERTEX
  8
0
  5
F17
 10
-22.8077
 20
-67.6101
 30
0.000000
  70
    32
  0
VERTEX
  8
0
  5
F18
 10
-22.8868
 20
-67.6488
 30
0.000000
  70
    32
  0
VERTEX
  8
0
  5
F19
 10
-22.9647
 20
-67.6886
 30
0.000000
  70
    32
  0
VERTEX
  8
0
  5
F1A
 10
-23.0416
 20
-67.7294
 30
0.000000
  70
    32
  0
VERTEX
  8
0
  5
F1B
 10
-23.1174
 20
-67.7713
 30
0.000000
  70
    32
  0
VERTEX
  8
0
  5
F1C
 10
-23.1920
 20
-67.8142
 30
0.000000
  70
    32
  0
VERTEX
  8
0
  5
F1D
 10
-23.2654
 20
-67.8581
 30
0.000000
  70
    32
  0
VERTEX
  8
0
  5
F1E
 10
-23.3376
 20
-67.9030
 30
0.000000
  70
    32
  0
VERTEX
  8
0
  5
F1F
 10
-23.4086
 20
-67.9489
 30
0.000000
  70
    32
  0
VERTEX
  8
0
  5
F20
 10
-23.4783
 20
-67.9957
 30
0.000000
  70
    32
  0
VERTEX
  8
0
  5
F21
 10
-23.5468
 20
-68.0435
 30
0.000000
  70
    32
  0
VERTEX
  8
0
  5
F22
 10
-23.6139
 20
-68.0922
 30
0.000000
  70
    32
  0
VERTEX
  8
0
  5
F23
 10
-23.6797
 20
-68.1418
 30
0.000000
  70
    32
  0
VERTEX
  8
0
  5
F24
 10
-23.7441
 20
-68.1923
 30
0.000000
  70
    32
  0
VERTEX
  8
0
  5
F25
 10
-23.8072
 20
-68.2436
 30
0.000000
  70
    32
  0
VERTEX
  8
0
  5
F26
 10
-23.8688
 20
-68.2958
 30
0.000000
  70
    32
  0
VERTEX
  8
0
  5
F27
 10
-23.9290
 20
-68.3489
 30
0.000000
  70
    32
  0
VERTEX
  8
0
  5
F28
 10
-23.9877
 20
-68.4027
 30
0.000000
  70
    32
  0
VERTEX
  8
0
  5
F29
 10
-24.0450
 20
-68.4573
 30
0.000000
  70
    32
  0
VERTEX
  8
0
  5
F2A
 10
-24.1008
 20
-68.5127
 30
0.000000
  70
    32
  0
VERTEX
  8
0
  5
F2B
 10
-24.1550
 20
-68.5689
 30
0.000000
  70
    32
  0
VERTEX
  8
0
  5
F2C
 10
-24.2078
 20
-68.6257
 30
0.000000
  70
    32
  0
VERTEX
  8
0
  5
F2D
 10
-24.2589
 20
-68.6833
 30
0.000000
  70
    32
  0
VERTEX
  8
0
  5
F2E
 10
-24.3085
 20
-68.7416
 30
0.000000
  70
    32
  0
VERTEX
  8
0
  5
F2F
 10
-24.3565
 20
-68.8005
 30
0.000000
  70
    32
  0
VERTEX
  8
0
  5
F30
 10
-24.4029
 20
-68.8601
 30
0.000000
  70
    32
  0
VERTEX
  8
0
  5
F31
 10
-24.4477
 20
-68.9203
 30
0.000000
  70
    32
  0
VERTEX
  8
0
  5
F32
 10
-24.4908
 20
-68.9810
 30
0.000000
  70
    32
  0
VERTEX
  8
0
  5
F33
 10
-24.5322
 20
-69.0424
 30
0.000000
  70
    32
  0
VERTEX
  8
0
  5
F34
 10
-24.5720
 20
-69.1043
 30
0.000000
  70
    32
  0
VERTEX
  8
0
  5
F35
 10
-24.6101
 20
-69.1668
 30
0.000000
  70
    32
  0
VERTEX
  8
0
  5
F36
 10
-24.6465
 20
-69.2297
 30
0.000000
  70
    32
  0
VERTEX
  8
0
  5
F37
 10
-24.6811
 20
-69.2931
 30
0.000000
  70
    32
  0
VERTEX
  8
0
  5
F38
 10
-24.7140
 20
-69.3570
 30
0.000000
  70
    32
  0
SEQEND
  8
0
  5
F39
  0
POLYLINE
  5
4F
  8
0
 10
-19.999999999999972
 20
-59.928932188134461
 30
0.0
 66
     1
 70
     8
  0
VERTEX
  8
0
  5
F3A
 10
-20.0000
 20
-59.9289
 30
0.000000
  70
    32
  0
VERTEX
  8
0
  5
F3B
 10
-20.2453
 20
-59.9374
 30
0.000000
  70
    32
  0
VERTEX
  8
0
  5
F3C
 10
-20.4901
 20
-59.9630
 30
0.000000
  70
    32
  0
VERTEX
  8
0
  5
F3D
 10
-20.7337
 20
-60.0055
 30
0.000000
  70
    32
  0
VERTEX
  8
0
  5
F3E
 10
-20.9755
 20
-60.0648
 30
0.000000
  70
    32
  0
VERTEX
  8
0
  5
F3F
 10
-21.2149
 20
-60.1408
 30
0.000000
  70
    32
  0
VERTEX
  8
0
  5
F40
 10
-21.4514
 20
-60.2334
 30
0.000000
  70
    32
  0
VERTEX
  8
0
  5
F41
 10
-21.6844
 20
-60.3423
 30
0.000000
  70
    32
  0
VERTEX
  8
0
  5
F42
 10
-21.9134
 20
-60.4672
 30
0.000000
  70
    32
  0
VERTEX
  8
0
  5
F43
 10
-22.1378
 20
-60.6078
 30
0.000000
  70
    32
  0
VERTEX
  8
0
  5
F44
 10
-22.3570
 20
-60.7639
 30
0.000000
  70
    32
  0
VERTEX
  8
0
  5
F45
 10
-22.5705
 20
-60.9349
 30
0.000000
  70
    32
  0
VERTEX
  8
0
  5
F46
 10
-22.7779
 20
-61.1206
 30
0.000000
  70
    32
  0
VERTEX
  8
0
  5
F47
 10
-22.9785
 20
-61.3205
 30
0.000000
  70
    32
  0
VERTEX
  8
0
  5
F48
 10
-23.1720
 20
-61.5340
 30
0.000000
  70
    32
  0
VERTEX
  8
0
  5
F49
 10
-23.3578
 20
-61.7607
 30
0.000000
  70
    32
  0
VERTEX
  8
0
  5
F4A
 10
-23.5355
 20
-62.0000
 30
0.000000
  70
    32
  0
VERTEX
  8
0
  5
F4B
 10
-23.7048
 20
-62.2514
 30
0.000000
  70
    32
  0
VERTEX
  8
0
  5
F4C
 10
-23.8651
 20
-62.5142
 30
0.000000
  70
    32
  0
VERTEX
  8
0
  5
F4D
 10
-24.0160
 20
-62.7878
 30
0.000000
  70
    32
  0
VERTEX
  8
0
  5
F4E
 10
-24.1573
 20
-63.0715
 30
0.000000
  70
    32
  0
VERTEX
  8
0
  5
F4F
 10
-24.2886
 20
-63.3647
 30
0.000000
  70
    32
  0
VERTEX
  8
0
  5
F50
 10
-24.4096
 20
-63.6667
 30
0.000000
  70
    32
  0
VERTEX
  8
0
  5
F51
 10
-24.5199
 20
-63.9767
 30
0.000000
  70
    32
  0
VERTEX
  8
0
  5
F52
 10
-24.6194
 20
-64.2940
 30
0.000000
  70
    32
  0
VERTEX
  8
0
  5
F53
 10
-24.7077
 20
-64.6178
 30
0.000000
  70
    32
  0
VERTEX
  8
0
  5
F54
 10
-24.7847
 20
-64.9474
 30
0.000000
  70
    32
  0
VERTEX
  8
0
  5
F55
 10
-24.8502
 20
-65.2819
 30
0.000000
  70
    32
  0
VERTEX
  8
0
  5
F56
 10
-24.9039
 20
-65.6205
 30
0.000000
  70
    32
  0
VERTEX
  8
0
  5
F57
 10
-24.9459
 20
-65.9625
 30
0.000000
  70
    32
  0
VERTEX
  8
0
  5
F58
 10
-24.9759
 20
-66.3069
 30
0.000000
  70
    32
  0
VERTEX
  8
0
  5
F59
 10
-24.9940
 20
-66.6530
 30
0.000000
  70
    32
  0
VERTEX
  8
0
  5
F5A
 10
-25.0000
 20
-67.0000
 30
0.000000
  70
    32
  0
VERTEX
  8
0
  5
F5B
 10
-24.9940
 20
-67.3470
 30
0.000000
  70
    32
  0
VERTEX
  8
0
  5
F5C
 10
-24.9759
 20
-67.6931
 30
0.000000
  70
    32
  0
VERTEX
  8
0
  5
F5D
 10
-24.9459
 20
-68.0375
 30
0.000000
  70
    32
  0
VERTEX
  8
0
  5
F5E
 10
-24.9039
 20
-68.3795
 30
0.000000
  70
    32
  0
VERTEX
  8
0
  5
F5F
 10
-24.8502
 20
-68.7181
 30
0.000000
  70
    32
  0
VERTEX
  8
0
  5
F60
 10
-24.7847
 20
-69.0526
 30
0.000000
  70
    32
  0
VERTEX
  8
0
  5
F61
 10
-24.7077
 20
-69.3822
 30
0.000000
  70
    32
  0
VERTEX
  8
0
  5
F62
 10
-24.6194
 20
-69.7060
 30
0.000000
  70
    32
  0
VERTEX
  8
0
  5
F63
 10
-24.5199
 20
-70.0233
 30
0.000000
  70
    32
  0
VERTEX
  8
0
  5
F64
 10
-24.4096
 20
-70.3333
 30
0.000000
  70
    32
  0
VERTEX
  8
0
  5
F65
 10
-24.2886
 20
-70.6353
 30
0.000000
  70
    32
  0
VERTEX
  8
0
  5
F66
 10
-24.1573
 20
-70.9285
 30
0.000000
  70
    32
  0
VERTEX
  8
0
  5
F67
 10
-24.0160
 20
-71.2122
 30
0.000000
  70
    32
  0
VERTEX
  8
0
  5
F68
 10
-23.8651
 20
-71.4858
 30
0.000000
  70
    32
  0
VERTEX
  8
0
  5
F69
 10
-23.7048
 20
-71.7486
 30
0.000000
  70
    32
  0
VERTEX
  8
0
  5
F6A
 10
-23.5355
 20
-72.0000
 30
0.000000
  70
    32
  0
VERTEX
  8
0
  5
F6B
 10
-23.3578
 20
-72.2393
 30
0.000000
  70
    32
  0
VERTEX
  8
0
  5
F6C
 10
-23.1720
 20
-72.4660
 30
0.000000
  70
    32
  0
VERTEX
  8
0
  5
F6D
 10
-22.9785
 20
-72.6795
 30
0.000000
  70
    32
  0
VERTEX
  8
0
  5
F6E
 10
-22.7779
 20
-72.8794
 30
0.000000
  70
    32
  0
VERTEX
  8
0
  5
F6F
 10
-22.5705
 20
-73.0651
 30
0.000000
  70
    32
  0
VERTEX
  8
0
  5
F70
 10
-22.3570
 20
-73.2361
 30
0.000000
  70
    32
  0
VERTEX
  8
0
  5
F71
 10
-22.1378
 20
-73.3922
 30
0.000000
  70
    32
  0
VERTEX
  8
0
  5
F72
 10
-21.9134
 20
-73.5328
 30
0.000000
  70
    32
  0
VERTEX
  8
0
  5
F73
 10
-21.6844
 20
-73.6577
 30
0.000000
  70
    32
  0
VERTEX
  8
0
  5
F74
 10
-21.4514
 20
-73.7666
 30
0.000000
  70
    32
  0
VERTEX
  8
0
  5
F75
 10
-21.2149
 20
-73.8592
 30
0.000000
  70
    32
  0
VERTEX
  8
0
  5
F76
 10
-20.9755
 20
-73.9352
 30
0.000000
  70
    32
  0
VERTEX
  8
0
  5
F77
 10
-20.7337
 20
-73.9945
 30
0.000000
  70
    32
  0
VERTEX
  8
0
  5
F78
 10
-20.4901
 20
-74.0370
 30
0.000000
  70
    32
  0
VERTEX
  8
0
  5
F79
 10
-20.2453
 20
-74.0626
 30
0.000000
  70
    32
  0
VERTEX
  8
0
  5
F7A
 10
-20.0000
 20
-74.0711
 30
0.000000
  70
    32
  0
VERTEX
  8
0
  5
F7B
 10
-19.7547
 20
-74.0626
 30
0.000000
  70
    32
  0
VERTEX
  8
0
  5
F7C
 10
-19.5099
 20
-74.0370
 30
0.000000
  70
    32
  0
VERTEX
  8
0
  5
F7D
 10
-19.2663
 20
-73.9945
 30
0.000000
  70
    32
  0
VERTEX
  8
0
  5
F7E
 10
-19.0245
 20
-73.9352
 30
0.000000
  70
    32
  0
VERTEX
  8
0
  5
F7F
 10
-18.7851
 20
-73.8592
 30
0.000000
  70
    32
  0
VERTEX
  8
0
  5
F80
 10
-18.5486
 20
-73.7666
 30
0.000000
  70
    32
  0
VERTEX
  8
0
  5
F81
 10
-18.3156
 20
-73.6577
 30
0.000000
  70
    32
  0
VERTEX
  8
0
  5
F82
 10
-18.0866
 20
-73.5328
 30
0.000000
  70
    32
  0
VERTEX
  8
0
  5
F83
 10
-17.8622
 20
-73.3922
 30
0.000000
  70
    32
  0
VERTEX
  8
0
  5
F84
 10
-17.6430
 20
-73.2361
 30
0.000000
  70
    32
  0
VERTEX
  8
0
  5
F85
 10
-17.4295
 20
-73.0651
 30
0.000000
  70
    32
  0
VERTEX
  8
0
  5
F86
 10
-17.2221
 20
-72.8794
 30
0.000000
  70
    32
  0
VERTEX
  8
0
  5
F87
 10
-17.0215
 20
-72.6795
 30
0.000000
  70
    32
  0
VERTEX
  8
0
  5
F88
 10
-16.8280
 20
-72.4660
 30
0.000000
  70
    32
  0
VERTEX
  8
0
  5
F89
 10
-16.6422
 20
-72.2393
 30
0.000000
  70
    32
  0
VERTEX
  8
0
  5
F8A
 10
-16.4645
 20
-72.0000
 30
0.000000
  70
    32
  0
VERTEX
  8
0
  5
F8B
 10
-16.2952
 20
-71.7486
 30
0.000000
  70
    32
  0
VERTEX
  8
0
  5
F8C
 10
-16.1349
 20
-71.4858
 30
0.000000
  70
    32
  0
VERTEX
  8
0
  5
F8D
 10
-15.9840
 20
-71.2122
 30
0.000000
  70
    32
  0
VERTEX
  8
0
  5
F8E
 10
-15.8427
 20
-70.9285
 30
0.000000
  70
    32
  0
VERTEX
  8
0
  5
F8F
 10
-15.7114
 20
-70.6353
 30
0.000000
  70
    32
  0
VERTEX
  8
0
  5
F90
 10
-15.5904
 20
-70.3333
 30
0.000000
  70
    32
  0
VERTEX
  8
0
  5
F91
 10
-15.4801
 20
-70.0233
 30
0.000000
  70
    32
  0
VERTEX
  8
0
  5
F92
 10
-15.3806
 20
-69.7060
 30
0.000000
  70
    32
  0
VERTEX
  8
0
  5
F93
 10
-15.2923
 20
-69.3822
 30
0.000000
  70
    32
  0
VERTEX
  8
0
  5
F94
 10
-15.2153
 20
-69.0526
 30
0.000000
  70
    32
  0
VERTEX
  8
0
  5
F95
 10
-15.1498
 20
-68.7181
 30
0.000000
  70
    32
  0
VERTEX
  8
0
  5
F96
 10
-15.0961
 20
-68.3795
 30
0.000000
  70
    32
  0
VERTEX
  8
0
  5
F97
 10
-15.0541
 20
-68.0375
 30
0.000000
  70
    32
  0
VERTEX
  8
0
  5
F98
 10
-15.0241
 20
-67.6931
 30
0.000000
  70
    32
  0
VERTEX
  8
0
  5
F99
 10
-15.0060
 20
-67.3470
 30
0.000000
  70
    32
  0
VERTEX
  8
0
  5
F9A
 10
-15.0000
 20
-67.0000
 30
0.000000
  70
    32
  0
VERTEX
  8
0
  5
F9B
 10
-15.0060
 20
-66.6530
 30
0.000000
  70
    32
  0
VERTEX
  8
0
  5
F9C
 10
-15.0241
 20
-66.3069
 30
0.000000
  70
    32
  0
VERTEX
  8
0
  5
F9D
 10
-15.0541
 20
-65.9625
 30
0.000000
  70
    32
  0
VERTEX
  8
0
  5
F9E
 10
-15.0961
 20
-65.6205
 30
0.000000
  70
    32
  0
VERTEX
  8
0
  5
F9F
 10
-15.1498
 20
-65.2819
 30
0.000000
  70
    32
  0
VERTEX
  8
0
  5
FA0
 10
-15.2153
 20
-64.9474
 30
0.000000
  70
    32
  0
VERTEX
  8
0
  5
FA1
 10
-15.2923
 20
-64.6178
 30
0.000000
  70
    32
  0
VERTEX
  8
0
  5
FA2
 10
-15.3806
 20
-64.2940
 30
0.000000
  70
    32
  0
VERTEX
  8
0
  5
FA3
 10
-15.4801
 20
-63.9767
 30
0.000000
  70
    32
  0
VERTEX
  8
0
  5
FA4
 10
-15.5904
 20
-63.6667
 30
0.000000
  70
    32
  0
VERTEX
  8
0
  5
FA5
 10
-15.7114
 20
-63.3647
 30
0.000000
  70
    32
  0
VERTEX
  8
0
  5
FA6
 10
-15.8427
 20
-63.0715
 30
0.000000
  70
    32
  0
VERTEX
  8
0
  5
FA7
 10
-15.9840
 20
-62.7878
 30
0.000000
  70
    32
  0
VERTEX
  8
0
  5
FA8
 10
-16.1349
 20
-62.5142
 30
0.000000
  70
    32
  0
VERTEX
  8
0
  5
FA9
 10
-16.2952
 20
-62.2514
 30
0.000000
  70
    32
  0
VERTEX
  8
0
  5
FAA
 10
-16.4645
 20
-62.0000
 30
0.000000
  70
    32
  0
VERTEX
  8
0
  5
FAB
 10
-16.6422
 20
-61.7607
 30
0.000000
  70
    32
  0
VERTEX
  8
0
  5
FAC
 10
-16.8280
 20
-61.5340
 30
0.000000
  70
    32
  0
VERTEX
  8
0
  5
FAD
 10
-17.0215
 20
-61.3205
 30
0.000000
  70
    32
  0
VERTEX
  8
0
  5
FAE
 10
-17.2221
 20
-61.1206
 30
0.000000
  70
    32
  0
VERTEX
  8
0
  5
FAF
 10
-17.4295
 20
-60.9349
 30
0.000000
  70
    32
  0
VERTEX
  8
0
  5
FB0
 10
-17.6430
 20
-60.7639
 30
0.000000
  70
    32
  0
VERTEX
  8
0
  5
FB1
 10
-17.8622
 20
-60.6078
 30
0.000000
  70
    32
  0
VERTEX
  8
0
  5
FB2
 10
-18.0866
 20
-60.4672
 30
0.000000
  70
    32
  0
VERTEX
  8
0
  5
FB3
 10
-18.3156
 20
-60.3423
 30
0.000000
  70
    32
  0
VERTEX
  8
0
  5
FB4
 10
-18.5486
 20
-60.2334
 30
0.000000
  70
    32
  0
VERTEX
  8
0
  5
FB5
 10
-18.7851
 20
-60.1408
 30
0.000000
  70
    32
  0
VERTEX
  8
0
  5
FB6
 10
-19.0245
 20
-60.0648
 30
0.000000
  70
    32
  0
VERTEX
  8
0
  5
FB7
 10
-19.2663
 20
-60.0055
 30
0.000000
  70
    32
  0
VERTEX
  8
0
  5
FB8
 10
-19.5099
 20
-59.9630
 30
0.000000
  70
    32
  0
VERTEX
  8
0
  5
FB9
 10
-19.7547
 20
-59.9374
 30
0.000000
  70
    32
  0
VERTEX
  8
0
  5
FBA
 10
-20.0000
 20
-59.9289
 30
0.000000
  70
    32
  0
SEQEND
  8
0
  5
FBB
  0
LINE
  5
50
  8
0
 10
-29.999999999999972
 20
0.0
 30
0.0
 11
-29.999999999999972
 21
-110.0
 31
0.0
  0
LINE
  5
51
  8
0
 10
29.999999999999972
 20
-10.0
 30
0.0
 11
-29.999999999999972
 21
-10.0
 31
0.0
  0
ARC
  5
52
  8
0
 10
-19.999999999999972
 20
-110.0
 30
0.0
 40
10.0
 50
180.0
 51
270.0
  0
ARC
  5
53
  8
0
 10
19.999999999999972
 20
-110.0
 30
0.0
 40
10.0
 50
270.0
 51
0.0
  0
LINE
  5
54
  8
0
  6
HIDDEN
 62
     8
 10
-22.699999999999989
 20
-10.0
 30
0.0
 11
-22.699999999999989
 21
-5.2999999999999536
 31
0.0
  0
LINE
  5
55
  8
0
  6
HIDDEN
 62
     8
 10
-17.300000000000011
 20
-10.0
 30
0.0
 11
-17.300000000000011
 21
-5.2999999999999536
 31
0.0
  0
LINE
  5
56
  8
0
  6
HIDDEN
 62
     8
 10
-17.300000000000011
 20
-5.2999999999999536
 30
0.0
 11
-22.699999999999989
 21
-5.2999999999999536
 31
0.0
  0
LINE
  5
57
  8
0
  6
HIDDEN
 62
     8
 10
-14.99999999999994
 20
-3.0
 30
0.0
 11
-24.99999999999995
 21
-3.0
 31
0.0
  0
LINE
  5
58
  8
0
  6
HIDDEN
 62
     8
 10
-14.99999999999994
 20
-3.0
 30
0.0
 11
-14.99999999999994
 21
0.0
 31
0.0
  0
LINE
  5
59
  8
0
  6
HIDDEN
 62
     8
 10
-14.99999999999994
 20
-3.0
 30
0.0
 11
-17.300000000000011
 21
-5.2999999999999536
 31
0.0
  0
LINE
  5
5A
  8
0
  6
HIDDEN
 62
     8
 10
-25.0
 20
-3.0
 30
0.0
 11
-25.0
 21
0.0
 31
0.0
  0
LINE
  5
5B
  8
0
  6
HIDDEN
 62
     8
 10
-22.699999999999989
 20
-5.2999999999999536
 30
0.0
 11
-24.99999999999995
 21
-3.0
 31
0.0
  0
LINE
  5
5C
  8
0
  6
HIDDEN
 62
     8
 10
-25.0
 20
0.0
 30
0.0
 11
-14.99999999999994
 21
0.0
 31
0.0
  0
LINE
  5
5D
  8
0
  6
HIDDEN
 62
     8
 10
24.999999999999989
 20
-3.0
 30
0.0
 11
14.99999999999998
 21
-3.0
 31
0.0
  0
LINE
  5
5E
  8
0
  6
HIDDEN
 62
     8
 10
22.699999999999921
 20
-5.2999999999999536
 30
0.0
 11
17.29999999999994
 21
-5.2999999999999536
 31
0.0
  0
LINE
  5
5F
  8
0
  6
HIDDEN
 62
     8
 10
14.999999999999931
 20
0.0
 30
0.0
 11
24.999999999999989
 21
0.0
 31
0.0
  0
LINE
  5
60
  8
0
  6
HIDDEN
 62
     8
 10
17.29999999999994
 20
-10.0
 30
0.0
 11
17.29999999999994
 21
-5.2999999999999536
 31
0.0
  0
LINE
  5
61
  8
0
  6
HIDDEN
 62
     8
 10
14.999999999999931
 20
-3.0
 30
0.0
 11
14.999999999999931
 21
0.0
 31
0.0
  0
LINE
  5
62
  8
0
  6
HIDDEN
 62
     8
 10
17.29999999999994
 20
-5.2999999999999536
 30
0.0
 11
14.99999999999998
 21
-3.0
 31
0.0
  0
LINE
  5
63
  8
0
  6
HIDDEN
 62
     8
 10
22.699999999999921
 20
-10.0
 30
0.0
 11
22.699999999999921
 21
-5.2999999999999536
 31
0.0
  0
LINE
  5
64
  8
0
  6
HIDDEN
 62
     8
 10
24.999999999999989
 20
-3.0
 30
0.0
 11
24.999999999999989
 21
0.0
 31
0.0
  0
LINE
  5
65
  8
0
  6
HIDDEN
 62
     8
 10
24.999999999999989
 20
-3.0
 30
0.0
 11
22.699999999999921
 21
-5.2999999999999536
 31
0.0
  0
INSERT
  5
66
  8
0
  2
SIMPSON-STRONG-TIE
 10
-0.0999999999999375
 20
-30.39999999999992
 30
0.0
  0
ENDSEC
  0
EOF
