  0
SECTION
  2
HEADER
  9
$ACADVER
  1
AC1009
  9
$INSBASE
 10
0.0
 20
0.0
 30
0.0
  9
$EXTMIN
 10
-17.071067811865451
 20
-122.0710678118654
 30
0.0
  9
$EXTMAX
 10
17.071067811865451
 20
0.0
 30
0.0
  9
$LIMMIN
 10
0.0
 20
0.0
  9
$LIMMAX
 10
420.0
 20
297.0
  9
$ORTHOMODE
 70
     1
  9
$REGENMODE
 70
     1
  9
$FILLMODE
 70
     1
  9
$QTEXTMODE
 70
     0
  9
$MIRRTEXT
 70
     1
  9
$DRAGMODE
 70
     2
  9
$LTSCALE
 40
1.0
  9
$OSMODE
 70
    47
  9
$ATTMODE
 70
     1
  9
$TEXTSIZE
 40
3.5
  9
$TRACEWID
 40
0.05
  9
$TEXTSTYLE
  7
SST
  9
$CLAYER
  8
0
  9
$CELTYPE
  6
BYLAYER
  9
$CECOLOR
 62
   256
  9
$DIMSCALE
 40
2.0
  9
$DIMASZ
 40
2.0
  9
$DIMEXO
 40
1.0
  9
$DIMDLI
 40
10.0
  9
$DIMRND
 40
0.0
  9
$DIMDLE
 40
0.0
  9
$DIMEXE
 40
1.0
  9
$DIMTP
 40
0.0
  9
$DIMTM
 40
0.0
  9
$DIMTXT
 40
3.5
  9
$DIMCEN
 40
2.5
  9
$DIMTSZ
 40
0.0
  9
$DIMTOL
 70
     0
  9
$DIMLIM
 70
     0
  9
$DIMTIH
 70
     0
  9
$DIMTOH
 70
     0
  9
$DIMSE1
 70
     0
  9
$DIMSE2
 70
     0
  9
$DIMTAD
 70
     1
  9
$DIMZIN
 70
     8
  9
$DIMBLK
  1

  9
$DIMASO
 70
     1
  9
$DIMSHO
 70
     1
  9
$DIMPOST
  1

  9
$DIMAPOST
  1

  9
$DIMALT
 70
     0
  9
$DIMALTD
 70
     2
  9
$DIMALTF
 40
25.399999999999999
  9
$DIMLFAC
 40
1.0
  9
$DIMTOFL
 70
     1
  9
$DIMTVP
 40
0.0
  9
$DIMTIX
 70
     0
  9
$DIMSOXD
 70
     0
  9
$DIMSAH
 70
     0
  9
$DIMBLK1
  1

  9
$DIMBLK2
  1

  9
$DIMSTYLE
  2
STANDARD
  9
$DIMCLRD
 70
     0
  9
$DIMCLRE
 70
     0
  9
$DIMCLRT
 70
     0
  9
$DIMTFAC
 40
1.0
  9
$DIMGAP
 40
1.0
  9
$LUNITS
 70
     2
  9
$LUPREC
 70
     4
  9
$SKETCHINC
 40
0.1
  9
$FILLETRAD
 40
10.0
  9
$AUNITS
 70
     0
  9
$AUPREC
 70
     2
  9
$MENU
  1
acad
  9
$ELEVATION
 40
0.0
  9
$PELEVATION
 40
0.0
  9
$THICKNESS
 40
0.0
  9
$LIMCHECK
 70
     0
  9
$BLIPMODE
 70
     0
  9
$CHAMFERA
 40
10.0
  9
$CHAMFERB
 40
10.0
  9
$SKPOLY
 70
     0
  9
$TDCREATE
 40
2449450.3780568289
  9
$TDUPDATE
 40
2453443.5695296181
  9
$TDINDWG
 40
1.4840720833000001
  9
$TDUSRTIMER
 40
1.4840720833000001
  9
$USRTIMER
 70
     1
  9
$ANGBASE
 50
0.0
  9
$ANGDIR
 70
     0
  9
$PDMODE
 70
     0
  9
$PDSIZE
 40
0.0
  9
$PLINEWID
 40
0.0
  9
$COORDS
 70
     1
  9
$SPLFRAME
 70
     0
  9
$SPLINETYPE
 70
     6
  9
$SPLINESEGS
 70
     8
  9
$ATTDIA
 70
     0
  9
$ATTREQ
 70
     1
  9
$HANDLING
 70
     1
  9
$HANDSEED
  5
4F2
  9
$SURFTAB1
 70
     6
  9
$SURFTAB2
 70
     6
  9
$SURFTYPE
 70
     6
  9
$SURFU
 70
     6
  9
$SURFV
 70
     6
  9
$UCSNAME
  2

  9
$UCSORG
 10
0.0
 20
0.0
 30
0.0
  9
$UCSXDIR
 10
1.0
 20
0.0
 30
0.0
  9
$UCSYDIR
 10
0.0
 20
1.0
 30
0.0
  9
$PUCSNAME
  2

  9
$PUCSORG
 10
0.0
 20
0.0
 30
0.0
  9
$PUCSXDIR
 10
1.0
 20
0.0
 30
0.0
  9
$PUCSYDIR
 10
0.0
 20
1.0
 30
0.0
  9
$USERI1
 70
     0
  9
$USERI2
 70
     0
  9
$USERI3
 70
     0
  9
$USERI4
 70
     0
  9
$USERI5
 70
     0
  9
$USERR1
 40
0.0
  9
$USERR2
 40
0.0
  9
$USERR3
 40
0.0
  9
$USERR4
 40
0.0
  9
$USERR5
 40
0.0
  9
$WORLDVIEW
 70
     1
  9
$SHADEDGE
 70
     3
  9
$SHADEDIF
 70
    70
  9
$TILEMODE
 70
     1
  9
$MAXACTVP
 70
    16
  9
$PLIMCHECK
 70
     0
  9
$PEXTMIN
 10
1.0000000000000000E+020
 20
1.0000000000000000E+020
 30
1.0000000000000000E+020
  9
$PEXTMAX
 10
-1.0000000000000000E+020
 20
-1.0000000000000000E+020
 30
-1.0000000000000000E+020
  9
$PLIMMIN
 10
0.0
 20
0.0
  9
$PLIMMAX
 10
420.0
 20
297.0
  9
$UNITMODE
 70
     0
  9
$VISRETAIN
 70
     0
  9
$PLINEGEN
 70
     0
  9
$PSLTSCALE
 70
     1
  0
ENDSEC
  0
SECTION
  2
TABLES
  0
TABLE
  2
VPORT
 70
     2
  0
VPORT
  2
*ACTIVE
 70
     0
 10
0.0
 20
0.0
 11
1.0
 21
1.0
 12
-8.9566452666396827
 22
-57.313167540703951
 13
0.0
 23
0.0
 14
0.1
 24
0.1
 15
10.0
 25
10.0
 16
0.0
 26
0.0
 36
1.0
 17
0.0
 27
0.0
 37
0.0
 40
158.80450831210831
 41
1.4993646759847521
 42
50.0
 43
0.0
 44
0.0
 50
0.0
 51
0.0
 71
     0
 72
   100
 73
     1
 74
     1
 75
     1
 76
     0
 77
     0
 78
     0
  0
ENDTAB
  0
TABLE
  2
LTYPE
 70
     2
  0
LTYPE
  2
CONTINUOUS
 70
     0
  3
Solid line
 72
    65
 73
     0
 40
0.0
  0
LTYPE
  2
HIDDEN
 70
     0
  3
__ __ __ __ __ __ __ __ __ __ __ __ __ __ __ __
 72
    65
 73
     2
 40
0.375
 49
0.25
 49
-0.125
  0
ENDTAB
  0
TABLE
  2
LAYER
 70
     1
  0
LAYER
  2
0
 70
     0
 62
     7
  6
CONTINUOUS
  0
ENDTAB
  0
TABLE
  2
STYLE
 70
     2
  0
STYLE
  2
STANDARD
 70
     0
 40
0.0
 41
1.0
 50
0.0
 71
     0
 42
3.0
  3
txt
  4

  0
STYLE
  2
SST
 70
     0
 40
0.0
 41
1.0
 50
0.0
 71
     0
 42
3.5
  3
romans.shx
  4

  0
ENDTAB
  0
TABLE
  2
VIEW
 70
     0
  0
ENDTAB
  0
TABLE
  2
UCS
 70
     0
  0
ENDTAB
  0
TABLE
  2
APPID
 70
     1
  0
APPID
  2
ACAD
 70
     0
  0
ENDTAB
  0
TABLE
  2
DIMSTYLE
 70
     2
  0
DIMSTYLE
  2
NORDIC
 70
     0
  3

  4

  5

  6

  7

 40
2.0
 41
2.0
 42
1.0
 43
10.0
 44
1.0
 45
0.0
 46
0.0
 47
0.0
 48
0.0
140
3.5
141
2.5
142
0.0
143
25.399999999999999
144
1.0
145
0.0
146
1.0
147
1.0
 71
     0
 72
     0
 73
     0
 74
     0
 75
     0
 76
     0
 77
     1
 78
     8
170
     0
171
     2
172
     1
173
     0
174
     0
175
     0
176
     0
177
     0
178
     0
  0
DIMSTYLE
  2
STANDARD
 70
     0
  3

  4

  5

  6

  7

 40
2.0
 41
2.0
 42
1.0
 43
10.0
 44
1.0
 45
0.0
 46
0.0
 47
0.0
 48
0.0
140
3.5
141
2.5
142
0.0
143
25.399999999999999
144
1.0
145
0.0
146
1.0
147
1.0
 71
     0
 72
     0
 73
     0
 74
     0
 75
     0
 76
     0
 77
     1
 78
     8
170
     0
171
     2
172
     1
173
     0
174
     0
175
     0
176
     0
177
     0
178
     0
  0
ENDTAB
  0
ENDSEC
  0
SECTION
  2
BLOCKS
  0
BLOCK
  8
0
  2
$MODEL_SPACE
 70
     0
 10
0.0
 20
0.0
 30
0.0
  3
$MODEL_SPACE
  1

  0
ENDBLK
  5
9
  8
0
  0
BLOCK
 67
     1
  8
0
  2
$PAPER_SPACE
 70
     0
 10
0.0
 20
0.0
 30
0.0
  3
$PAPER_SPACE
  1

  0
ENDBLK
  5
E
 67
     1
  8
0
  0
BLOCK
  8
0
  2
SIMPSON-STRONG-TIE
 70
     0
 10
0.0
 20
0.0
 30
0.0
  3
SIMPSON-STRONG-TIE
  1

  0
TEXT
  5
49
  8
0
  6
CONTINUOUS
 10
-4.7318727780691416
 20
4.4215860385237811
 30
0.0
 40
2.0
  1
SIMPSON
 50
316.94148639091338
  7
SST
 72
     1
 11
0.0
 21
0.0
 31
0.0
  0
TEXT
  5
4A
  8
0
  6
CONTINUOUS
 10
-7.9648409725863862
 20
3.4769825481547749
 30
0.0
 40
2.0
  1
Strong-Tie
 50
316.94148639091338
  7
SST
 72
     1
 11
-2.0499999999999541
 21
-2.0499999999999541
 31
0.0
  0
ENDBLK
  5
4B
  8
0
  0
ENDSEC
  0
SECTION
  2
ENTITIES
  0
LINE
  5
2A
  8
0
 10
14.99999999999997
 20
0.0
 30
0.0
 11
-14.99999999999997
 21
0.0
 31
0.0
  0
LINE
  5
2B
  8
0
 10
-4.9999999999999707
 20
-120.0
 30
0.0
 11
4.9999999999999707
 21
-120.0
 31
0.0
  0
LINE
  5
2C
  8
0
 10
14.99999999999997
 20
-110.0
 30
0.0
 11
14.99999999999997
 21
0.0
 31
0.0
  0
POLYLINE
  5
2D
  8
0
 10
0.0000000000000284
 20
-59.928932188134461
 30
0.0
 66
     1
 70
     8
  0
VERTEX
  8
0
  5
60
 10
2.84000e-014
 20
-59.9289
 30
0.000000
  70
    32
  0
VERTEX
  8
0
  5
61
 10
-0.245338
 20
-59.9374
 30
0.000000
  70
    32
  0
VERTEX
  8
0
  5
62
 10
-0.490086
 20
-59.9630
 30
0.000000
  70
    32
  0
VERTEX
  8
0
  5
63
 10
-0.733652
 20
-60.0055
 30
0.000000
  70
    32
  0
VERTEX
  8
0
  5
64
 10
-0.975452
 20
-60.0648
 30
0.000000
  70
    32
  0
VERTEX
  8
0
  5
65
 10
-1.21490
 20
-60.1408
 30
0.000000
  70
    32
  0
VERTEX
  8
0
  5
66
 10
-1.45142
 20
-60.2334
 30
0.000000
  70
    32
  0
VERTEX
  8
0
  5
67
 10
-1.68445
 20
-60.3423
 30
0.000000
  70
    32
  0
VERTEX
  8
0
  5
68
 10
-1.91342
 20
-60.4672
 30
0.000000
  70
    32
  0
VERTEX
  8
0
  5
69
 10
-2.13778
 20
-60.6078
 30
0.000000
  70
    32
  0
VERTEX
  8
0
  5
6A
 10
-2.35698
 20
-60.7639
 30
0.000000
  70
    32
  0
VERTEX
  8
0
  5
6B
 10
-2.57051
 20
-60.9349
 30
0.000000
  70
    32
  0
VERTEX
  8
0
  5
6C
 10
-2.77785
 20
-61.1206
 30
0.000000
  70
    32
  0
VERTEX
  8
0
  5
6D
 10
-2.97850
 20
-61.3205
 30
0.000000
  70
    32
  0
VERTEX
  8
0
  5
6E
 10
-3.17197
 20
-61.5340
 30
0.000000
  70
    32
  0
VERTEX
  8
0
  5
6F
 10
-3.35779
 20
-61.7607
 30
0.000000
  70
    32
  0
VERTEX
  8
0
  5
70
 10
-3.53553
 20
-62.0000
 30
0.000000
  70
    32
  0
VERTEX
  8
0
  5
71
 10
-3.70476
 20
-62.2514
 30
0.000000
  70
    32
  0
VERTEX
  8
0
  5
72
 10
-3.86505
 20
-62.5142
 30
0.000000
  70
    32
  0
VERTEX
  8
0
  5
73
 10
-4.01604
 20
-62.7878
 30
0.000000
  70
    32
  0
VERTEX
  8
0
  5
74
 10
-4.15735
 20
-63.0715
 30
0.000000
  70
    32
  0
VERTEX
  8
0
  5
75
 10
-4.28864
 20
-63.3647
 30
0.000000
  70
    32
  0
VERTEX
  8
0
  5
76
 10
-4.40961
 20
-63.6667
 30
0.000000
  70
    32
  0
VERTEX
  8
0
  5
77
 10
-4.51995
 20
-63.9767
 30
0.000000
  70
    32
  0
VERTEX
  8
0
  5
78
 10
-4.61940
 20
-64.2940
 30
0.000000
  70
    32
  0
VERTEX
  8
0
  5
79
 10
-4.70772
 20
-64.6178
 30
0.000000
  70
    32
  0
VERTEX
  8
0
  5
7A
 10
-4.78470
 20
-64.9474
 30
0.000000
  70
    32
  0
VERTEX
  8
0
  5
7B
 10
-4.85016
 20
-65.2819
 30
0.000000
  70
    32
  0
VERTEX
  8
0
  5
7C
 10
-4.90393
 20
-65.6205
 30
0.000000
  70
    32
  0
VERTEX
  8
0
  5
7D
 10
-4.94588
 20
-65.9625
 30
0.000000
  70
    32
  0
VERTEX
  8
0
  5
7E
 10
-4.97592
 20
-66.3069
 30
0.000000
  70
    32
  0
VERTEX
  8
0
  5
7F
 10
-4.99398
 20
-66.6530
 30
0.000000
  70
    32
  0
VERTEX
  8
0
  5
80
 10
-5.00000
 20
-67.0000
 30
0.000000
  70
    32
  0
VERTEX
  8
0
  5
81
 10
-4.99398
 20
-67.3470
 30
0.000000
  70
    32
  0
VERTEX
  8
0
  5
82
 10
-4.97592
 20
-67.6931
 30
0.000000
  70
    32
  0
VERTEX
  8
0
  5
83
 10
-4.94588
 20
-68.0375
 30
0.000000
  70
    32
  0
VERTEX
  8
0
  5
84
 10
-4.90393
 20
-68.3795
 30
0.000000
  70
    32
  0
VERTEX
  8
0
  5
85
 10
-4.85016
 20
-68.7181
 30
0.000000
  70
    32
  0
VERTEX
  8
0
  5
86
 10
-4.78470
 20
-69.0526
 30
0.000000
  70
    32
  0
VERTEX
  8
0
  5
87
 10
-4.70772
 20
-69.3822
 30
0.000000
  70
    32
  0
VERTEX
  8
0
  5
88
 10
-4.61940
 20
-69.7060
 30
0.000000
  70
    32
  0
VERTEX
  8
0
  5
89
 10
-4.51995
 20
-70.0233
 30
0.000000
  70
    32
  0
VERTEX
  8
0
  5
8A
 10
-4.40961
 20
-70.3333
 30
0.000000
  70
    32
  0
VERTEX
  8
0
  5
8B
 10
-4.28864
 20
-70.6353
 30
0.000000
  70
    32
  0
VERTEX
  8
0
  5
8C
 10
-4.15735
 20
-70.9285
 30
0.000000
  70
    32
  0
VERTEX
  8
0
  5
8D
 10
-4.01604
 20
-71.2122
 30
0.000000
  70
    32
  0
VERTEX
  8
0
  5
8E
 10
-3.86505
 20
-71.4858
 30
0.000000
  70
    32
  0
VERTEX
  8
0
  5
8F
 10
-3.70476
 20
-71.7486
 30
0.000000
  70
    32
  0
VERTEX
  8
0
  5
90
 10
-3.53553
 20
-72.0000
 30
0.000000
  70
    32
  0
VERTEX
  8
0
  5
91
 10
-3.35779
 20
-72.2393
 30
0.000000
  70
    32
  0
VERTEX
  8
0
  5
92
 10
-3.17197
 20
-72.4660
 30
0.000000
  70
    32
  0
VERTEX
  8
0
  5
93
 10
-2.97850
 20
-72.6795
 30
0.000000
  70
    32
  0
VERTEX
  8
0
  5
94
 10
-2.77785
 20
-72.8794
 30
0.000000
  70
    32
  0
VERTEX
  8
0
  5
95
 10
-2.57051
 20
-73.0651
 30
0.000000
  70
    32
  0
VERTEX
  8
0
  5
96
 10
-2.35698
 20
-73.2361
 30
0.000000
  70
    32
  0
VERTEX
  8
0
  5
97
 10
-2.13778
 20
-73.3922
 30
0.000000
  70
    32
  0
VERTEX
  8
0
  5
98
 10
-1.91342
 20
-73.5328
 30
0.000000
  70
    32
  0
VERTEX
  8
0
  5
99
 10
-1.68445
 20
-73.6577
 30
0.000000
  70
    32
  0
VERTEX
  8
0
  5
9A
 10
-1.45142
 20
-73.7666
 30
0.000000
  70
    32
  0
VERTEX
  8
0
  5
9B
 10
-1.21490
 20
-73.8592
 30
0.000000
  70
    32
  0
VERTEX
  8
0
  5
9C
 10
-0.975452
 20
-73.9352
 30
0.000000
  70
    32
  0
VERTEX
  8
0
  5
9D
 10
-0.733652
 20
-73.9945
 30
0.000000
  70
    32
  0
VERTEX
  8
0
  5
9E
 10
-0.490086
 20
-74.0370
 30
0.000000
  70
    32
  0
VERTEX
  8
0
  5
9F
 10
-0.245338
 20
-74.0626
 30
0.000000
  70
    32
  0
VERTEX
  8
0
  5
A0
 10
2.77877e-014
 20
-74.0711
 30
0.000000
  70
    32
  0
VERTEX
  8
0
  5
A1
 10
0.245338
 20
-74.0626
 30
0.000000
  70
    32
  0
VERTEX
  8
0
  5
A2
 10
0.490086
 20
-74.0370
 30
0.000000
  70
    32
  0
VERTEX
  8
0
  5
A3
 10
0.733652
 20
-73.9945
 30
0.000000
  70
    32
  0
VERTEX
  8
0
  5
A4
 10
0.975452
 20
-73.9352
 30
0.000000
  70
    32
  0
VERTEX
  8
0
  5
A5
 10
1.21490
 20
-73.8592
 30
0.000000
  70
    32
  0
VERTEX
  8
0
  5
A6
 10
1.45142
 20
-73.7666
 30
0.000000
  70
    32
  0
VERTEX
  8
0
  5
A7
 10
1.68445
 20
-73.6577
 30
0.000000
  70
    32
  0
VERTEX
  8
0
  5
A8
 10
1.91342
 20
-73.5328
 30
0.000000
  70
    32
  0
VERTEX
  8
0
  5
A9
 10
2.13778
 20
-73.3922
 30
0.000000
  70
    32
  0
VERTEX
  8
0
  5
AA
 10
2.35698
 20
-73.2361
 30
0.000000
  70
    32
  0
VERTEX
  8
0
  5
AB
 10
2.57051
 20
-73.0651
 30
0.000000
  70
    32
  0
VERTEX
  8
0
  5
AC
 10
2.77785
 20
-72.8794
 30
0.000000
  70
    32
  0
VERTEX
  8
0
  5
AD
 10
2.97850
 20
-72.6795
 30
0.000000
  70
    32
  0
VERTEX
  8
0
  5
AE
 10
3.17197
 20
-72.4660
 30
0.000000
  70
    32
  0
VERTEX
  8
0
  5
AF
 10
3.35779
 20
-72.2393
 30
0.000000
  70
    32
  0
VERTEX
  8
0
  5
B0
 10
3.53553
 20
-72.0000
 30
0.000000
  70
    32
  0
VERTEX
  8
0
  5
B1
 10
3.70476
 20
-71.7486
 30
0.000000
  70
    32
  0
VERTEX
  8
0
  5
B2
 10
3.86505
 20
-71.4858
 30
0.000000
  70
    32
  0
VERTEX
  8
0
  5
B3
 10
4.01604
 20
-71.2122
 30
0.000000
  70
    32
  0
VERTEX
  8
0
  5
B4
 10
4.15735
 20
-70.9285
 30
0.000000
  70
    32
  0
VERTEX
  8
0
  5
B5
 10
4.28864
 20
-70.6353
 30
0.000000
  70
    32
  0
VERTEX
  8
0
  5
B6
 10
4.40961
 20
-70.3333
 30
0.000000
  70
    32
  0
VERTEX
  8
0
  5
B7
 10
4.51995
 20
-70.0233
 30
0.000000
  70
    32
  0
VERTEX
  8
0
  5
B8
 10
4.61940
 20
-69.7060
 30
0.000000
  70
    32
  0
VERTEX
  8
0
  5
B9
 10
4.70772
 20
-69.3822
 30
0.000000
  70
    32
  0
VERTEX
  8
0
  5
BA
 10
4.78470
 20
-69.0526
 30
0.000000
  70
    32
  0
VERTEX
  8
0
  5
BB
 10
4.85016
 20
-68.7181
 30
0.000000
  70
    32
  0
VERTEX
  8
0
  5
BC
 10
4.90393
 20
-68.3795
 30
0.000000
  70
    32
  0
VERTEX
  8
0
  5
BD
 10
4.94588
 20
-68.0375
 30
0.000000
  70
    32
  0
VERTEX
  8
0
  5
BE
 10
4.97592
 20
-67.6931
 30
0.000000
  70
    32
  0
VERTEX
  8
0
  5
BF
 10
4.99398
 20
-67.3470
 30
0.000000
  70
    32
  0
VERTEX
  8
0
  5
C0
 10
5.00000
 20
-67.0000
 30
0.000000
  70
    32
  0
VERTEX
  8
0
  5
C1
 10
4.99398
 20
-66.6530
 30
0.000000
  70
    32
  0
VERTEX
  8
0
  5
C2
 10
4.97592
 20
-66.3069
 30
0.000000
  70
    32
  0
VERTEX
  8
0
  5
C3
 10
4.94588
 20
-65.9625
 30
0.000000
  70
    32
  0
VERTEX
  8
0
  5
C4
 10
4.90393
 20
-65.6205
 30
0.000000
  70
    32
  0
VERTEX
  8
0
  5
C5
 10
4.85016
 20
-65.2819
 30
0.000000
  70
    32
  0
VERTEX
  8
0
  5
C6
 10
4.78470
 20
-64.9474
 30
0.000000
  70
    32
  0
VERTEX
  8
0
  5
C7
 10
4.70772
 20
-64.6178
 30
0.000000
  70
    32
  0
VERTEX
  8
0
  5
C8
 10
4.61940
 20
-64.2940
 30
0.000000
  70
    32
  0
VERTEX
  8
0
  5
C9
 10
4.51995
 20
-63.9767
 30
0.000000
  70
    32
  0
VERTEX
  8
0
  5
CA
 10
4.40961
 20
-63.6667
 30
0.000000
  70
    32
  0
VERTEX
  8
0
  5
CB
 10
4.28864
 20
-63.3647
 30
0.000000
  70
    32
  0
VERTEX
  8
0
  5
CC
 10
4.15735
 20
-63.0715
 30
0.000000
  70
    32
  0
VERTEX
  8
0
  5
CD
 10
4.01604
 20
-62.7878
 30
0.000000
  70
    32
  0
VERTEX
  8
0
  5
CE
 10
3.86505
 20
-62.5142
 30
0.000000
  70
    32
  0
VERTEX
  8
0
  5
CF
 10
3.70476
 20
-62.2514
 30
0.000000
  70
    32
  0
VERTEX
  8
0
  5
D0
 10
3.53553
 20
-62.0000
 30
0.000000
  70
    32
  0
VERTEX
  8
0
  5
D1
 10
3.35779
 20
-61.7607
 30
0.000000
  70
    32
  0
VERTEX
  8
0
  5
D2
 10
3.17197
 20
-61.5340
 30
0.000000
  70
    32
  0
VERTEX
  8
0
  5
D3
 10
2.97850
 20
-61.3205
 30
0.000000
  70
    32
  0
VERTEX
  8
0
  5
D4
 10
2.77785
 20
-61.1206
 30
0.000000
  70
    32
  0
VERTEX
  8
0
  5
D5
 10
2.57051
 20
-60.9349
 30
0.000000
  70
    32
  0
VERTEX
  8
0
  5
D6
 10
2.35698
 20
-60.7639
 30
0.000000
  70
    32
  0
VERTEX
  8
0
  5
D7
 10
2.13778
 20
-60.6078
 30
0.000000
  70
    32
  0
VERTEX
  8
0
  5
D8
 10
1.91342
 20
-60.4672
 30
0.000000
  70
    32
  0
VERTEX
  8
0
  5
D9
 10
1.68445
 20
-60.3423
 30
0.000000
  70
    32
  0
VERTEX
  8
0
  5
DA
 10
1.45142
 20
-60.2334
 30
0.000000
  70
    32
  0
VERTEX
  8
0
  5
DB
 10
1.21490
 20
-60.1408
 30
0.000000
  70
    32
  0
VERTEX
  8
0
  5
DC
 10
0.975452
 20
-60.0648
 30
0.000000
  70
    32
  0
VERTEX
  8
0
  5
DD
 10
0.733652
 20
-60.0055
 30
0.000000
  70
    32
  0
VERTEX
  8
0
  5
DE
 10
0.490086
 20
-59.9630
 30
0.000000
  70
    32
  0
VERTEX
  8
0
  5
DF
 10
0.245338
 20
-59.9374
 30
0.000000
  70
    32
  0
VERTEX
  8
0
  5
E0
 10
2.84000e-014
 20
-59.9289
 30
0.000000
  70
    32
  0
SEQEND
  8
0
  5
E1
  0
POLYLINE
  5
2E
  8
0
 10
4.7140452079103321
 20
-69.357022603955102
 30
0.0
 66
     1
 70
     8
  0
VERTEX
  8
0
  5
E2
 10
4.71405
 20
-69.3570
 30
0.000000
  70
    32
  0
VERTEX
  8
0
  5
E3
 10
4.68112
 20
-69.2931
 30
0.000000
  70
    32
  0
VERTEX
  8
0
  5
E4
 10
4.64646
 20
-69.2297
 30
0.000000
  70
    32
  0
VERTEX
  8
0
  5
E5
 10
4.61008
 20
-69.1668
 30
0.000000
  70
    32
  0
VERTEX
  8
0
  5
E6
 10
4.57200
 20
-69.1043
 30
0.000000
  70
    32
  0
VERTEX
  8
0
  5
E7
 10
4.53223
 20
-69.0424
 30
0.000000
  70
    32
  0
VERTEX
  8
0
  5
E8
 10
4.49078
 20
-68.9810
 30
0.000000
  70
    32
  0
VERTEX
  8
0
  5
E9
 10
4.44767
 20
-68.9203
 30
0.000000
  70
    32
  0
VERTEX
  8
0
  5
EA
 10
4.40291
 20
-68.8601
 30
0.000000
  70
    32
  0
VERTEX
  8
0
  5
EB
 10
4.35653
 20
-68.8005
 30
0.000000
  70
    32
  0
VERTEX
  8
0
  5
EC
 10
4.30853
 20
-68.7416
 30
0.000000
  70
    32
  0
VERTEX
  8
0
  5
ED
 10
4.25894
 20
-68.6833
 30
0.000000
  70
    32
  0
VERTEX
  8
0
  5
EE
 10
4.20777
 20
-68.6257
 30
0.000000
  70
    32
  0
VERTEX
  8
0
  5
EF
 10
4.15505
 20
-68.5689
 30
0.000000
  70
    32
  0
VERTEX
  8
0
  5
F0
 10
4.10079
 20
-68.5127
 30
0.000000
  70
    32
  0
VERTEX
  8
0
  5
F1
 10
4.04501
 20
-68.4573
 30
0.000000
  70
    32
  0
VERTEX
  8
0
  5
F2
 10
3.98774
 20
-68.4027
 30
0.000000
  70
    32
  0
VERTEX
  8
0
  5
F3
 10
3.92899
 20
-68.3489
 30
0.000000
  70
    32
  0
VERTEX
  8
0
  5
F4
 10
3.86879
 20
-68.2958
 30
0.000000
  70
    32
  0
VERTEX
  8
0
  5
F5
 10
3.80716
 20
-68.2436
 30
0.000000
  70
    32
  0
VERTEX
  8
0
  5
F6
 10
3.74412
 20
-68.1923
 30
0.000000
  70
    32
  0
VERTEX
  8
0
  5
F7
 10
3.67969
 20
-68.1418
 30
0.000000
  70
    32
  0
VERTEX
  8
0
  5
F8
 10
3.61390
 20
-68.0922
 30
0.000000
  70
    32
  0
VERTEX
  8
0
  5
F9
 10
3.54678
 20
-68.0435
 30
0.000000
  70
    32
  0
VERTEX
  8
0
  5
FA
 10
3.47834
 20
-67.9957
 30
0.000000
  70
    32
  0
VERTEX
  8
0
  5
FB
 10
3.40862
 20
-67.9489
 30
0.000000
  70
    32
  0
VERTEX
  8
0
  5
FC
 10
3.33763
 20
-67.9030
 30
0.000000
  70
    32
  0
VERTEX
  8
0
  5
FD
 10
3.26541
 20
-67.8581
 30
0.000000
  70
    32
  0
VERTEX
  8
0
  5
FE
 10
3.19199
 20
-67.8142
 30
0.000000
  70
    32
  0
VERTEX
  8
0
  5
FF
 10
3.11738
 20
-67.7713
 30
0.000000
  70
    32
  0
VERTEX
  8
0
  5
100
 10
3.04162
 20
-67.7294
 30
0.000000
  70
    32
  0
VERTEX
  8
0
  5
101
 10
2.96473
 20
-67.6886
 30
0.000000
  70
    32
  0
VERTEX
  8
0
  5
102
 10
2.88675
 20
-67.6488
 30
0.000000
  70
    32
  0
VERTEX
  8
0
  5
103
 10
2.80770
 20
-67.6101
 30
0.000000
  70
    32
  0
VERTEX
  8
0
  5
104
 10
2.72761
 20
-67.5724
 30
0.000000
  70
    32
  0
VERTEX
  8
0
  5
105
 10
2.64651
 20
-67.5359
 30
0.000000
  70
    32
  0
VERTEX
  8
0
  5
106
 10
2.56444
 20
-67.5004
 30
0.000000
  70
    32
  0
VERTEX
  8
0
  5
107
 10
2.48141
 20
-67.4661
 30
0.000000
  70
    32
  0
VERTEX
  8
0
  5
108
 10
2.39747
 20
-67.4329
 30
0.000000
  70
    32
  0
VERTEX
  8
0
  5
109
 10
2.31264
 20
-67.4009
 30
0.000000
  70
    32
  0
VERTEX
  8
0
  5
10A
 10
2.22695
 20
-67.3700
 30
0.000000
  70
    32
  0
VERTEX
  8
0
  5
10B
 10
2.14044
 20
-67.3403
 30
0.000000
  70
    32
  0
VERTEX
  8
0
  5
10C
 10
2.05314
 20
-67.3118
 30
0.000000
  70
    32
  0
VERTEX
  8
0
  5
10D
 10
1.96508
 20
-67.2845
 30
0.000000
  70
    32
  0
VERTEX
  8
0
  5
10E
 10
1.87629
 20
-67.2584
 30
0.000000
  70
    32
  0
VERTEX
  8
0
  5
10F
 10
1.78681
 20
-67.2335
 30
0.000000
  70
    32
  0
VERTEX
  8
0
  5
110
 10
1.69666
 20
-67.2098
 30
0.000000
  70
    32
  0
VERTEX
  8
0
  5
111
 10
1.60589
 20
-67.1873
 30
0.000000
  70
    32
  0
VERTEX
  8
0
  5
112
 10
1.51453
 20
-67.1661
 30
0.000000
  70
    32
  0
VERTEX
  8
0
  5
113
 10
1.42260
 20
-67.1461
 30
0.000000
  70
    32
  0
VERTEX
  8
0
  5
114
 10
1.33015
 20
-67.1274
 30
0.000000
  70
    32
  0
VERTEX
  8
0
  5
115
 10
1.23721
 20
-67.1099
 30
0.000000
  70
    32
  0
VERTEX
  8
0
  5
116
 10
1.14381
 20
-67.0938
 30
0.000000
  70
    32
  0
VERTEX
  8
0
  5
117
 10
1.04998
 20
-67.0788
 30
0.000000
  70
    32
  0
VERTEX
  8
0
  5
118
 10
0.955769
 20
-67.0652
 30
0.000000
  70
    32
  0
VERTEX
  8
0
  5
119
 10
0.861202
 20
-67.0528
 30
0.000000
  70
    32
  0
VERTEX
  8
0
  5
11A
 10
0.766317
 20
-67.0418
 30
0.000000
  70
    32
  0
VERTEX
  8
0
  5
11B
 10
0.671149
 20
-67.0320
 30
0.000000
  70
    32
  0
VERTEX
  8
0
  5
11C
 10
0.575732
 20
-67.0235
 30
0.000000
  70
    32
  0
VERTEX
  8
0
  5
11D
 10
0.480103
 20
-67.0163
 30
0.000000
  70
    32
  0
VERTEX
  8
0
  5
11E
 10
0.384295
 20
-67.0105
 30
0.000000
  70
    32
  0
VERTEX
  8
0
  5
11F
 10
0.288346
 20
-67.0059
 30
0.000000
  70
    32
  0
VERTEX
  8
0
  5
120
 10
0.192290
 20
-67.0026
 30
0.000000
  70
    32
  0
VERTEX
  8
0
  5
121
 10
0.0961628
 20
-67.0007
 30
0.000000
  70
    32
  0
VERTEX
  8
0
  5
122
 10
3.47493e-014
 20
-67.0000
 30
0.000000
  70
    32
  0
VERTEX
  8
0
  5
123
 10
-0.0961628
 20
-67.0007
 30
0.000000
  70
    32
  0
VERTEX
  8
0
  5
124
 10
-0.192290
 20
-67.0026
 30
0.000000
  70
    32
  0
VERTEX
  8
0
  5
125
 10
-0.288346
 20
-67.0059
 30
0.000000
  70
    32
  0
VERTEX
  8
0
  5
126
 10
-0.384295
 20
-67.0105
 30
0.000000
  70
    32
  0
VERTEX
  8
0
  5
127
 10
-0.480103
 20
-67.0163
 30
0.000000
  70
    32
  0
VERTEX
  8
0
  5
128
 10
-0.575732
 20
-67.0235
 30
0.000000
  70
    32
  0
VERTEX
  8
0
  5
129
 10
-0.671149
 20
-67.0320
 30
0.000000
  70
    32
  0
VERTEX
  8
0
  5
12A
 10
-0.766317
 20
-67.0418
 30
0.000000
  70
    32
  0
VERTEX
  8
0
  5
12B
 10
-0.861202
 20
-67.0528
 30
0.000000
  70
    32
  0
VERTEX
  8
0
  5
12C
 10
-0.955769
 20
-67.0652
 30
0.000000
  70
    32
  0
VERTEX
  8
0
  5
12D
 10
-1.04998
 20
-67.0788
 30
0.000000
  70
    32
  0
VERTEX
  8
0
  5
12E
 10
-1.14381
 20
-67.0938
 30
0.000000
  70
    32
  0
VERTEX
  8
0
  5
12F
 10
-1.23721
 20
-67.1099
 30
0.000000
  70
    32
  0
VERTEX
  8
0
  5
130
 10
-1.33015
 20
-67.1274
 30
0.000000
  70
    32
  0
VERTEX
  8
0
  5
131
 10
-1.42260
 20
-67.1461
 30
0.000000
  70
    32
  0
VERTEX
  8
0
  5
132
 10
-1.51453
 20
-67.1661
 30
0.000000
  70
    32
  0
VERTEX
  8
0
  5
133
 10
-1.60589
 20
-67.1873
 30
0.000000
  70
    32
  0
VERTEX
  8
0
  5
134
 10
-1.69666
 20
-67.2098
 30
0.000000
  70
    32
  0
VERTEX
  8
0
  5
135
 10
-1.78681
 20
-67.2335
 30
0.000000
  70
    32
  0
VERTEX
  8
0
  5
136
 10
-1.87629
 20
-67.2584
 30
0.000000
  70
    32
  0
VERTEX
  8
0
  5
137
 10
-1.96508
 20
-67.2845
 30
0.000000
  70
    32
  0
VERTEX
  8
0
  5
138
 10
-2.05314
 20
-67.3118
 30
0.000000
  70
    32
  0
VERTEX
  8
0
  5
139
 10
-2.14044
 20
-67.3403
 30
0.000000
  70
    32
  0
VERTEX
  8
0
  5
13A
 10
-2.22695
 20
-67.3700
 30
0.000000
  70
    32
  0
VERTEX
  8
0
  5
13B
 10
-2.31264
 20
-67.4009
 30
0.000000
  70
    32
  0
VERTEX
  8
0
  5
13C
 10
-2.39747
 20
-67.4329
 30
0.000000
  70
    32
  0
VERTEX
  8
0
  5
13D
 10
-2.48141
 20
-67.4661
 30
0.000000
  70
    32
  0
VERTEX
  8
0
  5
13E
 10
-2.56444
 20
-67.5004
 30
0.000000
  70
    32
  0
VERTEX
  8
0
  5
13F
 10
-2.64651
 20
-67.5359
 30
0.000000
  70
    32
  0
VERTEX
  8
0
  5
140
 10
-2.72761
 20
-67.5724
 30
0.000000
  70
    32
  0
VERTEX
  8
0
  5
141
 10
-2.80770
 20
-67.6101
 30
0.000000
  70
    32
  0
VERTEX
  8
0
  5
142
 10
-2.88675
 20
-67.6488
 30
0.000000
  70
    32
  0
VERTEX
  8
0
  5
143
 10
-2.96473
 20
-67.6886
 30
0.000000
  70
    32
  0
VERTEX
  8
0
  5
144
 10
-3.04162
 20
-67.7294
 30
0.000000
  70
    32
  0
VERTEX
  8
0
  5
145
 10
-3.11738
 20
-67.7713
 30
0.000000
  70
    32
  0
VERTEX
  8
0
  5
146
 10
-3.19199
 20
-67.8142
 30
0.000000
  70
    32
  0
VERTEX
  8
0
  5
147
 10
-3.26541
 20
-67.8581
 30
0.000000
  70
    32
  0
VERTEX
  8
0
  5
148
 10
-3.33763
 20
-67.9030
 30
0.000000
  70
    32
  0
VERTEX
  8
0
  5
149
 10
-3.40862
 20
-67.9489
 30
0.000000
  70
    32
  0
VERTEX
  8
0
  5
14A
 10
-3.47834
 20
-67.9957
 30
0.000000
  70
    32
  0
VERTEX
  8
0
  5
14B
 10
-3.54678
 20
-68.0435
 30
0.000000
  70
    32
  0
VERTEX
  8
0
  5
14C
 10
-3.61390
 20
-68.0922
 30
0.000000
  70
    32
  0
VERTEX
  8
0
  5
14D
 10
-3.67969
 20
-68.1418
 30
0.000000
  70
    32
  0
VERTEX
  8
0
  5
14E
 10
-3.74412
 20
-68.1923
 30
0.000000
  70
    32
  0
VERTEX
  8
0
  5
14F
 10
-3.80716
 20
-68.2436
 30
0.000000
  70
    32
  0
VERTEX
  8
0
  5
150
 10
-3.86879
 20
-68.2958
 30
0.000000
  70
    32
  0
VERTEX
  8
0
  5
151
 10
-3.92899
 20
-68.3489
 30
0.000000
  70
    32
  0
VERTEX
  8
0
  5
152
 10
-3.98774
 20
-68.4027
 30
0.000000
  70
    32
  0
VERTEX
  8
0
  5
153
 10
-4.04501
 20
-68.4573
 30
0.000000
  70
    32
  0
VERTEX
  8
0
  5
154
 10
-4.10079
 20
-68.5127
 30
0.000000
  70
    32
  0
VERTEX
  8
0
  5
155
 10
-4.15505
 20
-68.5689
 30
0.000000
  70
    32
  0
VERTEX
  8
0
  5
156
 10
-4.20777
 20
-68.6257
 30
0.000000
  70
    32
  0
VERTEX
  8
0
  5
157
 10
-4.25894
 20
-68.6833
 30
0.000000
  70
    32
  0
VERTEX
  8
0
  5
158
 10
-4.30853
 20
-68.7416
 30
0.000000
  70
    32
  0
VERTEX
  8
0
  5
159
 10
-4.35653
 20
-68.8005
 30
0.000000
  70
    32
  0
VERTEX
  8
0
  5
15A
 10
-4.40291
 20
-68.8601
 30
0.000000
  70
    32
  0
VERTEX
  8
0
  5
15B
 10
-4.44767
 20
-68.9203
 30
0.000000
  70
    32
  0
VERTEX
  8
0
  5
15C
 10
-4.49078
 20
-68.9810
 30
0.000000
  70
    32
  0
VERTEX
  8
0
  5
15D
 10
-4.53223
 20
-69.0424
 30
0.000000
  70
    32
  0
VERTEX
  8
0
  5
15E
 10
-4.57200
 20
-69.1043
 30
0.000000
  70
    32
  0
VERTEX
  8
0
  5
15F
 10
-4.61008
 20
-69.1668
 30
0.000000
  70
    32
  0
VERTEX
  8
0
  5
160
 10
-4.64646
 20
-69.2297
 30
0.000000
  70
    32
  0
VERTEX
  8
0
  5
161
 10
-4.68112
 20
-69.2931
 30
0.000000
  70
    32
  0
VERTEX
  8
0
  5
162
 10
-4.71405
 20
-69.3570
 30
0.000000
  70
    32
  0
SEQEND
  8
0
  5
163
  0
POLYLINE
  5
2F
  8
0
 10
2.7000000000000375
 20
-72.161879502661719
 30
0.0
 66
     1
 70
     8
  0
VERTEX
  8
0
  5
164
 10
2.70000
 20
-72.1619
 30
0.000000
  70
    32
  0
VERTEX
  8
0
  5
165
 10
2.69675
 20
-72.0682
 30
0.000000
  70
    32
  0
VERTEX
  8
0
  5
166
 10
2.68700
 20
-71.9747
 30
0.000000
  70
    32
  0
VERTEX
  8
0
  5
167
 10
2.67078
 20
-71.8817
 30
0.000000
  70
    32
  0
VERTEX
  8
0
  5
168
 10
2.64812
 20
-71.7894
 30
0.000000
  70
    32
  0
VERTEX
  8
0
  5
169
 10
2.61908
 20
-71.6980
 30
0.000000
  70
    32
  0
VERTEX
  8
0
  5
16A
 10
2.58374
 20
-71.6077
 30
0.000000
  70
    32
  0
VERTEX
  8
0
  5
16B
 10
2.54217
 20
-71.5187
 30
0.000000
  70
    32
  0
VERTEX
  8
0
  5
16C
 10
2.49447
 20
-71.4313
 30
0.000000
  70
    32
  0
VERTEX
  8
0
  5
16D
 10
2.44077
 20
-71.3456
 30
0.000000
  70
    32
  0
VERTEX
  8
0
  5
16E
 10
2.38119
 20
-71.2619
 30
0.000000
  70
    32
  0
VERTEX
  8
0
  5
16F
 10
2.31587
 20
-71.1804
 30
0.000000
  70
    32
  0
VERTEX
  8
0
  5
170
 10
2.24497
 20
-71.1012
 30
0.000000
  70
    32
  0
VERTEX
  8
0
  5
171
 10
2.16866
 20
-71.0246
 30
0.000000
  70
    32
  0
VERTEX
  8
0
  5
172
 10
2.08713
 20
-70.9507
 30
0.000000
  70
    32
  0
VERTEX
  8
0
  5
173
 10
2.00057
 20
-70.8797
 30
0.000000
  70
    32
  0
VERTEX
  8
0
  5
174
 10
1.90919
 20
-70.8119
 30
0.000000
  70
    32
  0
VERTEX
  8
0
  5
175
 10
1.81321
 20
-70.7473
 30
0.000000
  70
    32
  0
VERTEX
  8
0
  5
176
 10
1.71286
 20
-70.6861
 30
0.000000
  70
    32
  0
VERTEX
  8
0
  5
177
 10
1.60839
 20
-70.6284
 30
0.000000
  70
    32
  0
VERTEX
  8
0
  5
178
 10
1.50004
 20
-70.5744
 30
0.000000
  70
    32
  0
VERTEX
  8
0
  5
179
 10
1.38808
 20
-70.5243
 30
0.000000
  70
    32
  0
VERTEX
  8
0
  5
17A
 10
1.27277
 20
-70.4781
 30
0.000000
  70
    32
  0
VERTEX
  8
0
  5
17B
 10
1.15440
 20
-70.4360
 30
0.000000
  70
    32
  0
VERTEX
  8
0
  5
17C
 10
1.03325
 20
-70.3980
 30
0.000000
  70
    32
  0
VERTEX
  8
0
  5
17D
 10
0.909603
 20
-70.3643
 30
0.000000
  70
    32
  0
VERTEX
  8
0
  5
17E
 10
0.783769
 20
-70.3349
 30
0.000000
  70
    32
  0
VERTEX
  8
0
  5
17F
 10
0.656046
 20
-70.3099
 30
0.000000
  70
    32
  0
VERTEX
  8
0
  5
180
 10
0.526744
 20
-70.2894
 30
0.000000
  70
    32
  0
VERTEX
  8
0
  5
181
 10
0.396172
 20
-70.2734
 30
0.000000
  70
    32
  0
VERTEX
  8
0
  5
182
 10
0.264646
 20
-70.2619
 30
0.000000
  70
    32
  0
VERTEX
  8
0
  5
183
 10
0.132483
 20
-70.2550
 30
0.000000
  70
    32
  0
VERTEX
  8
0
  5
184
 10
1.35039e-014
 20
-70.2527
 30
0.000000
  70
    32
  0
VERTEX
  8
0
  5
185
 10
-0.132483
 20
-70.2550
 30
0.000000
  70
    32
  0
VERTEX
  8
0
  5
186
 10
-0.264646
 20
-70.2619
 30
0.000000
  70
    32
  0
VERTEX
  8
0
  5
187
 10
-0.396172
 20
-70.2734
 30
0.000000
  70
    32
  0
VERTEX
  8
0
  5
188
 10
-0.526744
 20
-70.2894
 30
0.000000
  70
    32
  0
VERTEX
  8
0
  5
189
 10
-0.656046
 20
-70.3099
 30
0.000000
  70
    32
  0
VERTEX
  8
0
  5
18A
 10
-0.783769
 20
-70.3349
 30
0.000000
  70
    32
  0
VERTEX
  8
0
  5
18B
 10
-0.909603
 20
-70.3643
 30
0.000000
  70
    32
  0
VERTEX
  8
0
  5
18C
 10
-1.03325
 20
-70.3980
 30
0.000000
  70
    32
  0
VERTEX
  8
0
  5
18D
 10
-1.15440
 20
-70.4360
 30
0.000000
  70
    32
  0
VERTEX
  8
0
  5
18E
 10
-1.27277
 20
-70.4781
 30
0.000000
  70
    32
  0
VERTEX
  8
0
  5
18F
 10
-1.38808
 20
-70.5243
 30
0.000000
  70
    32
  0
VERTEX
  8
0
  5
190
 10
-1.50004
 20
-70.5744
 30
0.000000
  70
    32
  0
VERTEX
  8
0
  5
191
 10
-1.60839
 20
-70.6284
 30
0.000000
  70
    32
  0
VERTEX
  8
0
  5
192
 10
-1.71286
 20
-70.6861
 30
0.000000
  70
    32
  0
VERTEX
  8
0
  5
193
 10
-1.81321
 20
-70.7473
 30
0.000000
  70
    32
  0
VERTEX
  8
0
  5
194
 10
-1.90919
 20
-70.8119
 30
0.000000
  70
    32
  0
VERTEX
  8
0
  5
195
 10
-2.00057
 20
-70.8797
 30
0.000000
  70
    32
  0
VERTEX
  8
0
  5
196
 10
-2.08713
 20
-70.9507
 30
0.000000
  70
    32
  0
VERTEX
  8
0
  5
197
 10
-2.16866
 20
-71.0246
 30
0.000000
  70
    32
  0
VERTEX
  8
0
  5
198
 10
-2.24497
 20
-71.1012
 30
0.000000
  70
    32
  0
VERTEX
  8
0
  5
199
 10
-2.31587
 20
-71.1804
 30
0.000000
  70
    32
  0
VERTEX
  8
0
  5
19A
 10
-2.38119
 20
-71.2619
 30
0.000000
  70
    32
  0
VERTEX
  8
0
  5
19B
 10
-2.44077
 20
-71.3456
 30
0.000000
  70
    32
  0
VERTEX
  8
0
  5
19C
 10
-2.49447
 20
-71.4313
 30
0.000000
  70
    32
  0
VERTEX
  8
0
  5
19D
 10
-2.54217
 20
-71.5187
 30
0.000000
  70
    32
  0
VERTEX
  8
0
  5
19E
 10
-2.58374
 20
-71.6077
 30
0.000000
  70
    32
  0
VERTEX
  8
0
  5
19F
 10
-2.61908
 20
-71.6980
 30
0.000000
  70
    32
  0
VERTEX
  8
0
  5
1A0
 10
-2.64812
 20
-71.7894
 30
0.000000
  70
    32
  0
VERTEX
  8
0
  5
1A1
 10
-2.67078
 20
-71.8817
 30
0.000000
  70
    32
  0
VERTEX
  8
0
  5
1A2
 10
-2.68700
 20
-71.9747
 30
0.000000
  70
    32
  0
VERTEX
  8
0
  5
1A3
 10
-2.69675
 20
-72.0682
 30
0.000000
  70
    32
  0
VERTEX
  8
0
  5
1A4
 10
-2.70000
 20
-72.1619
 30
0.000000
  70
    32
  0
VERTEX
  8
0
  5
1A5
 10
-2.69675
 20
-72.2556
 30
0.000000
  70
    32
  0
VERTEX
  8
0
  5
1A6
 10
-2.68700
 20
-72.3490
 30
0.000000
  70
    32
  0
VERTEX
  8
0
  5
1A7
 10
-2.67078
 20
-72.4420
 30
0.000000
  70
    32
  0
VERTEX
  8
0
  5
1A8
 10
-2.64812
 20
-72.5343
 30
0.000000
  70
    32
  0
VERTEX
  8
0
  5
1A9
 10
-2.61908
 20
-72.6258
 30
0.000000
  70
    32
  0
VERTEX
  8
0
  5
1AA
 10
-2.58374
 20
-72.7161
 30
0.000000
  70
    32
  0
VERTEX
  8
0
  5
1AB
 10
-2.54217
 20
-72.8051
 30
0.000000
  70
    32
  0
VERTEX
  8
0
  5
1AC
 10
-2.49447
 20
-72.8925
 30
0.000000
  70
    32
  0
VERTEX
  8
0
  5
1AD
 10
-2.44077
 20
-72.9782
 30
0.000000
  70
    32
  0
VERTEX
  8
0
  5
1AE
 10
-2.38119
 20
-73.0619
 30
0.000000
  70
    32
  0
VERTEX
  8
0
  5
1AF
 10
-2.31587
 20
-73.1434
 30
0.000000
  70
    32
  0
VERTEX
  8
0
  5
1B0
 10
-2.24497
 20
-73.2226
 30
0.000000
  70
    32
  0
VERTEX
  8
0
  5
1B1
 10
-2.16866
 20
-73.2992
 30
0.000000
  70
    32
  0
VERTEX
  8
0
  5
1B2
 10
-2.08713
 20
-73.3731
 30
0.000000
  70
    32
  0
VERTEX
  8
0
  5
1B3
 10
-2.00057
 20
-73.4440
 30
0.000000
  70
    32
  0
VERTEX
  8
0
  5
1B4
 10
-1.90919
 20
-73.5119
 30
0.000000
  70
    32
  0
VERTEX
  8
0
  5
1B5
 10
-1.81321
 20
-73.5765
 30
0.000000
  70
    32
  0
VERTEX
  8
0
  5
1B6
 10
-1.71286
 20
-73.6377
 30
0.000000
  70
    32
  0
VERTEX
  8
0
  5
1B7
 10
-1.60839
 20
-73.6954
 30
0.000000
  70
    32
  0
VERTEX
  8
0
  5
1B8
 10
-1.50004
 20
-73.7493
 30
0.000000
  70
    32
  0
VERTEX
  8
0
  5
1B9
 10
-1.38808
 20
-73.7994
 30
0.000000
  70
    32
  0
VERTEX
  8
0
  5
1BA
 10
-1.27277
 20
-73.8456
 30
0.000000
  70
    32
  0
VERTEX
  8
0
  5
1BB
 10
-1.15440
 20
-73.8878
 30
0.000000
  70
    32
  0
VERTEX
  8
0
  5
1BC
 10
-1.03325
 20
-73.9257
 30
0.000000
  70
    32
  0
VERTEX
  8
0
  5
1BD
 10
-0.909603
 20
-73.9595
 30
0.000000
  70
    32
  0
VERTEX
  8
0
  5
1BE
 10
-0.783769
 20
-73.9889
 30
0.000000
  70
    32
  0
VERTEX
  8
0
  5
1BF
 10
-0.656046
 20
-74.0139
 30
0.000000
  70
    32
  0
VERTEX
  8
0
  5
1C0
 10
-0.526744
 20
-74.0344
 30
0.000000
  70
    32
  0
VERTEX
  8
0
  5
1C1
 10
-0.396172
 20
-74.0504
 30
0.000000
  70
    32
  0
VERTEX
  8
0
  5
1C2
 10
-0.264646
 20
-74.0619
 30
0.000000
  70
    32
  0
VERTEX
  8
0
  5
1C3
 10
-0.132483
 20
-74.0688
 30
0.000000
  70
    32
  0
VERTEX
  8
0
  5
1C4
 10
4.29654e-014
 20
-74.0711
 30
0.000000
  70
    32
  0
VERTEX
  8
0
  5
1C5
 10
0.132483
 20
-74.0688
 30
0.000000
  70
    32
  0
VERTEX
  8
0
  5
1C6
 10
0.264646
 20
-74.0619
 30
0.000000
  70
    32
  0
VERTEX
  8
0
  5
1C7
 10
0.396172
 20
-74.0504
 30
0.000000
  70
    32
  0
VERTEX
  8
0
  5
1C8
 10
0.526744
 20
-74.0344
 30
0.000000
  70
    32
  0
VERTEX
  8
0
  5
1C9
 10
0.656046
 20
-74.0139
 30
0.000000
  70
    32
  0
VERTEX
  8
0
  5
1CA
 10
0.783769
 20
-73.9889
 30
0.000000
  70
    32
  0
VERTEX
  8
0
  5
1CB
 10
0.909603
 20
-73.9595
 30
0.000000
  70
    32
  0
VERTEX
  8
0
  5
1CC
 10
1.03325
 20
-73.9257
 30
0.000000
  70
    32
  0
VERTEX
  8
0
  5
1CD
 10
1.15440
 20
-73.8878
 30
0.000000
  70
    32
  0
VERTEX
  8
0
  5
1CE
 10
1.27277
 20
-73.8456
 30
0.000000
  70
    32
  0
VERTEX
  8
0
  5
1CF
 10
1.38808
 20
-73.7994
 30
0.000000
  70
    32
  0
VERTEX
  8
0
  5
1D0
 10
1.50004
 20
-73.7493
 30
0.000000
  70
    32
  0
VERTEX
  8
0
  5
1D1
 10
1.60839
 20
-73.6954
 30
0.000000
  70
    32
  0
VERTEX
  8
0
  5
1D2
 10
1.71286
 20
-73.6377
 30
0.000000
  70
    32
  0
VERTEX
  8
0
  5
1D3
 10
1.81321
 20
-73.5765
 30
0.000000
  70
    32
  0
VERTEX
  8
0
  5
1D4
 10
1.90919
 20
-73.5119
 30
0.000000
  70
    32
  0
VERTEX
  8
0
  5
1D5
 10
2.00057
 20
-73.4440
 30
0.000000
  70
    32
  0
VERTEX
  8
0
  5
1D6
 10
2.08713
 20
-73.3731
 30
0.000000
  70
    32
  0
VERTEX
  8
0
  5
1D7
 10
2.16866
 20
-73.2992
 30
0.000000
  70
    32
  0
VERTEX
  8
0
  5
1D8
 10
2.24497
 20
-73.2226
 30
0.000000
  70
    32
  0
VERTEX
  8
0
  5
1D9
 10
2.31587
 20
-73.1434
 30
0.000000
  70
    32
  0
VERTEX
  8
0
  5
1DA
 10
2.38119
 20
-73.0619
 30
0.000000
  70
    32
  0
VERTEX
  8
0
  5
1DB
 10
2.44077
 20
-72.9782
 30
0.000000
  70
    32
  0
VERTEX
  8
0
  5
1DC
 10
2.49447
 20
-72.8925
 30
0.000000
  70
    32
  0
VERTEX
  8
0
  5
1DD
 10
2.54217
 20
-72.8051
 30
0.000000
  70
    32
  0
VERTEX
  8
0
  5
1DE
 10
2.58374
 20
-72.7161
 30
0.000000
  70
    32
  0
VERTEX
  8
0
  5
1DF
 10
2.61908
 20
-72.6258
 30
0.000000
  70
    32
  0
VERTEX
  8
0
  5
1E0
 10
2.64812
 20
-72.5343
 30
0.000000
  70
    32
  0
VERTEX
  8
0
  5
1E1
 10
2.67078
 20
-72.4420
 30
0.000000
  70
    32
  0
VERTEX
  8
0
  5
1E2
 10
2.68700
 20
-72.3490
 30
0.000000
  70
    32
  0
VERTEX
  8
0
  5
1E3
 10
2.69675
 20
-72.2556
 30
0.000000
  70
    32
  0
VERTEX
  8
0
  5
1E4
 10
2.70000
 20
-72.1619
 30
0.000000
  70
    32
  0
SEQEND
  8
0
  5
1E5
  0
CIRCLE
  5
30
  8
0
 10
-0.0000000000000284
 20
-35.0
 30
0.0
 40
5.0
  0
CIRCLE
  5
31
  8
0
 10
-0.0000000000000284
 20
-35.0
 30
0.0
 40
2.7000000000000002
  0
POLYLINE
  5
32
  8
0
 10
2.7000000000000375
 20
-87.161879502661719
 30
0.0
 66
     1
 70
     8
  0
VERTEX
  8
0
  5
1E6
 10
2.70000
 20
-87.1619
 30
0.000000
  70
    32
  0
VERTEX
  8
0
  5
1E7
 10
2.69675
 20
-87.0682
 30
0.000000
  70
    32
  0
VERTEX
  8
0
  5
1E8
 10
2.68700
 20
-86.9747
 30
0.000000
  70
    32
  0
VERTEX
  8
0
  5
1E9
 10
2.67078
 20
-86.8817
 30
0.000000
  70
    32
  0
VERTEX
  8
0
  5
1EA
 10
2.64812
 20
-86.7894
 30
0.000000
  70
    32
  0
VERTEX
  8
0
  5
1EB
 10
2.61908
 20
-86.6980
 30
0.000000
  70
    32
  0
VERTEX
  8
0
  5
1EC
 10
2.58374
 20
-86.6077
 30
0.000000
  70
    32
  0
VERTEX
  8
0
  5
1ED
 10
2.54217
 20
-86.5187
 30
0.000000
  70
    32
  0
VERTEX
  8
0
  5
1EE
 10
2.49447
 20
-86.4313
 30
0.000000
  70
    32
  0
VERTEX
  8
0
  5
1EF
 10
2.44077
 20
-86.3456
 30
0.000000
  70
    32
  0
VERTEX
  8
0
  5
1F0
 10
2.38119
 20
-86.2619
 30
0.000000
  70
    32
  0
VERTEX
  8
0
  5
1F1
 10
2.31587
 20
-86.1804
 30
0.000000
  70
    32
  0
VERTEX
  8
0
  5
1F2
 10
2.24497
 20
-86.1012
 30
0.000000
  70
    32
  0
VERTEX
  8
0
  5
1F3
 10
2.16866
 20
-86.0246
 30
0.000000
  70
    32
  0
VERTEX
  8
0
  5
1F4
 10
2.08713
 20
-85.9507
 30
0.000000
  70
    32
  0
VERTEX
  8
0
  5
1F5
 10
2.00057
 20
-85.8797
 30
0.000000
  70
    32
  0
VERTEX
  8
0
  5
1F6
 10
1.90919
 20
-85.8119
 30
0.000000
  70
    32
  0
VERTEX
  8
0
  5
1F7
 10
1.81321
 20
-85.7473
 30
0.000000
  70
    32
  0
VERTEX
  8
0
  5
1F8
 10
1.71286
 20
-85.6861
 30
0.000000
  70
    32
  0
VERTEX
  8
0
  5
1F9
 10
1.60839
 20
-85.6284
 30
0.000000
  70
    32
  0
VERTEX
  8
0
  5
1FA
 10
1.50004
 20
-85.5744
 30
0.000000
  70
    32
  0
VERTEX
  8
0
  5
1FB
 10
1.38808
 20
-85.5243
 30
0.000000
  70
    32
  0
VERTEX
  8
0
  5
1FC
 10
1.27277
 20
-85.4781
 30
0.000000
  70
    32
  0
VERTEX
  8
0
  5
1FD
 10
1.15440
 20
-85.4360
 30
0.000000
  70
    32
  0
VERTEX
  8
0
  5
1FE
 10
1.03325
 20
-85.3980
 30
0.000000
  70
    32
  0
VERTEX
  8
0
  5
1FF
 10
0.909603
 20
-85.3643
 30
0.000000
  70
    32
  0
VERTEX
  8
0
  5
200
 10
0.783769
 20
-85.3349
 30
0.000000
  70
    32
  0
VERTEX
  8
0
  5
201
 10
0.656046
 20
-85.3099
 30
0.000000
  70
    32
  0
VERTEX
  8
0
  5
202
 10
0.526744
 20
-85.2894
 30
0.000000
  70
    32
  0
VERTEX
  8
0
  5
203
 10
0.396172
 20
-85.2734
 30
0.000000
  70
    32
  0
VERTEX
  8
0
  5
204
 10
0.264646
 20
-85.2619
 30
0.000000
  70
    32
  0
VERTEX
  8
0
  5
205
 10
0.132483
 20
-85.2550
 30
0.000000
  70
    32
  0
VERTEX
  8
0
  5
206
 10
1.35039e-014
 20
-85.2527
 30
0.000000
  70
    32
  0
VERTEX
  8
0
  5
207
 10
-0.132483
 20
-85.2550
 30
0.000000
  70
    32
  0
VERTEX
  8
0
  5
208
 10
-0.264646
 20
-85.2619
 30
0.000000
  70
    32
  0
VERTEX
  8
0
  5
209
 10
-0.396172
 20
-85.2734
 30
0.000000
  70
    32
  0
VERTEX
  8
0
  5
20A
 10
-0.526744
 20
-85.2894
 30
0.000000
  70
    32
  0
VERTEX
  8
0
  5
20B
 10
-0.656046
 20
-85.3099
 30
0.000000
  70
    32
  0
VERTEX
  8
0
  5
20C
 10
-0.783769
 20
-85.3349
 30
0.000000
  70
    32
  0
VERTEX
  8
0
  5
20D
 10
-0.909603
 20
-85.3643
 30
0.000000
  70
    32
  0
VERTEX
  8
0
  5
20E
 10
-1.03325
 20
-85.3980
 30
0.000000
  70
    32
  0
VERTEX
  8
0
  5
20F
 10
-1.15440
 20
-85.4360
 30
0.000000
  70
    32
  0
VERTEX
  8
0
  5
210
 10
-1.27277
 20
-85.4781
 30
0.000000
  70
    32
  0
VERTEX
  8
0
  5
211
 10
-1.38808
 20
-85.5243
 30
0.000000
  70
    32
  0
VERTEX
  8
0
  5
212
 10
-1.50004
 20
-85.5744
 30
0.000000
  70
    32
  0
VERTEX
  8
0
  5
213
 10
-1.60839
 20
-85.6284
 30
0.000000
  70
    32
  0
VERTEX
  8
0
  5
214
 10
-1.71286
 20
-85.6861
 30
0.000000
  70
    32
  0
VERTEX
  8
0
  5
215
 10
-1.81321
 20
-85.7473
 30
0.000000
  70
    32
  0
VERTEX
  8
0
  5
216
 10
-1.90919
 20
-85.8119
 30
0.000000
  70
    32
  0
VERTEX
  8
0
  5
217
 10
-2.00057
 20
-85.8797
 30
0.000000
  70
    32
  0
VERTEX
  8
0
  5
218
 10
-2.08713
 20
-85.9507
 30
0.000000
  70
    32
  0
VERTEX
  8
0
  5
219
 10
-2.16866
 20
-86.0246
 30
0.000000
  70
    32
  0
VERTEX
  8
0
  5
21A
 10
-2.24497
 20
-86.1012
 30
0.000000
  70
    32
  0
VERTEX
  8
0
  5
21B
 10
-2.31587
 20
-86.1804
 30
0.000000
  70
    32
  0
VERTEX
  8
0
  5
21C
 10
-2.38119
 20
-86.2619
 30
0.000000
  70
    32
  0
VERTEX
  8
0
  5
21D
 10
-2.44077
 20
-86.3456
 30
0.000000
  70
    32
  0
VERTEX
  8
0
  5
21E
 10
-2.49447
 20
-86.4313
 30
0.000000
  70
    32
  0
VERTEX
  8
0
  5
21F
 10
-2.54217
 20
-86.5187
 30
0.000000
  70
    32
  0
VERTEX
  8
0
  5
220
 10
-2.58374
 20
-86.6077
 30
0.000000
  70
    32
  0
VERTEX
  8
0
  5
221
 10
-2.61908
 20
-86.6980
 30
0.000000
  70
    32
  0
VERTEX
  8
0
  5
222
 10
-2.64812
 20
-86.7894
 30
0.000000
  70
    32
  0
VERTEX
  8
0
  5
223
 10
-2.67078
 20
-86.8817
 30
0.000000
  70
    32
  0
VERTEX
  8
0
  5
224
 10
-2.68700
 20
-86.9747
 30
0.000000
  70
    32
  0
VERTEX
  8
0
  5
225
 10
-2.69675
 20
-87.0682
 30
0.000000
  70
    32
  0
VERTEX
  8
0
  5
226
 10
-2.70000
 20
-87.1619
 30
0.000000
  70
    32
  0
VERTEX
  8
0
  5
227
 10
-2.69675
 20
-87.2556
 30
0.000000
  70
    32
  0
VERTEX
  8
0
  5
228
 10
-2.68700
 20
-87.3490
 30
0.000000
  70
    32
  0
VERTEX
  8
0
  5
229
 10
-2.67078
 20
-87.4420
 30
0.000000
  70
    32
  0
VERTEX
  8
0
  5
22A
 10
-2.64812
 20
-87.5343
 30
0.000000
  70
    32
  0
VERTEX
  8
0
  5
22B
 10
-2.61908
 20
-87.6258
 30
0.000000
  70
    32
  0
VERTEX
  8
0
  5
22C
 10
-2.58374
 20
-87.7161
 30
0.000000
  70
    32
  0
VERTEX
  8
0
  5
22D
 10
-2.54217
 20
-87.8051
 30
0.000000
  70
    32
  0
VERTEX
  8
0
  5
22E
 10
-2.49447
 20
-87.8925
 30
0.000000
  70
    32
  0
VERTEX
  8
0
  5
22F
 10
-2.44077
 20
-87.9782
 30
0.000000
  70
    32
  0
VERTEX
  8
0
  5
230
 10
-2.38119
 20
-88.0619
 30
0.000000
  70
    32
  0
VERTEX
  8
0
  5
231
 10
-2.31587
 20
-88.1434
 30
0.000000
  70
    32
  0
VERTEX
  8
0
  5
232
 10
-2.24497
 20
-88.2226
 30
0.000000
  70
    32
  0
VERTEX
  8
0
  5
233
 10
-2.16866
 20
-88.2992
 30
0.000000
  70
    32
  0
VERTEX
  8
0
  5
234
 10
-2.08713
 20
-88.3731
 30
0.000000
  70
    32
  0
VERTEX
  8
0
  5
235
 10
-2.00057
 20
-88.4440
 30
0.000000
  70
    32
  0
VERTEX
  8
0
  5
236
 10
-1.90919
 20
-88.5119
 30
0.000000
  70
    32
  0
VERTEX
  8
0
  5
237
 10
-1.81321
 20
-88.5765
 30
0.000000
  70
    32
  0
VERTEX
  8
0
  5
238
 10
-1.71286
 20
-88.6377
 30
0.000000
  70
    32
  0
VERTEX
  8
0
  5
239
 10
-1.60839
 20
-88.6954
 30
0.000000
  70
    32
  0
VERTEX
  8
0
  5
23A
 10
-1.50004
 20
-88.7493
 30
0.000000
  70
    32
  0
VERTEX
  8
0
  5
23B
 10
-1.38808
 20
-88.7994
 30
0.000000
  70
    32
  0
VERTEX
  8
0
  5
23C
 10
-1.27277
 20
-88.8456
 30
0.000000
  70
    32
  0
VERTEX
  8
0
  5
23D
 10
-1.15440
 20
-88.8878
 30
0.000000
  70
    32
  0
VERTEX
  8
0
  5
23E
 10
-1.03325
 20
-88.9257
 30
0.000000
  70
    32
  0
VERTEX
  8
0
  5
23F
 10
-0.909603
 20
-88.9595
 30
0.000000
  70
    32
  0
VERTEX
  8
0
  5
240
 10
-0.783769
 20
-88.9889
 30
0.000000
  70
    32
  0
VERTEX
  8
0
  5
241
 10
-0.656046
 20
-89.0139
 30
0.000000
  70
    32
  0
VERTEX
  8
0
  5
242
 10
-0.526744
 20
-89.0344
 30
0.000000
  70
    32
  0
VERTEX
  8
0
  5
243
 10
-0.396172
 20
-89.0504
 30
0.000000
  70
    32
  0
VERTEX
  8
0
  5
244
 10
-0.264646
 20
-89.0619
 30
0.000000
  70
    32
  0
VERTEX
  8
0
  5
245
 10
-0.132483
 20
-89.0688
 30
0.000000
  70
    32
  0
VERTEX
  8
0
  5
246
 10
4.29654e-014
 20
-89.0711
 30
0.000000
  70
    32
  0
VERTEX
  8
0
  5
247
 10
0.132483
 20
-89.0688
 30
0.000000
  70
    32
  0
VERTEX
  8
0
  5
248
 10
0.264646
 20
-89.0619
 30
0.000000
  70
    32
  0
VERTEX
  8
0
  5
249
 10
0.396172
 20
-89.0504
 30
0.000000
  70
    32
  0
VERTEX
  8
0
  5
24A
 10
0.526744
 20
-89.0344
 30
0.000000
  70
    32
  0
VERTEX
  8
0
  5
24B
 10
0.656046
 20
-89.0139
 30
0.000000
  70
    32
  0
VERTEX
  8
0
  5
24C
 10
0.783769
 20
-88.9889
 30
0.000000
  70
    32
  0
VERTEX
  8
0
  5
24D
 10
0.909603
 20
-88.9595
 30
0.000000
  70
    32
  0
VERTEX
  8
0
  5
24E
 10
1.03325
 20
-88.9257
 30
0.000000
  70
    32
  0
VERTEX
  8
0
  5
24F
 10
1.15440
 20
-88.8878
 30
0.000000
  70
    32
  0
VERTEX
  8
0
  5
250
 10
1.27277
 20
-88.8456
 30
0.000000
  70
    32
  0
VERTEX
  8
0
  5
251
 10
1.38808
 20
-88.7994
 30
0.000000
  70
    32
  0
VERTEX
  8
0
  5
252
 10
1.50004
 20
-88.7493
 30
0.000000
  70
    32
  0
VERTEX
  8
0
  5
253
 10
1.60839
 20
-88.6954
 30
0.000000
  70
    32
  0
VERTEX
  8
0
  5
254
 10
1.71286
 20
-88.6377
 30
0.000000
  70
    32
  0
VERTEX
  8
0
  5
255
 10
1.81321
 20
-88.5765
 30
0.000000
  70
    32
  0
VERTEX
  8
0
  5
256
 10
1.90919
 20
-88.5119
 30
0.000000
  70
    32
  0
VERTEX
  8
0
  5
257
 10
2.00057
 20
-88.4440
 30
0.000000
  70
    32
  0
VERTEX
  8
0
  5
258
 10
2.08713
 20
-88.3731
 30
0.000000
  70
    32
  0
VERTEX
  8
0
  5
259
 10
2.16866
 20
-88.2992
 30
0.000000
  70
    32
  0
VERTEX
  8
0
  5
25A
 10
2.24497
 20
-88.2226
 30
0.000000
  70
    32
  0
VERTEX
  8
0
  5
25B
 10
2.31587
 20
-88.1434
 30
0.000000
  70
    32
  0
VERTEX
  8
0
  5
25C
 10
2.38119
 20
-88.0619
 30
0.000000
  70
    32
  0
VERTEX
  8
0
  5
25D
 10
2.44077
 20
-87.9782
 30
0.000000
  70
    32
  0
VERTEX
  8
0
  5
25E
 10
2.49447
 20
-87.8925
 30
0.000000
  70
    32
  0
VERTEX
  8
0
  5
25F
 10
2.54217
 20
-87.8051
 30
0.000000
  70
    32
  0
VERTEX
  8
0
  5
260
 10
2.58374
 20
-87.7161
 30
0.000000
  70
    32
  0
VERTEX
  8
0
  5
261
 10
2.61908
 20
-87.6258
 30
0.000000
  70
    32
  0
VERTEX
  8
0
  5
262
 10
2.64812
 20
-87.5343
 30
0.000000
  70
    32
  0
VERTEX
  8
0
  5
263
 10
2.67078
 20
-87.4420
 30
0.000000
  70
    32
  0
VERTEX
  8
0
  5
264
 10
2.68700
 20
-87.3490
 30
0.000000
  70
    32
  0
VERTEX
  8
0
  5
265
 10
2.69675
 20
-87.2556
 30
0.000000
  70
    32
  0
VERTEX
  8
0
  5
266
 10
2.70000
 20
-87.1619
 30
0.000000
  70
    32
  0
SEQEND
  8
0
  5
267
  0
POLYLINE
  5
33
  8
0
 10
4.7140452079103321
 20
-84.357022603955087
 30
0.0
 66
     1
 70
     8
  0
VERTEX
  8
0
  5
268
 10
4.71405
 20
-84.3570
 30
0.000000
  70
    32
  0
VERTEX
  8
0
  5
269
 10
4.68112
 20
-84.2931
 30
0.000000
  70
    32
  0
VERTEX
  8
0
  5
26A
 10
4.64646
 20
-84.2297
 30
0.000000
  70
    32
  0
VERTEX
  8
0
  5
26B
 10
4.61008
 20
-84.1668
 30
0.000000
  70
    32
  0
VERTEX
  8
0
  5
26C
 10
4.57200
 20
-84.1043
 30
0.000000
  70
    32
  0
VERTEX
  8
0
  5
26D
 10
4.53223
 20
-84.0424
 30
0.000000
  70
    32
  0
VERTEX
  8
0
  5
26E
 10
4.49078
 20
-83.9810
 30
0.000000
  70
    32
  0
VERTEX
  8
0
  5
26F
 10
4.44767
 20
-83.9203
 30
0.000000
  70
    32
  0
VERTEX
  8
0
  5
270
 10
4.40291
 20
-83.8601
 30
0.000000
  70
    32
  0
VERTEX
  8
0
  5
271
 10
4.35653
 20
-83.8005
 30
0.000000
  70
    32
  0
VERTEX
  8
0
  5
272
 10
4.30853
 20
-83.7416
 30
0.000000
  70
    32
  0
VERTEX
  8
0
  5
273
 10
4.25894
 20
-83.6833
 30
0.000000
  70
    32
  0
VERTEX
  8
0
  5
274
 10
4.20777
 20
-83.6257
 30
0.000000
  70
    32
  0
VERTEX
  8
0
  5
275
 10
4.15505
 20
-83.5689
 30
0.000000
  70
    32
  0
VERTEX
  8
0
  5
276
 10
4.10079
 20
-83.5127
 30
0.000000
  70
    32
  0
VERTEX
  8
0
  5
277
 10
4.04501
 20
-83.4573
 30
0.000000
  70
    32
  0
VERTEX
  8
0
  5
278
 10
3.98774
 20
-83.4027
 30
0.000000
  70
    32
  0
VERTEX
  8
0
  5
279
 10
3.92899
 20
-83.3489
 30
0.000000
  70
    32
  0
VERTEX
  8
0
  5
27A
 10
3.86879
 20
-83.2958
 30
0.000000
  70
    32
  0
VERTEX
  8
0
  5
27B
 10
3.80716
 20
-83.2436
 30
0.000000
  70
    32
  0
VERTEX
  8
0
  5
27C
 10
3.74412
 20
-83.1923
 30
0.000000
  70
    32
  0
VERTEX
  8
0
  5
27D
 10
3.67969
 20
-83.1418
 30
0.000000
  70
    32
  0
VERTEX
  8
0
  5
27E
 10
3.61390
 20
-83.0922
 30
0.000000
  70
    32
  0
VERTEX
  8
0
  5
27F
 10
3.54678
 20
-83.0435
 30
0.000000
  70
    32
  0
VERTEX
  8
0
  5
280
 10
3.47834
 20
-82.9957
 30
0.000000
  70
    32
  0
VERTEX
  8
0
  5
281
 10
3.40862
 20
-82.9489
 30
0.000000
  70
    32
  0
VERTEX
  8
0
  5
282
 10
3.33763
 20
-82.9030
 30
0.000000
  70
    32
  0
VERTEX
  8
0
  5
283
 10
3.26541
 20
-82.8581
 30
0.000000
  70
    32
  0
VERTEX
  8
0
  5
284
 10
3.19199
 20
-82.8142
 30
0.000000
  70
    32
  0
VERTEX
  8
0
  5
285
 10
3.11738
 20
-82.7713
 30
0.000000
  70
    32
  0
VERTEX
  8
0
  5
286
 10
3.04162
 20
-82.7294
 30
0.000000
  70
    32
  0
VERTEX
  8
0
  5
287
 10
2.96473
 20
-82.6886
 30
0.000000
  70
    32
  0
VERTEX
  8
0
  5
288
 10
2.88675
 20
-82.6488
 30
0.000000
  70
    32
  0
VERTEX
  8
0
  5
289
 10
2.80770
 20
-82.6101
 30
0.000000
  70
    32
  0
VERTEX
  8
0
  5
28A
 10
2.72761
 20
-82.5724
 30
0.000000
  70
    32
  0
VERTEX
  8
0
  5
28B
 10
2.64651
 20
-82.5359
 30
0.000000
  70
    32
  0
VERTEX
  8
0
  5
28C
 10
2.56444
 20
-82.5004
 30
0.000000
  70
    32
  0
VERTEX
  8
0
  5
28D
 10
2.48141
 20
-82.4661
 30
0.000000
  70
    32
  0
VERTEX
  8
0
  5
28E
 10
2.39747
 20
-82.4329
 30
0.000000
  70
    32
  0
VERTEX
  8
0
  5
28F
 10
2.31264
 20
-82.4009
 30
0.000000
  70
    32
  0
VERTEX
  8
0
  5
290
 10
2.22695
 20
-82.3700
 30
0.000000
  70
    32
  0
VERTEX
  8
0
  5
291
 10
2.14044
 20
-82.3403
 30
0.000000
  70
    32
  0
VERTEX
  8
0
  5
292
 10
2.05314
 20
-82.3118
 30
0.000000
  70
    32
  0
VERTEX
  8
0
  5
293
 10
1.96508
 20
-82.2845
 30
0.000000
  70
    32
  0
VERTEX
  8
0
  5
294
 10
1.87629
 20
-82.2584
 30
0.000000
  70
    32
  0
VERTEX
  8
0
  5
295
 10
1.78681
 20
-82.2335
 30
0.000000
  70
    32
  0
VERTEX
  8
0
  5
296
 10
1.69666
 20
-82.2098
 30
0.000000
  70
    32
  0
VERTEX
  8
0
  5
297
 10
1.60589
 20
-82.1873
 30
0.000000
  70
    32
  0
VERTEX
  8
0
  5
298
 10
1.51453
 20
-82.1661
 30
0.000000
  70
    32
  0
VERTEX
  8
0
  5
299
 10
1.42260
 20
-82.1461
 30
0.000000
  70
    32
  0
VERTEX
  8
0
  5
29A
 10
1.33015
 20
-82.1274
 30
0.000000
  70
    32
  0
VERTEX
  8
0
  5
29B
 10
1.23721
 20
-82.1099
 30
0.000000
  70
    32
  0
VERTEX
  8
0
  5
29C
 10
1.14381
 20
-82.0938
 30
0.000000
  70
    32
  0
VERTEX
  8
0
  5
29D
 10
1.04998
 20
-82.0788
 30
0.000000
  70
    32
  0
VERTEX
  8
0
  5
29E
 10
0.955769
 20
-82.0652
 30
0.000000
  70
    32
  0
VERTEX
  8
0
  5
29F
 10
0.861202
 20
-82.0528
 30
0.000000
  70
    32
  0
VERTEX
  8
0
  5
2A0
 10
0.766317
 20
-82.0418
 30
0.000000
  70
    32
  0
VERTEX
  8
0
  5
2A1
 10
0.671149
 20
-82.0320
 30
0.000000
  70
    32
  0
VERTEX
  8
0
  5
2A2
 10
0.575732
 20
-82.0235
 30
0.000000
  70
    32
  0
VERTEX
  8
0
  5
2A3
 10
0.480103
 20
-82.0163
 30
0.000000
  70
    32
  0
VERTEX
  8
0
  5
2A4
 10
0.384295
 20
-82.0105
 30
0.000000
  70
    32
  0
VERTEX
  8
0
  5
2A5
 10
0.288346
 20
-82.0059
 30
0.000000
  70
    32
  0
VERTEX
  8
0
  5
2A6
 10
0.192290
 20
-82.0026
 30
0.000000
  70
    32
  0
VERTEX
  8
0
  5
2A7
 10
0.0961628
 20
-82.0007
 30
0.000000
  70
    32
  0
VERTEX
  8
0
  5
2A8
 10
3.47493e-014
 20
-82.0000
 30
0.000000
  70
    32
  0
VERTEX
  8
0
  5
2A9
 10
-0.0961628
 20
-82.0007
 30
0.000000
  70
    32
  0
VERTEX
  8
0
  5
2AA
 10
-0.192290
 20
-82.0026
 30
0.000000
  70
    32
  0
VERTEX
  8
0
  5
2AB
 10
-0.288346
 20
-82.0059
 30
0.000000
  70
    32
  0
VERTEX
  8
0
  5
2AC
 10
-0.384295
 20
-82.0105
 30
0.000000
  70
    32
  0
VERTEX
  8
0
  5
2AD
 10
-0.480103
 20
-82.0163
 30
0.000000
  70
    32
  0
VERTEX
  8
0
  5
2AE
 10
-0.575732
 20
-82.0235
 30
0.000000
  70
    32
  0
VERTEX
  8
0
  5
2AF
 10
-0.671149
 20
-82.0320
 30
0.000000
  70
    32
  0
VERTEX
  8
0
  5
2B0
 10
-0.766317
 20
-82.0418
 30
0.000000
  70
    32
  0
VERTEX
  8
0
  5
2B1
 10
-0.861202
 20
-82.0528
 30
0.000000
  70
    32
  0
VERTEX
  8
0
  5
2B2
 10
-0.955769
 20
-82.0652
 30
0.000000
  70
    32
  0
VERTEX
  8
0
  5
2B3
 10
-1.04998
 20
-82.0788
 30
0.000000
  70
    32
  0
VERTEX
  8
0
  5
2B4
 10
-1.14381
 20
-82.0938
 30
0.000000
  70
    32
  0
VERTEX
  8
0
  5
2B5
 10
-1.23721
 20
-82.1099
 30
0.000000
  70
    32
  0
VERTEX
  8
0
  5
2B6
 10
-1.33015
 20
-82.1274
 30
0.000000
  70
    32
  0
VERTEX
  8
0
  5
2B7
 10
-1.42260
 20
-82.1461
 30
0.000000
  70
    32
  0
VERTEX
  8
0
  5
2B8
 10
-1.51453
 20
-82.1661
 30
0.000000
  70
    32
  0
VERTEX
  8
0
  5
2B9
 10
-1.60589
 20
-82.1873
 30
0.000000
  70
    32
  0
VERTEX
  8
0
  5
2BA
 10
-1.69666
 20
-82.2098
 30
0.000000
  70
    32
  0
VERTEX
  8
0
  5
2BB
 10
-1.78681
 20
-82.2335
 30
0.000000
  70
    32
  0
VERTEX
  8
0
  5
2BC
 10
-1.87629
 20
-82.2584
 30
0.000000
  70
    32
  0
VERTEX
  8
0
  5
2BD
 10
-1.96508
 20
-82.2845
 30
0.000000
  70
    32
  0
VERTEX
  8
0
  5
2BE
 10
-2.05314
 20
-82.3118
 30
0.000000
  70
    32
  0
VERTEX
  8
0
  5
2BF
 10
-2.14044
 20
-82.3403
 30
0.000000
  70
    32
  0
VERTEX
  8
0
  5
2C0
 10
-2.22695
 20
-82.3700
 30
0.000000
  70
    32
  0
VERTEX
  8
0
  5
2C1
 10
-2.31264
 20
-82.4009
 30
0.000000
  70
    32
  0
VERTEX
  8
0
  5
2C2
 10
-2.39747
 20
-82.4329
 30
0.000000
  70
    32
  0
VERTEX
  8
0
  5
2C3
 10
-2.48141
 20
-82.4661
 30
0.000000
  70
    32
  0
VERTEX
  8
0
  5
2C4
 10
-2.56444
 20
-82.5004
 30
0.000000
  70
    32
  0
VERTEX
  8
0
  5
2C5
 10
-2.64651
 20
-82.5359
 30
0.000000
  70
    32
  0
VERTEX
  8
0
  5
2C6
 10
-2.72761
 20
-82.5724
 30
0.000000
  70
    32
  0
VERTEX
  8
0
  5
2C7
 10
-2.80770
 20
-82.6101
 30
0.000000
  70
    32
  0
VERTEX
  8
0
  5
2C8
 10
-2.88675
 20
-82.6488
 30
0.000000
  70
    32
  0
VERTEX
  8
0
  5
2C9
 10
-2.96473
 20
-82.6886
 30
0.000000
  70
    32
  0
VERTEX
  8
0
  5
2CA
 10
-3.04162
 20
-82.7294
 30
0.000000
  70
    32
  0
VERTEX
  8
0
  5
2CB
 10
-3.11738
 20
-82.7713
 30
0.000000
  70
    32
  0
VERTEX
  8
0
  5
2CC
 10
-3.19199
 20
-82.8142
 30
0.000000
  70
    32
  0
VERTEX
  8
0
  5
2CD
 10
-3.26541
 20
-82.8581
 30
0.000000
  70
    32
  0
VERTEX
  8
0
  5
2CE
 10
-3.33763
 20
-82.9030
 30
0.000000
  70
    32
  0
VERTEX
  8
0
  5
2CF
 10
-3.40862
 20
-82.9489
 30
0.000000
  70
    32
  0
VERTEX
  8
0
  5
2D0
 10
-3.47834
 20
-82.9957
 30
0.000000
  70
    32
  0
VERTEX
  8
0
  5
2D1
 10
-3.54678
 20
-83.0435
 30
0.000000
  70
    32
  0
VERTEX
  8
0
  5
2D2
 10
-3.61390
 20
-83.0922
 30
0.000000
  70
    32
  0
VERTEX
  8
0
  5
2D3
 10
-3.67969
 20
-83.1418
 30
0.000000
  70
    32
  0
VERTEX
  8
0
  5
2D4
 10
-3.74412
 20
-83.1923
 30
0.000000
  70
    32
  0
VERTEX
  8
0
  5
2D5
 10
-3.80716
 20
-83.2436
 30
0.000000
  70
    32
  0
VERTEX
  8
0
  5
2D6
 10
-3.86879
 20
-83.2958
 30
0.000000
  70
    32
  0
VERTEX
  8
0
  5
2D7
 10
-3.92899
 20
-83.3489
 30
0.000000
  70
    32
  0
VERTEX
  8
0
  5
2D8
 10
-3.98774
 20
-83.4027
 30
0.000000
  70
    32
  0
VERTEX
  8
0
  5
2D9
 10
-4.04501
 20
-83.4573
 30
0.000000
  70
    32
  0
VERTEX
  8
0
  5
2DA
 10
-4.10079
 20
-83.5127
 30
0.000000
  70
    32
  0
VERTEX
  8
0
  5
2DB
 10
-4.15505
 20
-83.5689
 30
0.000000
  70
    32
  0
VERTEX
  8
0
  5
2DC
 10
-4.20777
 20
-83.6257
 30
0.000000
  70
    32
  0
VERTEX
  8
0
  5
2DD
 10
-4.25894
 20
-83.6833
 30
0.000000
  70
    32
  0
VERTEX
  8
0
  5
2DE
 10
-4.30853
 20
-83.7416
 30
0.000000
  70
    32
  0
VERTEX
  8
0
  5
2DF
 10
-4.35653
 20
-83.8005
 30
0.000000
  70
    32
  0
VERTEX
  8
0
  5
2E0
 10
-4.40291
 20
-83.8601
 30
0.000000
  70
    32
  0
VERTEX
  8
0
  5
2E1
 10
-4.44767
 20
-83.9203
 30
0.000000
  70
    32
  0
VERTEX
  8
0
  5
2E2
 10
-4.49078
 20
-83.9810
 30
0.000000
  70
    32
  0
VERTEX
  8
0
  5
2E3
 10
-4.53223
 20
-84.0424
 30
0.000000
  70
    32
  0
VERTEX
  8
0
  5
2E4
 10
-4.57200
 20
-84.1043
 30
0.000000
  70
    32
  0
VERTEX
  8
0
  5
2E5
 10
-4.61008
 20
-84.1668
 30
0.000000
  70
    32
  0
VERTEX
  8
0
  5
2E6
 10
-4.64646
 20
-84.2297
 30
0.000000
  70
    32
  0
VERTEX
  8
0
  5
2E7
 10
-4.68112
 20
-84.2931
 30
0.000000
  70
    32
  0
VERTEX
  8
0
  5
2E8
 10
-4.71405
 20
-84.3570
 30
0.000000
  70
    32
  0
SEQEND
  8
0
  5
2E9
  0
POLYLINE
  5
34
  8
0
 10
0.0000000000000284
 20
-74.928932188134453
 30
0.0
 66
     1
 70
     8
  0
VERTEX
  8
0
  5
2EA
 10
2.84000e-014
 20
-74.9289
 30
0.000000
  70
    32
  0
VERTEX
  8
0
  5
2EB
 10
-0.245338
 20
-74.9374
 30
0.000000
  70
    32
  0
VERTEX
  8
0
  5
2EC
 10
-0.490086
 20
-74.9630
 30
0.000000
  70
    32
  0
VERTEX
  8
0
  5
2ED
 10
-0.733652
 20
-75.0055
 30
0.000000
  70
    32
  0
VERTEX
  8
0
  5
2EE
 10
-0.975452
 20
-75.0648
 30
0.000000
  70
    32
  0
VERTEX
  8
0
  5
2EF
 10
-1.21490
 20
-75.1408
 30
0.000000
  70
    32
  0
VERTEX
  8
0
  5
2F0
 10
-1.45142
 20
-75.2334
 30
0.000000
  70
    32
  0
VERTEX
  8
0
  5
2F1
 10
-1.68445
 20
-75.3423
 30
0.000000
  70
    32
  0
VERTEX
  8
0
  5
2F2
 10
-1.91342
 20
-75.4672
 30
0.000000
  70
    32
  0
VERTEX
  8
0
  5
2F3
 10
-2.13778
 20
-75.6078
 30
0.000000
  70
    32
  0
VERTEX
  8
0
  5
2F4
 10
-2.35698
 20
-75.7639
 30
0.000000
  70
    32
  0
VERTEX
  8
0
  5
2F5
 10
-2.57051
 20
-75.9349
 30
0.000000
  70
    32
  0
VERTEX
  8
0
  5
2F6
 10
-2.77785
 20
-76.1206
 30
0.000000
  70
    32
  0
VERTEX
  8
0
  5
2F7
 10
-2.97850
 20
-76.3205
 30
0.000000
  70
    32
  0
VERTEX
  8
0
  5
2F8
 10
-3.17197
 20
-76.5340
 30
0.000000
  70
    32
  0
VERTEX
  8
0
  5
2F9
 10
-3.35779
 20
-76.7607
 30
0.000000
  70
    32
  0
VERTEX
  8
0
  5
2FA
 10
-3.53553
 20
-77.0000
 30
0.000000
  70
    32
  0
VERTEX
  8
0
  5
2FB
 10
-3.70476
 20
-77.2514
 30
0.000000
  70
    32
  0
VERTEX
  8
0
  5
2FC
 10
-3.86505
 20
-77.5142
 30
0.000000
  70
    32
  0
VERTEX
  8
0
  5
2FD
 10
-4.01604
 20
-77.7878
 30
0.000000
  70
    32
  0
VERTEX
  8
0
  5
2FE
 10
-4.15735
 20
-78.0715
 30
0.000000
  70
    32
  0
VERTEX
  8
0
  5
2FF
 10
-4.28864
 20
-78.3647
 30
0.000000
  70
    32
  0
VERTEX
  8
0
  5
300
 10
-4.40961
 20
-78.6667
 30
0.000000
  70
    32
  0
VERTEX
  8
0
  5
301
 10
-4.51995
 20
-78.9767
 30
0.000000
  70
    32
  0
VERTEX
  8
0
  5
302
 10
-4.61940
 20
-79.2940
 30
0.000000
  70
    32
  0
VERTEX
  8
0
  5
303
 10
-4.70772
 20
-79.6178
 30
0.000000
  70
    32
  0
VERTEX
  8
0
  5
304
 10
-4.78470
 20
-79.9474
 30
0.000000
  70
    32
  0
VERTEX
  8
0
  5
305
 10
-4.85016
 20
-80.2819
 30
0.000000
  70
    32
  0
VERTEX
  8
0
  5
306
 10
-4.90393
 20
-80.6205
 30
0.000000
  70
    32
  0
VERTEX
  8
0
  5
307
 10
-4.94588
 20
-80.9625
 30
0.000000
  70
    32
  0
VERTEX
  8
0
  5
308
 10
-4.97592
 20
-81.3069
 30
0.000000
  70
    32
  0
VERTEX
  8
0
  5
309
 10
-4.99398
 20
-81.6530
 30
0.000000
  70
    32
  0
VERTEX
  8
0
  5
30A
 10
-5.00000
 20
-82.0000
 30
0.000000
  70
    32
  0
VERTEX
  8
0
  5
30B
 10
-4.99398
 20
-82.3470
 30
0.000000
  70
    32
  0
VERTEX
  8
0
  5
30C
 10
-4.97592
 20
-82.6931
 30
0.000000
  70
    32
  0
VERTEX
  8
0
  5
30D
 10
-4.94588
 20
-83.0375
 30
0.000000
  70
    32
  0
VERTEX
  8
0
  5
30E
 10
-4.90393
 20
-83.3795
 30
0.000000
  70
    32
  0
VERTEX
  8
0
  5
30F
 10
-4.85016
 20
-83.7181
 30
0.000000
  70
    32
  0
VERTEX
  8
0
  5
310
 10
-4.78470
 20
-84.0526
 30
0.000000
  70
    32
  0
VERTEX
  8
0
  5
311
 10
-4.70772
 20
-84.3822
 30
0.000000
  70
    32
  0
VERTEX
  8
0
  5
312
 10
-4.61940
 20
-84.7060
 30
0.000000
  70
    32
  0
VERTEX
  8
0
  5
313
 10
-4.51995
 20
-85.0233
 30
0.000000
  70
    32
  0
VERTEX
  8
0
  5
314
 10
-4.40961
 20
-85.3333
 30
0.000000
  70
    32
  0
VERTEX
  8
0
  5
315
 10
-4.28864
 20
-85.6353
 30
0.000000
  70
    32
  0
VERTEX
  8
0
  5
316
 10
-4.15735
 20
-85.9285
 30
0.000000
  70
    32
  0
VERTEX
  8
0
  5
317
 10
-4.01604
 20
-86.2122
 30
0.000000
  70
    32
  0
VERTEX
  8
0
  5
318
 10
-3.86505
 20
-86.4858
 30
0.000000
  70
    32
  0
VERTEX
  8
0
  5
319
 10
-3.70476
 20
-86.7486
 30
0.000000
  70
    32
  0
VERTEX
  8
0
  5
31A
 10
-3.53553
 20
-87.0000
 30
0.000000
  70
    32
  0
VERTEX
  8
0
  5
31B
 10
-3.35779
 20
-87.2393
 30
0.000000
  70
    32
  0
VERTEX
  8
0
  5
31C
 10
-3.17197
 20
-87.4660
 30
0.000000
  70
    32
  0
VERTEX
  8
0
  5
31D
 10
-2.97850
 20
-87.6795
 30
0.000000
  70
    32
  0
VERTEX
  8
0
  5
31E
 10
-2.77785
 20
-87.8794
 30
0.000000
  70
    32
  0
VERTEX
  8
0
  5
31F
 10
-2.57051
 20
-88.0651
 30
0.000000
  70
    32
  0
VERTEX
  8
0
  5
320
 10
-2.35698
 20
-88.2361
 30
0.000000
  70
    32
  0
VERTEX
  8
0
  5
321
 10
-2.13778
 20
-88.3922
 30
0.000000
  70
    32
  0
VERTEX
  8
0
  5
322
 10
-1.91342
 20
-88.5328
 30
0.000000
  70
    32
  0
VERTEX
  8
0
  5
323
 10
-1.68445
 20
-88.6577
 30
0.000000
  70
    32
  0
VERTEX
  8
0
  5
324
 10
-1.45142
 20
-88.7666
 30
0.000000
  70
    32
  0
VERTEX
  8
0
  5
325
 10
-1.21490
 20
-88.8592
 30
0.000000
  70
    32
  0
VERTEX
  8
0
  5
326
 10
-0.975452
 20
-88.9352
 30
0.000000
  70
    32
  0
VERTEX
  8
0
  5
327
 10
-0.733652
 20
-88.9945
 30
0.000000
  70
    32
  0
VERTEX
  8
0
  5
328
 10
-0.490086
 20
-89.0370
 30
0.000000
  70
    32
  0
VERTEX
  8
0
  5
329
 10
-0.245338
 20
-89.0626
 30
0.000000
  70
    32
  0
VERTEX
  8
0
  5
32A
 10
2.77877e-014
 20
-89.0711
 30
0.000000
  70
    32
  0
VERTEX
  8
0
  5
32B
 10
0.245338
 20
-89.0626
 30
0.000000
  70
    32
  0
VERTEX
  8
0
  5
32C
 10
0.490086
 20
-89.0370
 30
0.000000
  70
    32
  0
VERTEX
  8
0
  5
32D
 10
0.733652
 20
-88.9945
 30
0.000000
  70
    32
  0
VERTEX
  8
0
  5
32E
 10
0.975452
 20
-88.9352
 30
0.000000
  70
    32
  0
VERTEX
  8
0
  5
32F
 10
1.21490
 20
-88.8592
 30
0.000000
  70
    32
  0
VERTEX
  8
0
  5
330
 10
1.45142
 20
-88.7666
 30
0.000000
  70
    32
  0
VERTEX
  8
0
  5
331
 10
1.68445
 20
-88.6577
 30
0.000000
  70
    32
  0
VERTEX
  8
0
  5
332
 10
1.91342
 20
-88.5328
 30
0.000000
  70
    32
  0
VERTEX
  8
0
  5
333
 10
2.13778
 20
-88.3922
 30
0.000000
  70
    32
  0
VERTEX
  8
0
  5
334
 10
2.35698
 20
-88.2361
 30
0.000000
  70
    32
  0
VERTEX
  8
0
  5
335
 10
2.57051
 20
-88.0651
 30
0.000000
  70
    32
  0
VERTEX
  8
0
  5
336
 10
2.77785
 20
-87.8794
 30
0.000000
  70
    32
  0
VERTEX
  8
0
  5
337
 10
2.97850
 20
-87.6795
 30
0.000000
  70
    32
  0
VERTEX
  8
0
  5
338
 10
3.17197
 20
-87.4660
 30
0.000000
  70
    32
  0
VERTEX
  8
0
  5
339
 10
3.35779
 20
-87.2393
 30
0.000000
  70
    32
  0
VERTEX
  8
0
  5
33A
 10
3.53553
 20
-87.0000
 30
0.000000
  70
    32
  0
VERTEX
  8
0
  5
33B
 10
3.70476
 20
-86.7486
 30
0.000000
  70
    32
  0
VERTEX
  8
0
  5
33C
 10
3.86505
 20
-86.4858
 30
0.000000
  70
    32
  0
VERTEX
  8
0
  5
33D
 10
4.01604
 20
-86.2122
 30
0.000000
  70
    32
  0
VERTEX
  8
0
  5
33E
 10
4.15735
 20
-85.9285
 30
0.000000
  70
    32
  0
VERTEX
  8
0
  5
33F
 10
4.28864
 20
-85.6353
 30
0.000000
  70
    32
  0
VERTEX
  8
0
  5
340
 10
4.40961
 20
-85.3333
 30
0.000000
  70
    32
  0
VERTEX
  8
0
  5
341
 10
4.51995
 20
-85.0233
 30
0.000000
  70
    32
  0
VERTEX
  8
0
  5
342
 10
4.61940
 20
-84.7060
 30
0.000000
  70
    32
  0
VERTEX
  8
0
  5
343
 10
4.70772
 20
-84.3822
 30
0.000000
  70
    32
  0
VERTEX
  8
0
  5
344
 10
4.78470
 20
-84.0526
 30
0.000000
  70
    32
  0
VERTEX
  8
0
  5
345
 10
4.85016
 20
-83.7181
 30
0.000000
  70
    32
  0
VERTEX
  8
0
  5
346
 10
4.90393
 20
-83.3795
 30
0.000000
  70
    32
  0
VERTEX
  8
0
  5
347
 10
4.94588
 20
-83.0375
 30
0.000000
  70
    32
  0
VERTEX
  8
0
  5
348
 10
4.97592
 20
-82.6931
 30
0.000000
  70
    32
  0
VERTEX
  8
0
  5
349
 10
4.99398
 20
-82.3470
 30
0.000000
  70
    32
  0
VERTEX
  8
0
  5
34A
 10
5.00000
 20
-82.0000
 30
0.000000
  70
    32
  0
VERTEX
  8
0
  5
34B
 10
4.99398
 20
-81.6530
 30
0.000000
  70
    32
  0
VERTEX
  8
0
  5
34C
 10
4.97592
 20
-81.3069
 30
0.000000
  70
    32
  0
VERTEX
  8
0
  5
34D
 10
4.94588
 20
-80.9625
 30
0.000000
  70
    32
  0
VERTEX
  8
0
  5
34E
 10
4.90393
 20
-80.6205
 30
0.000000
  70
    32
  0
VERTEX
  8
0
  5
34F
 10
4.85016
 20
-80.2819
 30
0.000000
  70
    32
  0
VERTEX
  8
0
  5
350
 10
4.78470
 20
-79.9474
 30
0.000000
  70
    32
  0
VERTEX
  8
0
  5
351
 10
4.70772
 20
-79.6178
 30
0.000000
  70
    32
  0
VERTEX
  8
0
  5
352
 10
4.61940
 20
-79.2940
 30
0.000000
  70
    32
  0
VERTEX
  8
0
  5
353
 10
4.51995
 20
-78.9767
 30
0.000000
  70
    32
  0
VERTEX
  8
0
  5
354
 10
4.40961
 20
-78.6667
 30
0.000000
  70
    32
  0
VERTEX
  8
0
  5
355
 10
4.28864
 20
-78.3647
 30
0.000000
  70
    32
  0
VERTEX
  8
0
  5
356
 10
4.15735
 20
-78.0715
 30
0.000000
  70
    32
  0
VERTEX
  8
0
  5
357
 10
4.01604
 20
-77.7878
 30
0.000000
  70
    32
  0
VERTEX
  8
0
  5
358
 10
3.86505
 20
-77.5142
 30
0.000000
  70
    32
  0
VERTEX
  8
0
  5
359
 10
3.70476
 20
-77.2514
 30
0.000000
  70
    32
  0
VERTEX
  8
0
  5
35A
 10
3.53553
 20
-77.0000
 30
0.000000
  70
    32
  0
VERTEX
  8
0
  5
35B
 10
3.35779
 20
-76.7607
 30
0.000000
  70
    32
  0
VERTEX
  8
0
  5
35C
 10
3.17197
 20
-76.5340
 30
0.000000
  70
    32
  0
VERTEX
  8
0
  5
35D
 10
2.97850
 20
-76.3205
 30
0.000000
  70
    32
  0
VERTEX
  8
0
  5
35E
 10
2.77785
 20
-76.1206
 30
0.000000
  70
    32
  0
VERTEX
  8
0
  5
35F
 10
2.57051
 20
-75.9349
 30
0.000000
  70
    32
  0
VERTEX
  8
0
  5
360
 10
2.35698
 20
-75.7639
 30
0.000000
  70
    32
  0
VERTEX
  8
0
  5
361
 10
2.13778
 20
-75.6078
 30
0.000000
  70
    32
  0
VERTEX
  8
0
  5
362
 10
1.91342
 20
-75.4672
 30
0.000000
  70
    32
  0
VERTEX
  8
0
  5
363
 10
1.68445
 20
-75.3423
 30
0.000000
  70
    32
  0
VERTEX
  8
0
  5
364
 10
1.45142
 20
-75.2334
 30
0.000000
  70
    32
  0
VERTEX
  8
0
  5
365
 10
1.21490
 20
-75.1408
 30
0.000000
  70
    32
  0
VERTEX
  8
0
  5
366
 10
0.975452
 20
-75.0648
 30
0.000000
  70
    32
  0
VERTEX
  8
0
  5
367
 10
0.733652
 20
-75.0055
 30
0.000000
  70
    32
  0
VERTEX
  8
0
  5
368
 10
0.490086
 20
-74.9630
 30
0.000000
  70
    32
  0
VERTEX
  8
0
  5
369
 10
0.245338
 20
-74.9374
 30
0.000000
  70
    32
  0
VERTEX
  8
0
  5
36A
 10
2.84000e-014
 20
-74.9289
 30
0.000000
  70
    32
  0
SEQEND
  8
0
  5
36B
  0
POLYLINE
  5
35
  8
0
 10
0.0000000000000284
 20
-89.928932188134468
 30
0.0
 66
     1
 70
     8
  0
VERTEX
  8
0
  5
36C
 10
2.84000e-014
 20
-89.9289
 30
0.000000
  70
    32
  0
VERTEX
  8
0
  5
36D
 10
-0.245338
 20
-89.9374
 30
0.000000
  70
    32
  0
VERTEX
  8
0
  5
36E
 10
-0.490086
 20
-89.9630
 30
0.000000
  70
    32
  0
VERTEX
  8
0
  5
36F
 10
-0.733652
 20
-90.0055
 30
0.000000
  70
    32
  0
VERTEX
  8
0
  5
370
 10
-0.975452
 20
-90.0648
 30
0.000000
  70
    32
  0
VERTEX
  8
0
  5
371
 10
-1.21490
 20
-90.1408
 30
0.000000
  70
    32
  0
VERTEX
  8
0
  5
372
 10
-1.45142
 20
-90.2334
 30
0.000000
  70
    32
  0
VERTEX
  8
0
  5
373
 10
-1.68445
 20
-90.3423
 30
0.000000
  70
    32
  0
VERTEX
  8
0
  5
374
 10
-1.91342
 20
-90.4672
 30
0.000000
  70
    32
  0
VERTEX
  8
0
  5
375
 10
-2.13778
 20
-90.6078
 30
0.000000
  70
    32
  0
VERTEX
  8
0
  5
376
 10
-2.35698
 20
-90.7639
 30
0.000000
  70
    32
  0
VERTEX
  8
0
  5
377
 10
-2.57051
 20
-90.9349
 30
0.000000
  70
    32
  0
VERTEX
  8
0
  5
378
 10
-2.77785
 20
-91.1206
 30
0.000000
  70
    32
  0
VERTEX
  8
0
  5
379
 10
-2.97850
 20
-91.3205
 30
0.000000
  70
    32
  0
VERTEX
  8
0
  5
37A
 10
-3.17197
 20
-91.5340
 30
0.000000
  70
    32
  0
VERTEX
  8
0
  5
37B
 10
-3.35779
 20
-91.7607
 30
0.000000
  70
    32
  0
VERTEX
  8
0
  5
37C
 10
-3.53553
 20
-92.0000
 30
0.000000
  70
    32
  0
VERTEX
  8
0
  5
37D
 10
-3.70476
 20
-92.2514
 30
0.000000
  70
    32
  0
VERTEX
  8
0
  5
37E
 10
-3.86505
 20
-92.5142
 30
0.000000
  70
    32
  0
VERTEX
  8
0
  5
37F
 10
-4.01604
 20
-92.7878
 30
0.000000
  70
    32
  0
VERTEX
  8
0
  5
380
 10
-4.15735
 20
-93.0715
 30
0.000000
  70
    32
  0
VERTEX
  8
0
  5
381
 10
-4.28864
 20
-93.3647
 30
0.000000
  70
    32
  0
VERTEX
  8
0
  5
382
 10
-4.40961
 20
-93.6667
 30
0.000000
  70
    32
  0
VERTEX
  8
0
  5
383
 10
-4.51995
 20
-93.9767
 30
0.000000
  70
    32
  0
VERTEX
  8
0
  5
384
 10
-4.61940
 20
-94.2940
 30
0.000000
  70
    32
  0
VERTEX
  8
0
  5
385
 10
-4.70772
 20
-94.6178
 30
0.000000
  70
    32
  0
VERTEX
  8
0
  5
386
 10
-4.78470
 20
-94.9474
 30
0.000000
  70
    32
  0
VERTEX
  8
0
  5
387
 10
-4.85016
 20
-95.2819
 30
0.000000
  70
    32
  0
VERTEX
  8
0
  5
388
 10
-4.90393
 20
-95.6205
 30
0.000000
  70
    32
  0
VERTEX
  8
0
  5
389
 10
-4.94588
 20
-95.9625
 30
0.000000
  70
    32
  0
VERTEX
  8
0
  5
38A
 10
-4.97592
 20
-96.3069
 30
0.000000
  70
    32
  0
VERTEX
  8
0
  5
38B
 10
-4.99398
 20
-96.6530
 30
0.000000
  70
    32
  0
VERTEX
  8
0
  5
38C
 10
-5.00000
 20
-97.0000
 30
0.000000
  70
    32
  0
VERTEX
  8
0
  5
38D
 10
-4.99398
 20
-97.3470
 30
0.000000
  70
    32
  0
VERTEX
  8
0
  5
38E
 10
-4.97592
 20
-97.6931
 30
0.000000
  70
    32
  0
VERTEX
  8
0
  5
38F
 10
-4.94588
 20
-98.0375
 30
0.000000
  70
    32
  0
VERTEX
  8
0
  5
390
 10
-4.90393
 20
-98.3795
 30
0.000000
  70
    32
  0
VERTEX
  8
0
  5
391
 10
-4.85016
 20
-98.7181
 30
0.000000
  70
    32
  0
VERTEX
  8
0
  5
392
 10
-4.78470
 20
-99.0526
 30
0.000000
  70
    32
  0
VERTEX
  8
0
  5
393
 10
-4.70772
 20
-99.3822
 30
0.000000
  70
    32
  0
VERTEX
  8
0
  5
394
 10
-4.61940
 20
-99.7060
 30
0.000000
  70
    32
  0
VERTEX
  8
0
  5
395
 10
-4.51995
 20
-100.023
 30
0.000000
  70
    32
  0
VERTEX
  8
0
  5
396
 10
-4.40961
 20
-100.333
 30
0.000000
  70
    32
  0
VERTEX
  8
0
  5
397
 10
-4.28864
 20
-100.635
 30
0.000000
  70
    32
  0
VERTEX
  8
0
  5
398
 10
-4.15735
 20
-100.928
 30
0.000000
  70
    32
  0
VERTEX
  8
0
  5
399
 10
-4.01604
 20
-101.212
 30
0.000000
  70
    32
  0
VERTEX
  8
0
  5
39A
 10
-3.86505
 20
-101.486
 30
0.000000
  70
    32
  0
VERTEX
  8
0
  5
39B
 10
-3.70476
 20
-101.749
 30
0.000000
  70
    32
  0
VERTEX
  8
0
  5
39C
 10
-3.53553
 20
-102.000
 30
0.000000
  70
    32
  0
VERTEX
  8
0
  5
39D
 10
-3.35779
 20
-102.239
 30
0.000000
  70
    32
  0
VERTEX
  8
0
  5
39E
 10
-3.17197
 20
-102.466
 30
0.000000
  70
    32
  0
VERTEX
  8
0
  5
39F
 10
-2.97850
 20
-102.680
 30
0.000000
  70
    32
  0
VERTEX
  8
0
  5
3A0
 10
-2.77785
 20
-102.879
 30
0.000000
  70
    32
  0
VERTEX
  8
0
  5
3A1
 10
-2.57051
 20
-103.065
 30
0.000000
  70
    32
  0
VERTEX
  8
0
  5
3A2
 10
-2.35698
 20
-103.236
 30
0.000000
  70
    32
  0
VERTEX
  8
0
  5
3A3
 10
-2.13778
 20
-103.392
 30
0.000000
  70
    32
  0
VERTEX
  8
0
  5
3A4
 10
-1.91342
 20
-103.533
 30
0.000000
  70
    32
  0
VERTEX
  8
0
  5
3A5
 10
-1.68445
 20
-103.658
 30
0.000000
  70
    32
  0
VERTEX
  8
0
  5
3A6
 10
-1.45142
 20
-103.767
 30
0.000000
  70
    32
  0
VERTEX
  8
0
  5
3A7
 10
-1.21490
 20
-103.859
 30
0.000000
  70
    32
  0
VERTEX
  8
0
  5
3A8
 10
-0.975452
 20
-103.935
 30
0.000000
  70
    32
  0
VERTEX
  8
0
  5
3A9
 10
-0.733652
 20
-103.995
 30
0.000000
  70
    32
  0
VERTEX
  8
0
  5
3AA
 10
-0.490086
 20
-104.037
 30
0.000000
  70
    32
  0
VERTEX
  8
0
  5
3AB
 10
-0.245338
 20
-104.063
 30
0.000000
  70
    32
  0
VERTEX
  8
0
  5
3AC
 10
2.77877e-014
 20
-104.071
 30
0.000000
  70
    32
  0
VERTEX
  8
0
  5
3AD
 10
0.245338
 20
-104.063
 30
0.000000
  70
    32
  0
VERTEX
  8
0
  5
3AE
 10
0.490086
 20
-104.037
 30
0.000000
  70
    32
  0
VERTEX
  8
0
  5
3AF
 10
0.733652
 20
-103.995
 30
0.000000
  70
    32
  0
VERTEX
  8
0
  5
3B0
 10
0.975452
 20
-103.935
 30
0.000000
  70
    32
  0
VERTEX
  8
0
  5
3B1
 10
1.21490
 20
-103.859
 30
0.000000
  70
    32
  0
VERTEX
  8
0
  5
3B2
 10
1.45142
 20
-103.767
 30
0.000000
  70
    32
  0
VERTEX
  8
0
  5
3B3
 10
1.68445
 20
-103.658
 30
0.000000
  70
    32
  0
VERTEX
  8
0
  5
3B4
 10
1.91342
 20
-103.533
 30
0.000000
  70
    32
  0
VERTEX
  8
0
  5
3B5
 10
2.13778
 20
-103.392
 30
0.000000
  70
    32
  0
VERTEX
  8
0
  5
3B6
 10
2.35698
 20
-103.236
 30
0.000000
  70
    32
  0
VERTEX
  8
0
  5
3B7
 10
2.57051
 20
-103.065
 30
0.000000
  70
    32
  0
VERTEX
  8
0
  5
3B8
 10
2.77785
 20
-102.879
 30
0.000000
  70
    32
  0
VERTEX
  8
0
  5
3B9
 10
2.97850
 20
-102.680
 30
0.000000
  70
    32
  0
VERTEX
  8
0
  5
3BA
 10
3.17197
 20
-102.466
 30
0.000000
  70
    32
  0
VERTEX
  8
0
  5
3BB
 10
3.35779
 20
-102.239
 30
0.000000
  70
    32
  0
VERTEX
  8
0
  5
3BC
 10
3.53553
 20
-102.000
 30
0.000000
  70
    32
  0
VERTEX
  8
0
  5
3BD
 10
3.70476
 20
-101.749
 30
0.000000
  70
    32
  0
VERTEX
  8
0
  5
3BE
 10
3.86505
 20
-101.486
 30
0.000000
  70
    32
  0
VERTEX
  8
0
  5
3BF
 10
4.01604
 20
-101.212
 30
0.000000
  70
    32
  0
VERTEX
  8
0
  5
3C0
 10
4.15735
 20
-100.928
 30
0.000000
  70
    32
  0
VERTEX
  8
0
  5
3C1
 10
4.28864
 20
-100.635
 30
0.000000
  70
    32
  0
VERTEX
  8
0
  5
3C2
 10
4.40961
 20
-100.333
 30
0.000000
  70
    32
  0
VERTEX
  8
0
  5
3C3
 10
4.51995
 20
-100.023
 30
0.000000
  70
    32
  0
VERTEX
  8
0
  5
3C4
 10
4.61940
 20
-99.7060
 30
0.000000
  70
    32
  0
VERTEX
  8
0
  5
3C5
 10
4.70772
 20
-99.3822
 30
0.000000
  70
    32
  0
VERTEX
  8
0
  5
3C6
 10
4.78470
 20
-99.0526
 30
0.000000
  70
    32
  0
VERTEX
  8
0
  5
3C7
 10
4.85016
 20
-98.7181
 30
0.000000
  70
    32
  0
VERTEX
  8
0
  5
3C8
 10
4.90393
 20
-98.3795
 30
0.000000
  70
    32
  0
VERTEX
  8
0
  5
3C9
 10
4.94588
 20
-98.0375
 30
0.000000
  70
    32
  0
VERTEX
  8
0
  5
3CA
 10
4.97592
 20
-97.6931
 30
0.000000
  70
    32
  0
VERTEX
  8
0
  5
3CB
 10
4.99398
 20
-97.3470
 30
0.000000
  70
    32
  0
VERTEX
  8
0
  5
3CC
 10
5.00000
 20
-97.0000
 30
0.000000
  70
    32
  0
VERTEX
  8
0
  5
3CD
 10
4.99398
 20
-96.6530
 30
0.000000
  70
    32
  0
VERTEX
  8
0
  5
3CE
 10
4.97592
 20
-96.3069
 30
0.000000
  70
    32
  0
VERTEX
  8
0
  5
3CF
 10
4.94588
 20
-95.9625
 30
0.000000
  70
    32
  0
VERTEX
  8
0
  5
3D0
 10
4.90393
 20
-95.6205
 30
0.000000
  70
    32
  0
VERTEX
  8
0
  5
3D1
 10
4.85016
 20
-95.2819
 30
0.000000
  70
    32
  0
VERTEX
  8
0
  5
3D2
 10
4.78470
 20
-94.9474
 30
0.000000
  70
    32
  0
VERTEX
  8
0
  5
3D3
 10
4.70772
 20
-94.6178
 30
0.000000
  70
    32
  0
VERTEX
  8
0
  5
3D4
 10
4.61940
 20
-94.2940
 30
0.000000
  70
    32
  0
VERTEX
  8
0
  5
3D5
 10
4.51995
 20
-93.9767
 30
0.000000
  70
    32
  0
VERTEX
  8
0
  5
3D6
 10
4.40961
 20
-93.6667
 30
0.000000
  70
    32
  0
VERTEX
  8
0
  5
3D7
 10
4.28864
 20
-93.3647
 30
0.000000
  70
    32
  0
VERTEX
  8
0
  5
3D8
 10
4.15735
 20
-93.0715
 30
0.000000
  70
    32
  0
VERTEX
  8
0
  5
3D9
 10
4.01604
 20
-92.7878
 30
0.000000
  70
    32
  0
VERTEX
  8
0
  5
3DA
 10
3.86505
 20
-92.5142
 30
0.000000
  70
    32
  0
VERTEX
  8
0
  5
3DB
 10
3.70476
 20
-92.2514
 30
0.000000
  70
    32
  0
VERTEX
  8
0
  5
3DC
 10
3.53553
 20
-92.0000
 30
0.000000
  70
    32
  0
VERTEX
  8
0
  5
3DD
 10
3.35779
 20
-91.7607
 30
0.000000
  70
    32
  0
VERTEX
  8
0
  5
3DE
 10
3.17197
 20
-91.5340
 30
0.000000
  70
    32
  0
VERTEX
  8
0
  5
3DF
 10
2.97850
 20
-91.3205
 30
0.000000
  70
    32
  0
VERTEX
  8
0
  5
3E0
 10
2.77785
 20
-91.1206
 30
0.000000
  70
    32
  0
VERTEX
  8
0
  5
3E1
 10
2.57051
 20
-90.9349
 30
0.000000
  70
    32
  0
VERTEX
  8
0
  5
3E2
 10
2.35698
 20
-90.7639
 30
0.000000
  70
    32
  0
VERTEX
  8
0
  5
3E3
 10
2.13778
 20
-90.6078
 30
0.000000
  70
    32
  0
VERTEX
  8
0
  5
3E4
 10
1.91342
 20
-90.4672
 30
0.000000
  70
    32
  0
VERTEX
  8
0
  5
3E5
 10
1.68445
 20
-90.3423
 30
0.000000
  70
    32
  0
VERTEX
  8
0
  5
3E6
 10
1.45142
 20
-90.2334
 30
0.000000
  70
    32
  0
VERTEX
  8
0
  5
3E7
 10
1.21490
 20
-90.1408
 30
0.000000
  70
    32
  0
VERTEX
  8
0
  5
3E8
 10
0.975452
 20
-90.0648
 30
0.000000
  70
    32
  0
VERTEX
  8
0
  5
3E9
 10
0.733652
 20
-90.0055
 30
0.000000
  70
    32
  0
VERTEX
  8
0
  5
3EA
 10
0.490086
 20
-89.9630
 30
0.000000
  70
    32
  0
VERTEX
  8
0
  5
3EB
 10
0.245338
 20
-89.9374
 30
0.000000
  70
    32
  0
VERTEX
  8
0
  5
3EC
 10
2.84000e-014
 20
-89.9289
 30
0.000000
  70
    32
  0
SEQEND
  8
0
  5
3ED
  0
POLYLINE
  5
36
  8
0
 10
4.7140452079103321
 20
-99.357022603955087
 30
0.0
 66
     1
 70
     8
  0
VERTEX
  8
0
  5
3EE
 10
4.71405
 20
-99.3570
 30
0.000000
  70
    32
  0
VERTEX
  8
0
  5
3EF
 10
4.68112
 20
-99.2931
 30
0.000000
  70
    32
  0
VERTEX
  8
0
  5
3F0
 10
4.64646
 20
-99.2297
 30
0.000000
  70
    32
  0
VERTEX
  8
0
  5
3F1
 10
4.61008
 20
-99.1668
 30
0.000000
  70
    32
  0
VERTEX
  8
0
  5
3F2
 10
4.57200
 20
-99.1043
 30
0.000000
  70
    32
  0
VERTEX
  8
0
  5
3F3
 10
4.53223
 20
-99.0424
 30
0.000000
  70
    32
  0
VERTEX
  8
0
  5
3F4
 10
4.49078
 20
-98.9810
 30
0.000000
  70
    32
  0
VERTEX
  8
0
  5
3F5
 10
4.44767
 20
-98.9203
 30
0.000000
  70
    32
  0
VERTEX
  8
0
  5
3F6
 10
4.40291
 20
-98.8601
 30
0.000000
  70
    32
  0
VERTEX
  8
0
  5
3F7
 10
4.35653
 20
-98.8005
 30
0.000000
  70
    32
  0
VERTEX
  8
0
  5
3F8
 10
4.30853
 20
-98.7416
 30
0.000000
  70
    32
  0
VERTEX
  8
0
  5
3F9
 10
4.25894
 20
-98.6833
 30
0.000000
  70
    32
  0
VERTEX
  8
0
  5
3FA
 10
4.20777
 20
-98.6257
 30
0.000000
  70
    32
  0
VERTEX
  8
0
  5
3FB
 10
4.15505
 20
-98.5689
 30
0.000000
  70
    32
  0
VERTEX
  8
0
  5
3FC
 10
4.10079
 20
-98.5127
 30
0.000000
  70
    32
  0
VERTEX
  8
0
  5
3FD
 10
4.04501
 20
-98.4573
 30
0.000000
  70
    32
  0
VERTEX
  8
0
  5
3FE
 10
3.98774
 20
-98.4027
 30
0.000000
  70
    32
  0
VERTEX
  8
0
  5
3FF
 10
3.92899
 20
-98.3489
 30
0.000000
  70
    32
  0
VERTEX
  8
0
  5
400
 10
3.86879
 20
-98.2958
 30
0.000000
  70
    32
  0
VERTEX
  8
0
  5
401
 10
3.80716
 20
-98.2436
 30
0.000000
  70
    32
  0
VERTEX
  8
0
  5
402
 10
3.74412
 20
-98.1923
 30
0.000000
  70
    32
  0
VERTEX
  8
0
  5
403
 10
3.67969
 20
-98.1418
 30
0.000000
  70
    32
  0
VERTEX
  8
0
  5
404
 10
3.61390
 20
-98.0922
 30
0.000000
  70
    32
  0
VERTEX
  8
0
  5
405
 10
3.54678
 20
-98.0435
 30
0.000000
  70
    32
  0
VERTEX
  8
0
  5
406
 10
3.47834
 20
-97.9957
 30
0.000000
  70
    32
  0
VERTEX
  8
0
  5
407
 10
3.40862
 20
-97.9489
 30
0.000000
  70
    32
  0
VERTEX
  8
0
  5
408
 10
3.33763
 20
-97.9030
 30
0.000000
  70
    32
  0
VERTEX
  8
0
  5
409
 10
3.26541
 20
-97.8581
 30
0.000000
  70
    32
  0
VERTEX
  8
0
  5
40A
 10
3.19199
 20
-97.8142
 30
0.000000
  70
    32
  0
VERTEX
  8
0
  5
40B
 10
3.11738
 20
-97.7713
 30
0.000000
  70
    32
  0
VERTEX
  8
0
  5
40C
 10
3.04162
 20
-97.7294
 30
0.000000
  70
    32
  0
VERTEX
  8
0
  5
40D
 10
2.96473
 20
-97.6886
 30
0.000000
  70
    32
  0
VERTEX
  8
0
  5
40E
 10
2.88675
 20
-97.6488
 30
0.000000
  70
    32
  0
VERTEX
  8
0
  5
40F
 10
2.80770
 20
-97.6101
 30
0.000000
  70
    32
  0
VERTEX
  8
0
  5
410
 10
2.72761
 20
-97.5724
 30
0.000000
  70
    32
  0
VERTEX
  8
0
  5
411
 10
2.64651
 20
-97.5359
 30
0.000000
  70
    32
  0
VERTEX
  8
0
  5
412
 10
2.56444
 20
-97.5004
 30
0.000000
  70
    32
  0
VERTEX
  8
0
  5
413
 10
2.48141
 20
-97.4661
 30
0.000000
  70
    32
  0
VERTEX
  8
0
  5
414
 10
2.39747
 20
-97.4329
 30
0.000000
  70
    32
  0
VERTEX
  8
0
  5
415
 10
2.31264
 20
-97.4009
 30
0.000000
  70
    32
  0
VERTEX
  8
0
  5
416
 10
2.22695
 20
-97.3700
 30
0.000000
  70
    32
  0
VERTEX
  8
0
  5
417
 10
2.14044
 20
-97.3403
 30
0.000000
  70
    32
  0
VERTEX
  8
0
  5
418
 10
2.05314
 20
-97.3118
 30
0.000000
  70
    32
  0
VERTEX
  8
0
  5
419
 10
1.96508
 20
-97.2845
 30
0.000000
  70
    32
  0
VERTEX
  8
0
  5
41A
 10
1.87629
 20
-97.2584
 30
0.000000
  70
    32
  0
VERTEX
  8
0
  5
41B
 10
1.78681
 20
-97.2335
 30
0.000000
  70
    32
  0
VERTEX
  8
0
  5
41C
 10
1.69666
 20
-97.2098
 30
0.000000
  70
    32
  0
VERTEX
  8
0
  5
41D
 10
1.60589
 20
-97.1873
 30
0.000000
  70
    32
  0
VERTEX
  8
0
  5
41E
 10
1.51453
 20
-97.1661
 30
0.000000
  70
    32
  0
VERTEX
  8
0
  5
41F
 10
1.42260
 20
-97.1461
 30
0.000000
  70
    32
  0
VERTEX
  8
0
  5
420
 10
1.33015
 20
-97.1274
 30
0.000000
  70
    32
  0
VERTEX
  8
0
  5
421
 10
1.23721
 20
-97.1099
 30
0.000000
  70
    32
  0
VERTEX
  8
0
  5
422
 10
1.14381
 20
-97.0938
 30
0.000000
  70
    32
  0
VERTEX
  8
0
  5
423
 10
1.04998
 20
-97.0788
 30
0.000000
  70
    32
  0
VERTEX
  8
0
  5
424
 10
0.955769
 20
-97.0652
 30
0.000000
  70
    32
  0
VERTEX
  8
0
  5
425
 10
0.861202
 20
-97.0528
 30
0.000000
  70
    32
  0
VERTEX
  8
0
  5
426
 10
0.766317
 20
-97.0418
 30
0.000000
  70
    32
  0
VERTEX
  8
0
  5
427
 10
0.671149
 20
-97.0320
 30
0.000000
  70
    32
  0
VERTEX
  8
0
  5
428
 10
0.575732
 20
-97.0235
 30
0.000000
  70
    32
  0
VERTEX
  8
0
  5
429
 10
0.480103
 20
-97.0163
 30
0.000000
  70
    32
  0
VERTEX
  8
0
  5
42A
 10
0.384295
 20
-97.0105
 30
0.000000
  70
    32
  0
VERTEX
  8
0
  5
42B
 10
0.288346
 20
-97.0059
 30
0.000000
  70
    32
  0
VERTEX
  8
0
  5
42C
 10
0.192290
 20
-97.0026
 30
0.000000
  70
    32
  0
VERTEX
  8
0
  5
42D
 10
0.0961628
 20
-97.0007
 30
0.000000
  70
    32
  0
VERTEX
  8
0
  5
42E
 10
3.47493e-014
 20
-97.0000
 30
0.000000
  70
    32
  0
VERTEX
  8
0
  5
42F
 10
-0.0961628
 20
-97.0007
 30
0.000000
  70
    32
  0
VERTEX
  8
0
  5
430
 10
-0.192290
 20
-97.0026
 30
0.000000
  70
    32
  0
VERTEX
  8
0
  5
431
 10
-0.288346
 20
-97.0059
 30
0.000000
  70
    32
  0
VERTEX
  8
0
  5
432
 10
-0.384295
 20
-97.0105
 30
0.000000
  70
    32
  0
VERTEX
  8
0
  5
433
 10
-0.480103
 20
-97.0163
 30
0.000000
  70
    32
  0
VERTEX
  8
0
  5
434
 10
-0.575732
 20
-97.0235
 30
0.000000
  70
    32
  0
VERTEX
  8
0
  5
435
 10
-0.671149
 20
-97.0320
 30
0.000000
  70
    32
  0
VERTEX
  8
0
  5
436
 10
-0.766317
 20
-97.0418
 30
0.000000
  70
    32
  0
VERTEX
  8
0
  5
437
 10
-0.861202
 20
-97.0528
 30
0.000000
  70
    32
  0
VERTEX
  8
0
  5
438
 10
-0.955769
 20
-97.0652
 30
0.000000
  70
    32
  0
VERTEX
  8
0
  5
439
 10
-1.04998
 20
-97.0788
 30
0.000000
  70
    32
  0
VERTEX
  8
0
  5
43A
 10
-1.14381
 20
-97.0938
 30
0.000000
  70
    32
  0
VERTEX
  8
0
  5
43B
 10
-1.23721
 20
-97.1099
 30
0.000000
  70
    32
  0
VERTEX
  8
0
  5
43C
 10
-1.33015
 20
-97.1274
 30
0.000000
  70
    32
  0
VERTEX
  8
0
  5
43D
 10
-1.42260
 20
-97.1461
 30
0.000000
  70
    32
  0
VERTEX
  8
0
  5
43E
 10
-1.51453
 20
-97.1661
 30
0.000000
  70
    32
  0
VERTEX
  8
0
  5
43F
 10
-1.60589
 20
-97.1873
 30
0.000000
  70
    32
  0
VERTEX
  8
0
  5
440
 10
-1.69666
 20
-97.2098
 30
0.000000
  70
    32
  0
VERTEX
  8
0
  5
441
 10
-1.78681
 20
-97.2335
 30
0.000000
  70
    32
  0
VERTEX
  8
0
  5
442
 10
-1.87629
 20
-97.2584
 30
0.000000
  70
    32
  0
VERTEX
  8
0
  5
443
 10
-1.96508
 20
-97.2845
 30
0.000000
  70
    32
  0
VERTEX
  8
0
  5
444
 10
-2.05314
 20
-97.3118
 30
0.000000
  70
    32
  0
VERTEX
  8
0
  5
445
 10
-2.14044
 20
-97.3403
 30
0.000000
  70
    32
  0
VERTEX
  8
0
  5
446
 10
-2.22695
 20
-97.3700
 30
0.000000
  70
    32
  0
VERTEX
  8
0
  5
447
 10
-2.31264
 20
-97.4009
 30
0.000000
  70
    32
  0
VERTEX
  8
0
  5
448
 10
-2.39747
 20
-97.4329
 30
0.000000
  70
    32
  0
VERTEX
  8
0
  5
449
 10
-2.48141
 20
-97.4661
 30
0.000000
  70
    32
  0
VERTEX
  8
0
  5
44A
 10
-2.56444
 20
-97.5004
 30
0.000000
  70
    32
  0
VERTEX
  8
0
  5
44B
 10
-2.64651
 20
-97.5359
 30
0.000000
  70
    32
  0
VERTEX
  8
0
  5
44C
 10
-2.72761
 20
-97.5724
 30
0.000000
  70
    32
  0
VERTEX
  8
0
  5
44D
 10
-2.80770
 20
-97.6101
 30
0.000000
  70
    32
  0
VERTEX
  8
0
  5
44E
 10
-2.88675
 20
-97.6488
 30
0.000000
  70
    32
  0
VERTEX
  8
0
  5
44F
 10
-2.96473
 20
-97.6886
 30
0.000000
  70
    32
  0
VERTEX
  8
0
  5
450
 10
-3.04162
 20
-97.7294
 30
0.000000
  70
    32
  0
VERTEX
  8
0
  5
451
 10
-3.11738
 20
-97.7713
 30
0.000000
  70
    32
  0
VERTEX
  8
0
  5
452
 10
-3.19199
 20
-97.8142
 30
0.000000
  70
    32
  0
VERTEX
  8
0
  5
453
 10
-3.26541
 20
-97.8581
 30
0.000000
  70
    32
  0
VERTEX
  8
0
  5
454
 10
-3.33763
 20
-97.9030
 30
0.000000
  70
    32
  0
VERTEX
  8
0
  5
455
 10
-3.40862
 20
-97.9489
 30
0.000000
  70
    32
  0
VERTEX
  8
0
  5
456
 10
-3.47834
 20
-97.9957
 30
0.000000
  70
    32
  0
VERTEX
  8
0
  5
457
 10
-3.54678
 20
-98.0435
 30
0.000000
  70
    32
  0
VERTEX
  8
0
  5
458
 10
-3.61390
 20
-98.0922
 30
0.000000
  70
    32
  0
VERTEX
  8
0
  5
459
 10
-3.67969
 20
-98.1418
 30
0.000000
  70
    32
  0
VERTEX
  8
0
  5
45A
 10
-3.74412
 20
-98.1923
 30
0.000000
  70
    32
  0
VERTEX
  8
0
  5
45B
 10
-3.80716
 20
-98.2436
 30
0.000000
  70
    32
  0
VERTEX
  8
0
  5
45C
 10
-3.86879
 20
-98.2958
 30
0.000000
  70
    32
  0
VERTEX
  8
0
  5
45D
 10
-3.92899
 20
-98.3489
 30
0.000000
  70
    32
  0
VERTEX
  8
0
  5
45E
 10
-3.98774
 20
-98.4027
 30
0.000000
  70
    32
  0
VERTEX
  8
0
  5
45F
 10
-4.04501
 20
-98.4573
 30
0.000000
  70
    32
  0
VERTEX
  8
0
  5
460
 10
-4.10079
 20
-98.5127
 30
0.000000
  70
    32
  0
VERTEX
  8
0
  5
461
 10
-4.15505
 20
-98.5689
 30
0.000000
  70
    32
  0
VERTEX
  8
0
  5
462
 10
-4.20777
 20
-98.6257
 30
0.000000
  70
    32
  0
VERTEX
  8
0
  5
463
 10
-4.25894
 20
-98.6833
 30
0.000000
  70
    32
  0
VERTEX
  8
0
  5
464
 10
-4.30853
 20
-98.7416
 30
0.000000
  70
    32
  0
VERTEX
  8
0
  5
465
 10
-4.35653
 20
-98.8005
 30
0.000000
  70
    32
  0
VERTEX
  8
0
  5
466
 10
-4.40291
 20
-98.8601
 30
0.000000
  70
    32
  0
VERTEX
  8
0
  5
467
 10
-4.44767
 20
-98.9203
 30
0.000000
  70
    32
  0
VERTEX
  8
0
  5
468
 10
-4.49078
 20
-98.9810
 30
0.000000
  70
    32
  0
VERTEX
  8
0
  5
469
 10
-4.53223
 20
-99.0424
 30
0.000000
  70
    32
  0
VERTEX
  8
0
  5
46A
 10
-4.57200
 20
-99.1043
 30
0.000000
  70
    32
  0
VERTEX
  8
0
  5
46B
 10
-4.61008
 20
-99.1668
 30
0.000000
  70
    32
  0
VERTEX
  8
0
  5
46C
 10
-4.64646
 20
-99.2297
 30
0.000000
  70
    32
  0
VERTEX
  8
0
  5
46D
 10
-4.68112
 20
-99.2931
 30
0.000000
  70
    32
  0
VERTEX
  8
0
  5
46E
 10
-4.71405
 20
-99.3570
 30
0.000000
  70
    32
  0
SEQEND
  8
0
  5
46F
  0
POLYLINE
  5
37
  8
0
 10
2.7000000000000375
 20
-102.16187950266169
 30
0.0
 66
     1
 70
     8
  0
VERTEX
  8
0
  5
470
 10
2.70000
 20
-102.162
 30
0.000000
  70
    32
  0
VERTEX
  8
0
  5
471
 10
2.69675
 20
-102.068
 30
0.000000
  70
    32
  0
VERTEX
  8
0
  5
472
 10
2.68700
 20
-101.975
 30
0.000000
  70
    32
  0
VERTEX
  8
0
  5
473
 10
2.67078
 20
-101.882
 30
0.000000
  70
    32
  0
VERTEX
  8
0
  5
474
 10
2.64812
 20
-101.789
 30
0.000000
  70
    32
  0
VERTEX
  8
0
  5
475
 10
2.61908
 20
-101.698
 30
0.000000
  70
    32
  0
VERTEX
  8
0
  5
476
 10
2.58374
 20
-101.608
 30
0.000000
  70
    32
  0
VERTEX
  8
0
  5
477
 10
2.54217
 20
-101.519
 30
0.000000
  70
    32
  0
VERTEX
  8
0
  5
478
 10
2.49447
 20
-101.431
 30
0.000000
  70
    32
  0
VERTEX
  8
0
  5
479
 10
2.44077
 20
-101.346
 30
0.000000
  70
    32
  0
VERTEX
  8
0
  5
47A
 10
2.38119
 20
-101.262
 30
0.000000
  70
    32
  0
VERTEX
  8
0
  5
47B
 10
2.31587
 20
-101.180
 30
0.000000
  70
    32
  0
VERTEX
  8
0
  5
47C
 10
2.24497
 20
-101.101
 30
0.000000
  70
    32
  0
VERTEX
  8
0
  5
47D
 10
2.16866
 20
-101.025
 30
0.000000
  70
    32
  0
VERTEX
  8
0
  5
47E
 10
2.08713
 20
-100.951
 30
0.000000
  70
    32
  0
VERTEX
  8
0
  5
47F
 10
2.00057
 20
-100.880
 30
0.000000
  70
    32
  0
VERTEX
  8
0
  5
480
 10
1.90919
 20
-100.812
 30
0.000000
  70
    32
  0
VERTEX
  8
0
  5
481
 10
1.81321
 20
-100.747
 30
0.000000
  70
    32
  0
VERTEX
  8
0
  5
482
 10
1.71286
 20
-100.686
 30
0.000000
  70
    32
  0
VERTEX
  8
0
  5
483
 10
1.60839
 20
-100.628
 30
0.000000
  70
    32
  0
VERTEX
  8
0
  5
484
 10
1.50004
 20
-100.574
 30
0.000000
  70
    32
  0
VERTEX
  8
0
  5
485
 10
1.38808
 20
-100.524
 30
0.000000
  70
    32
  0
VERTEX
  8
0
  5
486
 10
1.27277
 20
-100.478
 30
0.000000
  70
    32
  0
VERTEX
  8
0
  5
487
 10
1.15440
 20
-100.436
 30
0.000000
  70
    32
  0
VERTEX
  8
0
  5
488
 10
1.03325
 20
-100.398
 30
0.000000
  70
    32
  0
VERTEX
  8
0
  5
489
 10
0.909603
 20
-100.364
 30
0.000000
  70
    32
  0
VERTEX
  8
0
  5
48A
 10
0.783769
 20
-100.335
 30
0.000000
  70
    32
  0
VERTEX
  8
0
  5
48B
 10
0.656046
 20
-100.310
 30
0.000000
  70
    32
  0
VERTEX
  8
0
  5
48C
 10
0.526744
 20
-100.289
 30
0.000000
  70
    32
  0
VERTEX
  8
0
  5
48D
 10
0.396172
 20
-100.273
 30
0.000000
  70
    32
  0
VERTEX
  8
0
  5
48E
 10
0.264646
 20
-100.262
 30
0.000000
  70
    32
  0
VERTEX
  8
0
  5
48F
 10
0.132483
 20
-100.255
 30
0.000000
  70
    32
  0
VERTEX
  8
0
  5
490
 10
1.35039e-014
 20
-100.253
 30
0.000000
  70
    32
  0
VERTEX
  8
0
  5
491
 10
-0.132483
 20
-100.255
 30
0.000000
  70
    32
  0
VERTEX
  8
0
  5
492
 10
-0.264646
 20
-100.262
 30
0.000000
  70
    32
  0
VERTEX
  8
0
  5
493
 10
-0.396172
 20
-100.273
 30
0.000000
  70
    32
  0
VERTEX
  8
0
  5
494
 10
-0.526744
 20
-100.289
 30
0.000000
  70
    32
  0
VERTEX
  8
0
  5
495
 10
-0.656046
 20
-100.310
 30
0.000000
  70
    32
  0
VERTEX
  8
0
  5
496
 10
-0.783769
 20
-100.335
 30
0.000000
  70
    32
  0
VERTEX
  8
0
  5
497
 10
-0.909603
 20
-100.364
 30
0.000000
  70
    32
  0
VERTEX
  8
0
  5
498
 10
-1.03325
 20
-100.398
 30
0.000000
  70
    32
  0
VERTEX
  8
0
  5
499
 10
-1.15440
 20
-100.436
 30
0.000000
  70
    32
  0
VERTEX
  8
0
  5
49A
 10
-1.27277
 20
-100.478
 30
0.000000
  70
    32
  0
VERTEX
  8
0
  5
49B
 10
-1.38808
 20
-100.524
 30
0.000000
  70
    32
  0
VERTEX
  8
0
  5
49C
 10
-1.50004
 20
-100.574
 30
0.000000
  70
    32
  0
VERTEX
  8
0
  5
49D
 10
-1.60839
 20
-100.628
 30
0.000000
  70
    32
  0
VERTEX
  8
0
  5
49E
 10
-1.71286
 20
-100.686
 30
0.000000
  70
    32
  0
VERTEX
  8
0
  5
49F
 10
-1.81321
 20
-100.747
 30
0.000000
  70
    32
  0
VERTEX
  8
0
  5
4A0
 10
-1.90919
 20
-100.812
 30
0.000000
  70
    32
  0
VERTEX
  8
0
  5
4A1
 10
-2.00057
 20
-100.880
 30
0.000000
  70
    32
  0
VERTEX
  8
0
  5
4A2
 10
-2.08713
 20
-100.951
 30
0.000000
  70
    32
  0
VERTEX
  8
0
  5
4A3
 10
-2.16866
 20
-101.025
 30
0.000000
  70
    32
  0
VERTEX
  8
0
  5
4A4
 10
-2.24497
 20
-101.101
 30
0.000000
  70
    32
  0
VERTEX
  8
0
  5
4A5
 10
-2.31587
 20
-101.180
 30
0.000000
  70
    32
  0
VERTEX
  8
0
  5
4A6
 10
-2.38119
 20
-101.262
 30
0.000000
  70
    32
  0
VERTEX
  8
0
  5
4A7
 10
-2.44077
 20
-101.346
 30
0.000000
  70
    32
  0
VERTEX
  8
0
  5
4A8
 10
-2.49447
 20
-101.431
 30
0.000000
  70
    32
  0
VERTEX
  8
0
  5
4A9
 10
-2.54217
 20
-101.519
 30
0.000000
  70
    32
  0
VERTEX
  8
0
  5
4AA
 10
-2.58374
 20
-101.608
 30
0.000000
  70
    32
  0
VERTEX
  8
0
  5
4AB
 10
-2.61908
 20
-101.698
 30
0.000000
  70
    32
  0
VERTEX
  8
0
  5
4AC
 10
-2.64812
 20
-101.789
 30
0.000000
  70
    32
  0
VERTEX
  8
0
  5
4AD
 10
-2.67078
 20
-101.882
 30
0.000000
  70
    32
  0
VERTEX
  8
0
  5
4AE
 10
-2.68700
 20
-101.975
 30
0.000000
  70
    32
  0
VERTEX
  8
0
  5
4AF
 10
-2.69675
 20
-102.068
 30
0.000000
  70
    32
  0
VERTEX
  8
0
  5
4B0
 10
-2.70000
 20
-102.162
 30
0.000000
  70
    32
  0
VERTEX
  8
0
  5
4B1
 10
-2.69675
 20
-102.256
 30
0.000000
  70
    32
  0
VERTEX
  8
0
  5
4B2
 10
-2.68700
 20
-102.349
 30
0.000000
  70
    32
  0
VERTEX
  8
0
  5
4B3
 10
-2.67078
 20
-102.442
 30
0.000000
  70
    32
  0
VERTEX
  8
0
  5
4B4
 10
-2.64812
 20
-102.534
 30
0.000000
  70
    32
  0
VERTEX
  8
0
  5
4B5
 10
-2.61908
 20
-102.626
 30
0.000000
  70
    32
  0
VERTEX
  8
0
  5
4B6
 10
-2.58374
 20
-102.716
 30
0.000000
  70
    32
  0
VERTEX
  8
0
  5
4B7
 10
-2.54217
 20
-102.805
 30
0.000000
  70
    32
  0
VERTEX
  8
0
  5
4B8
 10
-2.49447
 20
-102.892
 30
0.000000
  70
    32
  0
VERTEX
  8
0
  5
4B9
 10
-2.44077
 20
-102.978
 30
0.000000
  70
    32
  0
VERTEX
  8
0
  5
4BA
 10
-2.38119
 20
-103.062
 30
0.000000
  70
    32
  0
VERTEX
  8
0
  5
4BB
 10
-2.31587
 20
-103.143
 30
0.000000
  70
    32
  0
VERTEX
  8
0
  5
4BC
 10
-2.24497
 20
-103.223
 30
0.000000
  70
    32
  0
VERTEX
  8
0
  5
4BD
 10
-2.16866
 20
-103.299
 30
0.000000
  70
    32
  0
VERTEX
  8
0
  5
4BE
 10
-2.08713
 20
-103.373
 30
0.000000
  70
    32
  0
VERTEX
  8
0
  5
4BF
 10
-2.00057
 20
-103.444
 30
0.000000
  70
    32
  0
VERTEX
  8
0
  5
4C0
 10
-1.90919
 20
-103.512
 30
0.000000
  70
    32
  0
VERTEX
  8
0
  5
4C1
 10
-1.81321
 20
-103.576
 30
0.000000
  70
    32
  0
VERTEX
  8
0
  5
4C2
 10
-1.71286
 20
-103.638
 30
0.000000
  70
    32
  0
VERTEX
  8
0
  5
4C3
 10
-1.60839
 20
-103.695
 30
0.000000
  70
    32
  0
VERTEX
  8
0
  5
4C4
 10
-1.50004
 20
-103.749
 30
0.000000
  70
    32
  0
VERTEX
  8
0
  5
4C5
 10
-1.38808
 20
-103.799
 30
0.000000
  70
    32
  0
VERTEX
  8
0
  5
4C6
 10
-1.27277
 20
-103.846
 30
0.000000
  70
    32
  0
VERTEX
  8
0
  5
4C7
 10
-1.15440
 20
-103.888
 30
0.000000
  70
    32
  0
VERTEX
  8
0
  5
4C8
 10
-1.03325
 20
-103.926
 30
0.000000
  70
    32
  0
VERTEX
  8
0
  5
4C9
 10
-0.909603
 20
-103.959
 30
0.000000
  70
    32
  0
VERTEX
  8
0
  5
4CA
 10
-0.783769
 20
-103.989
 30
0.000000
  70
    32
  0
VERTEX
  8
0
  5
4CB
 10
-0.656046
 20
-104.014
 30
0.000000
  70
    32
  0
VERTEX
  8
0
  5
4CC
 10
-0.526744
 20
-104.034
 30
0.000000
  70
    32
  0
VERTEX
  8
0
  5
4CD
 10
-0.396172
 20
-104.050
 30
0.000000
  70
    32
  0
VERTEX
  8
0
  5
4CE
 10
-0.264646
 20
-104.062
 30
0.000000
  70
    32
  0
VERTEX
  8
0
  5
4CF
 10
-0.132483
 20
-104.069
 30
0.000000
  70
    32
  0
VERTEX
  8
0
  5
4D0
 10
4.29654e-014
 20
-104.071
 30
0.000000
  70
    32
  0
VERTEX
  8
0
  5
4D1
 10
0.132483
 20
-104.069
 30
0.000000
  70
    32
  0
VERTEX
  8
0
  5
4D2
 10
0.264646
 20
-104.062
 30
0.000000
  70
    32
  0
VERTEX
  8
0
  5
4D3
 10
0.396172
 20
-104.050
 30
0.000000
  70
    32
  0
VERTEX
  8
0
  5
4D4
 10
0.526744
 20
-104.034
 30
0.000000
  70
    32
  0
VERTEX
  8
0
  5
4D5
 10
0.656046
 20
-104.014
 30
0.000000
  70
    32
  0
VERTEX
  8
0
  5
4D6
 10
0.783769
 20
-103.989
 30
0.000000
  70
    32
  0
VERTEX
  8
0
  5
4D7
 10
0.909603
 20
-103.959
 30
0.000000
  70
    32
  0
VERTEX
  8
0
  5
4D8
 10
1.03325
 20
-103.926
 30
0.000000
  70
    32
  0
VERTEX
  8
0
  5
4D9
 10
1.15440
 20
-103.888
 30
0.000000
  70
    32
  0
VERTEX
  8
0
  5
4DA
 10
1.27277
 20
-103.846
 30
0.000000
  70
    32
  0
VERTEX
  8
0
  5
4DB
 10
1.38808
 20
-103.799
 30
0.000000
  70
    32
  0
VERTEX
  8
0
  5
4DC
 10
1.50004
 20
-103.749
 30
0.000000
  70
    32
  0
VERTEX
  8
0
  5
4DD
 10
1.60839
 20
-103.695
 30
0.000000
  70
    32
  0
VERTEX
  8
0
  5
4DE
 10
1.71286
 20
-103.638
 30
0.000000
  70
    32
  0
VERTEX
  8
0
  5
4DF
 10
1.81321
 20
-103.576
 30
0.000000
  70
    32
  0
VERTEX
  8
0
  5
4E0
 10
1.90919
 20
-103.512
 30
0.000000
  70
    32
  0
VERTEX
  8
0
  5
4E1
 10
2.00057
 20
-103.444
 30
0.000000
  70
    32
  0
VERTEX
  8
0
  5
4E2
 10
2.08713
 20
-103.373
 30
0.000000
  70
    32
  0
VERTEX
  8
0
  5
4E3
 10
2.16866
 20
-103.299
 30
0.000000
  70
    32
  0
VERTEX
  8
0
  5
4E4
 10
2.24497
 20
-103.223
 30
0.000000
  70
    32
  0
VERTEX
  8
0
  5
4E5
 10
2.31587
 20
-103.143
 30
0.000000
  70
    32
  0
VERTEX
  8
0
  5
4E6
 10
2.38119
 20
-103.062
 30
0.000000
  70
    32
  0
VERTEX
  8
0
  5
4E7
 10
2.44077
 20
-102.978
 30
0.000000
  70
    32
  0
VERTEX
  8
0
  5
4E8
 10
2.49447
 20
-102.892
 30
0.000000
  70
    32
  0
VERTEX
  8
0
  5
4E9
 10
2.54217
 20
-102.805
 30
0.000000
  70
    32
  0
VERTEX
  8
0
  5
4EA
 10
2.58374
 20
-102.716
 30
0.000000
  70
    32
  0
VERTEX
  8
0
  5
4EB
 10
2.61908
 20
-102.626
 30
0.000000
  70
    32
  0
VERTEX
  8
0
  5
4EC
 10
2.64812
 20
-102.534
 30
0.000000
  70
    32
  0
VERTEX
  8
0
  5
4ED
 10
2.67078
 20
-102.442
 30
0.000000
  70
    32
  0
VERTEX
  8
0
  5
4EE
 10
2.68700
 20
-102.349
 30
0.000000
  70
    32
  0
VERTEX
  8
0
  5
4EF
 10
2.69675
 20
-102.256
 30
0.000000
  70
    32
  0
VERTEX
  8
0
  5
4F0
 10
2.70000
 20
-102.162
 30
0.000000
  70
    32
  0
SEQEND
  8
0
  5
4F1
  0
LINE
  5
38
  8
0
 10
-14.99999999999997
 20
0.0
 30
0.0
 11
-14.99999999999997
 21
-110.0
 31
0.0
  0
LINE
  5
39
  8
0
 10
14.99999999999997
 20
-10.0
 30
0.0
 11
-14.99999999999997
 21
-10.0
 31
0.0
  0
ARC
  5
3A
  8
0
 10
-4.9999999999999707
 20
-110.0
 30
0.0
 40
10.0
 50
180.0
 51
270.0
  0
ARC
  5
3B
  8
0
 10
4.9999999999999707
 20
-110.0
 30
0.0
 40
10.0
 50
270.0
 51
0.0
  0
LINE
  5
3C
  8
0
  6
HIDDEN
 62
     8
 10
4.9999999999999849
 20
-3.0
 30
0.0
 11
-5.0000000000000142
 21
-3.0
 31
0.0
  0
LINE
  5
3E
  8
0
  6
HIDDEN
 62
     8
 10
2.6999999999999171
 20
-5.2999999999999536
 30
0.0
 11
-2.7000000000000588
 21
-5.2999999999999536
 31
0.0
  0
LINE
  5
3F
  8
0
  6
HIDDEN
 62
     8
 10
-5.0000000000000711
 20
0.0
 30
0.0
 11
4.9999999999999849
 21
0.0
 31
0.0
  0
LINE
  5
40
  8
0
  6
HIDDEN
 62
     8
 10
-2.7000000000000588
 20
-10.0
 30
0.0
 11
-2.7000000000000588
 21
-5.2999999999999536
 31
0.0
  0
LINE
  5
41
  8
0
  6
HIDDEN
 62
     8
 10
-5.0000000000000711
 20
-3.0
 30
0.0
 11
-5.0000000000000711
 21
0.0
 31
0.0
  0
LINE
  5
42
  8
0
  6
HIDDEN
 62
     8
 10
-2.7000000000000588
 20
-5.2999999999999536
 30
0.0
 11
-5.0000000000000142
 21
-3.0
 31
0.0
  0
LINE
  5
43
  8
0
  6
HIDDEN
 62
     8
 10
2.6999999999999171
 20
-10.0
 30
0.0
 11
2.6999999999999171
 21
-5.2999999999999536
 31
0.0
  0
LINE
  5
44
  8
0
  6
HIDDEN
 62
     8
 10
4.9999999999999849
 20
-3.0
 30
0.0
 11
4.9999999999999849
 21
0.0
 31
0.0
  0
LINE
  5
45
  8
0
  6
HIDDEN
 62
     8
 10
4.9999999999999849
 20
-3.0
 30
0.0
 11
2.6999999999999171
 21
-5.2999999999999536
 31
0.0
  0
INSERT
  5
46
  8
0
  2
SIMPSON-STRONG-TIE
 10
-0.2999999999999403
 20
-49.799999999999891
 30
0.0
  0
ENDSEC
  0
EOF
