  0
SECTION
  2
HEADER
  9
$ACADVER
  1
AC1009
  9
$INSBASE
 10
0.0
 20
0.0
 30
0.0
  9
$EXTMIN
 10
-75.000001328799982
 20
-0.0000000000000284
 30
0.0
  9
$EXTMAX
 10
75.00000132880001
 20
9.9989093424000242
 30
0.0
  9
$LIMMIN
 10
0.0
 20
0.0
  9
$LIMMAX
 10
420.0
 20
297.0
  9
$ORTHOMODE
 70
     1
  9
$REGENMODE
 70
     1
  9
$FILLMODE
 70
     1
  9
$QTEXTMODE
 70
     0
  9
$MIRRTEXT
 70
     1
  9
$DRAGMODE
 70
     2
  9
$LTSCALE
 40
1.0
  9
$OSMODE
 70
    47
  9
$ATTMODE
 70
     1
  9
$TEXTSIZE
 40
3.5
  9
$TRACEWID
 40
0.05
  9
$TEXTSTYLE
  7
SST
  9
$CLAYER
  8
0
  9
$CELTYPE
  6
BYLAYER
  9
$CECOLOR
 62
   256
  9
$DIMSCALE
 40
1.0
  9
$DIMASZ
 40
0.18
  9
$DIMEXO
 40
0.0625
  9
$DIMDLI
 40
0.38
  9
$DIMRND
 40
0.0
  9
$DIMDLE
 40
0.0
  9
$DIMEXE
 40
0.18
  9
$DIMTP
 40
0.0
  9
$DIMTM
 40
0.0
  9
$DIMTXT
 40
0.18
  9
$DIMCEN
 40
0.09
  9
$DIMTSZ
 40
0.0
  9
$DIMTOL
 70
     0
  9
$DIMLIM
 70
     0
  9
$DIMTIH
 70
     1
  9
$DIMTOH
 70
     1
  9
$DIMSE1
 70
     0
  9
$DIMSE2
 70
     0
  9
$DIMTAD
 70
     0
  9
$DIMZIN
 70
     0
  9
$DIMBLK
  1

  9
$DIMASO
 70
     1
  9
$DIMSHO
 70
     1
  9
$DIMPOST
  1

  9
$DIMAPOST
  1

  9
$DIMALT
 70
     0
  9
$DIMALTD
 70
     2
  9
$DIMALTF
 40
25.399999999999999
  9
$DIMLFAC
 40
1.0
  9
$DIMTOFL
 70
     0
  9
$DIMTVP
 40
0.0
  9
$DIMTIX
 70
     0
  9
$DIMSOXD
 70
     0
  9
$DIMSAH
 70
     0
  9
$DIMBLK1
  1

  9
$DIMBLK2
  1

  9
$DIMSTYLE
  2
STANDARD
  9
$DIMCLRD
 70
     0
  9
$DIMCLRE
 70
     0
  9
$DIMCLRT
 70
     0
  9
$DIMTFAC
 40
1.0
  9
$DIMGAP
 40
0.09
  9
$LUNITS
 70
     2
  9
$LUPREC
 70
     4
  9
$SKETCHINC
 40
0.1
  9
$FILLETRAD
 40
0.05
  9
$AUNITS
 70
     0
  9
$AUPREC
 70
     2
  9
$MENU
  1
acad
  9
$ELEVATION
 40
0.0
  9
$PELEVATION
 40
0.0
  9
$THICKNESS
 40
0.0
  9
$LIMCHECK
 70
     0
  9
$BLIPMODE
 70
     0
  9
$CHAMFERA
 40
10.0
  9
$CHAMFERB
 40
10.0
  9
$SKPOLY
 70
     0
  9
$TDCREATE
 40
2449450.3780568289
  9
$TDUPDATE
 40
2453443.5695167822
  9
$TDINDWG
 40
2.9274558448999999
  9
$TDUSRTIMER
 40
2.9274558448999999
  9
$USRTIMER
 70
     1
  9
$ANGBASE
 50
0.0
  9
$ANGDIR
 70
     0
  9
$PDMODE
 70
     0
  9
$PDSIZE
 40
0.0
  9
$PLINEWID
 40
0.0
  9
$COORDS
 70
     1
  9
$SPLFRAME
 70
     0
  9
$SPLINETYPE
 70
     6
  9
$SPLINESEGS
 70
     8
  9
$ATTDIA
 70
     0
  9
$ATTREQ
 70
     1
  9
$HANDLING
 70
     1
  9
$HANDSEED
  5
90
  9
$SURFTAB1
 70
     6
  9
$SURFTAB2
 70
     6
  9
$SURFTYPE
 70
     6
  9
$SURFU
 70
     6
  9
$SURFV
 70
     6
  9
$UCSNAME
  2

  9
$UCSORG
 10
0.0
 20
0.0
 30
0.0
  9
$UCSXDIR
 10
1.0
 20
0.0
 30
0.0
  9
$UCSYDIR
 10
0.0
 20
1.0
 30
0.0
  9
$PUCSNAME
  2

  9
$PUCSORG
 10
0.0
 20
0.0
 30
0.0
  9
$PUCSXDIR
 10
1.0
 20
0.0
 30
0.0
  9
$PUCSYDIR
 10
0.0
 20
1.0
 30
0.0
  9
$USERI1
 70
     0
  9
$USERI2
 70
     0
  9
$USERI3
 70
     0
  9
$USERI4
 70
     0
  9
$USERI5
 70
     0
  9
$USERR1
 40
0.0
  9
$USERR2
 40
0.0
  9
$USERR3
 40
0.0
  9
$USERR4
 40
0.0
  9
$USERR5
 40
0.0
  9
$WORLDVIEW
 70
     1
  9
$SHADEDGE
 70
     3
  9
$SHADEDIF
 70
    70
  9
$TILEMODE
 70
     1
  9
$MAXACTVP
 70
    16
  9
$PLIMCHECK
 70
     0
  9
$PEXTMIN
 10
19.619383335113518
 20
28.424717378616322
 30
0.0
  9
$PEXTMAX
 10
176.5744500160217
 20
255.82245640754701
 30
0.0
  9
$PLIMMIN
 10
-6.8050832748413077
 20
-5.535083293914794
  9
$PLIMMAX
 10
203.1682443618775
 20
291.39091157913208
  9
$UNITMODE
 70
     0
  9
$VISRETAIN
 70
     0
  9
$PLINEGEN
 70
     0
  9
$PSLTSCALE
 70
     1
  0
ENDSEC
  0
SECTION
  2
TABLES
  0
TABLE
  2
VPORT
 70
     2
  0
VPORT
  2
*ACTIVE
 70
     0
 10
0.0
 20
0.0
 11
1.0
 21
1.0
 12
-1.14118809114089
 22
12.399932422434169
 13
0.0
 23
0.0
 14
0.1
 24
0.1
 15
10.0
 25
10.0
 16
0.0
 26
0.0
 36
1.0
 17
0.0
 27
0.0
 37
0.0
 40
242.0415637989104
 41
1.4993646759847521
 42
50.0
 43
0.0
 44
0.0
 50
0.0
 51
0.0
 71
     0
 72
   100
 73
     1
 74
     1
 75
     1
 76
     0
 77
     0
 78
     0
  0
ENDTAB
  0
TABLE
  2
LTYPE
 70
     1
  0
LTYPE
  2
CONTINUOUS
 70
     0
  3
Solid line
 72
    65
 73
     0
 40
0.0
  0
ENDTAB
  0
TABLE
  2
LAYER
 70
     1
  0
LAYER
  2
0
 70
     0
 62
     7
  6
CONTINUOUS
  0
ENDTAB
  0
TABLE
  2
STYLE
 70
     3
  0
STYLE
  2
STANDARD
 70
     0
 40
0.0
 41
1.0
 50
0.0
 71
     0
 42
3.0
  3
txt
  4

  0
STYLE
  2
FISO
 70
     0
 40
3.5
 41
1.0
 50
0.0
 71
     0
 42
3.5
  3
fiso
  4

  0
STYLE
  2
SST
 70
     0
 40
0.0
 41
1.0
 50
0.0
 71
     0
 42
3.5
  3
romans.shx
  4

  0
ENDTAB
  0
TABLE
  2
VIEW
 70
     0
  0
ENDTAB
  0
TABLE
  2
UCS
 70
     0
  0
ENDTAB
  0
TABLE
  2
APPID
 70
     1
  0
APPID
  2
ACAD
 70
     0
  0
ENDTAB
  0
TABLE
  2
DIMSTYLE
 70
     2
  0
DIMSTYLE
  2
NORDIC
 70
     0
  3

  4

  5

  6

  7

 40
1.0
 41
2.0
 42
1.0
 43
10.0
 44
1.0
 45
0.0
 46
0.0
 47
0.0
 48
0.0
140
3.5
141
2.5
142
0.0
143
25.399999999999999
144
1.0
145
0.0
146
1.0
147
0.0
 71
     0
 72
     0
 73
     0
 74
     0
 75
     0
 76
     0
 77
     1
 78
     8
170
     0
171
     2
172
     1
173
     0
174
     0
175
     0
176
     0
177
     0
178
     0
  0
DIMSTYLE
  2
STANDARD
 70
     0
  3

  4

  5

  6

  7

 40
1.0
 41
0.18
 42
0.0625
 43
0.38
 44
0.18
 45
0.0
 46
0.0
 47
0.0
 48
0.0
140
0.18
141
0.09
142
0.0
143
25.399999999999999
144
1.0
145
0.0
146
1.0
147
0.09
 71
     0
 72
     0
 73
     1
 74
     1
 75
     0
 76
     0
 77
     0
 78
     0
170
     0
171
     2
172
     0
173
     0
174
     0
175
     0
176
     0
177
     0
178
     0
  0
ENDTAB
  0
ENDSEC
  0
SECTION
  2
BLOCKS
  0
BLOCK
  8
0
  2
$MODEL_SPACE
 70
     0
 10
0.0
 20
0.0
 30
0.0
  3
$MODEL_SPACE
  1

  0
ENDBLK
  5
9
  8
0
  0
BLOCK
 67
     1
  8
0
  2
$PAPER_SPACE
 70
     0
 10
0.0
 20
0.0
 30
0.0
  3
$PAPER_SPACE
  1

  0
ENDBLK
  5
E
 67
     1
  8
0
  0
BLOCK
  8
0
  2
*X0
 70
     1
 10
0.0
 20
0.0
 30
0.0
  3
*X0
  1

  0
LINE
  5
69
  8
0
 62
     0
 10
-72.000028528800215
 20
9.8245904969556648
 30
0.0
 11
-75.000001328799982
 21
6.8246176969558681
 31
0.0
  0
LINE
  5
6A
  8
0
 62
     0
 10
-72.000028528800186
 20
6.289056591022927
 30
0.0
 11
-75.000001328799982
 21
3.2890837910231312
 31
0.0
  0
LINE
  5
6B
  8
0
 62
     0
 10
-70.352591116290398
 20
4.4009600976000049
 30
0.0
 11
-74.753551213890375
 21
0.0000000000000284
 31
0.0
  0
LINE
  5
6C
  8
0
 62
     0
 10
-66.817057210357632
 20
4.4009600976000049
 30
0.0
 11
-71.218017307957609
 21
0.0000000000000284
 31
0.0
  0
LINE
  5
6D
  8
0
 62
     0
 10
-65.001091986399928
 20
2.6813914156249998
 30
0.0
 11
-67.682483402024886
 21
0.0000000000000284
 31
0.0
  0
LINE
  5
6E
  8
0
 62
     0
 10
-52.674921586626681
 20
4.4009600975999774
 30
0.0
 11
-54.999182671199861
 21
2.076699013026797
 31
0.0
  0
LINE
  5
6F
  8
0
 62
     0
 10
-47.076972341826661
 20
9.9989093423999975
 30
0.0
 11
-48.000246128800001
 21
9.0756355554266577
 31
0.0
  0
LINE
  5
70
  8
0
 62
     0
 10
-49.139387680693972
 20
4.4009600975999774
 30
0.0
 11
-53.540347778293949
 21
0.0000000000000284
 31
0.0
  0
LINE
  5
71
  8
0
 62
     0
 10
-43.541438435893923
 20
9.9989093424000242
 30
0.0
 11
-48.000246128800029
 21
5.540101649493919
 31
0.0
  0
LINE
  5
72
  8
0
 62
     0
 10
-40.005904529961157
 20
9.9989093424000242
 30
0.0
 11
-50.004813872361183
 21
0.0
 31
0.0
  0
LINE
  5
73
  8
0
 62
     0
 10
-36.470370624028448
 20
9.9989093424000242
 30
0.0
 11
-46.469279966428473
 21
0.0000000000000284
 31
0.0
  0
LINE
  5
74
  8
0
 62
     0
 10
-32.934836718095681
 20
9.9989093424000242
 30
0.0
 11
-42.9337460604957
 21
0.0
 31
0.0
  0
LINE
  5
75
  8
0
 62
     0
 10
-29.399302812162968
 20
9.9989093423999975
 30
0.0
 11
-39.39821215456297
 21
0.0000000000000284
 31
0.0
  0
LINE
  5
76
  8
0
 62
     0
 10
-25.863768906230241
 20
9.9989093423999975
 30
0.0
 11
-35.862678248630232
 21
0.0
 31
0.0
  0
LINE
  5
77
  8
0
 62
     0
 10
-22.328235000297521
 20
9.9989093423999975
 30
0.0
 11
-32.327144342697501
 21
0.0000000000000284
 31
0.0
  0
LINE
  5
78
  8
0
 62
     0
 10
-18.792701094364759
 20
9.9989093423999975
 30
0.0
 11
-28.791610436764749
 21
0.0
 31
0.0
  0
LINE
  5
79
  8
0
 62
     0
 10
-15.257167188432049
 20
9.9989093423999975
 30
0.0
 11
-25.256076530832019
 21
0.0000000000000284
 31
0.0
  0
LINE
  5
7A
  8
0
 62
     0
 10
16.562637964962619
 20
9.9989093423999691
 30
0.0
 11
14.43201321568136
 21
7.8682845931187151
 31
0.0
  0
LINE
  5
7B
  8
0
 62
     0
 10
20.09817187089536
 20
9.9989093423999975
 30
0.0
 11
16.19978016864766
 21
6.100517640152332
 31
0.0
  0
LINE
  5
7C
  8
0
 62
     0
 10
23.633705776828091
 20
9.9989093423999691
 30
0.0
 11
17.967547121614011
 21
4.3327506871859214
 31
0.0
  0
LINE
  5
7D
  8
0
 62
     0
 10
27.169239682760828
 20
9.9989093423999975
 30
0.0
 11
19.735314074580309
 21
2.564983734219509
 31
0.0
  0
LINE
  5
7E
  8
0
 62
     0
 10
30.704773588693541
 20
9.9989093423999691
 30
0.0
 11
21.503081027546639
 21
0.7972167812530984
 31
0.0
  0
LINE
  5
7F
  8
0
 62
     0
 10
34.240307494626308
 20
9.9989093423999691
 30
0.0
 11
24.24139815222631
 21
-0.0000000000000284
 31
0.0
  0
LINE
  5
80
  8
0
 62
     0
 10
37.775841400559052
 20
9.9989093423999691
 30
0.0
 11
27.776932058159051
 21
0.0
 31
0.0
  0
LINE
  5
81
  8
0
 62
     0
 10
41.311375306491783
 20
9.9989093423999691
 30
0.0
 11
31.312465964091789
 21
-0.0000000000000284
 31
0.0
  0
LINE
  5
82
  8
0
 62
     0
 10
44.846909212424521
 20
9.9989093424000242
 30
0.0
 11
34.847999870024502
 21
0.0
 31
0.0
  0
LINE
  5
83
  8
0
 62
     0
 10
48.000246128799937
 20
9.6167123528426828
 30
0.0
 11
38.383533775957261
 21
-0.0000000000000284
 31
0.0
  0
LINE
  5
84
  8
0
 62
     0
 10
48.000246128799972
 20
6.081178446909945
 30
0.0
 11
41.919067681889992
 21
-0.0000000000000284
 31
0.0
  0
LINE
  5
85
  8
0
 62
     0
 10
49.855561685422707
 20
4.4009600975999481
 30
0.0
 11
45.454601587822729
 21
-0.0000000000000284
 31
0.0
  0
LINE
  5
86
  8
0
 62
     0
 10
53.391095591355423
 20
4.4009600975999774
 30
0.0
 11
48.990135493755453
 21
-0.0000000000000284
 31
0.0
  0
LINE
  5
87
  8
0
 62
     0
 10
54.999182671200259
 20
2.4735132715120178
 30
0.0
 11
52.525669399688212
 21
-0.0000000000000284
 31
0.0
  0
LINE
  5
88
  8
0
 62
     0
 10
67.533231215086374
 20
4.4009600975999481
 30
0.0
 11
64.998092013599916
 21
1.8658208961134899
 31
0.0
  0
LINE
  5
89
  8
0
 62
     0
 10
73.13118045988638
 20
9.9989093423999691
 30
0.0
 11
72.000028528799675
 21
8.8677574113132636
 31
0.0
  0
LINE
  5
8A
  8
0
 62
     0
 10
71.06876512101914
 20
4.4009600975999481
 30
0.0
 11
66.667805023419163
 21
-0.0000000000000284
 31
0.0
  0
LINE
  5
8B
  8
0
 62
     0
 10
75.000001328799982
 20
8.3321963053808048
 30
0.0
 11
72.000028528799675
 21
5.3322235053805107
 31
0.0
  0
LINE
  5
8C
  8
0
 62
     0
 10
75.000001328799996
 20
4.7966623994480813
 30
0.0
 11
70.203338929351901
 21
-0.0000000000000284
 31
0.0
  0
LINE
  5
8D
  8
0
 62
     0
 10
75.000001328799982
 20
1.2611284935153291
 30
0.0
 11
73.738872835284639
 21
-0.0000000000000284
 31
0.0
  0
ENDBLK
  5
8F
  8
0
  0
ENDSEC
  0
SECTION
  2
ENTITIES
  0
LINE
  5
2B
  8
0
 10
72.000028528799703
 20
9.9989093423999904
 30
0.0
 11
48.000246128799972
 21
9.9989093423999975
 31
0.0
  0
LINE
  5
2C
  8
0
 10
-48.000246128799972
 20
9.9989093424000046
 30
0.0
 11
-72.000028528800144
 21
9.9989093424000117
 31
0.0
  0
LINE
  5
2D
  8
0
 10
-65.001091986399842
 20
0.0000000000000107
 30
0.0
 11
-54.999182671199833
 21
0.0000000000000071
 31
0.0
  0
LINE
  5
2E
  8
0
 10
-14.29937035120019
 20
9.9989093423999975
 30
0.0
 11
14.29937035120019
 21
9.9989093423999975
 31
0.0
  0
LINE
  5
2F
  8
0
 10
54.999182671200288
 20
4.400960097599973
 30
0.0
 11
64.998092013599944
 21
4.4009600975999703
 31
0.0
  0
LINE
  5
30
  8
0
 10
64.998092013599944
 20
-0.0000000000000071
 30
0.0
 11
54.999182671200288
 21
-0.0000000000000036
 31
0.0
  0
LINE
  5
31
  8
0
 10
-54.999182671199833
 20
4.4009600975999836
 30
0.0
 11
-65.001091986399842
 21
4.4009600975999881
 31
0.0
  0
LINE
  5
32
  8
0
 10
-14.29937035120019
 20
8.0009274575999143
 30
0.0
 11
14.29937035120019
 21
8.0009274575999143
 31
0.0
  0
LINE
  5
33
  8
0
 10
22.300297808799769
 20
0.0
 30
0.0
 11
-22.300297808799769
 21
0.0000000000000036
 31
0.0
  0
LINE
  5
34
  8
0
 10
75.00000132880001
 20
-0.0000000000000071
 30
0.0
 11
75.00000132880001
 21
9.9989093423999904
 31
0.0
1001
ACAD
1000
ASC_BOUNDS
1002
{
1070
    19
1005
54
1002
}
  0
LINE
  5
35
  8
0
 10
-75.000001328799954
 20
9.9989093424000117
 30
0.0
 11
-75.000001328799954
 21
0.0000000000000107
 31
0.0
1001
ACAD
1000
ASC_BOUNDS
1002
{
1070
    19
1005
54
1005
54
1002
}
  0
LINE
  5
36
  8
0
 10
64.998092013599944
 20
-0.0000000000000071
 30
0.0
 11
64.998092013599944
 21
4.4009600975999703
 31
0.0
1001
ACAD
1000
ASC_BOUNDS
1002
{
1070
    19
1005
54
1002
}
  0
LINE
  5
37
  8
0
 10
54.999182671200288
 20
-0.0000000000000036
 30
0.0
 11
54.999182671200288
 21
4.400960097599973
 31
0.0
1001
ACAD
1000
ASC_BOUNDS
1002
{
1070
    19
1005
54
1002
}
  0
LINE
  5
38
  8
0
 10
-54.999182671199833
 20
0.0000000000000071
 30
0.0
 11
-54.999182671199833
 21
4.4009600975999836
 31
0.0
1001
ACAD
1000
ASC_BOUNDS
1002
{
1070
    19
1005
54
1002
}
  0
LINE
  5
39
  8
0
 10
-65.001091986399842
 20
0.0000000000000107
 30
0.0
 11
-65.001091986399842
 21
4.4009600975999881
 31
0.0
1001
ACAD
1000
ASC_BOUNDS
1002
{
1070
    19
1005
54
1005
54
1002
}
  0
LINE
  5
3A
  8
0
 10
72.000028528799703
 20
4.4009600975999703
 30
0.0
 11
72.000028528799703
 21
9.9989093423999904
 31
0.0
1001
ACAD
1000
ASC_BOUNDS
1002
{
1070
    19
1005
54
1002
}
  0
LINE
  5
3B
  8
0
 10
48.000246128799972
 20
4.400960097599973
 30
0.0
 11
48.000246128799972
 21
9.9989093423999975
 31
0.0
1001
ACAD
1000
ASC_BOUNDS
1002
{
1070
    19
1005
54
1002
}
  0
LINE
  5
3C
  8
0
 10
-48.000246128799972
 20
4.4009600975999836
 30
0.0
 11
-48.000246128799972
 21
9.9989093424000046
 31
0.0
1001
ACAD
1000
ASC_BOUNDS
1002
{
1070
    19
1005
54
1002
}
  0
LINE
  5
3D
  8
0
 10
-72.000028528800144
 20
4.4009600975999881
 30
0.0
 11
-72.000028528800144
 21
9.9989093424000117
 31
0.0
1001
ACAD
1000
ASC_BOUNDS
1002
{
1070
    19
1005
54
1005
54
1002
}
  0
LINE
  5
3E
  8
0
 10
-14.29937035120019
 20
9.9989093423999975
 30
0.0
 11
-48.000246128799972
 21
9.9989093424000046
 31
0.0
1001
ACAD
1000
ASC_BOUNDS
1002
{
1070
    19
1005
54
1002
}
  0
LINE
  5
3F
  8
0
 10
-72.000028528800144
 20
9.9989093424000117
 30
0.0
 11
-75.000001328799954
 21
9.9989093424000117
 31
0.0
1001
ACAD
1000
ASC_BOUNDS
1002
{
1070
    19
1005
54
1005
54
1002
}
  0
LINE
  5
40
  8
0
 10
-65.001091986399842
 20
0.0000000000000107
 30
0.0
 11
-75.000001328799954
 21
0.0000000000000107
 31
0.0
1001
ACAD
1000
ASC_BOUNDS
1002
{
1070
    19
1005
54
1005
54
1002
}
  0
LINE
  5
41
  8
0
 10
-65.001091986399842
 20
4.4009600975999881
 30
0.0
 11
-72.000028528800144
 21
4.4009600975999881
 31
0.0
1001
ACAD
1000
ASC_BOUNDS
1002
{
1070
    19
1005
54
1005
54
1002
}
  0
LINE
  5
42
  8
0
 10
-48.000246128799972
 20
4.4009600975999836
 30
0.0
 11
-54.999182671199833
 21
4.4009600975999836
 31
0.0
1001
ACAD
1000
ASC_BOUNDS
1002
{
1070
    19
1005
54
1002
}
  0
LINE
  5
43
  8
0
 10
48.000246128799972
 20
9.9989093423999975
 30
0.0
 11
14.29937035120019
 21
9.9989093423999975
 31
0.0
1001
ACAD
1000
ASC_BOUNDS
1002
{
1070
    19
1005
54
1002
}
  0
LINE
  5
44
  8
0
 10
54.999182671200288
 20
4.400960097599973
 30
0.0
 11
48.000246128799972
 21
4.400960097599973
 31
0.0
1001
ACAD
1000
ASC_BOUNDS
1002
{
1070
    19
1005
54
1002
}
  0
LINE
  5
45
  8
0
 10
72.000028528799703
 20
4.4009600975999703
 30
0.0
 11
64.998092013599944
 21
4.4009600975999703
 31
0.0
1001
ACAD
1000
ASC_BOUNDS
1002
{
1070
    19
1005
54
1002
}
  0
LINE
  5
46
  8
0
 10
75.00000132880001
 20
-0.0000000000000071
 30
0.0
 11
64.998092013599944
 21
-0.0000000000000071
 31
0.0
1001
ACAD
1000
ASC_BOUNDS
1002
{
1070
    19
1005
54
1002
}
  0
LINE
  5
47
  8
0
 10
75.00000132880001
 20
9.9989093423999904
 30
0.0
 11
72.000028528799703
 21
9.9989093423999904
 31
0.0
1001
ACAD
1000
ASC_BOUNDS
1002
{
1070
    19
1005
54
1002
}
  0
LINE
  5
48
  8
0
 10
-14.29937035120019
 20
8.0009274575999143
 30
0.0
 11
-22.300297808799769
 21
0.0000000000000036
 31
0.0
  0
LINE
  5
49
  8
0
 10
-22.300297808799769
 20
0.0000000000000036
 30
0.0
 11
-54.999182671199833
 21
0.0000000000000071
 31
0.0
1001
ACAD
1000
ASC_BOUNDS
1002
{
1070
    19
1005
54
1002
}
  0
LINE
  5
4A
  8
0
 10
-14.302370324000091
 20
8.0009274575999143
 30
0.0
 11
-14.29937035120019
 21
9.9989093423999975
 31
0.0
1001
ACAD
1000
ASC_BOUNDS
1002
{
1070
    19
1005
54
1002
}
  0
LINE
  5
4B
  8
0
 10
-14.29937035120019
 20
8.0009274575999143
 30
0.0
 11
-22.300297808799769
 21
0.0000000000000036
 31
0.0
1001
ACAD
1000
ASC_BOUNDS
1002
{
1070
    19
1005
54
1002
}
  0
LINE
  5
4C
  8
0
 10
14.29937035120019
 20
8.0009274575999143
 30
0.0
 11
22.300297808799769
 21
0.0
 31
0.0
  0
LINE
  5
4D
  8
0
 10
14.29937035120019
 20
8.0009274575999143
 30
0.0
 11
14.29937035120019
 21
9.9989093423999975
 31
0.0
1001
ACAD
1000
ASC_BOUNDS
1002
{
1070
    19
1005
54
1002
}
  0
LINE
  5
4E
  8
0
 10
54.999182671200288
 20
-0.0000000000000036
 30
0.0
 11
22.300297808799769
 21
0.0
 31
0.0
1001
ACAD
1000
ASC_BOUNDS
1002
{
1070
    19
1005
54
1002
}
  0
LINE
  5
4F
  8
0
 10
14.29937035120019
 20
8.0009274575999143
 30
0.0
 11
22.300297808799769
 21
0.0
 31
0.0
1001
ACAD
1000
ASC_BOUNDS
1002
{
1070
    19
1005
54
1002
}
  0
LINE
  5
50
  8
0
 10
22.300297808799769
 20
0.0
 30
0.0
 11
22.300297808799769
 21
0.0
 31
0.0
  0
LINE
  5
51
  8
0
 10
-22.300297808799769
 20
0.0000000000000036
 30
0.0
 11
-22.300297808799769
 21
0.0000000000000036
 31
0.0
  0
LINE
  5
52
  8
0
 10
-9.0014183864000188
 20
9.9989093423999975
 30
0.0
 11
0.9974909560000924
 21
9.9989093423999975
 31
0.0
  0
LINE
  5
53
  8
0
 10
-9.0014183864000188
 20
8.0009274575999143
 30
0.0
 11
0.9974909560000924
 21
8.0009274575999143
 31
0.0
  0
INSERT
  5
54
  8
0
  6
CONTINUOUS
 62
     8
  2
*X0
 10
0.0
 20
0.0
 30
0.0
1001
ACAD
1000
HATCH
1002
{
1070
    19
1000
ANSI31
1040
20.0
1040
3.1415926535897931
1000
ASC_BOUNDS
1070
     4
1070
     2
1070
    13
1005
3C
1005
42
1005
38
1005
49
1005
3E
1005
4B
1005
4A
1005
40
1005
35
1005
3F
1005
3D
1005
41
1005
39
1070
     2
1070
     6
1005
40
1005
35
1005
3F
1005
3D
1005
41
1005
39
1070
     2
1070
     7
1005
4E
1005
4F
1005
4D
1005
43
1005
3B
1005
44
1005
37
1070
     2
1070
     6
1005
45
1005
36
1005
46
1005
34
1005
47
1005
3A
1000
ASC_SEEDPOINT
1011
302.60000132879998
1021
0.0
1031
0.0
1021
27.335695855349279
1031
0.0
1000
R14_HATCH_DATA
1000
54
1011
1.0
1021
0.0
1031
0.0
1021
0.0
1031
0.0
1011
0.0
1021
0.0
1031
0.0
1021
1.0
1031
0.0
1011
0.0
1021
0.0
1031
0.0
1021
0.0
1031
1.0
1040
0.0
1010
0.0
1020
0.0
1030
1.0
1000
ANSI31
1070
     0
1070
     1
1071
        4
1071
        1
1071
        6
1070
     1
1040
72.000028528799703
1040
4.4009600975999703
1040
72.000028528799703
1040
9.9989093423999904
1070
     1
1040
72.000028528799703
1040
9.9989093423999904
1040
75.00000132880001
1040
9.9989093423999904
1070
     1
1040
75.00000132880001
1040
9.9989093423999904
1040
75.00000132880001
1040
-0.0000000000000071
1070
     1
1040
75.00000132880001
1040
-0.0000000000000071
1040
64.998092013599944
1040
-0.0000000000000071
1070
     1
1040
64.998092013599944
1040
-0.0000000000000071
1040
64.998092013599944
1040
4.4009600975999703
1070
     1
1040
64.998092013599944
1040
4.4009600975999703
1040
72.000028528799703
1040
4.4009600975999703
1071
        6
1005
3A
1005
47
1005
34
1005
46
1005
36
1005
45
1071
        1
1071
        7
1070
     1
1040
54.999182671200288
1040
-0.0000000000000036
1040
54.999182671200288
1040
4.400960097599973
1070
     1
1040
54.999182671200288
1040
4.400960097599973
1040
48.000246128799972
1040
4.400960097599973
1070
     1
1040
48.000246128799972
1040
4.400960097599973
1040
48.000246128799972
1040
9.9989093423999975
1070
     1
1040
48.000246128799972
1040
9.9989093423999975
1040
14.29937035120019
1040
9.9989093423999975
1070
     1
1040
14.29937035120019
1040
9.9989093423999975
1040
14.29937035120019
1040
8.0009274575999143
1070
     1
1040
14.29937035120019
1040
8.0009274575999143
1040
22.300297808799769
1040
0.0
1070
     1
1040
22.300297808799769
1040
0.0
1040
54.999182671200288
1040
-0.0000000000000036
1071
        7
1005
37
1005
44
1005
3B
1005
43
1005
4D
1005
4F
1005
4E
1071
        1
1071
        6
1070
     1
1040
-65.001091986399842
1040
0.0000000000000107
1040
-65.001091986399842
1040
4.4009600975999881
1070
     1
1040
-65.001091986399842
1040
4.4009600975999881
1040
-72.000028528800144
1040
4.4009600975999881
1070
     1
1040
-72.000028528800144
1040
4.4009600975999881
1040
-72.000028528800144
1040
9.9989093424000117
1070
     1
1040
-72.000028528800144
1040
9.9989093424000117
1040
-75.000001328799954
1040
9.9989093424000117
1070
     1
1040
-75.000001328799954
1040
9.9989093424000117
1040
-75.000001328799954
1040
0.0000000000000107
1070
     1
1040
-75.000001328799954
1040
0.0000000000000107
1040
-65.001091986399842
1040
0.0000000000000107
1071
        6
1005
39
1005
41
1005
3D
1005
3F
1005
35
1005
40
1071
       33
1071
        7
1070
     1
1040
-14.302370324000091
1040
8.0009274575999143
1040
-14.29937035120019
1040
9.9989093423999975
1070
     1
1040
-14.29937035120019
1040
8.0009274575999143
1040
-22.300297808799769
1040
0.0000000000000036
1070
     1
1040
-14.29937035120019
1040
9.9989093423999975
1040
-48.000246128799972
1040
9.9989093424000046
1070
     1
1040
-22.300297808799769
1040
0.0000000000000036
1040
-54.999182671199833
1040
0.0000000000000071
1070
     1
1040
-54.999182671199833
1040
0.0000000000000071
1040
-54.999182671199833
1040
4.4009600975999836
1070
     1
1040
-48.000246128799972
1040
4.4009600975999836
1040
-54.999182671199833
1040
4.4009600975999836
1070
     1
1040
-48.000246128799972
1040
4.4009600975999836
1040
-48.000246128799972
1040
9.9989093424000046
1071
       13
1005
39
1005
41
1005
3D
1005
3F
1005
35
1005
40
1005
4A
1005
4B
1005
3E
1005
49
1005
38
1005
42
1005
3C
1070
     0
1070
     1
1040
3.1415926535897931
1040
20.0
1070
     0
1070
     1
1040
3.926990816987241
1040
302.60000132879998
1040
27.335695855349279
1040
1.767766952966368
1040
-1.7677669529663691
1070
     0
1071
        1
1040
302.60000132879998
1040
27.335695855349279
1040
0.0
1002
}
  0
ENDSEC
  0
EOF
