  0
SECTION
  2
HEADER
  9
$ACADVER
  1
AC1015
  9
$ACADMAINTVER
 70
    20
  9
$DWGCODEPAGE
  3
ANSI_1252
  9
$INSBASE
 10
857.682842861163
 20
203.0819913489263
 30
0.0
  9
$EXTMIN
 10
-6.252393791799216
 20
-7.547246532789329
 30
-0.0015258207003583
  9
$EXTMAX
 10
857.6943984600884
 20
307.8628699668484
 30
0.0000000349246037
  9
$LIMMIN
 10
0.0
 20
0.0
  9
$LIMMAX
 10
420.0
 20
297.0
  9
$ORTHOMODE
 70
     0
  9
$REGENMODE
 70
     1
  9
$FILLMODE
 70
     1
  9
$QTEXTMODE
 70
     0
  9
$MIRRTEXT
 70
     0
  9
$LTSCALE
 40
1.0
  9
$ATTMODE
 70
     1
  9
$TEXTSIZE
 40
2.5
  9
$TRACEWID
 40
1.0
  9
$TEXTSTYLE
  7
Standard
  9
$CLAYER
  8
0
  9
$CELTYPE
  6
ByLayer
  9
$CECOLOR
 62
   256
  9
$CELTSCALE
 40
1.0
  9
$DISPSILH
 70
     0
  9
$DIMSCALE
 40
1.0
  9
$DIMASZ
 40
2.5
  9
$DIMEXO
 40
0.625
  9
$DIMDLI
 40
3.75
  9
$DIMRND
 40
0.0
  9
$DIMDLE
 40
0.0
  9
$DIMEXE
 40
1.25
  9
$DIMTP
 40
0.0
  9
$DIMTM
 40
0.0
  9
$DIMTXT
 40
2.5
  9
$DIMCEN
 40
2.5
  9
$DIMTSZ
 40
0.0
  9
$DIMTOL
 70
     0
  9
$DIMLIM
 70
     0
  9
$DIMTIH
 70
     0
  9
$DIMTOH
 70
     0
  9
$DIMSE1
 70
     0
  9
$DIMSE2
 70
     0
  9
$DIMTAD
 70
     1
  9
$DIMZIN
 70
     8
  9
$DIMBLK
  1

  9
$DIMASO
 70
     1
  9
$DIMSHO
 70
     1
  9
$DIMPOST
  1

  9
$DIMAPOST
  1

  9
$DIMALT
 70
     0
  9
$DIMALTD
 70
     3
  9
$DIMALTF
 40
0.03937007874016
  9
$DIMLFAC
 40
1.0
  9
$DIMTOFL
 70
     1
  9
$DIMTVP
 40
0.0
  9
$DIMTIX
 70
     0
  9
$DIMSOXD
 70
     0
  9
$DIMSAH
 70
     0
  9
$DIMBLK1
  1

  9
$DIMBLK2
  1

  9
$DIMSTYLE
  2
ISO-25
  9
$DIMCLRD
 70
     0
  9
$DIMCLRE
 70
     0
  9
$DIMCLRT
 70
     0
  9
$DIMTFAC
 40
1.0
  9
$DIMGAP
 40
0.625
  9
$DIMJUST
 70
     0
  9
$DIMSD1
 70
     0
  9
$DIMSD2
 70
     0
  9
$DIMTOLJ
 70
     0
  9
$DIMTZIN
 70
     8
  9
$DIMALTZ
 70
     0
  9
$DIMALTTZ
 70
     0
  9
$DIMUPT
 70
     0
  9
$DIMDEC
 70
     2
  9
$DIMTDEC
 70
     2
  9
$DIMALTU
 70
     2
  9
$DIMALTTD
 70
     3
  9
$DIMTXSTY
  7
Standard
  9
$DIMAUNIT
 70
     0
  9
$DIMADEC
 70
     0
  9
$DIMALTRND
 40
0.0
  9
$DIMAZIN
 70
     0
  9
$DIMDSEP
 70
    44
  9
$DIMATFIT
 70
     3
  9
$DIMFRAC
 70
     0
  9
$DIMLDRBLK
  1

  9
$DIMLUNIT
 70
     2
  9
$DIMLWD
 70
    -2
  9
$DIMLWE
 70
    -2
  9
$DIMTMOVE
 70
     0
  9
$LUNITS
 70
     2
  9
$LUPREC
 70
     4
  9
$SKETCHINC
 40
1.0
  9
$FILLETRAD
 40
0.0
  9
$AUNITS
 70
     0
  9
$AUPREC
 70
     0
  9
$MENU
  1
.
  9
$ELEVATION
 40
0.0
  9
$PELEVATION
 40
0.0
  9
$THICKNESS
 40
0.0
  9
$LIMCHECK
 70
     0
  9
$CHAMFERA
 40
0.0
  9
$CHAMFERB
 40
0.0
  9
$CHAMFERC
 40
0.0
  9
$CHAMFERD
 40
0.0
  9
$SKPOLY
 70
     0
  9
$TDCREATE
 40
2453811.417691597
  9
$TDUCREATE
 40
2453811.376024931
  9
$TDUPDATE
 40
2453811.426845740
  9
$TDUUPDATE
 40
2453811.385179074
  9
$TDINDWG
 40
0.0077032292
  9
$TDUSRTIMER
 40
0.0077032292
  9
$USRTIMER
 70
     1
  9
$ANGBASE
 50
0.0
  9
$ANGDIR
 70
     0
  9
$PDMODE
 70
     0
  9
$PDSIZE
 40
0.0
  9
$PLINEWID
 40
0.0
  9
$SPLFRAME
 70
     0
  9
$SPLINETYPE
 70
     6
  9
$SPLINESEGS
 70
     8
  9
$HANDSEED
  5
95
  9
$SURFTAB1
 70
     6
  9
$SURFTAB2
 70
     6
  9
$SURFTYPE
 70
     6
  9
$SURFU
 70
     6
  9
$SURFV
 70
     6
  9
$UCSBASE
  2

  9
$UCSNAME
  2

  9
$UCSORG
 10
0.0
 20
0.0
 30
0.0
  9
$UCSXDIR
 10
1.0
 20
0.0
 30
0.0
  9
$UCSYDIR
 10
0.0
 20
1.0
 30
0.0
  9
$UCSORTHOREF
  2

  9
$UCSORTHOVIEW
 70
     0
  9
$UCSORGTOP
 10
0.0
 20
0.0
 30
0.0
  9
$UCSORGBOTTOM
 10
0.0
 20
0.0
 30
0.0
  9
$UCSORGLEFT
 10
0.0
 20
0.0
 30
0.0
  9
$UCSORGRIGHT
 10
0.0
 20
0.0
 30
0.0
  9
$UCSORGFRONT
 10
0.0
 20
0.0
 30
0.0
  9
$UCSORGBACK
 10
0.0
 20
0.0
 30
0.0
  9
$PUCSBASE
  2

  9
$PUCSNAME
  2

  9
$PUCSORG
 10
0.0
 20
0.0
 30
0.0
  9
$PUCSXDIR
 10
1.0
 20
0.0
 30
0.0
  9
$PUCSYDIR
 10
0.0
 20
1.0
 30
0.0
  9
$PUCSORTHOREF
  2

  9
$PUCSORTHOVIEW
 70
     0
  9
$PUCSORGTOP
 10
0.0
 20
0.0
 30
0.0
  9
$PUCSORGBOTTOM
 10
0.0
 20
0.0
 30
0.0
  9
$PUCSORGLEFT
 10
0.0
 20
0.0
 30
0.0
  9
$PUCSORGRIGHT
 10
0.0
 20
0.0
 30
0.0
  9
$PUCSORGFRONT
 10
0.0
 20
0.0
 30
0.0
  9
$PUCSORGBACK
 10
0.0
 20
0.0
 30
0.0
  9
$USERI1
 70
     0
  9
$USERI2
 70
     0
  9
$USERI3
 70
     0
  9
$USERI4
 70
     0
  9
$USERI5
 70
     0
  9
$USERR1
 40
0.0
  9
$USERR2
 40
0.0
  9
$USERR3
 40
0.0
  9
$USERR4
 40
0.0
  9
$USERR5
 40
0.0
  9
$WORLDVIEW
 70
     1
  9
$SHADEDGE
 70
     3
  9
$SHADEDIF
 70
    70
  9
$TILEMODE
 70
     1
  9
$MAXACTVP
 70
    64
  9
$PINSBASE
 10
0.0
 20
0.0
 30
0.0
  9
$PLIMCHECK
 70
     0
  9
$PEXTMIN
 10
1.000000000000000E+20
 20
1.000000000000000E+20
 30
1.000000000000000E+20
  9
$PEXTMAX
 10
-1.000000000000000E+20
 20
-1.000000000000000E+20
 30
-1.000000000000000E+20
  9
$PLIMMIN
 10
0.0
 20
0.0
  9
$PLIMMAX
 10
420.0
 20
297.0
  9
$UNITMODE
 70
     0
  9
$VISRETAIN
 70
     1
  9
$PLINEGEN
 70
     0
  9
$PSLTSCALE
 70
     1
  9
$TREEDEPTH
 70
  3020
  9
$CMLSTYLE
  2
Standard
  9
$CMLJUST
 70
     0
  9
$CMLSCALE
 40
20.0
  9
$PROXYGRAPHICS
 70
     1
  9
$MEASUREMENT
 70
     1
  9
$CELWEIGHT
370
    -1
  9
$ENDCAPS
280
     0
  9
$JOINSTYLE
280
     0
  9
$LWDISPLAY
290
     0
  9
$INSUNITS
 70
     4
  9
$HYPERLINKBASE
  1

  9
$STYLESHEET
  1

  9
$XEDIT
290
     1
  9
$CEPSNTYPE
380
     0
  9
$PSTYLEMODE
290
     1
  9
$FINGERPRINTGUID
  2
{4F83A8CA-5C21-454E-8E55-5C128B8E772B}
  9
$VERSIONGUID
  2
{BA4DCE89-3C33-433B-8B8B-02C1158447DD}
  9
$EXTNAMES
290
     1
  9
$PSVPSCALE
 40
0.0
  9
$OLESTARTUP
290
     0
  0
ENDSEC
  0
SECTION
  2
CLASSES
  0
CLASS
  1
ACDBDICTIONARYWDFLT
  2
AcDbDictionaryWithDefault
  3
ObjectDBX Classes
 90
        0
280
     0
281
     0
  0
CLASS
  1
TABLESTYLE
  2
AcDbTableStyle
  3
ObjectDBX Classes
 90
     2047
280
     0
281
     0
  0
CLASS
  1
DIMASSOC
  2
AcDbDimAssoc
  3
"AcDbDimAssoc|Product Desc:     AcDim ARX App For Dimension|Company:          Autodesk, Inc.|WEB Address:      www.autodesk.com"
 90
    32768
280
     0
281
     0
  0
CLASS
  1
SORTENTSTABLE
  2
AcDbSortentsTable
  3
ObjectDBX Classes
 90
        0
280
     0
281
     0
  0
CLASS
  1
DICTIONARYVAR
  2
AcDbDictionaryVar
  3
ObjectDBX Classes
 90
        0
280
     0
281
     0
  0
CLASS
  1
ACDBPLACEHOLDER
  2
AcDbPlaceHolder
  3
ObjectDBX Classes
 90
        0
280
     0
281
     0
  0
CLASS
  1
LAYOUT
  2
AcDbLayout
  3
ObjectDBX Classes
 90
        0
280
     0
281
     0
  0
ENDSEC
  0
SECTION
  2
TABLES
  0
TABLE
  2
VPORT
  5
1B
330
0
100
AcDbSymbolTable
 70
     3
  0
VPORT
  5
8F
330
1B
100
AcDbSymbolTableRecord
100
AcDbViewportTableRecord
  2
*Active
 70
     0
 10
0.0
 20
0.0
 11
1.0
 21
1.0
 12
836.994325438275
 22
203.074929038732
 13
0.0
 23
0.0
 14
10.0
 24
10.0
 15
10.0
 25
10.0
 16
0.0
 26
0.0
 36
1.0
 17
0.0
 27
0.0
 37
0.0
 40
212.1526345020061
 41
1.985626283367556
 42
50.0
 43
0.0
 44
0.0
 50
0.0
 51
0.0
 71
     0
 72
  1000
 73
     1
 74
     3
 75
     0
 76
     0
 77
     0
 78
     0
281
     0
 65
     1
110
0.0
120
0.0
130
0.0
111
1.0
121
0.0
131
0.0
112
0.0
122
1.0
132
0.0
 79
     0
146
0.0
  0
ENDTAB
  0
TABLE
  2
LTYPE
  5
16
330
0
100
AcDbSymbolTable
 70
     1
  0
LTYPE
  5
17
330
16
100
AcDbSymbolTableRecord
100
AcDbLinetypeTableRecord
  2
ByBlock
 70
     0
  3

 72
    65
 73
     0
 40
0.0
  0
LTYPE
  5
18
330
16
100
AcDbSymbolTableRecord
100
AcDbLinetypeTableRecord
  2
ByLayer
 70
     0
  3

 72
    65
 73
     0
 40
0.0
  0
LTYPE
  5
A
330
16
100
AcDbSymbolTableRecord
100
AcDbLinetypeTableRecord
  2
Continuous
 70
     0
  3
Solid line
 72
    65
 73
     0
 40
0.0
  0
ENDTAB
  0
TABLE
  2
LAYER
  5
12
102
{ACAD_XDICTIONARY
360
74
102
}
330
0
100
AcDbSymbolTable
 70
     2
  0
LAYER
  5
6
330
12
100
AcDbSymbolTableRecord
100
AcDbLayerTableRecord
  2
0
 70
     0
 62
     7
  6
Continuous
370
    -3
390
7
  0
LAYER
  5
2B
330
12
100
AcDbSymbolTableRecord
100
AcDbLayerTableRecord
  2
DRAWING
 70
     0
 62
     7
  6
Continuous
370
    -3
390
7
  0
ENDTAB
  0
TABLE
  2
STYLE
  5
13
330
0
100
AcDbSymbolTable
 70
     3
  0
STYLE
  5
14
330
13
100
AcDbSymbolTableRecord
100
AcDbTextStyleTableRecord
  2
Standard
 70
     0
 40
0.0
 41
1.0
 50
0.0
 71
     0
 42
2.5
  3
txt
  4

  0
STYLE
  5
6F
330
13
100
AcDbSymbolTableRecord
100
AcDbTextStyleTableRecord
  2
FISO
 70
     0
 40
3.5
 41
1.0
 50
0.0
 71
     0
 42
3.5
  3
fiso.shx
  4

  0
STYLE
  5
70
330
13
100
AcDbSymbolTableRecord
100
AcDbTextStyleTableRecord
  2
SST
 70
     0
 40
0.0
 41
1.0
 50
0.0
 71
     0
 42
3.5
  3
romans.shx
  4

  0
ENDTAB
  0
TABLE
  2
VIEW
  5
19
330
0
100
AcDbSymbolTable
 70
     1
  0
ENDTAB
  0
TABLE
  2
UCS
  5
1A
330
0
100
AcDbSymbolTable
 70
     0
  0
ENDTAB
  0
TABLE
  2
APPID
  5
1D
330
0
100
AcDbSymbolTable
 70
     2
  0
APPID
  5
1E
330
1D
100
AcDbSymbolTableRecord
100
AcDbRegAppTableRecord
  2
ACAD
 70
     0
  0
APPID
  5
73
330
1D
100
AcDbSymbolTableRecord
100
AcDbRegAppTableRecord
  2
ACAD_PSEXT
 70
     0
  0
ENDTAB
  0
TABLE
  2
DIMSTYLE
  5
1F
330
0
100
AcDbSymbolTable
 70
     3
100
AcDbDimStyleTable
 71
     1
340
20
  0
DIMSTYLE
105
20
330
1F
100
AcDbSymbolTableRecord
100
AcDbDimStyleTableRecord
  2
ISO-25
 70
     0
 41
2.5
 42
0.625
 43
3.75
 44
1.25
 73
     0
 74
     0
 77
     1
 78
     8
140
2.5
141
2.5
143
0.03937007874016
147
0.625
171
     3
172
     1
271
     2
272
     2
274
     3
278
    44
283
     0
284
     8
340
14
  0
DIMSTYLE
105
71
330
1F
100
AcDbSymbolTableRecord
100
AcDbDimStyleTableRecord
  2
Standard
 70
     0
340
14
  0
DIMSTYLE
105
72
330
1F
100
AcDbSymbolTableRecord
100
AcDbDimStyleTableRecord
  2
SST
 70
     0
 41
2.0
 42
1.0
 43
10.0
 44
1.0
 73
     0
 74
     0
 77
     1
 78
     8
140
3.5
141
2.5
147
1.0
172
     1
284
     8
285
     8
286
     8
340
14
  0
ENDTAB
  0
TABLE
  2
BLOCK_RECORD
  5
1
330
0
100
AcDbSymbolTable
 70
     3
  0
BLOCK_RECORD
  5
2
102
{ACAD_XDICTIONARY
360
3
102
}
330
1
100
AcDbSymbolTableRecord
100
AcDbBlockTableRecord
  2
*Model_Space
340
C
  0
BLOCK_RECORD
  5
E
330
1
100
AcDbSymbolTableRecord
100
AcDbBlockTableRecord
  2
*Paper_Space
340
11
  0
BLOCK_RECORD
  5
68
102
{ACAD_XDICTIONARY
360
69
102
}
330
1
100
AcDbSymbolTableRecord
100
AcDbBlockTableRecord
  2
SST_STEMPEL
340
0
102
{BLKREFS
331
77
331
7C
331
7E
331
82
102
}
  0
ENDTAB
  0
ENDSEC
  0
SECTION
  2
BLOCKS
  0
BLOCK
  5
5
330
2
100
AcDbEntity
  8
0
100
AcDbBlockBegin
  2
*Model_Space
 70
     0
 10
0.0
 20
0.0
 30
0.0
  3
*Model_Space
  1

  0
ENDBLK
  5
B
330
2
100
AcDbEntity
  8
0
100
AcDbBlockEnd
  0
BLOCK
  5
F
330
E
100
AcDbEntity
 67
     1
  8
0
100
AcDbBlockBegin
  2
*Paper_Space
 70
     0
 10
0.0
 20
0.0
 30
0.0
  3
*Paper_Space
  1

  0
ENDBLK
  5
10
330
E
100
AcDbEntity
 67
     1
  8
0
100
AcDbBlockEnd
  0
BLOCK
  5
6B
330
68
100
AcDbEntity
  8
0
100
AcDbBlockBegin
  2
SST_STEMPEL
 70
     0
 10
0.0
 20
0.0
 30
0.0
  3
SST_STEMPEL
  1

  0
TEXT
  5
6C
330
68
100
AcDbEntity
  8
0
  6
Continuous
100
AcDbText
 10
-3.741149563515705
 20
3.992811447199528
 30
0.0
 40
2.0
  1
SIMPSON
 50
316.9414863909134
  7
SST
100
AcDbText
  0
TEXT
  5
6D
330
68
100
AcDbEntity
  8
0
  6
Continuous
100
AcDbText
 10
-6.656222857237139
 20
3.112015578657064
 30
0.0
 40
2.0
  1
Strong-Tie
 50
316.9414863909134
  7
SST
100
AcDbText
  0
ENDBLK
  5
6E
330
68
100
AcDbEntity
  8
0
100
AcDbBlockEnd
  0
ENDSEC
  0
SECTION
  2
ENTITIES
  0
ARC
  5
2A
330
2
100
AcDbEntity
  8
DRAWING
100
AcDbCircle
 10
825.0003209834396
 20
126.8819913489262
 30
0.0
 40
7.937499999999954
100
AcDbArc
 50
126.8698976458447
 51
180.0
  0
LINE
  5
2C
330
2
100
AcDbEntity
  8
DRAWING
100
AcDbLine
 10
857.6828428611616
 20
307.8569913489262
 30
0.0
 11
857.6828428611644
 21
98.30699134892624
 31
0.0
  0
LINE
  5
2D
330
2
100
AcDbEntity
  8
DRAWING
100
AcDbLine
 10
855.1628209834396
 20
98.30699134892624
 30
0.0
 11
855.1628209834396
 21
307.8569913489262
 31
0.0
  0
LINE
  5
2E
330
2
100
AcDbEntity
  8
DRAWING
100
AcDbLine
 10
823.4128209834395
 20
98.30699134892624
 30
0.0
 11
817.0628209834397
 21
104.6569913489262
 31
0.0
  0
LINE
  5
2F
330
2
100
AcDbEntity
  8
DRAWING
100
AcDbLine
 10
817.0628209834397
 20
104.6569913489262
 30
0.0
 11
817.0628209834397
 21
126.8819913489262
 31
0.0
  0
LINE
  5
30
330
2
100
AcDbEntity
  8
DRAWING
100
AcDbLine
 10
857.6828428611644
 20
98.30699134892624
 30
0.0
 11
823.4128209834395
 21
98.30699134892624
 31
0.0
  0
CIRCLE
  5
31
330
2
100
AcDbEntity
  8
DRAWING
100
AcDbCircle
 10
832.9378209834397
 20
114.1819913489262
 30
0.0
 40
3.5687
  0
LINE
  5
32
330
2
100
AcDbEntity
  8
DRAWING
100
AcDbLine
 10
834.4618209834381
 20
114.1819913489262
 30
0.0
 11
831.413820983438
 21
114.1819913489262
 31
0.0
  0
LINE
  5
33
330
2
100
AcDbEntity
  8
DRAWING
100
AcDbLine
 10
832.9378209834397
 20
112.6579913489276
 30
0.0
 11
832.9378209834397
 21
115.7059913489262
 31
0.0
  0
LINE
  5
34
330
2
100
AcDbEntity
  8
DRAWING
100
AcDbLine
 10
832.9378209834397
 20
111.1339913489275
 30
0.0
 11
832.9378209834397
 21
109.4829913489276
 31
0.0
  0
LINE
  5
35
330
2
100
AcDbEntity
  8
DRAWING
100
AcDbLine
 10
829.8898209834394
 20
114.1819913489262
 30
0.0
 11
828.2388209834381
 21
114.1819913489262
 31
0.0
  0
LINE
  5
36
330
2
100
AcDbEntity
  8
DRAWING
100
AcDbLine
 10
835.9858209834396
 20
114.1819913489262
 30
0.0
 11
837.6368209834382
 21
114.1819913489262
 31
0.0
  0
LINE
  5
37
330
2
100
AcDbEntity
  8
DRAWING
100
AcDbLine
 10
832.9378209834397
 20
117.2299913489263
 30
0.0
 11
832.9378209834397
 21
118.8809913489262
 31
0.0
  0
LINE
  5
38
330
2
100
AcDbEntity
  8
DRAWING
100
AcDbLine
 10
820.2378209834396
 20
222.1319913489262
 30
0.0
 11
826.5878209834395
 21
228.4819913489262
 31
0.0
  0
ARC
  5
39
330
2
100
AcDbEntity
  8
DRAWING
100
AcDbCircle
 10
821.8253209834395
 20
171.3319913489262
 30
0.0
 40
7.9375
100
AcDbArc
 50
0.0
 51
53.13010235415532
  0
LINE
  5
3A
330
2
100
AcDbEntity
  8
DRAWING
100
AcDbLine
 10
820.2378209834396
 20
133.2319913489262
 30
0.0
 11
826.5878209834395
 21
139.5819913489276
 31
0.0
  0
LINE
  5
3B
330
2
100
AcDbEntity
  8
DRAWING
100
AcDbLine
 10
829.7628209834396
 20
145.9319913489262
 30
0.0
 11
829.7628209834396
 21
171.3319913489262
 31
0.0
  0
ARC
  5
3C
330
2
100
AcDbEntity
  8
DRAWING
100
AcDbCircle
 10
821.8253209834395
 20
145.9319913489262
 30
0.0
 40
7.937499999999818
100
AcDbArc
 50
306.8698976458447
 51
0.0
  0
LINE
  5
3D
330
2
100
AcDbEntity
  8
DRAWING
100
AcDbLine
 10
845.5642396131375
 20
158.3650193351295
 30
0.0
 11
842.4929920197335
 21
155.2937717417227
 31
0.0
  0
LINE
  5
3E
330
2
100
AcDbEntity
  8
DRAWING
100
AcDbLine
 10
842.4929920197335
 20
161.4362669285348
 30
0.0
 11
845.5642396131375
 21
158.3650193351295
 31
0.0
  0
LINE
  5
3F
330
2
100
AcDbEntity
  8
DRAWING
100
AcDbLine
 10
842.4929920197335
 20
155.2937717417227
 30
0.0
 11
839.4217444263267
 21
158.3650193351295
 31
0.0
  0
LINE
  5
40
330
2
100
AcDbEntity
  8
DRAWING
100
AcDbLine
 10
839.4217444263267
 20
158.3650193351295
 30
0.0
 11
842.4929920197335
 21
161.4362669285348
 31
0.0
  0
LINE
  5
41
330
2
100
AcDbEntity
  8
DRAWING
100
AcDbLine
 10
826.5878209834395
 20
177.6819913489262
 30
0.0
 11
820.2378209834396
 21
184.0319913489276
 31
0.0
  0
LINE
  5
42
330
2
100
AcDbEntity
  8
DRAWING
100
AcDbLine
 10
817.0628209834397
 20
190.3819913489262
 30
0.0
 11
817.0628209834397
 21
215.7819913489262
 31
0.0
  0
ARC
  5
43
330
2
100
AcDbEntity
  8
DRAWING
100
AcDbCircle
 10
825.0003209834396
 20
190.3819913489262
 30
0.0
 40
7.937499999999864
100
AcDbArc
 50
180.0
 51
233.1301023541553
  0
ARC
  5
44
330
2
100
AcDbEntity
  8
DRAWING
100
AcDbCircle
 10
825.0003209834396
 20
215.7819913489262
 30
0.0
 40
7.937500000000044
100
AcDbArc
 50
126.8698976458447
 51
180.0
  0
CIRCLE
  5
45
330
2
100
AcDbEntity
  8
DRAWING
100
AcDbCircle
 10
832.9378209834397
 20
203.0819913489262
 30
0.0
 40
3.5687
  0
LINE
  5
46
330
2
100
AcDbEntity
  8
DRAWING
100
AcDbLine
 10
832.9378209834397
 20
200.0339913489276
 30
0.0
 11
832.9378209834397
 21
198.3829913489276
 31
0.0
  0
LINE
  5
47
330
2
100
AcDbEntity
  8
DRAWING
100
AcDbLine
 10
834.4618209834381
 20
203.0819913489262
 30
0.0
 11
831.413820983438
 21
203.0819913489262
 31
0.0
  0
LINE
  5
48
330
2
100
AcDbEntity
  8
DRAWING
100
AcDbLine
 10
832.9378209834397
 20
206.1299913489263
 30
0.0
 11
832.9378209834397
 21
207.7809913489263
 31
0.0
  0
LINE
  5
49
330
2
100
AcDbEntity
  8
DRAWING
100
AcDbLine
 10
829.8898209834394
 20
203.0819913489262
 30
0.0
 11
828.2388209834381
 21
203.0819913489262
 31
0.0
  0
LINE
  5
4A
330
2
100
AcDbEntity
  8
DRAWING
100
AcDbLine
 10
832.9378209834397
 20
201.5579913489276
 30
0.0
 11
832.9378209834397
 21
204.6059913489262
 31
0.0
  0
LINE
  5
4B
330
2
100
AcDbEntity
  8
DRAWING
100
AcDbLine
 10
835.9858209834396
 20
203.0819913489262
 30
0.0
 11
837.6368209834382
 21
203.0819913489262
 31
0.0
  0
LINE
  5
4C
330
2
100
AcDbEntity
  8
DRAWING
100
AcDbLine
 10
826.5878209834395
 20
266.5819913489262
 30
0.0
 11
820.2378209834396
 21
272.9319913489262
 31
0.0
  0
LINE
  5
4D
330
2
100
AcDbEntity
  8
DRAWING
100
AcDbLine
 10
839.4217444263267
 20
247.2460398714531
 30
0.0
 11
842.4929920197335
 21
250.3172874648584
 31
0.0
  0
LINE
  5
4E
330
2
100
AcDbEntity
  8
DRAWING
100
AcDbLine
 10
842.4929920197335
 20
250.3172874648584
 30
0.0
 11
845.5642396131375
 21
247.2460398714531
 31
0.0
  0
LINE
  5
4F
330
2
100
AcDbEntity
  8
DRAWING
100
AcDbLine
 10
829.7628209834396
 20
234.8319913489262
 30
0.0
 11
829.7628209834396
 21
260.2319913489262
 31
0.0
  0
LINE
  5
50
330
2
100
AcDbEntity
  8
DRAWING
100
AcDbLine
 10
829.7628209834396
 20
242.7694913489262
 30
0.0
 11
829.7628209834396
 21
250.5164913489263
 31
0.0
  0
LINE
  5
51
330
2
100
AcDbEntity
  8
DRAWING
100
AcDbLine
 10
845.5642396131375
 20
247.2460398714531
 30
0.0
 11
842.4929920197335
 21
244.1747922780478
 31
0.0
  0
ARC
  5
52
330
2
100
AcDbEntity
  8
DRAWING
100
AcDbCircle
 10
821.8253209834395
 20
234.8319913489277
 30
0.0
 40
7.9375
100
AcDbArc
 50
306.8698976458447
 51
0.0
  0
LINE
  5
53
330
2
100
AcDbEntity
  8
DRAWING
100
AcDbLine
 10
842.4929920197335
 20
244.1747922780478
 30
0.0
 11
839.4217444263267
 21
247.2460398714531
 31
0.0
  0
ARC
  5
54
330
2
100
AcDbEntity
  8
DRAWING
100
AcDbCircle
 10
821.8253209834395
 20
260.2319913489276
 30
0.0
 40
7.9375
100
AcDbArc
 50
0.0
 51
53.13010235415532
  0
LINE
  5
55
330
2
100
AcDbEntity
  8
DRAWING
100
AcDbLine
 10
817.0628209834397
 20
301.5069913489262
 30
0.0
 11
823.4128209834395
 21
307.8569913489262
 31
0.0
  0
LINE
  5
56
330
2
100
AcDbEntity
  8
DRAWING
100
AcDbLine
 10
817.0628209834397
 20
279.2819913489262
 30
0.0
 11
817.0628209834397
 21
301.5069913489262
 31
0.0
  0
ARC
  5
57
330
2
100
AcDbEntity
  8
DRAWING
100
AcDbCircle
 10
825.0003209834396
 20
279.2819913489276
 30
0.0
 40
7.9375
100
AcDbArc
 50
180.0
 51
233.1301023541553
  0
LINE
  5
58
330
2
100
AcDbEntity
  8
DRAWING
100
AcDbLine
 10
832.9378209834397
 20
295.0299913489264
 30
0.0
 11
832.9378209834397
 21
296.6809913489277
 31
0.0
  0
CIRCLE
  5
59
330
2
100
AcDbEntity
  8
DRAWING
100
AcDbCircle
 10
832.9378209834397
 20
291.9819913489277
 30
0.0
 40
3.5687
  0
LINE
  5
5A
330
2
100
AcDbEntity
  8
DRAWING
100
AcDbLine
 10
834.4618209834381
 20
291.9819913489262
 30
0.0
 11
831.413820983438
 21
291.9819913489262
 31
0.0
  0
LINE
  5
5B
330
2
100
AcDbEntity
  8
DRAWING
100
AcDbLine
 10
832.9378209834397
 20
290.4579913489276
 30
0.0
 11
832.9378209834397
 21
293.5059913489263
 31
0.0
  0
LINE
  5
5C
330
2
100
AcDbEntity
  8
DRAWING
100
AcDbLine
 10
829.8898209834394
 20
291.9819913489262
 30
0.0
 11
828.2388209834381
 21
291.9819913489262
 31
0.0
  0
LINE
  5
5D
330
2
100
AcDbEntity
  8
DRAWING
100
AcDbLine
 10
832.9378209834397
 20
288.9339913489275
 30
0.0
 11
832.9378209834397
 21
287.2829913489276
 31
0.0
  0
LINE
  5
5E
330
2
100
AcDbEntity
  8
DRAWING
100
AcDbLine
 10
835.9858209834396
 20
291.9819913489262
 30
0.0
 11
837.6368209834382
 21
291.9819913489262
 31
0.0
  0
LINE
  5
5F
330
2
100
AcDbEntity
  8
DRAWING
100
AcDbLine
 10
857.6828428611616
 20
307.8569913489262
 30
0.0
 11
823.4128209834395
 21
307.8569913489262
 31
0.0
  0
INSERT
  5
7C
330
2
100
AcDbEntity
  8
0
100
AcDbBlockReference
  2
SST_STEMPEL
 10
0.0
 20
0.0
 30
0.0
  0
INSERT
  5
82
330
2
100
AcDbEntity
  8
0
100
AcDbBlockReference
  2
SST_STEMPEL
 10
841.1285515468884
 20
218.9429028527923
 30
0.0
  0
ENDSEC
  0
SECTION
  2
OBJECTS
  0
DICTIONARY
  5
9
330
0
100
AcDbDictionary
281
     1
  3
ACAD_COLOR
350
26
  3
ACAD_GROUP
350
22
  3
ACAD_LAYOUT
350
D
  3
ACAD_MATERIAL
350
25
  3
ACAD_MLINESTYLE
350
23
  3
ACAD_PLOTSETTINGS
350
24
  3
ACAD_PLOTSTYLENAME
350
8
  3
ACAD_TABLESTYLE
350
27
  3
ACDBHEADERROUNDTRIPXREC
350
90
  3
AcDbVariableDictionary
350
61
  0
DICTIONARY
  5
74
330
12
100
AcDbDictionary
280
     1
281
     1
  3
ACAD_LAYERSTATES
360
75
  0
DICTIONARY
  5
3
330
2
100
AcDbDictionary
280
     1
281
     1
  3
ACAD_SORTENTS
360
60
  0
DICTIONARY
  5
69
330
68
100
AcDbDictionary
280
     1
281
     1
  3
ACAD_SORTENTS
360
6A
  0
DICTIONARY
  5
26
102
{ACAD_REACTORS
330
9
102
}
330
9
100
AcDbDictionary
281
     1
  0
DICTIONARY
  5
22
102
{ACAD_REACTORS
330
9
102
}
330
9
100
AcDbDictionary
281
     1
  0
DICTIONARY
  5
D
102
{ACAD_REACTORS
330
9
102
}
330
9
100
AcDbDictionary
281
     1
  3
Layout1
350
11
  3
Model
350
C
  0
DICTIONARY
  5
25
102
{ACAD_REACTORS
330
9
102
}
330
9
100
AcDbDictionary
281
     1
  0
DICTIONARY
  5
23
102
{ACAD_REACTORS
330
9
102
}
330
9
100
AcDbDictionary
281
     1
  3
Standard
350
28
  0
DICTIONARY
  5
24
102
{ACAD_REACTORS
330
9
102
}
330
9
100
AcDbDictionary
281
     1
  0
ACDBDICTIONARYWDFLT
  5
8
102
{ACAD_REACTORS
330
9
102
}
330
9
100
AcDbDictionary
281
     1
  3
Normal
350
7
100
AcDbDictionaryWithDefault
340
7
  0
DICTIONARY
  5
27
102
{ACAD_REACTORS
330
9
102
}
330
9
100
AcDbDictionary
281
     1
  3
Standard
350
29
  0
DICTIONARY
  5
90
102
{ACAD_REACTORS
330
9
102
}
330
9
100
AcDbDictionary
281
     1
  0
DICTIONARY
  5
61
102
{ACAD_REACTORS
330
9
102
}
330
9
100
AcDbDictionary
281
     1
  3
CTABLESTYLE
350
62
  3
DIMASSOC
350
8D
  3
HIDETEXT
350
8C
  3
PROJECTNAME
350
8E
  0
DICTIONARY
  5
75
102
{ACAD_REACTORS
330
74
102
}
330
74
100
AcDbDictionary
281
     1
  0
SORTENTSTABLE
  5
60
102
{ACAD_REACTORS
330
3
102
}
330
3
100
AcDbSortentsTable
330
2
  0
SORTENTSTABLE
  5
6A
102
{ACAD_REACTORS
330
69
102
}
330
69
100
AcDbSortentsTable
330
68
  0
LAYOUT
  5
11
102
{ACAD_XDICTIONARY
360
93
102
}
102
{ACAD_REACTORS
330
D
102
}
330
D
100
AcDbPlotSettings
  1

  2
\\46nt\Lexmark Optra S 1855 plus
  4

  6

 40
0.0
 41
0.0
 42
0.0
 43
0.0
 44
0.0
 45
0.0
 46
0.0
 47
0.0
 48
0.0
 49
0.0
140
0.0
141
0.0
142
1.0
143
1.0
 70
   688
 72
     0
 73
     0
 74
     5
  7

 75
    16
147
1.0
148
0.0
149
0.0
100
AcDbLayout
  1
Layout1
 70
     1
 71
     1
 10
0.0
 20
0.0
 11
420.0
 21
297.0
 12
0.0
 22
0.0
 32
0.0
 14
1.000000000000000E+20
 24
1.000000000000000E+20
 34
1.000000000000000E+20
 15
-1.000000000000000E+20
 25
-1.000000000000000E+20
 35
-1.000000000000000E+20
146
0.0
 13
0.0
 23
0.0
 33
0.0
 16
1.0
 26
0.0
 36
0.0
 17
0.0
 27
1.0
 37
0.0
 76
     0
330
E
  0
LAYOUT
  5
C
102
{ACAD_XDICTIONARY
360
91
102
}
102
{ACAD_REACTORS
330
D
102
}
330
D
100
AcDbPlotSettings
  1

  2
\\46nt\Lexmark Optra S 1855 plus
  4

  6

 40
0.0
 41
0.0
 42
0.0
 43
0.0
 44
0.0
 45
0.0
 46
0.0
 47
0.0
 48
0.0
 49
0.0
140
0.0
141
0.0
142
1.0
143
1.0
 70
  1712
 72
     0
 73
     0
 74
     0
  7

 75
     0
147
1.0
148
0.0
149
0.0
100
AcDbLayout
  1
Model
 70
     1
 71
     0
 10
0.0
 20
0.0
 11
12.0
 21
9.0
 12
0.0
 22
0.0
 32
0.0
 14
0.0
 24
0.0
 34
0.0
 15
0.0
 25
0.0
 35
0.0
146
0.0
 13
0.0
 23
0.0
 33
0.0
 16
1.0
 26
0.0
 36
0.0
 17
0.0
 27
1.0
 37
0.0
 76
     0
330
2
  0
MLINESTYLE
  5
28
102
{ACAD_REACTORS
330
23
102
}
330
23
100
AcDbMlineStyle
  2
STANDARD
 70
     0
  3

 62
   256
 51
90.0
 52
90.0
 71
     2
 49
0.5
 62
   256
  6
BYLAYER
 49
-0.5
 62
   256
  6
BYLAYER
  0
ACDBPLACEHOLDER
  5
7
102
{ACAD_REACTORS
330
8
102
}
330
8
  0
TABLESTYLE
  5
29
102
{ACAD_REACTORS
330
27
102
}
330
27
100
AcDbTableStyle
  3
Standard
 70
     0
 71
     0
 40
1.5
 41
1.5
280
     0
281
     0
  7
Standard
140
4.5
170
     2
 62
     0
 63
     7
283
     0
274
    -2
284
     1
 64
     0
275
    -2
285
     1
 65
     0
276
    -2
286
     1
 66
     0
277
    -2
287
     1
 67
     0
278
    -2
288
     1
 68
     0
279
    -2
289
     1
 69
     0
  7
Standard
140
6.0
170
     5
 62
     0
 63
     7
283
     0
274
    -2
284
     1
 64
     0
275
    -2
285
     1
 65
     0
276
    -2
286
     1
 66
     0
277
    -2
287
     1
 67
     0
278
    -2
288
     1
 68
     0
279
    -2
289
     1
 69
     0
  7
Standard
140
4.5
170
     5
 62
     0
 63
     7
283
     0
274
    -2
284
     1
 64
     0
275
    -2
285
     1
 65
     0
276
    -2
286
     1
 66
     0
277
    -2
287
     1
 67
     0
278
    -2
288
     1
 68
     0
279
    -2
289
     1
 69
     0
  0
DICTIONARYVAR
  5
62
102
{ACAD_REACTORS
330
61
102
}
330
61
100
DictionaryVariables
280
     0
  1
STANDARD
  0
DICTIONARYVAR
  5
8D
102
{ACAD_REACTORS
330
61
102
}
330
61
100
DictionaryVariables
280
     0
  1
2
  0
DICTIONARYVAR
  5
8C
102
{ACAD_REACTORS
330
61
102
}
330
61
100
DictionaryVariables
280
     0
  1
1
  0
DICTIONARYVAR
  5
8E
102
{ACAD_REACTORS
330
61
102
}
330
61
100
DictionaryVariables
280
     0
  1

  0
DICTIONARY
  5
93
330
11
100
AcDbDictionary
280
     1
281
     1
  3
ACAD_XREC_ROUNDTRIP
360
94
  0
DICTIONARY
  5
91
330
C
100
AcDbDictionary
280
     1
281
     1
  3
ACAD_XREC_ROUNDTRIP
360
92
  0
XRECORD
  5
94
102
{ACAD_REACTORS
330
93
102
}
330
93
100
AcDbXrecord
280
     1
102
SHADEPLOT
 70
     0
102
SHADEPLOTRESLEVEL
 70
     2
102
SHADEPLOTCUSTOMDPI
 70
   300
  0
XRECORD
  5
92
102
{ACAD_REACTORS
330
91
102
}
330
91
100
AcDbXrecord
280
     1
102
SHADEPLOT
 70
     0
102
SHADEPLOTRESLEVEL
 70
     2
102
SHADEPLOTCUSTOMDPI
 70
   300
  0
ENDSEC
  0
EOF
