  0
SECTION
  2
HEADER
  9
$ACADVER
  1
AC1009
  9
$INSBASE
 10
0.0
 20
0.0
 30
0.0
  9
$EXTMIN
 10
-16.0
 20
-30.0
 30
-16.0
  9
$EXTMAX
 10
80.0
 20
30.0
 30
44.0
  9
$LIMMIN
 10
0.0
 20
0.0
  9
$LIMMAX
 10
12.0
 20
9.0
  9
$ORTHOMODE
 70
     0
  9
$REGENMODE
 70
     1
  9
$FILLMODE
 70
     1
  9
$QTEXTMODE
 70
     0
  9
$MIRRTEXT
 70
     0
  9
$DRAGMODE
 70
     2
  9
$LTSCALE
 40
1.0
  9
$OSMODE
 70
    37
  9
$ATTMODE
 70
     1
  9
$TEXTSIZE
 40
0.2
  9
$TRACEWID
 40
0.05
  9
$TEXTSTYLE
  7
STANDARD
  9
$CLAYER
  8
0
  9
$CELTYPE
  6
BYLAYER
  9
$CECOLOR
 62
   256
  9
$DIMSCALE
 40
1.0
  9
$DIMASZ
 40
1.7999999999999989
  9
$DIMEXO
 40
0.0625
  9
$DIMDLI
 40
0.38
  9
$DIMRND
 40
0.0
  9
$DIMDLE
 40
0.0
  9
$DIMEXE
 40
0.18
  9
$DIMTP
 40
0.0
  9
$DIMTM
 40
0.0
  9
$DIMTXT
 40
1.7999999999999989
  9
$DIMCEN
 40
0.09
  9
$DIMTSZ
 40
0.0
  9
$DIMTOL
 70
     0
  9
$DIMLIM
 70
     0
  9
$DIMTIH
 70
     1
  9
$DIMTOH
 70
     1
  9
$DIMSE1
 70
     0
  9
$DIMSE2
 70
     0
  9
$DIMTAD
 70
     0
  9
$DIMZIN
 70
     0
  9
$DIMBLK
  1

  9
$DIMASO
 70
     1
  9
$DIMSHO
 70
     1
  9
$DIMPOST
  1

  9
$DIMAPOST
  1

  9
$DIMALT
 70
     0
  9
$DIMALTD
 70
     2
  9
$DIMALTF
 40
25.3999999999999986
  9
$DIMLFAC
 40
1.0
  9
$DIMTOFL
 70
     0
  9
$DIMTVP
 40
0.0
  9
$DIMTIX
 70
     0
  9
$DIMSOXD
 70
     0
  9
$DIMSAH
 70
     0
  9
$DIMBLK1
  1

  9
$DIMBLK2
  1

  9
$DIMSTYLE
  2
STANDARD
  9
$DIMCLRD
 70
     0
  9
$DIMCLRE
 70
     0
  9
$DIMCLRT
 70
     0
  9
$DIMTFAC
 40
1.0
  9
$DIMGAP
 40
0.09
  9
$LUNITS
 70
     2
  9
$LUPREC
 70
     4
  9
$SKETCHINC
 40
0.1
  9
$FILLETRAD
 40
0.0
  9
$AUNITS
 70
     0
  9
$AUPREC
 70
     0
  9
$MENU
  1
.
  9
$ELEVATION
 40
0.0
  9
$PELEVATION
 40
0.0
  9
$THICKNESS
 40
0.0
  9
$LIMCHECK
 70
     0
  9
$BLIPMODE
 70
     0
  9
$CHAMFERA
 40
0.0
  9
$CHAMFERB
 40
0.0
  9
$SKPOLY
 70
     0
  9
$TDCREATE
 40
2457780.4956365739926696
  9
$TDUPDATE
 40
2457780.4976041670888662
  9
$TDINDWG
 40
0.0004282407
  9
$TDUSRTIMER
 40
0.0004282407
  9
$USRTIMER
 70
     1
  9
$ANGBASE
 50
0.0
  9
$ANGDIR
 70
     0
  9
$PDMODE
 70
     0
  9
$PDSIZE
 40
0.0
  9
$PLINEWID
 40
0.0
  9
$COORDS
 70
     1
  9
$SPLFRAME
 70
     0
  9
$SPLINETYPE
 70
     6
  9
$SPLINESEGS
 70
     8
  9
$ATTDIA
 70
     1
  9
$ATTREQ
 70
     1
  9
$HANDLING
 70
     1
  9
$HANDSEED
  5
1C1
  9
$SURFTAB1
 70
     6
  9
$SURFTAB2
 70
     6
  9
$SURFTYPE
 70
     6
  9
$SURFU
 70
     6
  9
$SURFV
 70
     6
  9
$UCSNAME
  2

  9
$UCSORG
 10
0.0
 20
0.0
 30
0.0
  9
$UCSXDIR
 10
1.0
 20
0.0
 30
0.0
  9
$UCSYDIR
 10
0.0
 20
1.0
 30
0.0
  9
$PUCSNAME
  2

  9
$PUCSORG
 10
0.0
 20
0.0
 30
0.0
  9
$PUCSXDIR
 10
1.0
 20
0.0
 30
0.0
  9
$PUCSYDIR
 10
0.0
 20
1.0
 30
0.0
  9
$USERI1
 70
     0
  9
$USERI2
 70
     0
  9
$USERI3
 70
     0
  9
$USERI4
 70
     0
  9
$USERI5
 70
     0
  9
$USERR1
 40
0.0
  9
$USERR2
 40
0.0
  9
$USERR3
 40
0.0
  9
$USERR4
 40
0.0
  9
$USERR5
 40
0.0
  9
$WORLDVIEW
 70
     1
  9
$SHADEDGE
 70
     3
  9
$SHADEDIF
 70
    70
  9
$TILEMODE
 70
     1
  9
$MAXACTVP
 70
    64
  9
$PLIMCHECK
 70
     0
  9
$PEXTMIN
 10
1.0000000000000000E+20
 20
1.0000000000000000E+20
 30
1.0000000000000000E+20
  9
$PEXTMAX
 10
-1.0000000000000000E+20
 20
-1.0000000000000000E+20
 30
-1.0000000000000000E+20
  9
$PLIMMIN
 10
0.0
 20
0.0
  9
$PLIMMAX
 10
12.0
 20
9.0
  9
$UNITMODE
 70
     0
  9
$VISRETAIN
 70
     1
  9
$PLINEGEN
 70
     0
  9
$PSLTSCALE
 70
     1
  0
ENDSEC
  0
SECTION
  2
TABLES
  0
TABLE
  2
VPORT
 70
     1
  0
VPORT
  2
*ACTIVE
 70
     0
 10
0.0
 20
0.0
 11
1.0
 21
1.0
 12
33.9500454907998801
 22
-3.6138687580059989
 13
0.0
 23
0.0
 14
1.0
 24
1.0
 15
0.0
 25
0.0
 16
0.0
 26
0.0
 36
1.0
 17
0.0
 27
0.0
 37
0.0
 40
96.3014773254966343
 41
2.127494456762749
 42
50.0
 43
0.0
 44
0.0
 50
0.0
 51
0.0
 71
     0
 72
   100
 73
     1
 74
     1
 75
     0
 76
     0
 77
     0
 78
     0
  0
ENDTAB
  0
TABLE
  2
LTYPE
 70
     1
  0
LTYPE
  2
CONTINUOUS
 70
     0
  3
Solid line
 72
    65
 73
     0
 40
0.0
  0
ENDTAB
  0
TABLE
  2
LAYER
 70
     1
  0
LAYER
  2
0
 70
     0
 62
     7
  6
CONTINUOUS
  0
ENDTAB
  0
TABLE
  2
STYLE
 70
     2
  0
STYLE
  2
STANDARD
 70
     0
 40
0.0
 41
1.0
 50
0.0
 71
     0
 42
0.2
  3
txt
  4

  0
STYLE
  2
ANNOTATIVE
 70
     0
 40
0.0
 41
1.0
 50
0.0
 71
     0
 42
0.2
  3
txt
  4

  0
ENDTAB
  0
TABLE
  2
VIEW
 70
     0
  0
ENDTAB
  0
TABLE
  2
UCS
 70
     0
  0
ENDTAB
  0
TABLE
  2
APPID
 70
     7
  0
APPID
  2
ACAD
 70
     0
  0
APPID
  2
ACADANNOTATIVE
 70
     0
  0
APPID
  2
ACAD_MATERIAL_MAPPER
 70
     0
  0
APPID
  2
ACAD_MATERIAL_MAPPER_2
 70
     0
  0
APPID
  2
AMACAD
 70
     0
  0
APPID
  2
ACAD_NAV_VCDISPLAY
 70
     0
  0
APPID
  2
ACAD_MLEADERVER
 70
     0
  0
ENDTAB
  0
TABLE
  2
DIMSTYLE
 70
     2
  0
DIMSTYLE
  2
STANDARD
 70
     0
  3

  4

  5

  6

  7

 40
1.0
 41
0.18
 42
0.0625
 43
0.38
 44
0.18
 45
0.0
 46
0.0
 47
0.0
 48
0.0
140
0.18
141
0.09
142
0.0
143
25.3999999999999986
144
1.0
145
0.0
146
1.0
147
0.09
 71
     0
 72
     0
 73
     1
 74
     1
 75
     0
 76
     0
 77
     0
 78
     0
170
     0
171
     2
172
     0
173
     0
174
     0
175
     0
176
     0
177
     0
178
     0
  0
DIMSTYLE
  2
ANNOTATIVE
 70
     0
  3

  4

  5

  6

  7

 40
1.0
 41
0.18
 42
0.0625
 43
0.38
 44
0.18
 45
0.0
 46
0.0
 47
0.0
 48
0.0
140
0.18
141
0.09
142
0.0
143
25.3999999999999986
144
1.0
145
0.0
146
1.0
147
0.09
 71
     0
 72
     0
 73
     1
 74
     1
 75
     0
 76
     0
 77
     0
 78
     0
170
     0
171
     2
172
     0
173
     0
174
     0
175
     0
176
     0
177
     0
178
     0
  0
ENDTAB
  0
ENDSEC
  0
SECTION
  2
BLOCKS
  0
BLOCK
  8
0
  2
$MODEL_SPACE
 70
     0
 10
0.0
 20
0.0
 30
0.0
  3
$MODEL_SPACE
  1

  0
ENDBLK
  5
72
  8
0
  0
BLOCK
 67
     1
  8
0
  2
$PAPER_SPACE
 70
     0
 10
0.0
 20
0.0
 30
0.0
  3
$PAPER_SPACE
  1

  0
ENDBLK
  5
6E
 67
     1
  8
0
  0
BLOCK
  8
0
  2
*U1
 70
     1
 10
0.0
 20
0.0
 30
0.0
  3
*U1
  1

  0
LINE
  5
143
  8
0
 10
19.2800000000000011
 20
-5.9999999999999956
 30
0.0
 11
19.2800000000000011
 21
-5.9999999999999956
 31
-11.0
210
-0.0000000000000002
220
1.0
230
0.0
  0
LINE
  5
144
  8
0
 10
21.4600000000000009
 20
-5.9999999999999956
 30
0.0
 11
19.2800000000000011
 21
-5.9999999999999956
 31
0.0
210
-0.0000000000000002
220
1.0
230
0.0
  0
LINE
  5
145
  8
0
 10
21.4600000000000009
 20
-5.9999999999999947
 30
-11.0
 11
21.4600000000000009
 21
-5.9999999999999956
 31
0.0
210
-0.0000000000000002
220
1.0
230
0.0
  0
LINE
  5
146
  8
0
 10
21.4600000000000009
 20
-5.9999999999999947
 30
-11.0
 11
19.2800000000000011
 21
-5.9999999999999956
 31
-11.0
210
-0.0000000000000002
220
1.0
230
0.0
  0
LINE
  5
147
  8
0
 10
21.4599999999999902
 20
6.0
 30
0.0
 11
21.4599999999999902
 21
6.0
 31
-11.0
210
0.0
220
-1.0
230
0.0
  0
LINE
  5
148
  8
0
 10
19.2800000000000011
 20
6.0
 30
0.0
 11
21.4599999999999902
 21
6.0
 31
0.0
210
0.0
220
-1.0
230
0.0
  0
LINE
  5
149
  8
0
 10
19.2800000000000011
 20
6.0
 30
-11.0
 11
19.2800000000000011
 21
6.0
 31
0.0
210
0.0
220
-1.0
230
0.0
  0
LINE
  5
14A
  8
0
 10
19.2800000000000011
 20
6.0
 30
-11.0
 11
21.4599999999999902
 21
6.0
 31
-11.0
210
0.0
220
-1.0
230
0.0
  0
LINE
  5
14B
  8
0
 10
8.1000000000000014
 20
6.0
 30
-11.0
 11
8.1000000000000014
 21
6.0
 31
0.0
210
0.0
220
-1.0
230
0.0
  0
LINE
  5
14C
  8
0
 10
8.1000000000000014
 20
6.0
 30
-11.0
 11
10.2799999999999994
 21
6.0
 31
-11.0
210
0.0
220
-1.0
230
0.0
  0
LINE
  5
14D
  8
0
 10
10.2799999999999994
 20
6.0
 30
0.0
 11
10.2799999999999994
 21
6.0
 31
-11.0
210
0.0
220
-1.0
230
0.0
  0
LINE
  5
14E
  8
0
 10
8.1000000000000014
 20
6.0
 30
0.0
 11
10.2799999999999994
 21
6.0
 31
0.0
210
0.0
220
-1.0
230
0.0
  0
LINE
  5
14F
  8
0
 10
10.2799999999999994
 20
-5.9999999999999982
 30
-11.0
 11
10.2799999999999994
 21
-5.9999999999999982
 31
0.0
210
-0.0000000000000002
220
1.0
230
0.0
  0
LINE
  5
150
  8
0
 10
10.2799999999999994
 20
-5.9999999999999982
 30
-11.0
 11
8.1000000000000014
 21
-6.0
 31
-11.0
210
-0.0000000000000002
220
1.0
230
0.0
  0
LINE
  5
151
  8
0
 10
8.1000000000000032
 20
-5.9999999999999982
 30
0.0
 11
8.1000000000000014
 21
-6.0
 31
-11.0
210
-0.0000000000000002
220
1.0
230
0.0
  0
LINE
  5
152
  8
0
 10
10.2799999999999994
 20
-5.9999999999999982
 30
0.0
 11
8.1000000000000032
 21
-5.9999999999999982
 31
0.0
210
-0.0000000000000002
220
1.0
230
0.0
  0
LINE
  5
153
  8
0
 10
8.1000000000000032
 20
-5.9999999999999982
 30
0.0
 11
8.1000000000000014
 21
-6.0
 31
-11.0
  0
ARC
  5
154
  8
0
 10
-3.6000000000000001
 20
0.0
 30
11.0
 40
7.5
210
0.0
220
0.0
230
-1.0
 50
233.1301023541560085
 51
298.6854020141190063
  0
LINE
  5
155
  8
0
 10
0.0000000000000012
 20
-6.5795136598383923
 30
0.0
 11
0.0000000000000012
 21
-6.5795136598383923
 31
-11.0
  0
ARC
  5
156
  8
0
 10
-3.6000000000000001
 20
0.0
 30
0.0
 40
7.5
210
0.0
220
0.0
230
-1.0
 50
233.1301023541560085
 51
298.6854020141190063
  0
LINE
  5
157
  8
0
 10
8.1000000000000014
 20
6.0
 30
-11.0
 11
8.1000000000000014
 21
6.0
 31
0.0
  0
ARC
  5
158
  8
0
 10
-3.6000000000000001
 20
0.0
 30
0.0
 40
7.5
210
0.0
220
0.0
230
-1.0
 50
61.3145979858810719
 51
126.8698976458440058
  0
LINE
  5
159
  8
0
 10
-0.0000000000000012
 20
6.5795136598383923
 30
-11.0
 11
-0.0000000000000012
 21
6.5795136598383923
 31
0.0
  0
ARC
  5
15A
  8
0
 10
-3.6000000000000001
 20
0.0
 30
11.0
 40
7.5
210
0.0
220
0.0
230
-1.0
 50
61.3145979858810719
 51
126.8698976458440058
  0
LINE
  5
15B
  8
0
 10
10.2799999999999994
 20
-5.9999999999999982
 30
0.0
 11
8.1000000000000032
 21
-5.9999999999999982
 31
0.0
  0
ARC
  5
15C
  8
0
 10
3.6000000000000001
 20
0.0
 30
0.0
 40
7.5
 50
241.3145979858811074
 51
306.8698976458439915
  0
LINE
  5
15D
  8
0
 10
0.0000000000000055
 20
-30.0
 30
0.0
 11
0.0000000000000012
 21
-6.5795136598383923
 31
0.0
  0
LINE
  5
15E
  8
0
 10
80.0
 20
-30.0
 30
0.0
 11
0.0000000000000055
 21
-30.0
 31
0.0
  0
LINE
  5
15F
  8
0
 10
80.0
 20
30.0
 30
0.0
 11
80.0
 21
-30.0
 31
0.0
  0
LINE
  5
160
  8
0
 10
-0.0000000000000055
 20
30.0
 30
0.0
 11
80.0
 21
30.0
 31
0.0
  0
LINE
  5
161
  8
0
 10
-0.0000000000000012
 20
6.5795136598383923
 30
0.0
 11
-0.0000000000000055
 21
30.0
 31
0.0
  0
ARC
  5
162
  8
0
 10
3.6000000000000001
 20
0.0
 30
0.0
 40
7.5
 50
53.1301023541559516
 51
118.6854020141189068
  0
LINE
  5
163
  8
0
 10
8.1000000000000014
 20
6.0
 30
0.0
 11
10.2799999999999994
 21
6.0
 31
0.0
  0
ARC
  5
164
  8
0
 10
14.7799999999999994
 20
0.0000000000000036
 30
0.0
 40
7.5
 50
53.1301023541559303
 51
126.8698976458440058
  0
LINE
  5
165
  8
0
 10
19.2800000000000011
 20
6.0
 30
0.0
 11
21.4599999999999902
 21
6.0
 31
0.0
  0
ARC
  5
166
  8
0
 10
25.9600000000000009
 20
0.0000000000000064
 30
0.0
 40
7.5
 50
233.1301023541560085
 51
126.8698976458441052
  0
LINE
  5
167
  8
0
 10
21.4600000000000009
 20
-5.9999999999999956
 30
0.0
 11
19.2800000000000011
 21
-5.9999999999999956
 31
0.0
  0
ARC
  5
168
  8
0
 10
14.7799999999999994
 20
0.0000000000000036
 30
0.0
 40
7.5
 50
233.1301023541560085
 51
306.8698976458439915
  0
ARC
  5
169
  8
0
 10
14.7799999999999994
 20
0.0000000000000036
 30
-11.0
 40
7.5
 50
233.1301023541560085
 51
306.8698976458439915
  0
LINE
  5
16A
  8
0
 10
21.4600000000000009
 20
-5.9999999999999947
 30
-11.0
 11
19.2800000000000011
 21
-5.9999999999999956
 31
-11.0
  0
ARC
  5
16B
  8
0
 10
25.9600000000000009
 20
0.0000000000000064
 30
-11.0
 40
7.5
 50
233.1301023541560085
 51
126.8698976458441052
  0
LINE
  5
16C
  8
0
 10
19.2800000000000011
 20
6.0
 30
-11.0
 11
21.4599999999999902
 21
6.0
 31
-11.0
  0
ARC
  5
16D
  8
0
 10
14.7799999999999994
 20
0.0000000000000036
 30
-11.0
 40
7.5
 50
53.1301023541559303
 51
126.8698976458440058
  0
LINE
  5
16E
  8
0
 10
8.1000000000000014
 20
6.0
 30
-11.0
 11
10.2799999999999994
 21
6.0
 31
-11.0
  0
ARC
  5
16F
  8
0
 10
3.6000000000000001
 20
0.0
 30
-11.0
 40
7.5
 50
53.1301023541559516
 51
118.6854020141189068
  0
LINE
  5
170
  8
0
 10
0.0000000000000012
 20
-6.5795136598383923
 30
-11.0
 11
-0.0000000000000012
 21
6.5795136598383923
 31
-11.0
  0
ARC
  5
171
  8
0
 10
3.6000000000000001
 20
0.0
 30
-11.0
 40
7.5
 50
241.3145979858811074
 51
306.8698976458439915
  0
LINE
  5
172
  8
0
 10
10.2799999999999994
 20
-5.9999999999999982
 30
-11.0
 11
8.1000000000000014
 21
-6.0
 31
-11.0
  0
LINE
  5
173
  8
0
 10
10.2799999999999994
 20
-5.9999999999999982
 30
-11.0
 11
10.2799999999999994
 21
-5.9999999999999982
 31
0.0
  0
ARC
  5
174
  8
0
 10
-14.7799999999999994
 20
0.0000000000000036
 30
0.0
 40
7.5
210
0.0
220
0.0
230
-1.0
 50
233.1301023541560085
 51
306.8698976458439915
  0
LINE
  5
175
  8
0
 10
19.2800000000000011
 20
-5.9999999999999956
 30
0.0
 11
19.2800000000000011
 21
-5.9999999999999956
 31
-11.0
  0
ARC
  5
176
  8
0
 10
-14.7799999999999994
 20
0.0000000000000036
 30
11.0
 40
7.5
210
0.0
220
0.0
230
-1.0
 50
233.1301023541560085
 51
306.8698976458439915
  0
LINE
  5
177
  8
0
 10
19.2800000000000011
 20
6.0
 30
-11.0
 11
19.2800000000000011
 21
6.0
 31
0.0
  0
ARC
  5
178
  8
0
 10
-14.7799999999999994
 20
0.0000000000000036
 30
0.0
 40
7.5
210
0.0
220
0.0
230
-1.0
 50
53.1301023541559374
 51
126.8698976458440058
  0
LINE
  5
179
  8
0
 10
10.2799999999999994
 20
6.0
 30
0.0
 11
10.2799999999999994
 21
6.0
 31
-11.0
  0
ARC
  5
17A
  8
0
 10
-14.7799999999999994
 20
0.0000000000000036
 30
11.0
 40
7.5
210
0.0
220
0.0
230
-1.0
 50
53.1301023541559374
 51
126.8698976458440058
  0
LINE
  5
17B
  8
0
 10
21.4600000000000009
 20
-5.9999999999999947
 30
-11.0
 11
21.4600000000000009
 21
-5.9999999999999956
 31
0.0
  0
ARC
  5
17C
  8
0
 10
-25.9600000000000009
 20
0.0000000000000064
 30
0.0
 40
7.5
210
0.0
220
0.0
230
-1.0
 50
53.1301023541558806
 51
306.8698976458439915
  0
LINE
  5
17D
  8
0
 10
21.4599999999999902
 20
6.0
 30
0.0
 11
21.4599999999999902
 21
6.0
 31
-11.0
  0
ARC
  5
17E
  8
0
 10
-25.9600000000000009
 20
0.0000000000000064
 30
11.0
 40
7.5
210
0.0
220
0.0
230
-1.0
 50
53.1301023541558806
 51
306.8698976458439915
  0
LINE
  5
17F
  8
0
 10
-0.0000000000000012
 20
6.5795136598383923
 30
-11.0
 11
-0.0000000000000012
 21
6.5795136598383923
 31
0.0
210
-1.0
220
-0.0000000000000002
230
0.0
  0
LINE
  5
180
  8
0
 10
-0.0000000000000012
 20
6.5795136598383923
 30
0.0
 11
-0.0000000000000055
 21
30.0
 31
0.0
210
-1.0
220
-0.0000000000000002
230
0.0
  0
LINE
  5
181
  8
0
 10
-0.0000000000000055
 20
30.0
 30
0.0
 11
-0.0000000000000055
 21
30.0
 31
-16.0
210
-1.0
220
-0.0000000000000002
230
0.0
  0
LINE
  5
182
  8
0
 10
0.0000000000000055
 20
-30.0
 30
-16.0
 11
-0.0000000000000055
 21
30.0
 31
-16.0
210
-1.0
220
-0.0000000000000002
230
0.0
  0
LINE
  5
183
  8
0
 10
0.0000000000000055
 20
-30.0
 30
0.0
 11
0.0000000000000055
 21
-30.0
 31
-16.0
210
-1.0
220
-0.0000000000000002
230
0.0
  0
LINE
  5
184
  8
0
 10
0.0000000000000055
 20
-30.0
 30
0.0
 11
0.0000000000000012
 21
-6.5795136598383923
 31
0.0
210
-1.0
220
-0.0000000000000002
230
0.0
  0
LINE
  5
185
  8
0
 10
0.0000000000000012
 20
-6.5795136598383923
 30
0.0
 11
0.0000000000000012
 21
-6.5795136598383923
 31
-11.0
210
-1.0
220
-0.0000000000000002
230
0.0
  0
LINE
  5
186
  8
0
 10
0.0000000000000012
 20
-6.5795136598383923
 30
-11.0
 11
-0.0000000000000012
 21
6.5795136598383923
 31
-11.0
210
-1.0
220
-0.0000000000000002
230
0.0
  0
LINE
  5
187
  8
0
 10
80.0
 20
-30.0
 30
0.0
 11
0.0000000000000055
 21
-30.0
 31
0.0
210
0.0000000000000001
220
-1.0
230
0.0
  0
LINE
  5
188
  8
0
 10
0.0000000000000055
 20
-30.0
 30
0.0
 11
0.0000000000000055
 21
-30.0
 31
-16.0
210
0.0000000000000001
220
-1.0
230
0.0
  0
LINE
  5
189
  8
0
 10
79.9999999999999858
 20
-30.0
 30
-16.0
 11
0.0000000000000055
 21
-30.0
 31
-16.0
210
0.0000000000000001
220
-1.0
230
0.0
  0
LINE
  5
18A
  8
0
 10
80.0
 20
-30.0
 30
0.0
 11
79.9999999999999858
 21
-30.0
 31
-16.0
210
0.0000000000000001
220
-1.0
230
0.0
  0
LINE
  5
18B
  8
0
 10
80.0
 20
30.0
 30
0.0
 11
80.0
 21
-30.0
 31
0.0
210
1.0
220
0.0
230
0.0
  0
LINE
  5
18C
  8
0
 10
80.0
 20
-30.0
 30
0.0
 11
79.9999999999999858
 21
-30.0
 31
-16.0
210
1.0
220
0.0
230
0.0
  0
LINE
  5
18D
  8
0
 10
79.9999999999999858
 20
30.0
 30
-16.0
 11
79.9999999999999858
 21
-30.0
 31
-16.0
210
1.0
220
0.0
230
0.0
  0
LINE
  5
18E
  8
0
 10
80.0
 20
30.0
 30
0.0
 11
79.9999999999999858
 21
30.0
 31
-16.0
210
1.0
220
0.0
230
0.0
  0
LINE
  5
18F
  8
0
 10
-0.0000000000000055
 20
30.0
 30
0.0
 11
80.0
 21
30.0
 31
0.0
210
0.0
220
1.0
230
0.0
  0
LINE
  5
190
  8
0
 10
80.0
 20
30.0
 30
0.0
 11
79.9999999999999858
 21
30.0
 31
-16.0
210
0.0
220
1.0
230
0.0
  0
LINE
  5
191
  8
0
 10
-0.0000000000000055
 20
30.0
 30
-16.0
 11
79.9999999999999858
 21
30.0
 31
-16.0
210
0.0
220
1.0
230
0.0
  0
LINE
  5
192
  8
0
 10
-0.0000000000000055
 20
30.0
 30
0.0
 11
-0.0000000000000055
 21
30.0
 31
-16.0
210
0.0
220
1.0
230
0.0
  0
LINE
  5
193
  8
0
 10
-0.0000000000000055
 20
30.0
 30
-16.0
 11
79.9999999999999858
 21
30.0
 31
-16.0
210
0.0
220
0.0
230
-1.0
  0
LINE
  5
194
  8
0
 10
79.9999999999999858
 20
30.0
 30
-16.0
 11
79.9999999999999858
 21
-30.0
 31
-16.0
210
0.0
220
0.0
230
-1.0
  0
LINE
  5
195
  8
0
 10
79.9999999999999858
 20
-30.0
 30
-16.0
 11
0.0000000000000055
 21
-30.0
 31
-16.0
210
0.0
220
0.0
230
-1.0
  0
LINE
  5
196
  8
0
 10
0.0000000000000055
 20
-30.0
 30
-16.0
 11
-0.0000000000000055
 21
30.0
 31
-16.0
210
0.0
220
0.0
230
-1.0
  0
ENDBLK
  5
198
  8
0
  0
BLOCK
  8
0
  2
*U2
 70
     1
 10
0.0
 20
0.0
 30
0.0
  3
*U2
  1

  0
CIRCLE
  5
1A2
  8
0
 10
0.0000000000000119
 20
-5.0
 30
-12.0
 40
2.5
210
1.0
220
0.0000000000000002
230
0.0
  0
POINT
  5
1A3
  8
0
 10
-13.5021515475689
 20
0.0000000000000095
 30
-5.0
  0
CIRCLE
  5
1A4
  8
0
 10
-0.0000000000000119
 20
-5.0
 30
0.0
 40
2.5
210
-1.0
220
-0.0000000000000002
230
0.0
  0
CIRCLE
  5
1A5
  8
0
 10
0.0000000000000119
 20
-5.0
 30
-12.0
 40
2.5
210
1.0
220
0.0000000000000002
230
0.0
  0
LINE
  5
1A6
  8
0
 10
-16.0
 20
30.0
 30
-16.0
 11
-15.9999999999999893
 21
-30.0
 31
-16.0
210
0.0
220
0.0
230
-1.0
  0
LINE
  5
1A7
  8
0
 10
-16.0
 20
30.0
 30
-16.0
 11
-0.0000000000000036
 21
30.0
 31
-16.0
210
0.0
220
0.0
230
-1.0
  0
LINE
  5
1A8
  8
0
 10
0.0000000000000071
 20
-29.9999999999999893
 30
-16.0
 11
-0.0000000000000036
 21
30.0
 31
-16.0
210
0.0
220
0.0
230
-1.0
  0
LINE
  5
1A9
  8
0
 10
-15.9999999999999893
 20
-30.0
 30
-16.0
 11
0.0000000000000071
 21
-29.9999999999999893
 31
-16.0
210
0.0
220
0.0
230
-1.0
  0
LINE
  5
1AA
  8
0
 10
-15.9999999999999893
 20
-30.0
 30
-16.0
 11
-15.9999999999999893
 21
-30.0
 31
43.9999999999999787
210
0.0000000000000002
220
-1.0
230
-0.0000000000000001
  0
LINE
  5
1AB
  8
0
 10
-15.9999999999999893
 20
-30.0
 30
-16.0
 11
0.0000000000000071
 21
-29.9999999999999893
 31
-16.0
210
0.0000000000000002
220
-1.0
230
-0.0000000000000001
  0
LINE
  5
1AC
  8
0
 10
0.0000000000000071
 20
-30.0
 30
43.9999999999999787
 11
0.0000000000000071
 21
-29.9999999999999893
 31
-16.0
210
0.0000000000000002
220
-1.0
230
-0.0000000000000001
  0
LINE
  5
1AD
  8
0
 10
-15.9999999999999893
 20
-30.0
 30
43.9999999999999787
 11
0.0000000000000071
 21
-30.0
 31
43.9999999999999787
210
0.0000000000000002
220
-1.0
230
-0.0000000000000001
  0
LINE
  5
1AE
  8
0
 10
-15.9999999999999893
 20
-30.0
 30
43.9999999999999787
 11
-16.0
 21
30.0
 31
44.0
  0
LINE
  5
1AF
  8
0
 10
-15.9999999999999893
 20
-30.0
 30
43.9999999999999787
 11
0.0000000000000071
 21
-30.0
 31
43.9999999999999787
  0
LINE
  5
1B0
  8
0
 10
-0.0000000000000036
 20
30.0
 30
44.0
 11
0.0000000000000071
 21
-30.0
 31
43.9999999999999787
  0
LINE
  5
1B1
  8
0
 10
-16.0
 20
30.0
 30
44.0
 11
-0.0000000000000036
 21
30.0
 31
44.0
  0
LINE
  5
1B2
  8
0
 10
-16.0
 20
30.0
 30
44.0
 11
-16.0
 21
30.0
 31
-16.0
210
-0.0000000000000002
220
1.0
230
0.0
  0
LINE
  5
1B3
  8
0
 10
-16.0
 20
30.0
 30
44.0
 11
-0.0000000000000036
 21
30.0
 31
44.0
210
-0.0000000000000002
220
1.0
230
0.0
  0
LINE
  5
1B4
  8
0
 10
-0.0000000000000036
 20
30.0
 30
-16.0
 11
-0.0000000000000036
 21
30.0
 31
44.0
210
-0.0000000000000002
220
1.0
230
0.0
  0
LINE
  5
1B5
  8
0
 10
-16.0
 20
30.0
 30
-16.0
 11
-0.0000000000000036
 21
30.0
 31
-16.0
210
-0.0000000000000002
220
1.0
230
0.0
  0
LINE
  5
1B6
  8
0
 10
-16.0
 20
30.0
 30
44.0
 11
-16.0
 21
30.0
 31
-16.0
210
-1.0
220
-0.0000000000000002
230
0.0
  0
LINE
  5
1B7
  8
0
 10
-16.0
 20
30.0
 30
-16.0
 11
-15.9999999999999893
 21
-30.0
 31
-16.0
210
-1.0
220
-0.0000000000000002
230
0.0
  0
LINE
  5
1B8
  8
0
 10
-15.9999999999999893
 20
-30.0
 30
-16.0
 11
-15.9999999999999893
 21
-30.0
 31
43.9999999999999787
210
-1.0
220
-0.0000000000000002
230
0.0
  0
LINE
  5
1B9
  8
0
 10
-15.9999999999999893
 20
-30.0
 30
43.9999999999999787
 11
-16.0
 21
30.0
 31
44.0
210
-1.0
220
-0.0000000000000002
230
0.0
  0
CIRCLE
  5
1BA
  8
0
 10
0.0000000000000119
 20
-5.0
 30
0.0
 40
2.5
210
1.0
220
0.0000000000000002
230
0.0
  0
LINE
  5
1BB
  8
0
 10
-0.0000000000000036
 20
30.0
 30
-16.0
 11
-0.0000000000000036
 21
30.0
 31
44.0
210
1.0
220
0.0000000000000002
230
0.0
  0
LINE
  5
1BC
  8
0
 10
-0.0000000000000036
 20
30.0
 30
44.0
 11
0.0000000000000071
 21
-30.0
 31
43.9999999999999787
210
1.0
220
0.0000000000000002
230
0.0
  0
LINE
  5
1BD
  8
0
 10
0.0000000000000071
 20
-30.0
 30
43.9999999999999787
 11
0.0000000000000071
 21
-29.9999999999999893
 31
-16.0
210
1.0
220
0.0000000000000002
230
0.0
  0
LINE
  5
1BE
  8
0
 10
0.0000000000000071
 20
-29.9999999999999893
 30
-16.0
 11
-0.0000000000000036
 21
30.0
 31
-16.0
210
1.0
220
0.0000000000000002
230
0.0
  0
ENDBLK
  5
1C0
  8
0
  0
ENDSEC
  0
SECTION
  2
ENTITIES
  0
INSERT
  5
BC
  8
0
  2
*U1
 10
0.0
 20
0.0
 30
0.0
  0
INSERT
  5
BF
  8
0
  2
*U2
 10
0.0
 20
0.0
 30
0.0
  0
ENDSEC
  0
EOF
