  0
SECTION
  2
HEADER
  9
$ACADVER
  1
AC1012
  9
$DWGCODEPAGE
  3
ansi_1252
  9
$INSBASE
 10
0.0
 20
0.0
 30
0.0
  9
$EXTMIN
 10
0.0
 20
0.0
 30
0.0
  9
$EXTMAX
 10
210.0
 20
297.0
 30
0.0
  9
$LIMMIN
 10
0.0
 20
0.0
  9
$LIMMAX
 10
210.0
 20
297.0
  9
$ORTHOMODE
 70
     0
  9
$REGENMODE
 70
     1
  9
$FILLMODE
 70
     1
  9
$QTEXTMODE
 70
     0
  9
$MIRRTEXT
 70
     1
  9
$DRAGMODE
 70
     2
  9
$LTSCALE
 40
1.0
  9
$OSMODE
 70
    37
  9
$ATTMODE
 70
     1
  9
$TEXTSIZE
 40
0.2
  9
$TRACEWID
 40
0.05
  9
$TEXTSTYLE
  7
STANDARD
  9
$CLAYER
  8
0
  9
$CELTYPE
  6
BYLAYER
  9
$CECOLOR
 62
   256
  9
$CELTSCALE
 40
25.4
  9
$DELOBJ
 70
     1
  9
$DISPSILH
 70
     0
  9
$DIMSCALE
 40
1.0
  9
$DIMASZ
 40
0.18
  9
$DIMEXO
 40
0.0625
  9
$DIMDLI
 40
0.38
  9
$DIMRND
 40
0.0
  9
$DIMDLE
 40
0.0
  9
$DIMEXE
 40
0.18
  9
$DIMTP
 40
0.0
  9
$DIMTM
 40
0.0
  9
$DIMTXT
 40
0.18
  9
$DIMCEN
 40
0.09
  9
$DIMTSZ
 40
0.0
  9
$DIMTOL
 70
     0
  9
$DIMLIM
 70
     0
  9
$DIMTIH
 70
     1
  9
$DIMTOH
 70
     1
  9
$DIMSE1
 70
     0
  9
$DIMSE2
 70
     0
  9
$DIMTAD
 70
     0
  9
$DIMZIN
 70
     0
  9
$DIMBLK
  1

  9
$DIMASO
 70
     1
  9
$DIMSHO
 70
     1
  9
$DIMPOST
  1

  9
$DIMAPOST
  1

  9
$DIMALT
 70
     0
  9
$DIMALTD
 70
     2
  9
$DIMALTF
 40
25.4
  9
$DIMLFAC
 40
1.0
  9
$DIMTOFL
 70
     0
  9
$DIMTVP
 40
0.0
  9
$DIMTIX
 70
     0
  9
$DIMSOXD
 70
     0
  9
$DIMSAH
 70
     0
  9
$DIMBLK1
  1

  9
$DIMBLK2
  1

  9
$DIMSTYLE
  2
STANDARD
  9
$DIMCLRD
 70
     0
  9
$DIMCLRE
 70
     0
  9
$DIMCLRT
 70
     0
  9
$DIMTFAC
 40
1.0
  9
$DIMGAP
 40
0.09
  9
$DIMJUST
 70
     0
  9
$DIMSD1
 70
     0
  9
$DIMSD2
 70
     0
  9
$DIMTOLJ
 70
     1
  9
$DIMTZIN
 70
     0
  9
$DIMALTZ
 70
     0
  9
$DIMALTTZ
 70
     0
  9
$DIMFIT
 70
     3
  9
$DIMUPT
 70
     0
  9
$DIMUNIT
 70
     2
  9
$DIMDEC
 70
     4
  9
$DIMTDEC
 70
     4
  9
$DIMALTU
 70
     2
  9
$DIMALTTD
 70
     2
  9
$DIMTXSTY
  7
STANDARD
  9
$DIMAUNIT
 70
     0
  9
$LUNITS
 70
     2
  9
$LUPREC
 70
     4
  9
$SKETCHINC
 40
0.1
  9
$FILLETRAD
 40
0.5
  9
$AUNITS
 70
     0
  9
$AUPREC
 70
     0
  9
$MENU
  1
.
  9
$ELEVATION
 40
0.0
  9
$PELEVATION
 40
0.0
  9
$THICKNESS
 40
0.0
  9
$LIMCHECK
 70
     0
  9
$CHAMFERA
 40
0.5
  9
$CHAMFERB
 40
0.5
  9
$CHAMFERC
 40
1.0
  9
$CHAMFERD
 40
0.0
  9
$SKPOLY
 70
     0
  9
$TDCREATE
 40
2453762.545243518
  9
$TDUPDATE
 40
2453762.54524353
  9
$TDINDWG
 40
0.0000000116
  9
$TDUSRTIMER
 40
0.0000000116
  9
$USRTIMER
 70
     1
  9
$ANGBASE
 50
0.0
  9
$ANGDIR
 70
     0
  9
$PDMODE
 70
     0
  9
$PDSIZE
 40
0.0
  9
$PLINEWID
 40
0.0
  9
$COORDS
 70
     1
  9
$SPLFRAME
 70
     0
  9
$SPLINETYPE
 70
     6
  9
$SPLINESEGS
 70
     8
  9
$ATTDIA
 70
     0
  9
$ATTREQ
 70
     1
  9
$HANDLING
 70
     1
  9
$HANDSEED
  5
B4
  9
$SURFTAB1
 70
     6
  9
$SURFTAB2
 70
     6
  9
$SURFTYPE
 70
     6
  9
$SURFU
 70
     6
  9
$SURFV
 70
     6
  9
$UCSNAME
  2

  9
$UCSORG
 10
0.0
 20
0.0
 30
0.0
  9
$UCSXDIR
 10
1.0
 20
0.0
 30
0.0
  9
$UCSYDIR
 10
0.0
 20
1.0
 30
0.0
  9
$PUCSNAME
  2

  9
$PUCSORG
 10
0.0
 20
0.0
 30
0.0
  9
$PUCSXDIR
 10
1.0
 20
0.0
 30
0.0
  9
$PUCSYDIR
 10
0.0
 20
1.0
 30
0.0
  9
$USERI1
 70
     0
  9
$USERI2
 70
     0
  9
$USERI3
 70
     0
  9
$USERI4
 70
     0
  9
$USERI5
 70
     0
  9
$USERR1
 40
0.0
  9
$USERR2
 40
0.0
  9
$USERR3
 40
0.0
  9
$USERR4
 40
0.0
  9
$USERR5
 40
0.0
  9
$WORLDVIEW
 70
     1
  9
$SHADEDGE
 70
     3
  9
$SHADEDIF
 70
    70
  9
$TILEMODE
 70
     1
  9
$MAXACTVP
 70
    64
  9
$PINSBASE
 10
0.0
 20
0.0
 30
0.0
  9
$PLIMCHECK
 70
     0
  9
$PEXTMIN
 10
0.0
 20
0.0
 30
0.0
  9
$PEXTMAX
 10
210.0
 20
297.0
 30
0.0
  9
$PLIMMIN
 10
0.0
 20
0.0
  9
$PLIMMAX
 10
12.0
 20
9.0
  9
$UNITMODE
 70
     0
  9
$VISRETAIN
 70
     1
  9
$PLINEGEN
 70
     0
  9
$PSLTSCALE
 70
     1
  9
$TREEDEPTH
 70
  3020
  9
$PICKSTYLE
 70
     1
  9
$CMLSTYLE
  2
STANDARD
  9
$CMLJUST
 70
     0
  9
$CMLSCALE
 40
1.0
  9
$SAVEIMAGES
 70
     1
  0
ENDSEC
  0
SECTION
  2
CLASSES
  0
CLASS
  1
ACDBDICTIONARYWDFLT
  2
AcDbDictionaryWithDefault
  3
ObjectDBX Classes
 90
        0
280
     0
281
     0
  0
CLASS
  1
TABLESTYLE
  2
AcDbTableStyle
  3
ObjectDBX Classes
 90
     2047
280
     0
281
     0
  0
CLASS
  1
DICTIONARYVAR
  2
AcDbDictionaryVar
  3
ObjectDBX Classes
 90
        0
280
     0
281
     0
  0
CLASS
  1
XRECORD
  2
AcDbXrecord
  3
AutoCAD 2000
 90
    32768
280
     0
281
     0
  0
CLASS
  1
LWPOLYLINE
  2
AcDbPolyline
  3
AutoCAD 2000
 90
    32768
280
     0
281
     1
  0
CLASS
  1
HATCH
  2
AcDbHatch
  3
AutoCAD 2000
 90
    32768
280
     0
281
     1
  0
CLASS
  1
ACDBPLACEHOLDER
  2
AcDbPlaceHolder
  3
ObjectDBX Classes
 90
        0
280
     0
281
     0
  0
CLASS
  1
LAYOUT
  2
AcDbLayout
  3
ObjectDBX Classes
 90
        0
280
     0
281
     0
  0
ENDSEC
  0
SECTION
  2
TABLES
  0
TABLE
  2
VPORT
  5
8
330
0
100
AcDbSymbolTable
 70
     2
  0
VPORT
  5
29
102
{ACAD_XDICTIONARY
360
B2
102
}
330
8
100
AcDbSymbolTableRecord
100
AcDbViewportTableRecord
  2
*ACTIVE
 70
     0
 10
0.0
 20
0.0
 11
1.0
 21
1.0
 12
10.4299065421
 22
4.5
 13
0.0
 23
0.0
 14
0.5
 24
0.5
 15
0.5
 25
0.5
 16
0.0
 26
0.0
 36
1.0
 17
0.0
 27
0.0
 37
0.0
 40
9.0
 41
1.9729729729
 42
50.0
 43
0.0
 44
0.0
 50
0.0
 51
0.0
 71
     0
 72
   100
 73
     1
 74
     3
 75
     0
 76
     0
 77
     0
 78
     0
  0
ENDTAB
  0
TABLE
  2
LTYPE
  5
5
330
0
100
AcDbSymbolTable
 70
     2
  0
LTYPE
  5
14
330
5
100
AcDbSymbolTableRecord
100
AcDbLinetypeTableRecord
  2
BYBLOCK
 70
     0
  3

 72
    65
 73
     0
 40
0.0
  0
LTYPE
  5
15
330
5
100
AcDbSymbolTableRecord
100
AcDbLinetypeTableRecord
  2
BYLAYER
 70
     0
  3

 72
    65
 73
     0
 40
0.0
  0
LTYPE
  5
16
330
5
100
AcDbSymbolTableRecord
100
AcDbLinetypeTableRecord
  2
CONTINUOUS
 70
     0
  3
Solid line
 72
    65
 73
     0
 40
0.0
  0
LTYPE
  5
31
330
5
100
AcDbSymbolTableRecord
100
AcDbLinetypeTableRecord
  2
CENTER2
 70
     0
  3
___ _ ___ _ ___ _ ___ _ ___ _ ___ _ ___ _ ___ _
 72
    65
 73
     4
 40
1.125
 49
0.75
 74
     4
 75
     0
340
0
 46
0.0
 50
0.0
 44
0.0
 45
0.0
 49
-0.125
 74
     4
 75
     0
340
0
 46
0.0
 50
0.0
 44
0.0
 45
0.0
 49
0.125
 74
     4
 75
     0
340
0
 46
0.0
 50
0.0
 44
0.0
 45
0.0
 49
-0.125
 74
     4
 75
     0
340
0
 46
0.0
 50
0.0
 44
0.0
 45
0.0
  0
ENDTAB
  0
TABLE
  2
LAYER
  5
2
330
0
100
AcDbSymbolTable
 70
     3
  0
LAYER
  5
10
330
2
100
AcDbSymbolTableRecord
100
AcDbLayerTableRecord
  2
0
 70
     0
 62
     7
  6
CONTINUOUS
  0
LAYER
  5
30
330
2
100
AcDbSymbolTableRecord
100
AcDbLayerTableRecord
  2
DEFAULT
 70
     0
 62
     7
  6
CONTINUOUS
  0
LAYER
  5
37
330
2
100
AcDbSymbolTableRecord
100
AcDbLayerTableRecord
  2
MEGA_002171
 70
     0
 62
     7
  6
CONTINUOUS
  0
ENDTAB
  0
TABLE
  2
STYLE
  5
3
330
0
100
AcDbSymbolTable
 70
     3
  0
STYLE
  5
11
330
3
100
AcDbSymbolTableRecord
100
AcDbTextStyleTableRecord
  2
STANDARD
 70
     0
 40
0.0
 41
1.0
 50
0.0
 71
     0
 42
0.2
  3
txt
  4

  0
STYLE
  5
6A
330
3
100
AcDbSymbolTableRecord
100
AcDbTextStyleTableRecord
  2
SEACAD_SEISO_TTF
 70
     0
 40
0.2
 41
1.0
 50
0.0
 71
     0
 42
0.2
  3
seiso.ttf
  4

  0
STYLE
  5
6C
330
3
100
AcDbSymbolTableRecord
100
AcDbTextStyleTableRecord
  2
SEACAD_SEMECI1_TTF
 70
     0
 40
0.2
 41
1.0
 50
0.0
 71
     0
 42
0.2
  3
semeci1.ttf
  4

  0
ENDTAB
  0
TABLE
  2
VIEW
  5
6
330
0
100
AcDbSymbolTable
 70
     0
  0
ENDTAB
  0
TABLE
  2
UCS
  5
7
330
0
100
AcDbSymbolTable
 70
     0
  0
ENDTAB
  0
TABLE
  2
APPID
  5
9
330
0
100
AcDbSymbolTable
 70
     1
  0
APPID
  5
12
330
9
100
AcDbSymbolTableRecord
100
AcDbRegAppTableRecord
  2
ACAD
 70
     0
  0
ENDTAB
  0
TABLE
  2
DIMSTYLE
  5
A
330
0
100
AcDbSymbolTable
 70
     1
  0
DIMSTYLE
105
27
330
A
100
AcDbSymbolTableRecord
100
AcDbDimStyleTableRecord
  2
STANDARD
 70
     0
  3

  4

  5

  6

  7

 40
1.0
 41
0.18
 42
0.0625
 43
0.38
 44
0.18
 45
0.0
 46
0.0
 47
0.0
 48
0.0
140
0.18
141
0.09
142
0.0
143
25.4
144
1.0
145
0.0
146
1.0
147
0.09
 71
     0
 72
     0
 73
     1
 74
     1
 75
     0
 76
     0
 77
     0
 78
     0
170
     0
171
     2
172
     0
173
     0
174
     0
175
     0
176
     0
177
     0
178
     0
270
     2
271
     4
272
     4
273
     2
274
     2
340
11
275
     0
280
     0
281
     0
282
     0
283
     1
284
     0
285
     0
286
     0
287
     3
288
     0
  0
ENDTAB
  0
TABLE
  2
BLOCK_RECORD
  5
1
330
0
100
AcDbSymbolTable
 70
     7
  0
BLOCK_RECORD
  5
1F
330
1
100
AcDbSymbolTableRecord
100
AcDbBlockTableRecord
  2
*MODEL_SPACE
  0
BLOCK_RECORD
  5
1B
330
1
100
AcDbSymbolTableRecord
100
AcDbBlockTableRecord
  2
*PAPER_SPACE
  0
BLOCK_RECORD
  5
2E
330
1
100
AcDbSymbolTableRecord
100
AcDbBlockTableRecord
  2
SE
  0
BLOCK_RECORD
  5
35
330
1
100
AcDbSymbolTableRecord
100
AcDbBlockTableRecord
  2
SE1
  0
BLOCK_RECORD
  5
64
330
1
100
AcDbSymbolTableRecord
100
AcDbBlockTableRecord
  2
SE2
  0
BLOCK_RECORD
  5
70
330
1
100
AcDbSymbolTableRecord
100
AcDbBlockTableRecord
  2
SE3
  0
BLOCK_RECORD
  5
7B
330
1
100
AcDbSymbolTableRecord
100
AcDbBlockTableRecord
  2
SE4
  0
BLOCK_RECORD
  5
85
330
1
100
AcDbSymbolTableRecord
100
AcDbBlockTableRecord
  2
SE5
  0
ENDTAB
  0
ENDSEC
  0
SECTION
  2
BLOCKS
  0
BLOCK
  5
20
330
1F
100
AcDbEntity
  8
0
100
AcDbBlockBegin
  2
*MODEL_SPACE
 70
     0
 71
     0
 10
0.0
 20
0.0
 30
0.0
  3
*MODEL_SPACE
  1

  0
ENDBLK
  5
21
330
1F
100
AcDbEntity
  8
0
100
AcDbBlockEnd
  0
BLOCK
  5
1C
330
1B
100
AcDbEntity
 67
     1
  8
0
100
AcDbBlockBegin
  2
*PAPER_SPACE
 70
     0
 71
     0
 10
0.0
 20
0.0
 30
0.0
  3
*PAPER_SPACE
  1

  0
ENDBLK
  5
1D
330
1B
100
AcDbEntity
 67
     1
  8
0
100
AcDbBlockEnd
  0
BLOCK
  5
33
330
2E
100
AcDbEntity
  8
0
100
AcDbBlockBegin
  2
SE
 70
     0
 71
     0
 10
0.0
 20
0.0
 30
0.0
  3
SE
  1

  0
LINE
  5
32
330
2E
100
AcDbEntity
  8
DEFAULT
  6
CENTER2
 62
     7
 48
25.4
100
AcDbLine
 10
98.6336426119
 20
169.552783466
 30
0.0
 11
98.6336426119
 21
218.2315534991
 31
0.0
  0
ENDBLK
  5
34
330
2E
100
AcDbEntity
  8
0
100
AcDbBlockEnd
  0
BLOCK
  5
62
330
35
100
AcDbEntity
  8
0
100
AcDbBlockBegin
  2
SE1
 70
     0
 71
     0
 10
0.0
 20
0.0
 30
0.0
  3
SE1
  1

  0
LINE
  5
38
330
35
100
AcDbEntity
  8
MEGA_002171
  6
CONTINUOUS
 62
     7
 48
25.4
100
AcDbLine
 10
91.1340212127
 20
212.8743651101
 30
0.0
 11
91.1340212127
 21
208.0743651101
 31
0.0
  0
LINE
  5
39
330
35
100
AcDbEntity
  8
MEGA_002171
  6
CONTINUOUS
 62
     7
 48
25.4
100
AcDbLine
 10
106.1332640111
 20
208.0743651101
 30
0.0
 11
106.1332640111
 21
212.8743651101
 31
0.0
  0
LINE
  5
3A
330
35
100
AcDbEntity
  8
MEGA_002171
  6
CONTINUOUS
 62
     7
 48
25.4
100
AcDbLine
 10
90.1390212127
 20
208.0743651101
 30
0.0
 11
107.1282640111
 21
208.0743651101
 31
0.0
  0
LINE
  5
3B
330
35
100
AcDbEntity
  8
MEGA_002171
  6
CONTINUOUS
 62
     7
 48
25.4
100
AcDbLine
 10
104.6673997987
 20
187.1226276384
 30
0.0
 11
107.1282640111
 21
208.0743651101
 31
0.0
  0
LINE
  5
3C
330
35
100
AcDbEntity
  8
MEGA_002171
  6
CONTINUOUS
 62
     7
 48
25.4
100
AcDbLine
 10
90.1390212127
 20
208.0743651101
 30
0.0
 11
92.5998854251
 21
187.1226276384
 31
0.0
  0
LINE
  5
3D
330
35
100
AcDbEntity
  8
MEGA_002171
  6
CONTINUOUS
 62
     7
 48
25.4
100
AcDbLine
 10
128.6336426119
 20
182.1032159423
 30
0.0
 11
128.6336426119
 21
182.1466819176
 31
0.0
  0
ARC
  5
3E
330
35
100
AcDbEntity
  8
MEGA_002171
  6
CONTINUOUS
 62
     7
 48
25.4
100
AcDbCircle
 10
83.1191215872
 20
205.2260065741
 30
0.0
 40
25.0
100
AcDbArc
 50
252.6285871849
 51
270.0308318022
  0
ARC
  5
3F
330
35
100
AcDbEntity
  8
MEGA_002171
  6
CONTINUOUS
 62
     7
 48
25.4
100
AcDbCircle
 10
114.1489208387
 20
205.2260065744
 30
0.0
 40
25.00000000000001
100
AcDbArc
 50
269.9683033027
 51
288.0980087103
  0
ARC
  5
40
330
35
100
AcDbEntity
  8
MEGA_002171
  6
CONTINUOUS
 62
     7
 48
25.4
100
AcDbCircle
 10
111.4222076519
 20
187.4336159492
 30
0.0
 40
7.0
100
AcDbArc
 50
206.5593328053
 51
261.289498268
  0
ARC
  5
41
330
35
100
AcDbEntity
  8
MEGA_002171
  6
CONTINUOUS
 62
     7
 48
25.4
100
AcDbCircle
 10
83.1191215979
 20
205.2260065707
 30
0.0
 40
25.0
100
AcDbArc
 50
270.0
 51
278.710501732
  0
ARC
  5
42
330
35
100
AcDbEntity
  8
MEGA_002171
  6
CONTINUOUS
 62
     7
 48
25.4
100
AcDbCircle
 10
114.1481636259
 20
205.2260065707
 30
0.0
 40
25.0
100
AcDbArc
 50
261.289498268
 51
270.0
  0
ARC
  5
43
330
35
100
AcDbEntity
  8
MEGA_002171
  6
CONTINUOUS
 62
     7
 48
25.4
100
AcDbCircle
 10
85.683934957
 20
192.0789918122
 30
0.0
 40
19.9502418509
100
AcDbArc
 50
248.1776771179
 51
260.7100074489
  0
ARC
  5
44
330
35
100
AcDbEntity
  8
MEGA_002171
  6
CONTINUOUS
 62
     7
 48
25.4
100
AcDbCircle
 10
85.6974592094
 20
192.1275737339
 30
0.0
 40
20.0003705657
100
AcDbArc
 50
215.8293862553
 51
248.1934452465
  0
ARC
  5
45
330
35
100
AcDbEntity
  8
MEGA_002171
  6
CONTINUOUS
 62
     7
 48
25.4
100
AcDbCircle
 10
70.1340212127
 20
182.1254185266
 30
0.0
 40
1.5
100
AcDbArc
 50
134.5506776763
 51
212.7276399181
  0
ARC
  5
46
330
35
100
AcDbEntity
  8
MEGA_002171
  6
CONTINUOUS
 62
     7
 48
25.4
100
AcDbCircle
 10
85.6974592086
 20
192.1275737333
 30
0.0
 40
20.00037056469999
100
AcDbArc
 50
212.727639918
 51
215.8293862553
  0
ARC
  5
47
330
35
100
AcDbEntity
  8
MEGA_002171
  6
CONTINUOUS
 62
     7
 48
25.4
100
AcDbCircle
 10
85.8450775719
 20
187.4336159492
 30
0.0
 40
7.0
100
AcDbArc
 50
278.710501732
 51
333.4406671947
  0
ARC
  5
48
330
35
100
AcDbEntity
  8
MEGA_002171
  6
CONTINUOUS
 62
     7
 48
25.4
100
AcDbCircle
 10
109.6332640111
 20
186.5393672982
 30
0.0
 40
5.0
100
AcDbArc
 50
173.3010770135
 51
206.5593328053
  0
ARC
  5
49
330
35
100
AcDbEntity
  8
MEGA_002171
  6
CONTINUOUS
 62
     7
 48
25.4
100
AcDbCircle
 10
111.5844169006
 20
192.0788004574
 30
0.0
 40
19.94988045949999
100
AcDbArc
 50
279.2907287607
 51
291.8220169031
  0
LINE
  5
4A
330
35
100
AcDbEntity
  8
MEGA_002171
  6
CONTINUOUS
 62
     7
 48
25.4
100
AcDbLine
 10
106.1332640111
 20
214.0743651101
 30
0.0
 11
106.1332640111
 21
215.5743651101
 31
0.0
  0
LINE
  5
4B
330
35
100
AcDbEntity
  8
MEGA_002171
  6
CONTINUOUS
 62
     7
 48
25.4
100
AcDbLine
 10
106.1332640111
 20
215.5743651101
 30
0.0
 11
91.1340212127
 21
215.5743651101
 31
0.0
  0
ARC
  5
4C
330
35
100
AcDbEntity
  8
MEGA_002171
  6
CONTINUOUS
 62
     7
 48
25.4
100
AcDbCircle
 10
127.133342499
 20
182.6254180659
 30
0.0
 40
0.9999999999999857
100
AcDbArc
 50
90.0777748962
 51
118.4933590464
  0
LINE
  5
4D
330
35
100
AcDbEntity
  8
MEGA_002171
  6
CONTINUOUS
 62
     7
 48
25.4
100
AcDbLine
 10
91.1340212127
 20
214.0743651101
 30
0.0
 11
106.1332640111
 21
214.0743651101
 31
0.0
  0
LINE
  5
4E
330
35
100
AcDbEntity
  8
MEGA_002171
  6
CONTINUOUS
 62
     7
 48
25.4
100
AcDbLine
 10
91.1340212127
 20
212.8743651101
 30
0.0
 11
106.1332640111
 21
212.8743651101
 31
0.0
  0
ARC
  5
4F
330
35
100
AcDbEntity
  8
MEGA_002171
  6
CONTINUOUS
 62
     7
 48
25.4
100
AcDbCircle
 10
87.6340212127
 20
186.5393672982
 30
0.0
 40
5.0
100
AcDbArc
 50
333.4406671947
 51
6.6989229865
  0
LINE
  5
50
330
35
100
AcDbEntity
  8
MEGA_002171
  6
CONTINUOUS
 62
     7
 48
25.4
100
AcDbLine
 10
91.1340212127
 20
215.5743651101
 30
0.0
 11
91.1340212127
 21
214.0743651101
 31
0.0
  0
ARC
  5
51
330
35
100
AcDbEntity
  8
MEGA_002171
  6
CONTINUOUS
 62
     7
 48
25.4
100
AcDbCircle
 10
70.1340212127
 20
182.1254185266
 30
0.0
 40
1.5
100
AcDbArc
 50
80.3937269029
 51
128.6611812918
  0
LINE
  5
52
330
35
100
AcDbEntity
  8
MEGA_002171
  6
CONTINUOUS
 62
     7
 48
25.4
100
AcDbLine
 10
69.0817114309
 20
183.1943638586
 30
0.0
 11
69.1969505725
 21
183.2966992851
 31
0.0
  0
ARC
  5
53
330
35
100
AcDbEntity
  8
MEGA_002171
  6
CONTINUOUS
 62
     7
 48
25.4
100
AcDbCircle
 10
70.3008979114
 20
183.1113962988
 30
0.0
 40
0.5
100
AcDbArc
 50
61.1963653811
 51
80.3937269031
  0
ARC
  5
54
330
35
100
AcDbEntity
  8
MEGA_002171
  6
CONTINUOUS
 62
     7
 48
25.4
100
AcDbCircle
 10
82.985081771
 20
206.0182473675
 30
0.0
 40
25.6825261605
100
AcDbArc
 50
241.0223365882
 51
246.9165201749
  0
ARC
  5
55
330
35
100
AcDbEntity
  8
MEGA_002171
  6
CONTINUOUS
 62
     7
 48
25.4
100
AcDbCircle
 10
98.633646168
 20
270.5178928846
 30
0.0
 40
99.4508925343
100
AcDbArc
 50
260.6423960218
 51
279.3583362726
  0
LINE
  5
56
330
35
100
AcDbEntity
  8
MEGA_002171
  6
CONTINUOUS
 62
     7
 48
25.4
100
AcDbLine
 10
122.0549646118
 20
181.5132695041
 30
0.0
 11
121.9322668103
 21
181.4725263604
 31
0.0
  0
ARC
  5
57
330
35
100
AcDbEntity
  8
MEGA_002171
  6
CONTINUOUS
 62
     7
 48
25.4
100
AcDbCircle
 10
127.1340208458
 20
182.1254179557
 30
0.0
 40
1.5
100
AcDbArc
 50
327.2723860034
 51
357.7708104095
  0
ARC
  5
58
330
35
100
AcDbEntity
  8
MEGA_002171
  6
CONTINUOUS
 62
     7
 48
25.4
100
AcDbCircle
 10
127.1340212127
 20
182.1254185266
 30
0.0
 40
1.500000000000014
100
AcDbArc
 50
41.1489454944
 51
90.0777748928
  0
ARC
  5
59
330
35
100
AcDbEntity
  8
MEGA_002171
  6
CONTINUOUS
 62
     7
 48
25.4
100
AcDbCircle
 10
127.5826714802
 20
182.1451235031
 30
0.0
 40
1.050891697599994
100
AcDbArc
 50
0.084252541
 51
5.0643312792
  0
ARC
  5
5A
330
35
100
AcDbEntity
  8
MEGA_002171
  6
CONTINUOUS
 62
     7
 48
25.4
100
AcDbCircle
 10
127.6878369721
 20
182.0991461859
 30
0.0
 40
0.9455764793000014
100
AcDbArc
 50
355.6002166378
 51
0.2468099536
  0
LINE
  5
5B
330
35
100
AcDbEntity
  8
MEGA_002171
  6
CONTINUOUS
 62
     7
 48
25.4
100
AcDbLine
 10
121.945583711
 20
181.4728584029
 30
0.0
 11
121.9150057081
 21
181.4628433632
 31
0.0
  0
LINE
  5
5C
330
35
100
AcDbEntity
  8
MEGA_002171
  6
CONTINUOUS
 62
     7
 48
25.4
100
AcDbLine
 10
122.1895915288
 20
181.5579738407
 30
0.0
 11
122.0549646118
 21
181.5132695041
 31
0.0
  0
ARC
  5
5D
330
35
100
AcDbEntity
  8
MEGA_002171
  6
CONTINUOUS
 62
     7
 48
25.4
100
AcDbCircle
 10
111.5708949545
 20
192.1273733889
 30
0.0
 40
20.0
100
AcDbArc
 50
291.8062526896
 51
321.477280128
  0
ARC
  5
5E
330
35
100
AcDbEntity
  8
MEGA_002171
  6
CONTINUOUS
 62
     7
 48
25.4
100
AcDbCircle
 10
111.5708949545
 20
192.1273733889
 30
0.0
 40
20.0
100
AcDbArc
 50
321.477280128
 51
327.2723600819
  0
ARC
  5
5F
330
35
100
AcDbEntity
  8
MEGA_002171
  6
CONTINUOUS
 62
     7
 48
25.4
100
AcDbCircle
 10
113.4819579997
 20
207.5751185573
 30
0.0
 40
27.43564653659999
100
AcDbArc
 50
288.5047900765
 51
298.6925725756
  0
LINE
  5
60
330
35
100
AcDbEntity
  8
MEGA_002171
  6
CONTINUOUS
 62
     7
 48
25.4
100
AcDbLine
 10
105.5336426119
 20
212.8743651101
 30
0.0
 11
105.5336426119
 21
214.0743651101
 31
0.0
  0
LINE
  5
61
330
35
100
AcDbEntity
  8
MEGA_002171
  6
CONTINUOUS
 62
     7
 48
25.4
100
AcDbLine
 10
91.7336426119
 20
214.0743651101
 30
0.0
 11
91.7336426119
 21
212.8743651101
 31
0.0
  0
ENDBLK
  5
63
330
35
100
AcDbEntity
  8
0
100
AcDbBlockEnd
  0
BLOCK
  5
6E
330
64
100
AcDbEntity
  8
0
100
AcDbBlockBegin
  2
SE2
 70
     0
 71
     0
 10
0.0
 20
0.0
 30
0.0
  3
SE2
  1

  0
POLYLINE
  5
66
330
64
100
AcDbEntity
  8
DEFAULT
  6
CONTINUOUS
 62
     7
 48
25.4
100
AcDb2dPolyline
 66
     1
 10
0.0
 20
0.0
 30
0.0
 70
     1
  0
VERTEX
  5
90
330
66
100
AcDbEntity
  8
DEFAULT
  6
CONTINUOUS
 62
     7
100
AcDbVertex
100
AcDb2dVertex
 10
103.133263985
 20
231.5359469437
 30
0.0
  0
VERTEX
  5
91
330
66
100
AcDbEntity
  8
DEFAULT
  6
CONTINUOUS
 62
     7
100
AcDbVertex
100
AcDb2dVertex
 10
106.1332640111
 20
231.0359469393
 30
0.0
  0
VERTEX
  5
92
330
66
100
AcDbEntity
  8
DEFAULT
  6
CONTINUOUS
 62
     7
100
AcDbVertex
100
AcDb2dVertex
 10
103.133263985
 20
230.535946935
 30
0.0
  0
VERTEX
  5
93
330
66
100
AcDbEntity
  8
DEFAULT
  6
CONTINUOUS
 62
     7
100
AcDbVertex
100
AcDb2dVertex
 10
103.133263985
 20
231.5359469437
 30
0.0
  0
SEQEND
  5
8F
330
66
100
AcDbEntity
  8
DEFAULT
  6
CONTINUOUS
 62
     7
 48
25.4
  0
LINE
  5
67
330
64
100
AcDbEntity
  8
DEFAULT
  6
CONTINUOUS
 62
     7
 48
25.4
100
AcDbLine
 10
91.1340212127
 20
212.8743651101
 30
0.0
 11
91.1340212127
 21
232.5359469524
 31
0.0
  0
LINE
  5
68
330
64
100
AcDbEntity
  8
DEFAULT
  6
CONTINUOUS
 62
     7
 48
25.4
100
AcDbLine
 10
106.1332640111
 20
212.8743651101
 30
0.0
 11
106.1332640111
 21
232.5359469524
 31
0.0
  0
LINE
  5
69
330
64
100
AcDbEntity
  8
DEFAULT
  6
CONTINUOUS
 62
     7
 48
25.4
100
AcDbLine
 10
91.1340212127
 20
231.0359469393
 30
0.0
 11
106.1332637122
 21
231.0359469393
 31
0.0
  0
TEXT
  5
6B
330
64
100
AcDbEntity
  8
DEFAULT
  6
CONTINUOUS
 62
     7
 48
25.4
100
AcDbText
 10
98.9880390484
 20
231.7859469393
 30
0.0
 40
3.0
  1
15
  7
SEACAD_SEISO_TTF
 11
98.9880390484
 21
234.7859469393
 31
0.0
100
AcDbText
 73
     3
  0
TEXT
  5
6D
330
64
100
AcDbEntity
  8
DEFAULT
  6
CONTINUOUS
 62
     7
 48
25.4
100
AcDbText
 10
95.3474276947
 20
231.7859469393
 30
0.0
 40
3.0
  1
O
  7
SEACAD_SEMECI1_TTF
 11
95.3474276947
 21
234.7859469393
 31
0.0
100
AcDbText
 73
     3
  0
ENDBLK
  5
6F
330
64
100
AcDbEntity
  8
0
100
AcDbBlockEnd
  0
BLOCK
  5
79
330
70
100
AcDbEntity
  8
0
100
AcDbBlockBegin
  2
SE3
 70
     0
 71
     0
 10
0.0
 20
0.0
 30
0.0
  3
SE3
  1

  0
POLYLINE
  5
72
330
70
100
AcDbEntity
  8
DEFAULT
  6
CONTINUOUS
 62
     7
 48
25.4
100
AcDb2dPolyline
 66
     1
 10
0.0
 20
0.0
 30
0.0
 70
     1
  0
VERTEX
  5
95
330
72
100
AcDbEntity
  8
DEFAULT
  6
CONTINUOUS
 62
     7
100
AcDbVertex
100
AcDb2dVertex
 10
92.1336425858
 20
223.1468613424
 30
0.0
  0
VERTEX
  5
96
330
72
100
AcDbEntity
  8
DEFAULT
  6
CONTINUOUS
 62
     7
100
AcDbVertex
100
AcDb2dVertex
 10
95.1336426119
 20
222.646861338
 30
0.0
  0
VERTEX
  5
97
330
72
100
AcDbEntity
  8
DEFAULT
  6
CONTINUOUS
 62
     7
100
AcDbVertex
100
AcDb2dVertex
 10
92.1336425858
 20
222.1468613337
 30
0.0
  0
VERTEX
  5
98
330
72
100
AcDbEntity
  8
DEFAULT
  6
CONTINUOUS
 62
     7
100
AcDbVertex
100
AcDb2dVertex
 10
92.1336425858
 20
223.1468613424
 30
0.0
  0
SEQEND
  5
94
330
72
100
AcDbEntity
  8
DEFAULT
  6
CONTINUOUS
 62
     7
 48
25.4
  0
POLYLINE
  5
73
330
70
100
AcDbEntity
  8
DEFAULT
  6
CONTINUOUS
 62
     7
 48
25.4
100
AcDb2dPolyline
 66
     1
 10
0.0
 20
0.0
 30
0.0
 70
     1
  0
VERTEX
  5
9A
330
73
100
AcDbEntity
  8
DEFAULT
  6
CONTINUOUS
 62
     7
100
AcDbVertex
100
AcDb2dVertex
 10
105.133642638
 20
223.1468613424
 30
0.0
  0
VERTEX
  5
9B
330
73
100
AcDbEntity
  8
DEFAULT
  6
CONTINUOUS
 62
     7
100
AcDbVertex
100
AcDb2dVertex
 10
102.1336426119
 20
222.646861338
 30
0.0
  0
VERTEX
  5
9C
330
73
100
AcDbEntity
  8
DEFAULT
  6
CONTINUOUS
 62
     7
100
AcDbVertex
100
AcDb2dVertex
 10
105.133642638
 20
222.1468613337
 30
0.0
  0
VERTEX
  5
9D
330
73
100
AcDbEntity
  8
DEFAULT
  6
CONTINUOUS
 62
     7
100
AcDbVertex
100
AcDb2dVertex
 10
105.133642638
 20
223.1468613424
 30
0.0
  0
SEQEND
  5
99
330
73
100
AcDbEntity
  8
DEFAULT
  6
CONTINUOUS
 62
     7
 48
25.4
  0
LINE
  5
74
330
70
100
AcDbEntity
  8
DEFAULT
  6
CONTINUOUS
 62
     7
 48
25.4
100
AcDbLine
 10
95.1336426119
 20
215.5743651101
 30
0.0
 11
95.1336426119
 21
224.1468613511
 31
0.0
  0
LINE
  5
75
330
70
100
AcDbEntity
  8
DEFAULT
  6
CONTINUOUS
 62
     7
 48
25.4
100
AcDbLine
 10
102.1336426119
 20
215.5743651101
 30
0.0
 11
102.1336426119
 21
224.1468613511
 31
0.0
  0
LINE
  5
76
330
70
100
AcDbEntity
  8
DEFAULT
  6
CONTINUOUS
 62
     7
 48
25.4
100
AcDbLine
 10
89.1336425597
 20
222.646861338
 30
0.0
 11
108.1336428801
 21
222.646861338
 31
0.0
  0
TEXT
  5
77
330
70
100
AcDbEntity
  8
DEFAULT
  6
CONTINUOUS
 62
     7
 48
25.4
100
AcDbText
 10
99.5321540339
 20
223.396861338
 30
0.0
 40
3.0
  1
7
  7
SEACAD_SEISO_TTF
 11
99.5321540339
 21
226.396861338
 31
0.0
100
AcDbText
 73
     3
  0
TEXT
  5
78
330
70
100
AcDbEntity
  8
DEFAULT
  6
CONTINUOUS
 62
     7
 48
25.4
100
AcDbText
 10
95.8260404968
 20
223.396861338
 30
0.0
 40
3.0
  1
q
  7
SEACAD_SEMECI1_TTF
 11
95.8260404968
 21
226.396861338
 31
0.0
100
AcDbText
 73
     3
  0
ENDBLK
  5
7A
330
70
100
AcDbEntity
  8
0
100
AcDbBlockEnd
  0
BLOCK
  5
83
330
7B
100
AcDbEntity
  8
0
100
AcDbBlockBegin
  2
SE4
 70
     0
 71
     0
 10
0.0
 20
0.0
 30
0.0
  3
SE4
  1

  0
POLYLINE
  5
7D
330
7B
100
AcDbEntity
  8
DEFAULT
  6
CONTINUOUS
 62
     7
 48
25.4
100
AcDb2dPolyline
 66
     1
 10
0.0
 20
0.0
 30
0.0
 70
     1
  0
VERTEX
  5
9F
330
7D
100
AcDbEntity
  8
DEFAULT
  6
CONTINUOUS
 62
     7
100
AcDbVertex
100
AcDb2dVertex
 10
151.3947514052
 20
205.074365084
 30
0.0
  0
VERTEX
  5
A0
330
7D
100
AcDbEntity
  8
DEFAULT
  6
CONTINUOUS
 62
     7
100
AcDbVertex
100
AcDb2dVertex
 10
150.8947514009
 20
208.0743651101
 30
0.0
  0
VERTEX
  5
A1
330
7D
100
AcDbEntity
  8
DEFAULT
  6
CONTINUOUS
 62
     7
100
AcDbVertex
100
AcDb2dVertex
 10
150.3947513965
 20
205.074365084
 30
0.0
  0
VERTEX
  5
A2
330
7D
100
AcDbEntity
  8
DEFAULT
  6
CONTINUOUS
 62
     7
100
AcDbVertex
100
AcDb2dVertex
 10
151.3947514052
 20
205.074365084
 30
0.0
  0
SEQEND
  5
9E
330
7D
100
AcDbEntity
  8
DEFAULT
  6
CONTINUOUS
 62
     7
 48
25.4
  0
POLYLINE
  5
7E
330
7B
100
AcDbEntity
  8
DEFAULT
  6
CONTINUOUS
 62
     7
 48
25.4
100
AcDb2dPolyline
 66
     1
 10
0.0
 20
0.0
 30
0.0
 70
     1
  0
VERTEX
  5
A4
330
7E
100
AcDbEntity
  8
DEFAULT
  6
CONTINUOUS
 62
     7
100
AcDbVertex
100
AcDb2dVertex
 10
151.3947514052
 20
174.0670003764
 30
0.0
  0
VERTEX
  5
A5
330
7E
100
AcDbEntity
  8
DEFAULT
  6
CONTINUOUS
 62
     7
100
AcDbVertex
100
AcDb2dVertex
 10
150.8947514009
 20
171.0670003503
 30
0.0
  0
VERTEX
  5
A6
330
7E
100
AcDbEntity
  8
DEFAULT
  6
CONTINUOUS
 62
     7
100
AcDbVertex
100
AcDb2dVertex
 10
150.3947513965
 20
174.0670003764
 30
0.0
  0
VERTEX
  5
A7
330
7E
100
AcDbEntity
  8
DEFAULT
  6
CONTINUOUS
 62
     7
100
AcDbVertex
100
AcDb2dVertex
 10
151.3947514052
 20
174.0670003764
 30
0.0
  0
SEQEND
  5
A3
330
7E
100
AcDbEntity
  8
DEFAULT
  6
CONTINUOUS
 62
     7
 48
25.4
  0
LINE
  5
7F
330
7B
100
AcDbEntity
  8
DEFAULT
  6
CONTINUOUS
 62
     7
 48
25.4
100
AcDbLine
 10
107.1282640111
 20
208.0743651101
 30
0.0
 11
152.3947514139
 21
208.0743651101
 31
0.0
  0
LINE
  5
80
330
7B
100
AcDbEntity
  8
DEFAULT
  6
CONTINUOUS
 62
     7
 48
25.4
100
AcDbLine
 10
98.633646168
 20
171.0670003503
 30
0.0
 11
152.3947514139
 21
171.0670003503
 31
0.0
  0
LINE
  5
81
330
7B
100
AcDbEntity
  8
DEFAULT
  6
CONTINUOUS
 62
     7
 48
25.4
100
AcDbLine
 10
150.8947514009
 20
208.0743651101
 30
0.0
 11
150.8947514009
 21
171.0669997344
 31
0.0
  0
TEXT
  5
82
330
7B
100
AcDbEntity
  8
DEFAULT
  6
CONTINUOUS
 62
     7
 48
25.4
100
AcDbText
 10
150.1447514009
 20
187.8320460586
 30
0.0
 40
3.0
  1
37
 50
90.0
  7
SEACAD_SEISO_TTF
 11
147.1447514009
 21
187.8320460586
 31
0.0
100
AcDbText
 73
     3
  0
ENDBLK
  5
84
330
7B
100
AcDbEntity
  8
0
100
AcDbBlockEnd
  0
BLOCK
  5
8D
330
85
100
AcDbEntity
  8
0
100
AcDbBlockBegin
  2
SE5
 70
     0
 71
     0
 10
0.0
 20
0.0
 30
0.0
  3
SE5
  1

  0
POLYLINE
  5
87
330
85
100
AcDbEntity
  8
DEFAULT
  6
CONTINUOUS
 62
     7
 48
25.4
100
AcDb2dPolyline
 66
     1
 10
0.0
 20
0.0
 30
0.0
 70
     1
  0
VERTEX
  5
A9
330
87
100
AcDbEntity
  8
DEFAULT
  6
CONTINUOUS
 62
     7
100
AcDbVertex
100
AcDb2dVertex
 10
71.6841895836
 20
156.0347701841
 30
0.0
  0
VERTEX
  5
AA
330
87
100
AcDbEntity
  8
DEFAULT
  6
CONTINUOUS
 62
     7
100
AcDbVertex
100
AcDb2dVertex
 10
68.6832337339
 20
156.5290010503
 30
0.0
  0
VERTEX
  5
AB
330
87
100
AcDbEntity
  8
DEFAULT
  6
CONTINUOUS
 62
     7
100
AcDbVertex
100
AcDb2dVertex
 10
71.6822668456
 20
157.0347683443
 30
0.0
  0
VERTEX
  5
AC
330
87
100
AcDbEntity
  8
DEFAULT
  6
CONTINUOUS
 62
     7
100
AcDbVertex
100
AcDb2dVertex
 10
71.6841895836
 20
156.0347701841
 30
0.0
  0
SEQEND
  5
A8
330
87
100
AcDbEntity
  8
DEFAULT
  6
CONTINUOUS
 62
     7
 48
25.4
  0
POLYLINE
  5
88
330
85
100
AcDbEntity
  8
DEFAULT
  6
CONTINUOUS
 62
     7
 48
25.4
100
AcDb2dPolyline
 66
     1
 10
0.0
 20
0.0
 30
0.0
 70
     1
  0
VERTEX
  5
AE
330
88
100
AcDbEntity
  8
DEFAULT
  6
CONTINUOUS
 62
     7
100
AcDbVertex
100
AcDb2dVertex
 10
125.6796373565
 20
156.1385894717
 30
0.0
  0
VERTEX
  5
AF
330
88
100
AcDbEntity
  8
DEFAULT
  6
CONTINUOUS
 62
     7
100
AcDbVertex
100
AcDb2dVertex
 10
128.6786704682
 20
156.6443567657
 30
0.0
  0
VERTEX
  5
B0
330
88
100
AcDbEntity
  8
DEFAULT
  6
CONTINUOUS
 62
     7
100
AcDbVertex
100
AcDb2dVertex
 10
125.6777146186
 20
157.138587632
 30
0.0
  0
VERTEX
  5
B1
330
88
100
AcDbEntity
  8
DEFAULT
  6
CONTINUOUS
 62
     7
100
AcDbVertex
100
AcDb2dVertex
 10
125.6796373565
 20
156.1385894717
 30
0.0
  0
SEQEND
  5
AD
330
88
100
AcDbEntity
  8
DEFAULT
  6
CONTINUOUS
 62
     7
 48
25.4
  0
LINE
  5
89
330
85
100
AcDbEntity
  8
DEFAULT
  6
CONTINUOUS
 62
     7
 48
25.4
100
AcDbLine
 10
68.6340239854
 20
182.1225344197
 30
0.0
 11
68.6861178408
 21
155.02900381
 31
0.0
  0
LINE
  5
8A
330
85
100
AcDbEntity
  8
DEFAULT
  6
CONTINUOUS
 62
     7
 48
25.4
100
AcDbLine
 10
128.6294607197
 20
182.2378901351
 30
0.0
 11
128.6815545752
 21
155.1443595254
 31
0.0
  0
LINE
  5
8B
330
85
100
AcDbEntity
  8
DEFAULT
  6
CONTINUOUS
 62
     7
 48
25.4
100
AcDbLine
 10
68.6832337339
 20
156.5290010503
 30
0.0
 11
128.6786697714
 21
156.6443567644
 31
0.0
  0
TEXT
  5
8C
330
85
100
AcDbEntity
  8
DEFAULT
  6
CONTINUOUS
 62
     7
 48
25.4
100
AcDbText
 10
96.8726948572
 20
157.3332034832
 30
0.0
 40
3.0
  1
60
 50
0.1101648367
  7
SEACAD_SEISO_TTF
 11
96.8669266434
 21
160.3331979378
 31
0.0
100
AcDbText
 73
     3
  0
ENDBLK
  5
8E
330
85
100
AcDbEntity
  8
0
100
AcDbBlockEnd
  0
ENDSEC
  0
SECTION
  2
ENTITIES
  0
INSERT
  5
2F
330
1F
100
AcDbEntity
  8
0
100
AcDbBlockReference
  2
SE
 10
0.0
 20
0.0
 30
0.0
  0
INSERT
  5
36
330
1F
100
AcDbEntity
  8
0
100
AcDbBlockReference
  2
SE1
 10
0.0
 20
0.0
 30
0.0
  0
INSERT
  5
65
330
1F
100
AcDbEntity
  8
0
100
AcDbBlockReference
  2
SE2
 10
0.0
 20
0.0
 30
0.0
  0
INSERT
  5
71
330
1F
100
AcDbEntity
  8
0
100
AcDbBlockReference
  2
SE3
 10
0.0
 20
0.0
 30
0.0
  0
INSERT
  5
7C
330
1F
100
AcDbEntity
  8
0
100
AcDbBlockReference
  2
SE4
 10
0.0
 20
0.0
 30
0.0
  0
INSERT
  5
86
330
1F
100
AcDbEntity
  8
0
100
AcDbBlockReference
  2
SE5
 10
0.0
 20
0.0
 30
0.0
  0
ENDSEC
  0
SECTION
  2
OBJECTS
  0
DICTIONARY
  5
C
330
0
100
AcDbDictionary
  3
ACAD_GROUP
350
D
  3
ACAD_LAYOUT
350
1A
  3
ACAD_MLINESTYLE
350
17
  3
ACAD_PLOTSETTINGS
350
19
  3
ACAD_TABLESTYLE
350
2A
  3
ACDBVARIABLEDICTIONARY
350
2C
1001
ACAD
1000
TREAT_AS_HARD
1070
     0
  0
DICTIONARY
  5
B2
330
29
100
AcDbDictionary
  3
ACAD_XREC_ROUNDTRIP
360
B3
  0
DICTIONARY
  5
D
102
{ACAD_REACTORS
330
C
102
}
330
C
100
AcDbDictionary
1001
ACAD
1000
TREAT_AS_HARD
1070
     0
  0
DICTIONARY
  5
1A
102
{ACAD_REACTORS
330
C
102
}
330
C
100
AcDbDictionary
1001
ACAD
1000
TREAT_AS_HARD
1070
     0
  0
DICTIONARY
  5
17
102
{ACAD_REACTORS
330
C
102
}
330
C
100
AcDbDictionary
  3
STANDARD
350
18
1001
ACAD
1000
TREAT_AS_HARD
1070
     0
  0
DICTIONARY
  5
19
102
{ACAD_REACTORS
330
C
102
}
330
C
100
AcDbDictionary
1001
ACAD
1000
TREAT_AS_HARD
1070
     0
  0
DICTIONARY
  5
2A
102
{ACAD_REACTORS
330
C
102
}
330
C
100
AcDbDictionary
  3
STANDARD
350
2B
1001
ACAD
1000
TREAT_AS_HARD
1070
     0
  0
DICTIONARY
  5
2C
102
{ACAD_REACTORS
330
C
102
}
330
C
100
AcDbDictionary
  3
CTABLESTYLE
350
2D
1001
ACAD
1000
TREAT_AS_HARD
1070
     0
  0
XRECORD
  5
B3
102
{ACAD_REACTORS
330
B2
102
}
330
B2
100
AcDbXrecord
102
UCS
 74
     0
 71
     1
 10
0.0
 20
0.0
 30
0.0
 10
1.0
 20
0.0
 30
0.0
 10
0.0
 20
1.0
 30
0.0
146
0.0
 79
     0
102
VIEW
281
     0
  0
MLINESTYLE
  5
18
102
{ACAD_REACTORS
330
17
102
}
330
17
100
AcDbMlineStyle
  2
Standard
 70
     0
  3

 62
   256
 51
90.0
 52
90.0
 71
     2
 49
0.5
 62
   256
  6
BYLAYER
 49
-0.5
 62
   256
  6
BYLAYER
  0
TABLESTYLE
  5
2B
102
{ACAD_REACTORS
330
2A
102
}
330
2A
100
AcDbTableStyle
  3
Standard
 70
     0
 71
     0
 40
0.06
 41
0.06
280
     0
281
     0
  7
STANDARD
140
0.18
170
     2
 62
     0
 63
     7
283
     0
274
    -2
284
     1
 64
     0
275
    -2
285
     1
 65
     0
276
    -2
286
     1
 66
     0
277
    -2
287
     1
 67
     0
278
    -2
288
     1
 68
     0
279
    -2
289
     1
 69
     0
  7
STANDARD
140
0.25
170
     5
 62
     0
 63
     7
283
     0
274
    -2
284
     1
 64
     0
275
    -2
285
     1
 65
     0
276
    -2
286
     1
 66
     0
277
    -2
287
     1
 67
     0
278
    -2
288
     1
 68
     0
279
    -2
289
     1
 69
     0
  7
STANDARD
140
0.18
170
     5
 62
     0
 63
     7
283
     0
274
    -2
284
     1
 64
     0
275
    -2
285
     1
 65
     0
276
    -2
286
     1
 66
     0
277
    -2
287
     1
 67
     0
278
    -2
288
     1
 68
     0
279
    -2
289
     1
 69
     0
  0
DICTIONARYVAR
  5
2D
102
{ACAD_REACTORS
330
2C
102
}
330
2C
100
DictionaryVariables
280
     0
  1
Standard
  0
ENDSEC
  0
EOF
