  0
SECTION
  2
HEADER
  9
$ACADVER
  1
AC1018
  9
$ACADMAINTVER
 70
     0
  9
$DWGCODEPAGE
  3
ANSI_1252
  9
$INSBASE
 10
0.0
 20
0.0
 30
0.0
  9
$EXTMIN
 10
1.000000000000000E+20
 20
1.000000000000000E+20
 30
1.000000000000000E+20
  9
$EXTMAX
 10
-1.000000000000000E+20
 20
-1.000000000000000E+20
 30
-1.000000000000000E+20
  9
$LIMMIN
 10
0.0
 20
0.0
  9
$LIMMAX
 10
12.0
 20
9.0
  9
$ORTHOMODE
 70
     0
  9
$REGENMODE
 70
     1
  9
$FILLMODE
 70
     1
  9
$QTEXTMODE
 70
     0
  9
$MIRRTEXT
 70
     1
  9
$LTSCALE
 40
1.0
  9
$ATTMODE
 70
     1
  9
$TEXTSIZE
 40
0.2
  9
$TRACEWID
 40
0.05
  9
$TEXTSTYLE
  7
Standard
  9
$CLAYER
  8
0
  9
$CELTYPE
  6
ByLayer
  9
$CECOLOR
 62
   256
  9
$CELTSCALE
 40
1.0
  9
$DISPSILH
 70
     0
  9
$DIMSCALE
 40
1.0
  9
$DIMASZ
 40
0.18
  9
$DIMEXO
 40
0.0625
  9
$DIMDLI
 40
0.38
  9
$DIMRND
 40
0.0
  9
$DIMDLE
 40
0.0
  9
$DIMEXE
 40
0.18
  9
$DIMTP
 40
0.0
  9
$DIMTM
 40
0.0
  9
$DIMTXT
 40
0.18
  9
$DIMCEN
 40
0.09
  9
$DIMTSZ
 40
0.0
  9
$DIMTOL
 70
     0
  9
$DIMLIM
 70
     0
  9
$DIMTIH
 70
     1
  9
$DIMTOH
 70
     1
  9
$DIMSE1
 70
     0
  9
$DIMSE2
 70
     0
  9
$DIMTAD
 70
     0
  9
$DIMZIN
 70
     0
  9
$DIMBLK
  1

  9
$DIMASO
 70
     1
  9
$DIMSHO
 70
     1
  9
$DIMPOST
  1

  9
$DIMAPOST
  1

  9
$DIMALT
 70
     0
  9
$DIMALTD
 70
     2
  9
$DIMALTF
 40
25.4
  9
$DIMLFAC
 40
1.0
  9
$DIMTOFL
 70
     0
  9
$DIMTVP
 40
0.0
  9
$DIMTIX
 70
     0
  9
$DIMSOXD
 70
     0
  9
$DIMSAH
 70
     0
  9
$DIMBLK1
  1

  9
$DIMBLK2
  1

  9
$DIMSTYLE
  2
Standard
  9
$DIMCLRD
 70
     0
  9
$DIMCLRE
 70
     0
  9
$DIMCLRT
 70
     0
  9
$DIMTFAC
 40
1.0
  9
$DIMGAP
 40
0.09
  9
$DIMJUST
 70
     0
  9
$DIMSD1
 70
     0
  9
$DIMSD2
 70
     0
  9
$DIMTOLJ
 70
     1
  9
$DIMTZIN
 70
     0
  9
$DIMALTZ
 70
     0
  9
$DIMALTTZ
 70
     0
  9
$DIMUPT
 70
     0
  9
$DIMDEC
 70
     4
  9
$DIMTDEC
 70
     4
  9
$DIMALTU
 70
     2
  9
$DIMALTTD
 70
     2
  9
$DIMTXSTY
  7
Standard
  9
$DIMAUNIT
 70
     0
  9
$DIMADEC
 70
     0
  9
$DIMALTRND
 40
0.0
  9
$DIMAZIN
 70
     0
  9
$DIMDSEP
 70
    46
  9
$DIMATFIT
 70
     3
  9
$DIMFRAC
 70
     0
  9
$DIMLDRBLK
  1

  9
$DIMLUNIT
 70
     2
  9
$DIMLWD
 70
    -2
  9
$DIMLWE
 70
    -2
  9
$DIMTMOVE
 70
     0
  9
$LUNITS
 70
     2
  9
$LUPREC
 70
     4
  9
$SKETCHINC
 40
0.1
  9
$FILLETRAD
 40
0.5
  9
$AUNITS
 70
     0
  9
$AUPREC
 70
     0
  9
$MENU
  1
.
  9
$ELEVATION
 40
0.0
  9
$PELEVATION
 40
0.0
  9
$THICKNESS
 40
0.0
  9
$LIMCHECK
 70
     0
  9
$CHAMFERA
 40
0.5
  9
$CHAMFERB
 40
0.5
  9
$CHAMFERC
 40
1.0
  9
$CHAMFERD
 40
0.0
  9
$SKPOLY
 70
     0
  9
$TDCREATE
 40
2458374.449143843
  9
$TDUCREATE
 40
2458374.365810509
  9
$TDUPDATE
 40
2458374.449143854
  9
$TDUUPDATE
 40
2458374.365810521
  9
$TDINDWG
 40
0.0000000116
  9
$TDUSRTIMER
 40
0.0000000116
  9
$USRTIMER
 70
     1
  9
$ANGBASE
 50
0.0
  9
$ANGDIR
 70
     0
  9
$PDMODE
 70
     0
  9
$PDSIZE
 40
0.0
  9
$PLINEWID
 40
0.0
  9
$SPLFRAME
 70
     0
  9
$SPLINETYPE
 70
     6
  9
$SPLINESEGS
 70
     8
  9
$HANDSEED
  5
99F
  9
$SURFTAB1
 70
     6
  9
$SURFTAB2
 70
     6
  9
$SURFTYPE
 70
     6
  9
$SURFU
 70
     6
  9
$SURFV
 70
     6
  9
$UCSBASE
  2

  9
$UCSNAME
  2

  9
$UCSORG
 10
0.0
 20
0.0
 30
0.0
  9
$UCSXDIR
 10
1.0
 20
0.0
 30
0.0
  9
$UCSYDIR
 10
0.0
 20
1.0
 30
0.0
  9
$UCSORTHOREF
  2

  9
$UCSORTHOVIEW
 70
     0
  9
$UCSORGTOP
 10
0.0
 20
0.0
 30
0.0
  9
$UCSORGBOTTOM
 10
0.0
 20
0.0
 30
0.0
  9
$UCSORGLEFT
 10
0.0
 20
0.0
 30
0.0
  9
$UCSORGRIGHT
 10
0.0
 20
0.0
 30
0.0
  9
$UCSORGFRONT
 10
0.0
 20
0.0
 30
0.0
  9
$UCSORGBACK
 10
0.0
 20
0.0
 30
0.0
  9
$PUCSBASE
  2

  9
$PUCSNAME
  2

  9
$PUCSORG
 10
0.0
 20
0.0
 30
0.0
  9
$PUCSXDIR
 10
1.0
 20
0.0
 30
0.0
  9
$PUCSYDIR
 10
0.0
 20
1.0
 30
0.0
  9
$PUCSORTHOREF
  2

  9
$PUCSORTHOVIEW
 70
     0
  9
$PUCSORGTOP
 10
0.0
 20
0.0
 30
0.0
  9
$PUCSORGBOTTOM
 10
0.0
 20
0.0
 30
0.0
  9
$PUCSORGLEFT
 10
0.0
 20
0.0
 30
0.0
  9
$PUCSORGRIGHT
 10
0.0
 20
0.0
 30
0.0
  9
$PUCSORGFRONT
 10
0.0
 20
0.0
 30
0.0
  9
$PUCSORGBACK
 10
0.0
 20
0.0
 30
0.0
  9
$USERI1
 70
     0
  9
$USERI2
 70
     0
  9
$USERI3
 70
     0
  9
$USERI4
 70
     0
  9
$USERI5
 70
     0
  9
$USERR1
 40
0.0
  9
$USERR2
 40
0.0
  9
$USERR3
 40
0.0
  9
$USERR4
 40
0.0
  9
$USERR5
 40
0.0
  9
$WORLDVIEW
 70
     1
  9
$SHADEDGE
 70
     3
  9
$SHADEDIF
 70
    70
  9
$TILEMODE
 70
     1
  9
$MAXACTVP
 70
    64
  9
$PINSBASE
 10
0.0
 20
0.0
 30
0.0
  9
$PLIMCHECK
 70
     0
  9
$PEXTMIN
 10
1.000000000000000E+20
 20
1.000000000000000E+20
 30
1.000000000000000E+20
  9
$PEXTMAX
 10
-1.000000000000000E+20
 20
-1.000000000000000E+20
 30
-1.000000000000000E+20
  9
$PLIMMIN
 10
0.0
 20
0.0
  9
$PLIMMAX
 10
12.0
 20
9.0
  9
$UNITMODE
 70
     0
  9
$VISRETAIN
 70
     1
  9
$PLINEGEN
 70
     0
  9
$PSLTSCALE
 70
     1
  9
$TREEDEPTH
 70
  3020
  9
$CMLSTYLE
  2
Standard
  9
$CMLJUST
 70
     0
  9
$CMLSCALE
 40
1.0
  9
$PROXYGRAPHICS
 70
     1
  9
$MEASUREMENT
 70
     0
  9
$CELWEIGHT
370
    -1
  9
$ENDCAPS
280
     0
  9
$JOINSTYLE
280
     0
  9
$LWDISPLAY
290
     1
  9
$INSUNITS
 70
     1
  9
$HYPERLINKBASE
  1

  9
$STYLESHEET
  1

  9
$XEDIT
290
     1
  9
$CEPSNTYPE
380
     0
  9
$PSTYLEMODE
290
     1
  9
$FINGERPRINTGUID
  2
{74D88471-0892-4AE9-A3B6-0765B5A716BF}
  9
$VERSIONGUID
  2
{FAEB1C32-E019-11D5-929B-00C0DF256EC4}
  9
$EXTNAMES
290
     1
  9
$PSVPSCALE
 40
0.0
  9
$OLESTARTUP
290
     0
  9
$SORTENTS
280
   127
  9
$INDEXCTL
280
     0
  9
$HIDETEXT
280
     1
  9
$XCLIPFRAME
290
     0
  9
$HALOGAP
280
     0
  9
$OBSCOLOR
 70
   257
  9
$OBSLTYPE
280
     0
  9
$INTERSECTIONDISPLAY
280
     0
  9
$INTERSECTIONCOLOR
 70
   257
  9
$DIMASSOC
280
     2
  9
$PROJECTNAME
  1

  0
ENDSEC
  0
SECTION
  2
CLASSES
  0
CLASS
  1
ACDBDICTIONARYWDFLT
  2
AcDbDictionaryWithDefault
  3
ObjectDBX Classes
 90
        0
 91
        3
280
     0
281
     0
  0
CLASS
  1
VISUALSTYLE
  2
AcDbVisualStyle
  3
ObjectDBX Classes
 90
     4095
 91
        3
280
     0
281
     0
  0
ENDSEC
  0
SECTION
  2
TABLES
  0
TABLE
  2
VPORT
  5
8
330
0
100
AcDbSymbolTable
 70
     1
  0
VPORT
  5
29
330
8
100
AcDbSymbolTableRecord
100
AcDbViewportTableRecord
  2
*Active
 70
     0
 10
0.0
 20
0.0
 11
1.0
 21
1.0
 12
0.0
 22
0.0
 13
0.0
 23
0.0
 14
0.5
 24
0.5
 15
0.5
 25
0.5
 16
0.0
 26
0.0
 36
1.0
 17
306.0
 27
396.0
 37
0.0
 40
792.0
 41
0.7727272727272727
 42
50.0
 43
0.0
 44
0.0
 50
0.0
 51
0.0
 71
     0
 72
   100
 73
     1
 74
     3
 75
     0
 76
     0
 77
     0
 78
     0
281
     0
 65
     1
110
0.0
120
0.0
130
0.0
111
1.0
121
0.0
131
0.0
112
0.0
122
1.0
132
0.0
 79
     0
146
0.0
  0
ENDTAB
  0
TABLE
  2
LTYPE
  5
5
330
0
100
AcDbSymbolTable
 70
     1
  0
LTYPE
  5
14
330
5
100
AcDbSymbolTableRecord
100
AcDbLinetypeTableRecord
  2
ByBlock
 70
     0
  3

 72
    65
 73
     0
 40
0.0
  0
LTYPE
  5
15
330
5
100
AcDbSymbolTableRecord
100
AcDbLinetypeTableRecord
  2
ByLayer
 70
     0
  3

 72
    65
 73
     0
 40
0.0
  0
LTYPE
  5
16
330
5
100
AcDbSymbolTableRecord
100
AcDbLinetypeTableRecord
  2
Continuous
 70
     0
  3
Solid line
 72
    65
 73
     0
 40
0.0
  0
ENDTAB
  0
TABLE
  2
LAYER
  5
2
330
0
100
AcDbSymbolTable
 70
     2
  0
LAYER
  5
10
330
2
100
AcDbSymbolTableRecord
100
AcDbLayerTableRecord
  2
0
 70
     0
 62
     7
  6
Continuous
370
    -3
390
F
  0
LAYER
  5
3B
330
2
100
AcDbSymbolTableRecord
100
AcDbLayerTableRecord
  2
Ebene 1
 70
     0
 62
     7
  6
Continuous
370
    -3
390
F
  0
ENDTAB
  0
TABLE
  2
STYLE
  5
3
330
0
100
AcDbSymbolTable
 70
     1
  0
STYLE
  5
11
330
3
100
AcDbSymbolTableRecord
100
AcDbTextStyleTableRecord
  2
Standard
 70
     0
 40
0.0
 41
1.0
 50
0.0
 71
     0
 42
0.2
  3
txt
  4

  0
ENDTAB
  0
TABLE
  2
VIEW
  5
6
330
0
100
AcDbSymbolTable
 70
     0
  0
ENDTAB
  0
TABLE
  2
UCS
  5
7
330
0
100
AcDbSymbolTable
 70
     0
  0
ENDTAB
  0
TABLE
  2
APPID
  5
9
330
0
100
AcDbSymbolTable
 70
     1
  0
APPID
  5
12
330
9
100
AcDbSymbolTableRecord
100
AcDbRegAppTableRecord
  2
ACAD
 70
     0
  0
ENDTAB
  0
TABLE
  2
DIMSTYLE
  5
A
330
0
100
AcDbSymbolTable
 70
     1
100
AcDbDimStyleTable
  0
DIMSTYLE
105
27
330
A
100
AcDbSymbolTableRecord
100
AcDbDimStyleTableRecord
  2
Standard
 70
     0
340
11
  0
ENDTAB
  0
TABLE
  2
BLOCK_RECORD
  5
1
330
0
100
AcDbSymbolTable
 70
     2
  0
BLOCK_RECORD
  5
1F
330
1
100
AcDbSymbolTableRecord
100
AcDbBlockTableRecord
  2
*Model_Space
340
22
  0
BLOCK_RECORD
  5
1B
330
1
100
AcDbSymbolTableRecord
100
AcDbBlockTableRecord
  2
*Paper_Space
340
1E
  0
BLOCK_RECORD
  5
23
330
1
100
AcDbSymbolTableRecord
100
AcDbBlockTableRecord
  2
*Paper_Space0
340
26
  0
BLOCK_RECORD
  5
3C
330
1
100
AcDbSymbolTableRecord
100
AcDbBlockTableRecord
  2
block 2
340
0
102
{BLKREFS
331
3D
102
}
  0
ENDTAB
  0
ENDSEC
  0
SECTION
  2
BLOCKS
  0
BLOCK
  5
20
330
1F
100
AcDbEntity
  8
0
100
AcDbBlockBegin
  2
*Model_Space
 70
     0
 71
     0
 10
0.0
 20
0.0
 30
0.0
  3
*Model_Space
  1

  0
ENDBLK
  5
21
330
1F
100
AcDbEntity
  8
0
100
AcDbBlockEnd
  0
BLOCK
  5
1C
330
1B
100
AcDbEntity
 67
     1
  8
0
100
AcDbBlockBegin
  2
*Paper_Space
 70
     0
 71
     0
 10
0.0
 20
0.0
 30
0.0
  3
*Paper_Space
  1

  0
ENDBLK
  5
1D
330
1B
100
AcDbEntity
 67
     1
  8
0
100
AcDbBlockEnd
  0
BLOCK
  5
24
330
23
100
AcDbEntity
  8
0
100
AcDbBlockBegin
  2
*Paper_Space0
 70
     0
 71
     0
 10
0.0
 20
0.0
 30
0.0
  3
*Paper_Space0
  1

  0
ENDBLK
  5
25
330
23
100
AcDbEntity
  8
0
100
AcDbBlockEnd
  0
BLOCK
  5
3E
330
3C
100
AcDbEntity
  8
0
100
AcDbBlockBegin
  2
block 2
 70
     0
 71
     0
 10
0.0
 20
0.0
 30
0.0
  3
block 2
  1

  0
POLYLINE
  5
40
330
3C
100
AcDbEntity
  8
Ebene 1
370
     0
100
AcDb2dPolyline
 66
     1
 10
0.0
 20
0.0
 30
0.0
  0
VERTEX
  5
41
330
40
100
AcDbEntity
  8
Ebene 1
370
     0
100
AcDbVertex
100
AcDb2dVertex
 10
580.80859375
 20
462.94140625
 30
0.0
  0
VERTEX
  5
42
330
40
100
AcDbEntity
  8
Ebene 1
370
     0
100
AcDbVertex
100
AcDb2dVertex
 10
581.2939453125
 20
463.25
 30
0.0
  0
VERTEX
  5
43
330
40
100
AcDbEntity
  8
Ebene 1
370
     0
100
AcDbVertex
100
AcDb2dVertex
 10
581.69140625
 20
463.64697265625
 30
0.0
  0
VERTEX
  5
44
330
40
100
AcDbEntity
  8
Ebene 1
370
     0
100
AcDbVertex
100
AcDb2dVertex
 10
582.0
 20
464.13232421875
 30
0.0
  0
VERTEX
  5
45
330
40
100
AcDbEntity
  8
Ebene 1
370
     0
100
AcDbVertex
100
AcDb2dVertex
 10
582.220703125
 20
464.662109375
 30
0.0
  0
VERTEX
  5
46
330
40
100
AcDbEntity
  8
Ebene 1
370
     0
100
AcDbVertex
100
AcDb2dVertex
 10
582.353515625
 20
465.19140625
 30
0.0
  0
VERTEX
  5
47
330
40
100
AcDbEntity
  8
Ebene 1
370
     0
100
AcDbVertex
100
AcDb2dVertex
 10
582.353515625
 20
465.7646484375
 30
0.0
  0
VERTEX
  5
48
330
40
100
AcDbEntity
  8
Ebene 1
370
     0
100
AcDbVertex
100
AcDb2dVertex
 10
582.220703125
 20
466.33837890625
 30
0.0
  0
VERTEX
  5
49
330
40
100
AcDbEntity
  8
Ebene 1
370
     0
100
AcDbVertex
100
AcDb2dVertex
 10
581.9560546875
 20
466.86767578125
 30
0.0
  0
VERTEX
  5
4A
330
40
100
AcDbEntity
  8
Ebene 1
370
     0
100
AcDbVertex
100
AcDb2dVertex
 10
581.646484375
 20
467.35302734375
 30
0.0
  0
VERTEX
  5
4B
330
40
100
AcDbEntity
  8
Ebene 1
370
     0
100
AcDbVertex
100
AcDb2dVertex
 10
581.2060546875
 20
467.7060546875
 30
0.0
  0
VERTEX
  5
4C
330
40
100
AcDbEntity
  8
Ebene 1
370
     0
100
AcDbVertex
100
AcDb2dVertex
 10
580.720703125
 20
468.0146484375
 30
0.0
  0
VERTEX
  5
4D
330
40
100
AcDbEntity
  8
Ebene 1
370
     0
100
AcDbVertex
100
AcDb2dVertex
 10
580.19140625
 20
468.19140625
 30
0.0
  0
VERTEX
  5
4E
330
40
100
AcDbEntity
  8
Ebene 1
370
     0
100
AcDbVertex
100
AcDb2dVertex
 10
579.6171875
 20
468.27978515625
 30
0.0
  0
VERTEX
  5
4F
330
40
100
AcDbEntity
  8
Ebene 1
370
     0
100
AcDbVertex
100
AcDb2dVertex
 10
579.0439453125
 20
468.2353515625
 30
0.0
  0
VERTEX
  5
50
330
40
100
AcDbEntity
  8
Ebene 1
370
     0
100
AcDbVertex
100
AcDb2dVertex
 10
578.470703125
 20
468.05908203125
 30
0.0
  0
VERTEX
  5
51
330
40
100
AcDbEntity
  8
Ebene 1
370
     0
100
AcDbVertex
100
AcDb2dVertex
 10
577.9853515625
 20
467.79443359375
 30
0.0
  0
SEQEND
  5
52
330
40
100
AcDbEntity
  8
Ebene 1
370
     0
  0
POLYLINE
  5
53
330
3C
100
AcDbEntity
  8
Ebene 1
370
     0
100
AcDb2dPolyline
 66
     1
 10
0.0
 20
0.0
 30
0.0
  0
VERTEX
  5
54
330
53
100
AcDbEntity
  8
Ebene 1
370
     0
100
AcDbVertex
100
AcDb2dVertex
 10
582.92578125
 20
467.88232421875
 30
0.0
  0
VERTEX
  5
55
330
53
100
AcDbEntity
  8
Ebene 1
370
     0
100
AcDbVertex
100
AcDb2dVertex
 10
583.279296875
 20
467.220703125
 30
0.0
  0
SEQEND
  5
56
330
53
100
AcDbEntity
  8
Ebene 1
370
     0
  0
POLYLINE
  5
57
330
3C
100
AcDbEntity
  8
Ebene 1
370
     0
100
AcDb2dPolyline
 66
     1
 10
0.0
 20
0.0
 30
0.0
  0
VERTEX
  5
58
330
57
100
AcDbEntity
  8
Ebene 1
370
     0
100
AcDbVertex
100
AcDb2dVertex
 10
562.5
 20
452.75048828125
 30
0.0
  0
VERTEX
  5
59
330
57
100
AcDbEntity
  8
Ebene 1
370
     0
100
AcDbVertex
100
AcDb2dVertex
 10
561.970703125
 20
452.88232421875
 30
0.0
  0
VERTEX
  5
5A
330
57
100
AcDbEntity
  8
Ebene 1
370
     0
100
AcDbVertex
100
AcDb2dVertex
 10
561.44140625
 20
452.88232421875
 30
0.0
  0
VERTEX
  5
5B
330
57
100
AcDbEntity
  8
Ebene 1
370
     0
100
AcDbVertex
100
AcDb2dVertex
 10
560.912109375
 20
452.79443359375
 30
0.0
  0
VERTEX
  5
5C
330
57
100
AcDbEntity
  8
Ebene 1
370
     0
100
AcDbVertex
100
AcDb2dVertex
 10
560.42578125
 20
452.57373046875
 30
0.0
  0
VERTEX
  5
5D
330
57
100
AcDbEntity
  8
Ebene 1
370
     0
100
AcDbVertex
100
AcDb2dVertex
 10
559.94140625
 20
452.26513671875
 30
0.0
  0
VERTEX
  5
5E
330
57
100
AcDbEntity
  8
Ebene 1
370
     0
100
AcDbVertex
100
AcDb2dVertex
 10
559.587890625
 20
451.91162109375
 30
0.0
  0
VERTEX
  5
5F
330
57
100
AcDbEntity
  8
Ebene 1
370
     0
100
AcDbVertex
100
AcDb2dVertex
 10
559.279296875
 20
451.42626953125
 30
0.0
  0
VERTEX
  5
60
330
57
100
AcDbEntity
  8
Ebene 1
370
     0
100
AcDbVertex
100
AcDb2dVertex
 10
559.05859375
 20
450.94091796875
 30
0.0
  0
VERTEX
  5
61
330
57
100
AcDbEntity
  8
Ebene 1
370
     0
100
AcDbVertex
100
AcDb2dVertex
 10
558.970703125
 20
450.41162109375
 30
0.0
  0
VERTEX
  5
62
330
57
100
AcDbEntity
  8
Ebene 1
370
     0
100
AcDbVertex
100
AcDb2dVertex
 10
558.970703125
 20
449.88232421875
 30
0.0
  0
VERTEX
  5
63
330
57
100
AcDbEntity
  8
Ebene 1
370
     0
100
AcDbVertex
100
AcDb2dVertex
 10
559.103515625
 20
449.35302734375
 30
0.0
  0
VERTEX
  5
64
330
57
100
AcDbEntity
  8
Ebene 1
370
     0
100
AcDbVertex
100
AcDb2dVertex
 10
559.32421875
 20
448.82373046875
 30
0.0
  0
VERTEX
  5
65
330
57
100
AcDbEntity
  8
Ebene 1
370
     0
100
AcDbVertex
100
AcDb2dVertex
 10
559.6328125
 20
448.38232421875
 30
0.0
  0
VERTEX
  5
66
330
57
100
AcDbEntity
  8
Ebene 1
370
     0
100
AcDbVertex
100
AcDb2dVertex
 10
560.029296875
 20
448.02978515625
 30
0.0
  0
VERTEX
  5
67
330
57
100
AcDbEntity
  8
Ebene 1
370
     0
100
AcDbVertex
100
AcDb2dVertex
 10
560.5146484375
 20
447.76513671875
 30
0.0
  0
VERTEX
  5
68
330
57
100
AcDbEntity
  8
Ebene 1
370
     0
100
AcDbVertex
100
AcDb2dVertex
 10
561.0439453125
 20
447.58837890625
 30
0.0
  0
VERTEX
  5
69
330
57
100
AcDbEntity
  8
Ebene 1
370
     0
100
AcDbVertex
100
AcDb2dVertex
 10
561.57421875
 20
447.50048828125
 30
0.0
  0
VERTEX
  5
6A
330
57
100
AcDbEntity
  8
Ebene 1
370
     0
100
AcDbVertex
100
AcDb2dVertex
 10
562.103515625
 20
447.54443359375
 30
0.0
  0
VERTEX
  5
6B
330
57
100
AcDbEntity
  8
Ebene 1
370
     0
100
AcDbVertex
100
AcDb2dVertex
 10
562.6328125
 20
447.67626953125
 30
0.0
  0
VERTEX
  5
6C
330
57
100
AcDbEntity
  8
Ebene 1
370
     0
100
AcDbVertex
100
AcDb2dVertex
 10
563.1171875
 20
447.94091796875
 30
0.0
  0
VERTEX
  5
6D
330
57
100
AcDbEntity
  8
Ebene 1
370
     0
100
AcDbVertex
100
AcDb2dVertex
 10
563.5146484375
 20
448.25048828125
 30
0.0
  0
VERTEX
  5
6E
330
57
100
AcDbEntity
  8
Ebene 1
370
     0
100
AcDbVertex
100
AcDb2dVertex
 10
563.8671875
 20
448.69091796875
 30
0.0
  0
VERTEX
  5
6F
330
57
100
AcDbEntity
  8
Ebene 1
370
     0
100
AcDbVertex
100
AcDb2dVertex
 10
564.1328125
 20
449.13232421875
 30
0.0
  0
VERTEX
  5
70
330
57
100
AcDbEntity
  8
Ebene 1
370
     0
100
AcDbVertex
100
AcDb2dVertex
 10
564.30859375
 20
449.66162109375
 30
0.0
  0
SEQEND
  5
71
330
57
100
AcDbEntity
  8
Ebene 1
370
     0
  0
POLYLINE
  5
72
330
3C
100
AcDbEntity
  8
Ebene 1
370
     0
100
AcDb2dPolyline
 66
     1
 10
0.0
 20
0.0
 30
0.0
  0
VERTEX
  5
73
330
72
100
AcDbEntity
  8
Ebene 1
370
     0
100
AcDbVertex
100
AcDb2dVertex
 10
562.5439453125
 20
452.79443359375
 30
0.0
  0
VERTEX
  5
74
330
72
100
AcDbEntity
  8
Ebene 1
370
     0
100
AcDbVertex
100
AcDb2dVertex
 10
562.9853515625
 20
452.75048828125
 30
0.0
  0
VERTEX
  5
75
330
72
100
AcDbEntity
  8
Ebene 1
370
     0
100
AcDbVertex
100
AcDb2dVertex
 10
563.42578125
 20
452.92626953125
 30
0.0
  0
SEQEND
  5
76
330
72
100
AcDbEntity
  8
Ebene 1
370
     0
  0
POLYLINE
  5
77
330
3C
100
AcDbEntity
  8
Ebene 1
370
     0
100
AcDb2dPolyline
 66
     1
 10
0.0
 20
0.0
 30
0.0
  0
VERTEX
  5
78
330
77
100
AcDbEntity
  8
Ebene 1
370
     0
100
AcDbVertex
100
AcDb2dVertex
 10
563.42578125
 20
452.88232421875
 30
0.0
  0
VERTEX
  5
79
330
77
100
AcDbEntity
  8
Ebene 1
370
     0
100
AcDbVertex
100
AcDb2dVertex
 10
563.8671875
 20
453.14697265625
 30
0.0
  0
SEQEND
  5
7A
330
77
100
AcDbEntity
  8
Ebene 1
370
     0
  0
POLYLINE
  5
7B
330
3C
100
AcDbEntity
  8
Ebene 1
370
     0
100
AcDb2dPolyline
 66
     1
 10
0.0
 20
0.0
 30
0.0
  0
VERTEX
  5
7C
330
7B
100
AcDbEntity
  8
Ebene 1
370
     0
100
AcDbVertex
100
AcDb2dVertex
 10
578.603515625
 20
461.66162109375
 30
0.0
  0
VERTEX
  5
7D
330
7B
100
AcDbEntity
  8
Ebene 1
370
     0
100
AcDbVertex
100
AcDb2dVertex
 10
580.80859375
 20
462.94140625
 30
0.0
  0
SEQEND
  5
7E
330
7B
100
AcDbEntity
  8
Ebene 1
370
     0
  0
POLYLINE
  5
7F
330
3C
100
AcDbEntity
  8
Ebene 1
370
     0
100
AcDb2dPolyline
 66
     1
 10
0.0
 20
0.0
 30
0.0
  0
VERTEX
  5
80
330
7F
100
AcDbEntity
  8
Ebene 1
370
     0
100
AcDbVertex
100
AcDb2dVertex
 10
587.162109375
 20
460.47119140625
 30
0.0
  0
VERTEX
  5
81
330
7F
100
AcDbEntity
  8
Ebene 1
370
     0
100
AcDbVertex
100
AcDb2dVertex
 10
587.55859375
 20
459.85302734375
 30
0.0
  0
SEQEND
  5
82
330
7F
100
AcDbEntity
  8
Ebene 1
370
     0
  0
POLYLINE
  5
83
330
3C
100
AcDbEntity
  8
Ebene 1
370
     0
100
AcDb2dPolyline
 66
     1
 10
0.0
 20
0.0
 30
0.0
  0
VERTEX
  5
84
330
83
100
AcDbEntity
  8
Ebene 1
370
     0
100
AcDbVertex
100
AcDb2dVertex
 10
585.087890625
 20
455.57373046875
 30
0.0
  0
VERTEX
  5
85
330
83
100
AcDbEntity
  8
Ebene 1
370
     0
100
AcDbVertex
100
AcDb2dVertex
 10
585.57421875
 20
455.88232421875
 30
0.0
  0
VERTEX
  5
86
330
83
100
AcDbEntity
  8
Ebene 1
370
     0
100
AcDbVertex
100
AcDb2dVertex
 10
585.970703125
 20
456.27978515625
 30
0.0
  0
VERTEX
  5
87
330
83
100
AcDbEntity
  8
Ebene 1
370
     0
100
AcDbVertex
100
AcDb2dVertex
 10
586.279296875
 20
456.76513671875
 30
0.0
  0
VERTEX
  5
88
330
83
100
AcDbEntity
  8
Ebene 1
370
     0
100
AcDbVertex
100
AcDb2dVertex
 10
586.5
 20
457.29443359375
 30
0.0
  0
VERTEX
  5
89
330
83
100
AcDbEntity
  8
Ebene 1
370
     0
100
AcDbVertex
100
AcDb2dVertex
 10
586.6328125
 20
457.82373046875
 30
0.0
  0
VERTEX
  5
8A
330
83
100
AcDbEntity
  8
Ebene 1
370
     0
100
AcDbVertex
100
AcDb2dVertex
 10
586.6328125
 20
458.39697265625
 30
0.0
  0
VERTEX
  5
8B
330
83
100
AcDbEntity
  8
Ebene 1
370
     0
100
AcDbVertex
100
AcDb2dVertex
 10
586.5
 20
458.97119140625
 30
0.0
  0
VERTEX
  5
8C
330
83
100
AcDbEntity
  8
Ebene 1
370
     0
100
AcDbVertex
100
AcDb2dVertex
 10
586.2353515625
 20
459.50048828125
 30
0.0
  0
VERTEX
  5
8D
330
83
100
AcDbEntity
  8
Ebene 1
370
     0
100
AcDbVertex
100
AcDb2dVertex
 10
585.92578125
 20
459.98583984375
 30
0.0
  0
VERTEX
  5
8E
330
83
100
AcDbEntity
  8
Ebene 1
370
     0
100
AcDbVertex
100
AcDb2dVertex
 10
585.4853515625
 20
460.33837890625
 30
0.0
  0
VERTEX
  5
8F
330
83
100
AcDbEntity
  8
Ebene 1
370
     0
100
AcDbVertex
100
AcDb2dVertex
 10
585.0
 20
460.64697265625
 30
0.0
  0
VERTEX
  5
90
330
83
100
AcDbEntity
  8
Ebene 1
370
     0
100
AcDbVertex
100
AcDb2dVertex
 10
584.470703125
 20
460.82373046875
 30
0.0
  0
VERTEX
  5
91
330
83
100
AcDbEntity
  8
Ebene 1
370
     0
100
AcDbVertex
100
AcDb2dVertex
 10
583.896484375
 20
460.91162109375
 30
0.0
  0
VERTEX
  5
92
330
83
100
AcDbEntity
  8
Ebene 1
370
     0
100
AcDbVertex
100
AcDb2dVertex
 10
583.32421875
 20
460.86767578125
 30
0.0
  0
VERTEX
  5
93
330
83
100
AcDbEntity
  8
Ebene 1
370
     0
100
AcDbVertex
100
AcDb2dVertex
 10
582.75
 20
460.69091796875
 30
0.0
  0
VERTEX
  5
94
330
83
100
AcDbEntity
  8
Ebene 1
370
     0
100
AcDbVertex
100
AcDb2dVertex
 10
582.2646484375
 20
460.42626953125
 30
0.0
  0
SEQEND
  5
95
330
83
100
AcDbEntity
  8
Ebene 1
370
     0
  0
POLYLINE
  5
96
330
3C
100
AcDbEntity
  8
Ebene 1
370
     0
100
AcDb2dPolyline
 66
     1
 10
0.0
 20
0.0
 30
0.0
  0
VERTEX
  5
97
330
96
100
AcDbEntity
  8
Ebene 1
370
     0
100
AcDbVertex
100
AcDb2dVertex
 10
582.220703125
 20
460.47119140625
 30
0.0
  0
VERTEX
  5
98
330
96
100
AcDbEntity
  8
Ebene 1
370
     0
100
AcDbVertex
100
AcDb2dVertex
 10
579.970703125
 20
459.19091796875
 30
0.0
  0
SEQEND
  5
99
330
96
100
AcDbEntity
  8
Ebene 1
370
     0
  0
POLYLINE
  5
9A
330
3C
100
AcDbEntity
  8
Ebene 1
370
     0
100
AcDb2dPolyline
 66
     1
 10
0.0
 20
0.0
 30
0.0
  0
VERTEX
  5
9B
330
9A
100
AcDbEntity
  8
Ebene 1
370
     0
100
AcDbVertex
100
AcDb2dVertex
 10
565.3671875
 20
450.67626953125
 30
0.0
  0
VERTEX
  5
9C
330
9A
100
AcDbEntity
  8
Ebene 1
370
     0
100
AcDbVertex
100
AcDb2dVertex
 10
564.837890625
 20
450.41162109375
 30
0.0
  0
SEQEND
  5
9D
330
9A
100
AcDbEntity
  8
Ebene 1
370
     0
  0
POLYLINE
  5
9E
330
3C
100
AcDbEntity
  8
Ebene 1
370
     0
100
AcDb2dPolyline
 66
     1
 10
0.0
 20
0.0
 30
0.0
  0
VERTEX
  5
9F
330
9E
100
AcDbEntity
  8
Ebene 1
370
     0
100
AcDbVertex
100
AcDb2dVertex
 10
564.8828125
 20
450.36767578125
 30
0.0
  0
VERTEX
  5
A0
330
9E
100
AcDbEntity
  8
Ebene 1
370
     0
100
AcDbVertex
100
AcDb2dVertex
 10
564.529296875
 20
450.05908203125
 30
0.0
  0
VERTEX
  5
A1
330
9E
100
AcDbEntity
  8
Ebene 1
370
     0
100
AcDbVertex
100
AcDb2dVertex
 10
564.353515625
 20
449.66162109375
 30
0.0
  0
SEQEND
  5
A2
330
9E
100
AcDbEntity
  8
Ebene 1
370
     0
  0
POLYLINE
  5
A3
330
3C
100
AcDbEntity
  8
Ebene 1
370
     0
100
AcDb2dPolyline
 66
     1
 10
0.0
 20
0.0
 30
0.0
  0
VERTEX
  5
A4
330
A3
100
AcDbEntity
  8
Ebene 1
370
     0
100
AcDbVertex
100
AcDb2dVertex
 10
581.603515625
 20
461.48583984375
 30
0.0
  0
VERTEX
  5
A5
330
A3
100
AcDbEntity
  8
Ebene 1
370
     0
100
AcDbVertex
100
AcDb2dVertex
 10
582.8828125
 20
462.58837890625
 30
0.0
  0
VERTEX
  5
A6
330
A3
100
AcDbEntity
  8
Ebene 1
370
     0
100
AcDbVertex
100
AcDb2dVertex
 10
583.6328125
 20
464.08837890625
 30
0.0
  0
VERTEX
  5
A7
330
A3
100
AcDbEntity
  8
Ebene 1
370
     0
100
AcDbVertex
100
AcDb2dVertex
 10
583.7646484375
 20
465.6767578125
 30
0.0
  0
VERTEX
  5
A8
330
A3
100
AcDbEntity
  8
Ebene 1
370
     0
100
AcDbVertex
100
AcDb2dVertex
 10
583.279296875
 20
467.220703125
 30
0.0
  0
VERTEX
  5
A9
330
A3
100
AcDbEntity
  8
Ebene 1
370
     0
100
AcDbVertex
100
AcDb2dVertex
 10
582.220703125
 20
468.412109375
 30
0.0
  0
VERTEX
  5
AA
330
A3
100
AcDbEntity
  8
Ebene 1
370
     0
100
AcDbVertex
100
AcDb2dVertex
 10
580.720703125
 20
469.11767578125
 30
0.0
  0
VERTEX
  5
AB
330
A3
100
AcDbEntity
  8
Ebene 1
370
     0
100
AcDbVertex
100
AcDb2dVertex
 10
579.087890625
 20
469.2060546875
 30
0.0
  0
VERTEX
  5
AC
330
A3
100
AcDbEntity
  8
Ebene 1
370
     0
100
AcDbVertex
100
AcDb2dVertex
 10
577.5
 20
468.63232421875
 30
0.0
  0
VERTEX
  5
AD
330
A3
100
AcDbEntity
  8
Ebene 1
370
     0
100
AcDbVertex
100
AcDb2dVertex
 10
577.94140625
 20
467.83837890625
 30
0.0
  0
SEQEND
  5
AE
330
A3
100
AcDbEntity
  8
Ebene 1
370
     0
  0
POLYLINE
  5
AF
330
3C
100
AcDbEntity
  8
Ebene 1
370
     0
100
AcDb2dPolyline
 66
     1
 10
0.0
 20
0.0
 30
0.0
  0
VERTEX
  5
B0
330
AF
100
AcDbEntity
  8
Ebene 1
370
     0
100
AcDbVertex
100
AcDb2dVertex
 10
582.92578125
 20
467.88232421875
 30
0.0
  0
VERTEX
  5
B1
330
AF
100
AcDbEntity
  8
Ebene 1
370
     0
100
AcDbVertex
100
AcDb2dVertex
 10
581.82421875
 20
469.07373046875
 30
0.0
  0
VERTEX
  5
B2
330
AF
100
AcDbEntity
  8
Ebene 1
370
     0
100
AcDbVertex
100
AcDb2dVertex
 10
580.3671875
 20
469.7353515625
 30
0.0
  0
VERTEX
  5
B3
330
AF
100
AcDbEntity
  8
Ebene 1
370
     0
100
AcDbVertex
100
AcDb2dVertex
 10
578.69140625
 20
469.82373046875
 30
0.0
  0
VERTEX
  5
B4
330
AF
100
AcDbEntity
  8
Ebene 1
370
     0
100
AcDbVertex
100
AcDb2dVertex
 10
577.103515625
 20
469.29443359375
 30
0.0
  0
VERTEX
  5
B5
330
AF
100
AcDbEntity
  8
Ebene 1
370
     0
100
AcDbVertex
100
AcDb2dVertex
 10
577.5
 20
468.63232421875
 30
0.0
  0
SEQEND
  5
B6
330
AF
100
AcDbEntity
  8
Ebene 1
370
     0
  0
POLYLINE
  5
B7
330
3C
100
AcDbEntity
  8
Ebene 1
370
     0
100
AcDb2dPolyline
 66
     1
 10
0.0
 20
0.0
 30
0.0
  0
VERTEX
  5
B8
330
B7
100
AcDbEntity
  8
Ebene 1
370
     0
100
AcDbVertex
100
AcDb2dVertex
 10
563.25
 20
449.61767578125
 30
0.0
  0
VERTEX
  5
B9
330
B7
100
AcDbEntity
  8
Ebene 1
370
     0
100
AcDbVertex
100
AcDb2dVertex
 10
562.9853515625
 20
449.13232421875
 30
0.0
  0
VERTEX
  5
BA
330
B7
100
AcDbEntity
  8
Ebene 1
370
     0
100
AcDbVertex
100
AcDb2dVertex
 10
562.587890625
 20
448.73583984375
 30
0.0
  0
VERTEX
  5
BB
330
B7
100
AcDbEntity
  8
Ebene 1
370
     0
100
AcDbVertex
100
AcDb2dVertex
 10
562.05859375
 20
448.51513671875
 30
0.0
  0
VERTEX
  5
BC
330
B7
100
AcDbEntity
  8
Ebene 1
370
     0
100
AcDbVertex
100
AcDb2dVertex
 10
561.4853515625
 20
448.51513671875
 30
0.0
  0
VERTEX
  5
BD
330
B7
100
AcDbEntity
  8
Ebene 1
370
     0
100
AcDbVertex
100
AcDb2dVertex
 10
560.9560546875
 20
448.73583984375
 30
0.0
  0
VERTEX
  5
BE
330
B7
100
AcDbEntity
  8
Ebene 1
370
     0
100
AcDbVertex
100
AcDb2dVertex
 10
560.603515625
 20
449.17626953125
 30
0.0
  0
VERTEX
  5
BF
330
B7
100
AcDbEntity
  8
Ebene 1
370
     0
100
AcDbVertex
100
AcDb2dVertex
 10
560.42578125
 20
449.66162109375
 30
0.0
  0
VERTEX
  5
C0
330
B7
100
AcDbEntity
  8
Ebene 1
370
     0
100
AcDbVertex
100
AcDb2dVertex
 10
560.470703125
 20
450.23583984375
 30
0.0
  0
VERTEX
  5
C1
330
B7
100
AcDbEntity
  8
Ebene 1
370
     0
100
AcDbVertex
100
AcDb2dVertex
 10
560.779296875
 20
450.72119140625
 30
0.0
  0
VERTEX
  5
C2
330
B7
100
AcDbEntity
  8
Ebene 1
370
     0
100
AcDbVertex
100
AcDb2dVertex
 10
561.220703125
 20
451.07373046875
 30
0.0
  0
VERTEX
  5
C3
330
B7
100
AcDbEntity
  8
Ebene 1
370
     0
100
AcDbVertex
100
AcDb2dVertex
 10
561.75
 20
451.25048828125
 30
0.0
  0
VERTEX
  5
C4
330
B7
100
AcDbEntity
  8
Ebene 1
370
     0
100
AcDbVertex
100
AcDb2dVertex
 10
562.32421875
 20
451.20556640625
 30
0.0
  0
SEQEND
  5
C5
330
B7
100
AcDbEntity
  8
Ebene 1
370
     0
  0
POLYLINE
  5
C6
330
3C
100
AcDbEntity
  8
Ebene 1
370
     0
100
AcDb2dPolyline
 66
     1
 10
0.0
 20
0.0
 30
0.0
  0
VERTEX
  5
C7
330
C6
100
AcDbEntity
  8
Ebene 1
370
     0
100
AcDbVertex
100
AcDb2dVertex
 10
562.853515625
 20
450.27978515625
 30
0.0
  0
VERTEX
  5
C8
330
C6
100
AcDbEntity
  8
Ebene 1
370
     0
100
AcDbVertex
100
AcDb2dVertex
 10
562.6328125
 20
449.75048828125
 30
0.0
  0
VERTEX
  5
C9
330
C6
100
AcDbEntity
  8
Ebene 1
370
     0
100
AcDbVertex
100
AcDb2dVertex
 10
562.2353515625
 20
449.35302734375
 30
0.0
  0
VERTEX
  5
CA
330
C6
100
AcDbEntity
  8
Ebene 1
370
     0
100
AcDbVertex
100
AcDb2dVertex
 10
561.662109375
 20
449.13232421875
 30
0.0
  0
VERTEX
  5
CB
330
C6
100
AcDbEntity
  8
Ebene 1
370
     0
100
AcDbVertex
100
AcDb2dVertex
 10
561.1328125
 20
449.17626953125
 30
0.0
  0
VERTEX
  5
CC
330
C6
100
AcDbEntity
  8
Ebene 1
370
     0
100
AcDbVertex
100
AcDb2dVertex
 10
560.603515625
 20
449.39697265625
 30
0.0
  0
VERTEX
  5
CD
330
C6
100
AcDbEntity
  8
Ebene 1
370
     0
100
AcDbVertex
100
AcDb2dVertex
 10
560.470703125
 20
449.48583984375
 30
0.0
  0
SEQEND
  5
CE
330
C6
100
AcDbEntity
  8
Ebene 1
370
     0
  0
POLYLINE
  5
CF
330
3C
100
AcDbEntity
  8
Ebene 1
370
     0
100
AcDb2dPolyline
 66
     1
 10
0.0
 20
0.0
 30
0.0
  0
VERTEX
  5
D0
330
CF
100
AcDbEntity
  8
Ebene 1
370
     0
100
AcDbVertex
100
AcDb2dVertex
 10
562.32421875
 20
451.20556640625
 30
0.0
  0
VERTEX
  5
D1
330
CF
100
AcDbEntity
  8
Ebene 1
370
     0
100
AcDbVertex
100
AcDb2dVertex
 10
562.5439453125
 20
451.16162109375
 30
0.0
  0
VERTEX
  5
D2
330
CF
100
AcDbEntity
  8
Ebene 1
370
     0
100
AcDbVertex
100
AcDb2dVertex
 10
562.80859375
 20
451.11767578125
 30
0.0
  0
VERTEX
  5
D3
330
CF
100
AcDbEntity
  8
Ebene 1
370
     0
100
AcDbVertex
100
AcDb2dVertex
 10
563.07421875
 20
451.11767578125
 30
0.0
  0
VERTEX
  5
D4
330
CF
100
AcDbEntity
  8
Ebene 1
370
     0
100
AcDbVertex
100
AcDb2dVertex
 10
563.2939453125
 20
451.11767578125
 30
0.0
  0
VERTEX
  5
D5
330
CF
100
AcDbEntity
  8
Ebene 1
370
     0
100
AcDbVertex
100
AcDb2dVertex
 10
563.55859375
 20
451.16162109375
 30
0.0
  0
VERTEX
  5
D6
330
CF
100
AcDbEntity
  8
Ebene 1
370
     0
100
AcDbVertex
100
AcDb2dVertex
 10
563.779296875
 20
451.20556640625
 30
0.0
  0
VERTEX
  5
D7
330
CF
100
AcDbEntity
  8
Ebene 1
370
     0
100
AcDbVertex
100
AcDb2dVertex
 10
564.0439453125
 20
451.33837890625
 30
0.0
  0
VERTEX
  5
D8
330
CF
100
AcDbEntity
  8
Ebene 1
370
     0
100
AcDbVertex
100
AcDb2dVertex
 10
564.2646484375
 20
451.42626953125
 30
0.0
  0
VERTEX
  5
D9
330
CF
100
AcDbEntity
  8
Ebene 1
370
     0
100
AcDbVertex
100
AcDb2dVertex
 10
564.662109375
 20
451.64697265625
 30
0.0
  0
SEQEND
  5
DA
330
CF
100
AcDbEntity
  8
Ebene 1
370
     0
  0
POLYLINE
  5
DB
330
3C
100
AcDbEntity
  8
Ebene 1
370
     0
100
AcDb2dPolyline
 66
     1
 10
0.0
 20
0.0
 30
0.0
  0
VERTEX
  5
DC
330
DB
100
AcDbEntity
  8
Ebene 1
370
     0
100
AcDbVertex
100
AcDb2dVertex
 10
579.529296875
 20
460.29443359375
 30
0.0
  0
VERTEX
  5
DD
330
DB
100
AcDbEntity
  8
Ebene 1
370
     0
100
AcDbVertex
100
AcDb2dVertex
 10
581.603515625
 20
461.48583984375
 30
0.0
  0
SEQEND
  5
DE
330
DB
100
AcDbEntity
  8
Ebene 1
370
     0
  0
POLYLINE
  5
DF
330
3C
100
AcDbEntity
  8
Ebene 1
370
     0
100
AcDb2dPolyline
 66
     1
 10
0.0
 20
0.0
 30
0.0
  0
VERTEX
  5
E0
330
DF
100
AcDbEntity
  8
Ebene 1
370
     0
100
AcDbVertex
100
AcDb2dVertex
 10
563.25
 20
449.61767578125
 30
0.0
  0
VERTEX
  5
E1
330
DF
100
AcDbEntity
  8
Ebene 1
370
     0
100
AcDbVertex
100
AcDb2dVertex
 10
562.853515625
 20
450.27978515625
 30
0.0
  0
SEQEND
  5
E2
330
DF
100
AcDbEntity
  8
Ebene 1
370
     0
  0
POLYLINE
  5
E3
330
3C
100
AcDbEntity
  8
Ebene 1
370
     0
100
AcDb2dPolyline
 66
     1
 10
0.0
 20
0.0
 30
0.0
  0
VERTEX
  5
E4
330
E3
100
AcDbEntity
  8
Ebene 1
370
     0
100
AcDbVertex
100
AcDb2dVertex
 10
581.779296875
 20
461.26513671875
 30
0.0
  0
VERTEX
  5
E5
330
E3
100
AcDbEntity
  8
Ebene 1
370
     0
100
AcDbVertex
100
AcDb2dVertex
 10
583.32421875
 20
461.83837890625
 30
0.0
  0
VERTEX
  5
E6
330
E3
100
AcDbEntity
  8
Ebene 1
370
     0
100
AcDbVertex
100
AcDb2dVertex
 10
585.0
 20
461.75048828125
 30
0.0
  0
VERTEX
  5
E7
330
E3
100
AcDbEntity
  8
Ebene 1
370
     0
100
AcDbVertex
100
AcDb2dVertex
 10
586.4560546875
 20
461.04443359375
 30
0.0
  0
VERTEX
  5
E8
330
E3
100
AcDbEntity
  8
Ebene 1
370
     0
100
AcDbVertex
100
AcDb2dVertex
 10
587.55859375
 20
459.85302734375
 30
0.0
  0
SEQEND
  5
E9
330
E3
100
AcDbEntity
  8
Ebene 1
370
     0
  0
POLYLINE
  5
EA
330
3C
100
AcDbEntity
  8
Ebene 1
370
     0
100
AcDb2dPolyline
 66
     1
 10
0.0
 20
0.0
 30
0.0
  0
VERTEX
  5
EB
330
EA
100
AcDbEntity
  8
Ebene 1
370
     0
100
AcDbVertex
100
AcDb2dVertex
 10
587.55859375
 20
459.85302734375
 30
0.0
  0
VERTEX
  5
EC
330
EA
100
AcDbEntity
  8
Ebene 1
370
     0
100
AcDbVertex
100
AcDb2dVertex
 10
588.0439453125
 20
458.30908203125
 30
0.0
  0
VERTEX
  5
ED
330
EA
100
AcDbEntity
  8
Ebene 1
370
     0
100
AcDbVertex
100
AcDb2dVertex
 10
587.912109375
 20
456.67626953125
 30
0.0
  0
VERTEX
  5
EE
330
EA
100
AcDbEntity
  8
Ebene 1
370
     0
100
AcDbVertex
100
AcDb2dVertex
 10
587.162109375
 20
455.22119140625
 30
0.0
  0
VERTEX
  5
EF
330
EA
100
AcDbEntity
  8
Ebene 1
370
     0
100
AcDbVertex
100
AcDb2dVertex
 10
585.8828125
 20
454.11767578125
 30
0.0
  0
SEQEND
  5
F0
330
EA
100
AcDbEntity
  8
Ebene 1
370
     0
  0
POLYLINE
  5
F1
330
3C
100
AcDbEntity
  8
Ebene 1
370
     0
100
AcDb2dPolyline
 66
     1
 10
0.0
 20
0.0
 30
0.0
  0
VERTEX
  5
F2
330
F1
100
AcDbEntity
  8
Ebene 1
370
     0
100
AcDbVertex
100
AcDb2dVertex
 10
582.75
 20
462.412109375
 30
0.0
  0
VERTEX
  5
F3
330
F1
100
AcDbEntity
  8
Ebene 1
370
     0
100
AcDbVertex
100
AcDb2dVertex
 10
582.970703125
 20
462.4560546875
 30
0.0
  0
VERTEX
  5
F4
330
F1
100
AcDbEntity
  8
Ebene 1
370
     0
100
AcDbVertex
100
AcDb2dVertex
 10
584.603515625
 20
462.36767578125
 30
0.0
  0
VERTEX
  5
F5
330
F1
100
AcDbEntity
  8
Ebene 1
370
     0
100
AcDbVertex
100
AcDb2dVertex
 10
586.103515625
 20
461.70556640625
 30
0.0
  0
VERTEX
  5
F6
330
F1
100
AcDbEntity
  8
Ebene 1
370
     0
100
AcDbVertex
100
AcDb2dVertex
 10
587.162109375
 20
460.47119140625
 30
0.0
  0
SEQEND
  5
F7
330
F1
100
AcDbEntity
  8
Ebene 1
370
     0
  0
POLYLINE
  5
F8
330
3C
100
AcDbEntity
  8
Ebene 1
370
     0
100
AcDb2dPolyline
 66
     1
 10
0.0
 20
0.0
 30
0.0
  0
VERTEX
  5
F9
330
F8
100
AcDbEntity
  8
Ebene 1
370
     0
100
AcDbVertex
100
AcDb2dVertex
 10
585.0439453125
 20
455.57373046875
 30
0.0
  0
VERTEX
  5
FA
330
F8
100
AcDbEntity
  8
Ebene 1
370
     0
100
AcDbVertex
100
AcDb2dVertex
 10
585.8828125
 20
454.11767578125
 30
0.0
  0
SEQEND
  5
FB
330
F8
100
AcDbEntity
  8
Ebene 1
370
     0
  0
POLYLINE
  5
FC
330
3C
100
AcDbEntity
  8
Ebene 1
370
     0
100
AcDb2dPolyline
 66
     1
 10
0.0
 20
0.0
 30
0.0
  0
VERTEX
  5
FD
330
FC
100
AcDbEntity
  8
Ebene 1
370
     0
100
AcDbVertex
100
AcDb2dVertex
 10
581.779296875
 20
461.26513671875
 30
0.0
  0
VERTEX
  5
FE
330
FC
100
AcDbEntity
  8
Ebene 1
370
     0
100
AcDbVertex
100
AcDb2dVertex
 10
579.6171875
 20
460.02978515625
 30
0.0
  0
SEQEND
  5
FF
330
FC
100
AcDbEntity
  8
Ebene 1
370
     0
  0
POLYLINE
  5
100
330
3C
100
AcDbEntity
  8
Ebene 1
370
     0
100
AcDb2dPolyline
 66
     1
 10
0.0
 20
0.0
 30
0.0
  0
VERTEX
  5
101
330
100
100
AcDbEntity
  8
Ebene 1
370
     0
100
AcDbVertex
100
AcDb2dVertex
 10
564.7939453125
 20
451.42626953125
 30
0.0
  0
VERTEX
  5
102
330
100
100
AcDbEntity
  8
Ebene 1
370
     0
100
AcDbVertex
100
AcDb2dVertex
 10
564.396484375
 20
451.20556640625
 30
0.0
  0
VERTEX
  5
103
330
100
100
AcDbEntity
  8
Ebene 1
370
     0
100
AcDbVertex
100
AcDb2dVertex
 10
564.17578125
 20
451.07373046875
 30
0.0
  0
VERTEX
  5
104
330
100
100
AcDbEntity
  8
Ebene 1
370
     0
100
AcDbVertex
100
AcDb2dVertex
 10
564.0
 20
450.89697265625
 30
0.0
  0
VERTEX
  5
105
330
100
100
AcDbEntity
  8
Ebene 1
370
     0
100
AcDbVertex
100
AcDb2dVertex
 10
563.82421875
 20
450.72119140625
 30
0.0
  0
VERTEX
  5
106
330
100
100
AcDbEntity
  8
Ebene 1
370
     0
100
AcDbVertex
100
AcDb2dVertex
 10
563.646484375
 20
450.54443359375
 30
0.0
  0
VERTEX
  5
107
330
100
100
AcDbEntity
  8
Ebene 1
370
     0
100
AcDbVertex
100
AcDb2dVertex
 10
563.5146484375
 20
450.32373046875
 30
0.0
  0
VERTEX
  5
108
330
100
100
AcDbEntity
  8
Ebene 1
370
     0
100
AcDbVertex
100
AcDb2dVertex
 10
563.3828125
 20
450.10302734375
 30
0.0
  0
VERTEX
  5
109
330
100
100
AcDbEntity
  8
Ebene 1
370
     0
100
AcDbVertex
100
AcDb2dVertex
 10
563.2939453125
 20
449.88232421875
 30
0.0
  0
VERTEX
  5
10A
330
100
100
AcDbEntity
  8
Ebene 1
370
     0
100
AcDbVertex
100
AcDb2dVertex
 10
563.25
 20
449.61767578125
 30
0.0
  0
SEQEND
  5
10B
330
100
100
AcDbEntity
  8
Ebene 1
370
     0
  0
POLYLINE
  5
10C
330
3C
100
AcDbEntity
  8
Ebene 1
370
     0
100
AcDb2dPolyline
 66
     1
 10
0.0
 20
0.0
 30
0.0
  0
VERTEX
  5
10D
330
10C
100
AcDbEntity
  8
Ebene 1
370
     0
100
AcDbVertex
100
AcDb2dVertex
 10
563.25
 20
451.11767578125
 30
0.0
  0
VERTEX
  5
10E
330
10C
100
AcDbEntity
  8
Ebene 1
370
     0
100
AcDbVertex
100
AcDb2dVertex
 10
563.1171875
 20
450.94091796875
 30
0.0
  0
VERTEX
  5
10F
330
10C
100
AcDbEntity
  8
Ebene 1
370
     0
100
AcDbVertex
100
AcDb2dVertex
 10
563.029296875
 20
450.72119140625
 30
0.0
  0
VERTEX
  5
110
330
10C
100
AcDbEntity
  8
Ebene 1
370
     0
100
AcDbVertex
100
AcDb2dVertex
 10
562.94140625
 20
450.50048828125
 30
0.0
  0
VERTEX
  5
111
330
10C
100
AcDbEntity
  8
Ebene 1
370
     0
100
AcDbVertex
100
AcDb2dVertex
 10
562.853515625
 20
450.27978515625
 30
0.0
  0
SEQEND
  5
112
330
10C
100
AcDbEntity
  8
Ebene 1
370
     0
  0
POLYLINE
  5
113
330
3C
100
AcDbEntity
  8
Ebene 1
370
     0
100
AcDb2dPolyline
 66
     1
 10
0.0
 20
0.0
 30
0.0
  0
VERTEX
  5
114
330
113
100
AcDbEntity
  8
Ebene 1
370
     0
100
AcDbVertex
100
AcDb2dVertex
 10
577.587890625
 20
456.27978515625
 30
0.0
  0
VERTEX
  5
115
330
113
100
AcDbEntity
  8
Ebene 1
370
     0
100
AcDbVertex
100
AcDb2dVertex
 10
577.5439453125
 20
457.07373046875
 30
0.0
  0
VERTEX
  5
116
330
113
100
AcDbEntity
  8
Ebene 1
370
     0
100
AcDbVertex
100
AcDb2dVertex
 10
577.3671875
 20
457.86767578125
 30
0.0
  0
VERTEX
  5
117
330
113
100
AcDbEntity
  8
Ebene 1
370
     0
100
AcDbVertex
100
AcDb2dVertex
 10
577.103515625
 20
458.61767578125
 30
0.0
  0
VERTEX
  5
118
330
113
100
AcDbEntity
  8
Ebene 1
370
     0
100
AcDbVertex
100
AcDb2dVertex
 10
576.7060546875
 20
459.32373046875
 30
0.0
  0
VERTEX
  5
119
330
113
100
AcDbEntity
  8
Ebene 1
370
     0
100
AcDbVertex
100
AcDb2dVertex
 10
576.2646484375
 20
459.98583984375
 30
0.0
  0
VERTEX
  5
11A
330
113
100
AcDbEntity
  8
Ebene 1
370
     0
100
AcDbVertex
100
AcDb2dVertex
 10
575.69140625
 20
460.55908203125
 30
0.0
  0
VERTEX
  5
11B
330
113
100
AcDbEntity
  8
Ebene 1
370
     0
100
AcDbVertex
100
AcDb2dVertex
 10
575.07421875
 20
461.04443359375
 30
0.0
  0
VERTEX
  5
11C
330
113
100
AcDbEntity
  8
Ebene 1
370
     0
100
AcDbVertex
100
AcDb2dVertex
 10
574.412109375
 20
461.44091796875
 30
0.0
  0
VERTEX
  5
11D
330
113
100
AcDbEntity
  8
Ebene 1
370
     0
100
AcDbVertex
100
AcDb2dVertex
 10
573.662109375
 20
461.75048828125
 30
0.0
  0
VERTEX
  5
11E
330
113
100
AcDbEntity
  8
Ebene 1
370
     0
100
AcDbVertex
100
AcDb2dVertex
 10
572.8671875
 20
461.9267578125
 30
0.0
  0
VERTEX
  5
11F
330
113
100
AcDbEntity
  8
Ebene 1
370
     0
100
AcDbVertex
100
AcDb2dVertex
 10
572.1171875
 20
462.0146484375
 30
0.0
  0
VERTEX
  5
120
330
113
100
AcDbEntity
  8
Ebene 1
370
     0
100
AcDbVertex
100
AcDb2dVertex
 10
571.32421875
 20
461.970703125
 30
0.0
  0
VERTEX
  5
121
330
113
100
AcDbEntity
  8
Ebene 1
370
     0
100
AcDbVertex
100
AcDb2dVertex
 10
570.529296875
 20
461.83837890625
 30
0.0
  0
VERTEX
  5
122
330
113
100
AcDbEntity
  8
Ebene 1
370
     0
100
AcDbVertex
100
AcDb2dVertex
 10
569.779296875
 20
461.61767578125
 30
0.0
  0
VERTEX
  5
123
330
113
100
AcDbEntity
  8
Ebene 1
370
     0
100
AcDbVertex
100
AcDb2dVertex
 10
569.07421875
 20
461.26513671875
 30
0.0
  0
VERTEX
  5
124
330
113
100
AcDbEntity
  8
Ebene 1
370
     0
100
AcDbVertex
100
AcDb2dVertex
 10
568.412109375
 20
460.77978515625
 30
0.0
  0
VERTEX
  5
125
330
113
100
AcDbEntity
  8
Ebene 1
370
     0
100
AcDbVertex
100
AcDb2dVertex
 10
567.7939453125
 20
460.25048828125
 30
0.0
  0
VERTEX
  5
126
330
113
100
AcDbEntity
  8
Ebene 1
370
     0
100
AcDbVertex
100
AcDb2dVertex
 10
567.30859375
 20
459.63232421875
 30
0.0
  0
VERTEX
  5
127
330
113
100
AcDbEntity
  8
Ebene 1
370
     0
100
AcDbVertex
100
AcDb2dVertex
 10
566.8671875
 20
458.97119140625
 30
0.0
  0
VERTEX
  5
128
330
113
100
AcDbEntity
  8
Ebene 1
370
     0
100
AcDbVertex
100
AcDb2dVertex
 10
566.55859375
 20
458.22119140625
 30
0.0
  0
VERTEX
  5
129
330
113
100
AcDbEntity
  8
Ebene 1
370
     0
100
AcDbVertex
100
AcDb2dVertex
 10
566.337890625
 20
457.47119140625
 30
0.0
  0
VERTEX
  5
12A
330
113
100
AcDbEntity
  8
Ebene 1
370
     0
100
AcDbVertex
100
AcDb2dVertex
 10
566.2060546875
 20
456.67626953125
 30
0.0
  0
VERTEX
  5
12B
330
113
100
AcDbEntity
  8
Ebene 1
370
     0
100
AcDbVertex
100
AcDb2dVertex
 10
566.2060546875
 20
455.88232421875
 30
0.0
  0
VERTEX
  5
12C
330
113
100
AcDbEntity
  8
Ebene 1
370
     0
100
AcDbVertex
100
AcDb2dVertex
 10
566.337890625
 20
455.08837890625
 30
0.0
  0
VERTEX
  5
12D
330
113
100
AcDbEntity
  8
Ebene 1
370
     0
100
AcDbVertex
100
AcDb2dVertex
 10
566.55859375
 20
454.33837890625
 30
0.0
  0
VERTEX
  5
12E
330
113
100
AcDbEntity
  8
Ebene 1
370
     0
100
AcDbVertex
100
AcDb2dVertex
 10
566.8671875
 20
453.58837890625
 30
0.0
  0
VERTEX
  5
12F
330
113
100
AcDbEntity
  8
Ebene 1
370
     0
100
AcDbVertex
100
AcDb2dVertex
 10
567.30859375
 20
452.92626953125
 30
0.0
  0
VERTEX
  5
130
330
113
100
AcDbEntity
  8
Ebene 1
370
     0
100
AcDbVertex
100
AcDb2dVertex
 10
567.7939453125
 20
452.30908203125
 30
0.0
  0
VERTEX
  5
131
330
113
100
AcDbEntity
  8
Ebene 1
370
     0
100
AcDbVertex
100
AcDb2dVertex
 10
568.412109375
 20
451.77978515625
 30
0.0
  0
VERTEX
  5
132
330
113
100
AcDbEntity
  8
Ebene 1
370
     0
100
AcDbVertex
100
AcDb2dVertex
 10
569.07421875
 20
451.29443359375
 30
0.0
  0
VERTEX
  5
133
330
113
100
AcDbEntity
  8
Ebene 1
370
     0
100
AcDbVertex
100
AcDb2dVertex
 10
569.779296875
 20
450.94091796875
 30
0.0
  0
VERTEX
  5
134
330
113
100
AcDbEntity
  8
Ebene 1
370
     0
100
AcDbVertex
100
AcDb2dVertex
 10
570.529296875
 20
450.72119140625
 30
0.0
  0
VERTEX
  5
135
330
113
100
AcDbEntity
  8
Ebene 1
370
     0
100
AcDbVertex
100
AcDb2dVertex
 10
571.32421875
 20
450.58837890625
 30
0.0
  0
VERTEX
  5
136
330
113
100
AcDbEntity
  8
Ebene 1
370
     0
100
AcDbVertex
100
AcDb2dVertex
 10
572.1171875
 20
450.54443359375
 30
0.0
  0
VERTEX
  5
137
330
113
100
AcDbEntity
  8
Ebene 1
370
     0
100
AcDbVertex
100
AcDb2dVertex
 10
572.8671875
 20
450.63232421875
 30
0.0
  0
VERTEX
  5
138
330
113
100
AcDbEntity
  8
Ebene 1
370
     0
100
AcDbVertex
100
AcDb2dVertex
 10
573.662109375
 20
450.80908203125
 30
0.0
  0
VERTEX
  5
139
330
113
100
AcDbEntity
  8
Ebene 1
370
     0
100
AcDbVertex
100
AcDb2dVertex
 10
574.412109375
 20
451.11767578125
 30
0.0
  0
VERTEX
  5
13A
330
113
100
AcDbEntity
  8
Ebene 1
370
     0
100
AcDbVertex
100
AcDb2dVertex
 10
575.07421875
 20
451.51513671875
 30
0.0
  0
VERTEX
  5
13B
330
113
100
AcDbEntity
  8
Ebene 1
370
     0
100
AcDbVertex
100
AcDb2dVertex
 10
575.69140625
 20
452.00048828125
 30
0.0
  0
VERTEX
  5
13C
330
113
100
AcDbEntity
  8
Ebene 1
370
     0
100
AcDbVertex
100
AcDb2dVertex
 10
576.2646484375
 20
452.57373046875
 30
0.0
  0
VERTEX
  5
13D
330
113
100
AcDbEntity
  8
Ebene 1
370
     0
100
AcDbVertex
100
AcDb2dVertex
 10
576.7060546875
 20
453.23583984375
 30
0.0
  0
VERTEX
  5
13E
330
113
100
AcDbEntity
  8
Ebene 1
370
     0
100
AcDbVertex
100
AcDb2dVertex
 10
577.103515625
 20
453.94091796875
 30
0.0
  0
VERTEX
  5
13F
330
113
100
AcDbEntity
  8
Ebene 1
370
     0
100
AcDbVertex
100
AcDb2dVertex
 10
577.3671875
 20
454.69091796875
 30
0.0
  0
VERTEX
  5
140
330
113
100
AcDbEntity
  8
Ebene 1
370
     0
100
AcDbVertex
100
AcDb2dVertex
 10
577.5439453125
 20
455.48583984375
 30
0.0
  0
VERTEX
  5
141
330
113
100
AcDbEntity
  8
Ebene 1
370
     0
100
AcDbVertex
100
AcDb2dVertex
 10
577.587890625
 20
456.27978515625
 30
0.0
  0
VERTEX
  5
142
330
113
100
AcDbEntity
  8
Ebene 1
370
     0
100
AcDbVertex
100
AcDb2dVertex
 10
577.587890625
 20
456.27978515625
 30
0.0
  0
SEQEND
  5
143
330
113
100
AcDbEntity
  8
Ebene 1
370
     0
  0
POLYLINE
  5
144
330
3C
100
AcDbEntity
  8
Ebene 1
370
     0
100
AcDb2dPolyline
 66
     1
 10
0.0
 20
0.0
 30
0.0
  0
VERTEX
  5
145
330
144
100
AcDbEntity
  8
Ebene 1
370
     0
100
AcDbVertex
100
AcDb2dVertex
 10
580.4560546875
 20
456.27978515625
 30
0.0
  0
VERTEX
  5
146
330
144
100
AcDbEntity
  8
Ebene 1
370
     0
100
AcDbVertex
100
AcDb2dVertex
 10
580.412109375
 20
457.25048828125
 30
0.0
  0
VERTEX
  5
147
330
144
100
AcDbEntity
  8
Ebene 1
370
     0
100
AcDbVertex
100
AcDb2dVertex
 10
580.2353515625
 20
458.22119140625
 30
0.0
  0
VERTEX
  5
148
330
144
100
AcDbEntity
  8
Ebene 1
370
     0
100
AcDbVertex
100
AcDb2dVertex
 10
579.970703125
 20
459.19091796875
 30
0.0
  0
VERTEX
  5
149
330
144
100
AcDbEntity
  8
Ebene 1
370
     0
100
AcDbVertex
100
AcDb2dVertex
 10
579.57421875
 20
460.07373046875
 30
0.0
  0
VERTEX
  5
14A
330
144
100
AcDbEntity
  8
Ebene 1
370
     0
100
AcDbVertex
100
AcDb2dVertex
 10
579.087890625
 20
460.91162109375
 30
0.0
  0
VERTEX
  5
14B
330
144
100
AcDbEntity
  8
Ebene 1
370
     0
100
AcDbVertex
100
AcDb2dVertex
 10
578.5146484375
 20
461.70556640625
 30
0.0
  0
VERTEX
  5
14C
330
144
100
AcDbEntity
  8
Ebene 1
370
     0
100
AcDbVertex
100
AcDb2dVertex
 10
577.853515625
 20
462.4560546875
 30
0.0
  0
VERTEX
  5
14D
330
144
100
AcDbEntity
  8
Ebene 1
370
     0
100
AcDbVertex
100
AcDb2dVertex
 10
577.103515625
 20
463.07373046875
 30
0.0
  0
VERTEX
  5
14E
330
144
100
AcDbEntity
  8
Ebene 1
370
     0
100
AcDbVertex
100
AcDb2dVertex
 10
576.30859375
 20
463.64697265625
 30
0.0
  0
VERTEX
  5
14F
330
144
100
AcDbEntity
  8
Ebene 1
370
     0
100
AcDbVertex
100
AcDb2dVertex
 10
575.470703125
 20
464.08837890625
 30
0.0
  0
VERTEX
  5
150
330
144
100
AcDbEntity
  8
Ebene 1
370
     0
100
AcDbVertex
100
AcDb2dVertex
 10
574.5439453125
 20
464.44140625
 30
0.0
  0
VERTEX
  5
151
330
144
100
AcDbEntity
  8
Ebene 1
370
     0
100
AcDbVertex
100
AcDb2dVertex
 10
573.6171875
 20
464.7060546875
 30
0.0
  0
VERTEX
  5
152
330
144
100
AcDbEntity
  8
Ebene 1
370
     0
100
AcDbVertex
100
AcDb2dVertex
 10
572.646484375
 20
464.83837890625
 30
0.0
  0
VERTEX
  5
153
330
144
100
AcDbEntity
  8
Ebene 1
370
     0
100
AcDbVertex
100
AcDb2dVertex
 10
571.6328125
 20
464.88232421875
 30
0.0
  0
VERTEX
  5
154
330
144
100
AcDbEntity
  8
Ebene 1
370
     0
100
AcDbVertex
100
AcDb2dVertex
 10
570.662109375
 20
464.79443359375
 30
0.0
  0
VERTEX
  5
155
330
144
100
AcDbEntity
  8
Ebene 1
370
     0
100
AcDbVertex
100
AcDb2dVertex
 10
569.7353515625
 20
464.61767578125
 30
0.0
  0
VERTEX
  5
156
330
144
100
AcDbEntity
  8
Ebene 1
370
     0
100
AcDbVertex
100
AcDb2dVertex
 10
568.80859375
 20
464.30908203125
 30
0.0
  0
VERTEX
  5
157
330
144
100
AcDbEntity
  8
Ebene 1
370
     0
100
AcDbVertex
100
AcDb2dVertex
 10
567.8828125
 20
463.86767578125
 30
0.0
  0
VERTEX
  5
158
330
144
100
AcDbEntity
  8
Ebene 1
370
     0
100
AcDbVertex
100
AcDb2dVertex
 10
567.0439453125
 20
463.38232421875
 30
0.0
  0
VERTEX
  5
159
330
144
100
AcDbEntity
  8
Ebene 1
370
     0
100
AcDbVertex
100
AcDb2dVertex
 10
566.2939453125
 20
462.7646484375
 30
0.0
  0
VERTEX
  5
15A
330
144
100
AcDbEntity
  8
Ebene 1
370
     0
100
AcDbVertex
100
AcDb2dVertex
 10
565.587890625
 20
462.10302734375
 30
0.0
  0
VERTEX
  5
15B
330
144
100
AcDbEntity
  8
Ebene 1
370
     0
100
AcDbVertex
100
AcDb2dVertex
 10
564.970703125
 20
461.35302734375
 30
0.0
  0
VERTEX
  5
15C
330
144
100
AcDbEntity
  8
Ebene 1
370
     0
100
AcDbVertex
100
AcDb2dVertex
 10
564.44140625
 20
460.51513671875
 30
0.0
  0
VERTEX
  5
15D
330
144
100
AcDbEntity
  8
Ebene 1
370
     0
100
AcDbVertex
100
AcDb2dVertex
 10
564.0
 20
459.63232421875
 30
0.0
  0
VERTEX
  5
15E
330
144
100
AcDbEntity
  8
Ebene 1
370
     0
100
AcDbVertex
100
AcDb2dVertex
 10
563.69140625
 20
458.70556640625
 30
0.0
  0
VERTEX
  5
15F
330
144
100
AcDbEntity
  8
Ebene 1
370
     0
100
AcDbVertex
100
AcDb2dVertex
 10
563.470703125
 20
457.73583984375
 30
0.0
  0
VERTEX
  5
160
330
144
100
AcDbEntity
  8
Ebene 1
370
     0
100
AcDbVertex
100
AcDb2dVertex
 10
563.337890625
 20
456.76513671875
 30
0.0
  0
VERTEX
  5
161
330
144
100
AcDbEntity
  8
Ebene 1
370
     0
100
AcDbVertex
100
AcDb2dVertex
 10
563.337890625
 20
455.79443359375
 30
0.0
  0
VERTEX
  5
162
330
144
100
AcDbEntity
  8
Ebene 1
370
     0
100
AcDbVertex
100
AcDb2dVertex
 10
563.470703125
 20
454.82373046875
 30
0.0
  0
VERTEX
  5
163
330
144
100
AcDbEntity
  8
Ebene 1
370
     0
100
AcDbVertex
100
AcDb2dVertex
 10
563.69140625
 20
453.85302734375
 30
0.0
  0
VERTEX
  5
164
330
144
100
AcDbEntity
  8
Ebene 1
370
     0
100
AcDbVertex
100
AcDb2dVertex
 10
564.0
 20
452.92626953125
 30
0.0
  0
VERTEX
  5
165
330
144
100
AcDbEntity
  8
Ebene 1
370
     0
100
AcDbVertex
100
AcDb2dVertex
 10
564.44140625
 20
452.04443359375
 30
0.0
  0
VERTEX
  5
166
330
144
100
AcDbEntity
  8
Ebene 1
370
     0
100
AcDbVertex
100
AcDb2dVertex
 10
564.970703125
 20
451.20556640625
 30
0.0
  0
VERTEX
  5
167
330
144
100
AcDbEntity
  8
Ebene 1
370
     0
100
AcDbVertex
100
AcDb2dVertex
 10
565.587890625
 20
450.45556640625
 30
0.0
  0
VERTEX
  5
168
330
144
100
AcDbEntity
  8
Ebene 1
370
     0
100
AcDbVertex
100
AcDb2dVertex
 10
566.2939453125
 20
449.79443359375
 30
0.0
  0
VERTEX
  5
169
330
144
100
AcDbEntity
  8
Ebene 1
370
     0
100
AcDbVertex
100
AcDb2dVertex
 10
567.0439453125
 20
449.17626953125
 30
0.0
  0
VERTEX
  5
16A
330
144
100
AcDbEntity
  8
Ebene 1
370
     0
100
AcDbVertex
100
AcDb2dVertex
 10
567.8828125
 20
448.69091796875
 30
0.0
  0
VERTEX
  5
16B
330
144
100
AcDbEntity
  8
Ebene 1
370
     0
100
AcDbVertex
100
AcDb2dVertex
 10
568.80859375
 20
448.25048828125
 30
0.0
  0
VERTEX
  5
16C
330
144
100
AcDbEntity
  8
Ebene 1
370
     0
100
AcDbVertex
100
AcDb2dVertex
 10
569.7353515625
 20
447.94091796875
 30
0.0
  0
VERTEX
  5
16D
330
144
100
AcDbEntity
  8
Ebene 1
370
     0
100
AcDbVertex
100
AcDb2dVertex
 10
570.662109375
 20
447.76513671875
 30
0.0
  0
VERTEX
  5
16E
330
144
100
AcDbEntity
  8
Ebene 1
370
     0
100
AcDbVertex
100
AcDb2dVertex
 10
571.6328125
 20
447.67626953125
 30
0.0
  0
VERTEX
  5
16F
330
144
100
AcDbEntity
  8
Ebene 1
370
     0
100
AcDbVertex
100
AcDb2dVertex
 10
572.646484375
 20
447.72119140625
 30
0.0
  0
VERTEX
  5
170
330
144
100
AcDbEntity
  8
Ebene 1
370
     0
100
AcDbVertex
100
AcDb2dVertex
 10
573.6171875
 20
447.85302734375
 30
0.0
  0
VERTEX
  5
171
330
144
100
AcDbEntity
  8
Ebene 1
370
     0
100
AcDbVertex
100
AcDb2dVertex
 10
574.5439453125
 20
448.11767578125
 30
0.0
  0
VERTEX
  5
172
330
144
100
AcDbEntity
  8
Ebene 1
370
     0
100
AcDbVertex
100
AcDb2dVertex
 10
575.470703125
 20
448.47119140625
 30
0.0
  0
VERTEX
  5
173
330
144
100
AcDbEntity
  8
Ebene 1
370
     0
100
AcDbVertex
100
AcDb2dVertex
 10
576.30859375
 20
448.91162109375
 30
0.0
  0
VERTEX
  5
174
330
144
100
AcDbEntity
  8
Ebene 1
370
     0
100
AcDbVertex
100
AcDb2dVertex
 10
577.103515625
 20
449.48583984375
 30
0.0
  0
VERTEX
  5
175
330
144
100
AcDbEntity
  8
Ebene 1
370
     0
100
AcDbVertex
100
AcDb2dVertex
 10
577.853515625
 20
450.10302734375
 30
0.0
  0
VERTEX
  5
176
330
144
100
AcDbEntity
  8
Ebene 1
370
     0
100
AcDbVertex
100
AcDb2dVertex
 10
578.5146484375
 20
450.85302734375
 30
0.0
  0
VERTEX
  5
177
330
144
100
AcDbEntity
  8
Ebene 1
370
     0
100
AcDbVertex
100
AcDb2dVertex
 10
579.087890625
 20
451.64697265625
 30
0.0
  0
VERTEX
  5
178
330
144
100
AcDbEntity
  8
Ebene 1
370
     0
100
AcDbVertex
100
AcDb2dVertex
 10
579.57421875
 20
452.48583984375
 30
0.0
  0
VERTEX
  5
179
330
144
100
AcDbEntity
  8
Ebene 1
370
     0
100
AcDbVertex
100
AcDb2dVertex
 10
579.970703125
 20
453.36767578125
 30
0.0
  0
VERTEX
  5
17A
330
144
100
AcDbEntity
  8
Ebene 1
370
     0
100
AcDbVertex
100
AcDb2dVertex
 10
580.2353515625
 20
454.33837890625
 30
0.0
  0
VERTEX
  5
17B
330
144
100
AcDbEntity
  8
Ebene 1
370
     0
100
AcDbVertex
100
AcDb2dVertex
 10
580.412109375
 20
455.30908203125
 30
0.0
  0
VERTEX
  5
17C
330
144
100
AcDbEntity
  8
Ebene 1
370
     0
100
AcDbVertex
100
AcDb2dVertex
 10
580.4560546875
 20
456.27978515625
 30
0.0
  0
VERTEX
  5
17D
330
144
100
AcDbEntity
  8
Ebene 1
370
     0
100
AcDbVertex
100
AcDb2dVertex
 10
580.4560546875
 20
456.27978515625
 30
0.0
  0
SEQEND
  5
17E
330
144
100
AcDbEntity
  8
Ebene 1
370
     0
  0
POLYLINE
  5
17F
330
3C
100
AcDbEntity
  8
Ebene 1
370
     0
100
AcDb2dPolyline
 66
     1
 10
0.0
 20
0.0
 30
0.0
  0
VERTEX
  5
180
330
17F
100
AcDbEntity
  8
Ebene 1
370
     0
100
AcDbVertex
100
AcDb2dVertex
 10
599.1171875
 20
473.4853515625
 30
0.0
  0
VERTEX
  5
181
330
17F
100
AcDbEntity
  8
Ebene 1
370
     0
100
AcDbVertex
100
AcDb2dVertex
 10
573.30859375
 20
473.4853515625
 30
0.0
  0
SEQEND
  5
182
330
17F
100
AcDbEntity
  8
Ebene 1
370
     0
  0
POLYLINE
  5
183
330
3C
100
AcDbEntity
  8
Ebene 1
370
     0
100
AcDb2dPolyline
 66
     1
 10
0.0
 20
0.0
 30
0.0
  0
VERTEX
  5
184
330
183
100
AcDbEntity
  8
Ebene 1
370
     0
100
AcDbVertex
100
AcDb2dVertex
 10
573.220703125
 20
470.61767578125
 30
0.0
  0
VERTEX
  5
185
330
183
100
AcDbEntity
  8
Ebene 1
370
     0
100
AcDbVertex
100
AcDb2dVertex
 10
573.220703125
 20
471.19140625
 30
0.0
  0
VERTEX
  5
186
330
183
100
AcDbEntity
  8
Ebene 1
370
     0
100
AcDbVertex
100
AcDb2dVertex
 10
573.220703125
 20
471.720703125
 30
0.0
  0
VERTEX
  5
187
330
183
100
AcDbEntity
  8
Ebene 1
370
     0
100
AcDbVertex
100
AcDb2dVertex
 10
573.220703125
 20
472.2060546875
 30
0.0
  0
VERTEX
  5
188
330
183
100
AcDbEntity
  8
Ebene 1
370
     0
100
AcDbVertex
100
AcDb2dVertex
 10
573.2646484375
 20
472.64697265625
 30
0.0
  0
VERTEX
  5
189
330
183
100
AcDbEntity
  8
Ebene 1
370
     0
100
AcDbVertex
100
AcDb2dVertex
 10
573.2646484375
 20
473.0
 30
0.0
  0
VERTEX
  5
18A
330
183
100
AcDbEntity
  8
Ebene 1
370
     0
100
AcDbVertex
100
AcDb2dVertex
 10
573.2646484375
 20
473.2646484375
 30
0.0
  0
VERTEX
  5
18B
330
183
100
AcDbEntity
  8
Ebene 1
370
     0
100
AcDbVertex
100
AcDb2dVertex
 10
573.30859375
 20
473.44140625
 30
0.0
  0
VERTEX
  5
18C
330
183
100
AcDbEntity
  8
Ebene 1
370
     0
100
AcDbVertex
100
AcDb2dVertex
 10
573.30859375
 20
473.4853515625
 30
0.0
  0
SEQEND
  5
18D
330
183
100
AcDbEntity
  8
Ebene 1
370
     0
  0
POLYLINE
  5
18E
330
3C
100
AcDbEntity
  8
Ebene 1
370
     0
100
AcDb2dPolyline
 66
     1
 10
0.0
 20
0.0
 30
0.0
  0
VERTEX
  5
18F
330
18E
100
AcDbEntity
  8
Ebene 1
370
     0
100
AcDbVertex
100
AcDb2dVertex
 10
573.220703125
 20
470.61767578125
 30
0.0
  0
VERTEX
  5
190
330
18E
100
AcDbEntity
  8
Ebene 1
370
     0
100
AcDbVertex
100
AcDb2dVertex
 10
599.1171875
 20
470.61767578125
 30
0.0
  0
VERTEX
  5
191
330
18E
100
AcDbEntity
  8
Ebene 1
370
     0
100
AcDbVertex
100
AcDb2dVertex
 10
599.1171875
 20
473.4853515625
 30
0.0
  0
SEQEND
  5
192
330
18E
100
AcDbEntity
  8
Ebene 1
370
     0
  0
POLYLINE
  5
193
330
3C
100
AcDbEntity
  8
Ebene 1
370
     0
100
AcDb2dPolyline
 66
     1
 10
0.0
 20
0.0
 30
0.0
  0
VERTEX
  5
194
330
193
100
AcDbEntity
  8
Ebene 1
370
     0
100
AcDbVertex
100
AcDb2dVertex
 10
558.8828125
 20
433.29443359375
 30
0.0
  0
VERTEX
  5
195
330
193
100
AcDbEntity
  8
Ebene 1
370
     0
100
AcDbVertex
100
AcDb2dVertex
 10
558.8828125
 20
456.27978515625
 30
0.0
  0
SEQEND
  5
196
330
193
100
AcDbEntity
  8
Ebene 1
370
     0
  0
POLYLINE
  5
197
330
3C
100
AcDbEntity
  8
Ebene 1
370
     0
100
AcDb2dPolyline
 66
     1
 10
0.0
 20
0.0
 30
0.0
  0
VERTEX
  5
198
330
197
100
AcDbEntity
  8
Ebene 1
370
     0
100
AcDbVertex
100
AcDb2dVertex
 10
599.1171875
 20
431.88232421875
 30
0.0
  0
VERTEX
  5
199
330
197
100
AcDbEntity
  8
Ebene 1
370
     0
100
AcDbVertex
100
AcDb2dVertex
 10
558.8828125
 20
433.29443359375
 30
0.0
  0
SEQEND
  5
19A
330
197
100
AcDbEntity
  8
Ebene 1
370
     0
  0
POLYLINE
  5
19B
330
3C
100
AcDbEntity
  8
Ebene 1
370
     0
100
AcDb2dPolyline
 66
     1
 10
0.0
 20
0.0
 30
0.0
  0
VERTEX
  5
19C
330
19B
100
AcDbEntity
  8
Ebene 1
370
     0
100
AcDbVertex
100
AcDb2dVertex
 10
573.220703125
 20
470.61767578125
 30
0.0
  0
VERTEX
  5
19D
330
19B
100
AcDbEntity
  8
Ebene 1
370
     0
100
AcDbVertex
100
AcDb2dVertex
 10
571.9853515625
 20
470.57373046875
 30
0.0
  0
VERTEX
  5
19E
330
19B
100
AcDbEntity
  8
Ebene 1
370
     0
100
AcDbVertex
100
AcDb2dVertex
 10
570.75
 20
470.39697265625
 30
0.0
  0
VERTEX
  5
19F
330
19B
100
AcDbEntity
  8
Ebene 1
370
     0
100
AcDbVertex
100
AcDb2dVertex
 10
569.5146484375
 20
470.13232421875
 30
0.0
  0
VERTEX
  5
1A0
330
19B
100
AcDbEntity
  8
Ebene 1
370
     0
100
AcDbVertex
100
AcDb2dVertex
 10
568.32421875
 20
469.7353515625
 30
0.0
  0
VERTEX
  5
1A1
330
19B
100
AcDbEntity
  8
Ebene 1
370
     0
100
AcDbVertex
100
AcDb2dVertex
 10
567.17578125
 20
469.29443359375
 30
0.0
  0
VERTEX
  5
1A2
330
19B
100
AcDbEntity
  8
Ebene 1
370
     0
100
AcDbVertex
100
AcDb2dVertex
 10
566.07421875
 20
468.6767578125
 30
0.0
  0
VERTEX
  5
1A3
330
19B
100
AcDbEntity
  8
Ebene 1
370
     0
100
AcDbVertex
100
AcDb2dVertex
 10
565.0146484375
 20
468.0146484375
 30
0.0
  0
VERTEX
  5
1A4
330
19B
100
AcDbEntity
  8
Ebene 1
370
     0
100
AcDbVertex
100
AcDb2dVertex
 10
564.0439453125
 20
467.2646484375
 30
0.0
  0
VERTEX
  5
1A5
330
19B
100
AcDbEntity
  8
Ebene 1
370
     0
100
AcDbVertex
100
AcDb2dVertex
 10
563.1171875
 20
466.4267578125
 30
0.0
  0
VERTEX
  5
1A6
330
19B
100
AcDbEntity
  8
Ebene 1
370
     0
100
AcDbVertex
100
AcDb2dVertex
 10
562.279296875
 20
465.5
 30
0.0
  0
VERTEX
  5
1A7
330
19B
100
AcDbEntity
  8
Ebene 1
370
     0
100
AcDbVertex
100
AcDb2dVertex
 10
561.529296875
 20
464.4853515625
 30
0.0
  0
VERTEX
  5
1A8
330
19B
100
AcDbEntity
  8
Ebene 1
370
     0
100
AcDbVertex
100
AcDb2dVertex
 10
560.82421875
 20
463.470703125
 30
0.0
  0
VERTEX
  5
1A9
330
19B
100
AcDbEntity
  8
Ebene 1
370
     0
100
AcDbVertex
100
AcDb2dVertex
 10
560.25
 20
462.32373046875
 30
0.0
  0
VERTEX
  5
1AA
330
19B
100
AcDbEntity
  8
Ebene 1
370
     0
100
AcDbVertex
100
AcDb2dVertex
 10
559.80859375
 20
461.17626953125
 30
0.0
  0
VERTEX
  5
1AB
330
19B
100
AcDbEntity
  8
Ebene 1
370
     0
100
AcDbVertex
100
AcDb2dVertex
 10
559.412109375
 20
459.98583984375
 30
0.0
  0
VERTEX
  5
1AC
330
19B
100
AcDbEntity
  8
Ebene 1
370
     0
100
AcDbVertex
100
AcDb2dVertex
 10
559.146484375
 20
458.75048828125
 30
0.0
  0
VERTEX
  5
1AD
330
19B
100
AcDbEntity
  8
Ebene 1
370
     0
100
AcDbVertex
100
AcDb2dVertex
 10
558.970703125
 20
457.51513671875
 30
0.0
  0
VERTEX
  5
1AE
330
19B
100
AcDbEntity
  8
Ebene 1
370
     0
100
AcDbVertex
100
AcDb2dVertex
 10
558.92578125
 20
456.27978515625
 30
0.0
  0
SEQEND
  5
1AF
330
19B
100
AcDbEntity
  8
Ebene 1
370
     0
  0
POLYLINE
  5
1B0
330
3C
100
AcDbEntity
  8
Ebene 1
370
     0
100
AcDb2dPolyline
 66
     1
 10
0.0
 20
0.0
 30
0.0
  0
VERTEX
  5
1B1
330
1B0
100
AcDbEntity
  8
Ebene 1
370
     0
100
AcDbVertex
100
AcDb2dVertex
 10
565.146484375
 20
450.54443359375
 30
0.0
  0
VERTEX
  5
1B2
330
1B0
100
AcDbEntity
  8
Ebene 1
370
     0
100
AcDbVertex
100
AcDb2dVertex
 10
565.80859375
 20
449.83837890625
 30
0.0
  0
VERTEX
  5
1B3
330
1B0
100
AcDbEntity
  8
Ebene 1
370
     0
100
AcDbVertex
100
AcDb2dVertex
 10
566.55859375
 20
449.22119140625
 30
0.0
  0
VERTEX
  5
1B4
330
1B0
100
AcDbEntity
  8
Ebene 1
370
     0
100
AcDbVertex
100
AcDb2dVertex
 10
567.353515625
 20
448.64697265625
 30
0.0
  0
VERTEX
  5
1B5
330
1B0
100
AcDbEntity
  8
Ebene 1
370
     0
100
AcDbVertex
100
AcDb2dVertex
 10
568.2353515625
 20
448.20556640625
 30
0.0
  0
VERTEX
  5
1B6
330
1B0
100
AcDbEntity
  8
Ebene 1
370
     0
100
AcDbVertex
100
AcDb2dVertex
 10
569.162109375
 20
447.85302734375
 30
0.0
  0
VERTEX
  5
1B7
330
1B0
100
AcDbEntity
  8
Ebene 1
370
     0
100
AcDbVertex
100
AcDb2dVertex
 10
570.087890625
 20
447.58837890625
 30
0.0
  0
VERTEX
  5
1B8
330
1B0
100
AcDbEntity
  8
Ebene 1
370
     0
100
AcDbVertex
100
AcDb2dVertex
 10
571.05859375
 20
447.45556640625
 30
0.0
  0
VERTEX
  5
1B9
330
1B0
100
AcDbEntity
  8
Ebene 1
370
     0
100
AcDbVertex
100
AcDb2dVertex
 10
572.07421875
 20
447.41162109375
 30
0.0
  0
VERTEX
  5
1BA
330
1B0
100
AcDbEntity
  8
Ebene 1
370
     0
100
AcDbVertex
100
AcDb2dVertex
 10
573.0439453125
 20
447.50048828125
 30
0.0
  0
VERTEX
  5
1BB
330
1B0
100
AcDbEntity
  8
Ebene 1
370
     0
100
AcDbVertex
100
AcDb2dVertex
 10
574.0146484375
 20
447.67626953125
 30
0.0
  0
VERTEX
  5
1BC
330
1B0
100
AcDbEntity
  8
Ebene 1
370
     0
100
AcDbVertex
100
AcDb2dVertex
 10
574.94140625
 20
447.94091796875
 30
0.0
  0
VERTEX
  5
1BD
330
1B0
100
AcDbEntity
  8
Ebene 1
370
     0
100
AcDbVertex
100
AcDb2dVertex
 10
575.8671875
 20
448.33837890625
 30
0.0
  0
VERTEX
  5
1BE
330
1B0
100
AcDbEntity
  8
Ebene 1
370
     0
100
AcDbVertex
100
AcDb2dVertex
 10
576.7060546875
 20
448.82373046875
 30
0.0
  0
VERTEX
  5
1BF
330
1B0
100
AcDbEntity
  8
Ebene 1
370
     0
100
AcDbVertex
100
AcDb2dVertex
 10
577.5
 20
449.39697265625
 30
0.0
  0
VERTEX
  5
1C0
330
1B0
100
AcDbEntity
  8
Ebene 1
370
     0
100
AcDbVertex
100
AcDb2dVertex
 10
578.2060546875
 20
450.05908203125
 30
0.0
  0
VERTEX
  5
1C1
330
1B0
100
AcDbEntity
  8
Ebene 1
370
     0
100
AcDbVertex
100
AcDb2dVertex
 10
578.8671875
 20
450.80908203125
 30
0.0
  0
VERTEX
  5
1C2
330
1B0
100
AcDbEntity
  8
Ebene 1
370
     0
100
AcDbVertex
100
AcDb2dVertex
 10
579.44140625
 20
451.60302734375
 30
0.0
  0
VERTEX
  5
1C3
330
1B0
100
AcDbEntity
  8
Ebene 1
370
     0
100
AcDbVertex
100
AcDb2dVertex
 10
579.92578125
 20
452.48583984375
 30
0.0
  0
VERTEX
  5
1C4
330
1B0
100
AcDbEntity
  8
Ebene 1
370
     0
100
AcDbVertex
100
AcDb2dVertex
 10
580.279296875
 20
453.36767578125
 30
0.0
  0
VERTEX
  5
1C5
330
1B0
100
AcDbEntity
  8
Ebene 1
370
     0
100
AcDbVertex
100
AcDb2dVertex
 10
580.5439453125
 20
454.33837890625
 30
0.0
  0
VERTEX
  5
1C6
330
1B0
100
AcDbEntity
  8
Ebene 1
370
     0
100
AcDbVertex
100
AcDb2dVertex
 10
580.720703125
 20
455.30908203125
 30
0.0
  0
VERTEX
  5
1C7
330
1B0
100
AcDbEntity
  8
Ebene 1
370
     0
100
AcDbVertex
100
AcDb2dVertex
 10
580.7646484375
 20
456.27978515625
 30
0.0
  0
SEQEND
  5
1C8
330
1B0
100
AcDbEntity
  8
Ebene 1
370
     0
  0
POLYLINE
  5
1C9
330
3C
100
AcDbEntity
  8
Ebene 1
370
     0
100
AcDb2dPolyline
 66
     1
 10
0.0
 20
0.0
 30
0.0
  0
VERTEX
  5
1CA
330
1C9
100
AcDbEntity
  8
Ebene 1
370
     0
100
AcDbVertex
100
AcDb2dVertex
 10
578.82421875
 20
461.79443359375
 30
0.0
  0
VERTEX
  5
1CB
330
1C9
100
AcDbEntity
  8
Ebene 1
370
     0
100
AcDbVertex
100
AcDb2dVertex
 10
578.162109375
 20
462.54443359375
 30
0.0
  0
VERTEX
  5
1CC
330
1C9
100
AcDbEntity
  8
Ebene 1
370
     0
100
AcDbVertex
100
AcDb2dVertex
 10
577.412109375
 20
463.2060546875
 30
0.0
  0
VERTEX
  5
1CD
330
1C9
100
AcDbEntity
  8
Ebene 1
370
     0
100
AcDbVertex
100
AcDb2dVertex
 10
576.57421875
 20
463.82373046875
 30
0.0
  0
VERTEX
  5
1CE
330
1C9
100
AcDbEntity
  8
Ebene 1
370
     0
100
AcDbVertex
100
AcDb2dVertex
 10
575.69140625
 20
464.30908203125
 30
0.0
  0
VERTEX
  5
1CF
330
1C9
100
AcDbEntity
  8
Ebene 1
370
     0
100
AcDbVertex
100
AcDb2dVertex
 10
574.7646484375
 20
464.662109375
 30
0.0
  0
VERTEX
  5
1D0
330
1C9
100
AcDbEntity
  8
Ebene 1
370
     0
100
AcDbVertex
100
AcDb2dVertex
 10
573.7939453125
 20
464.9267578125
 30
0.0
  0
VERTEX
  5
1D1
330
1C9
100
AcDbEntity
  8
Ebene 1
370
     0
100
AcDbVertex
100
AcDb2dVertex
 10
572.779296875
 20
465.10302734375
 30
0.0
  0
VERTEX
  5
1D2
330
1C9
100
AcDbEntity
  8
Ebene 1
370
     0
100
AcDbVertex
100
AcDb2dVertex
 10
571.80859375
 20
465.14697265625
 30
0.0
  0
VERTEX
  5
1D3
330
1C9
100
AcDbEntity
  8
Ebene 1
370
     0
100
AcDbVertex
100
AcDb2dVertex
 10
570.7939453125
 20
465.05908203125
 30
0.0
  0
VERTEX
  5
1D4
330
1C9
100
AcDbEntity
  8
Ebene 1
370
     0
100
AcDbVertex
100
AcDb2dVertex
 10
569.779296875
 20
464.88232421875
 30
0.0
  0
VERTEX
  5
1D5
330
1C9
100
AcDbEntity
  8
Ebene 1
370
     0
100
AcDbVertex
100
AcDb2dVertex
 10
568.80859375
 20
464.61767578125
 30
0.0
  0
VERTEX
  5
1D6
330
1C9
100
AcDbEntity
  8
Ebene 1
370
     0
100
AcDbVertex
100
AcDb2dVertex
 10
567.8828125
 20
464.1767578125
 30
0.0
  0
VERTEX
  5
1D7
330
1C9
100
AcDbEntity
  8
Ebene 1
370
     0
100
AcDbVertex
100
AcDb2dVertex
 10
567.0
 20
463.69140625
 30
0.0
  0
VERTEX
  5
1D8
330
1C9
100
AcDbEntity
  8
Ebene 1
370
     0
100
AcDbVertex
100
AcDb2dVertex
 10
566.2060546875
 20
463.07373046875
 30
0.0
  0
VERTEX
  5
1D9
330
1C9
100
AcDbEntity
  8
Ebene 1
370
     0
100
AcDbVertex
100
AcDb2dVertex
 10
565.4560546875
 20
462.412109375
 30
0.0
  0
VERTEX
  5
1DA
330
1C9
100
AcDbEntity
  8
Ebene 1
370
     0
100
AcDbVertex
100
AcDb2dVertex
 10
564.837890625
 20
461.61767578125
 30
0.0
  0
VERTEX
  5
1DB
330
1C9
100
AcDbEntity
  8
Ebene 1
370
     0
100
AcDbVertex
100
AcDb2dVertex
 10
564.2646484375
 20
460.77978515625
 30
0.0
  0
VERTEX
  5
1DC
330
1C9
100
AcDbEntity
  8
Ebene 1
370
     0
100
AcDbVertex
100
AcDb2dVertex
 10
563.779296875
 20
459.89697265625
 30
0.0
  0
VERTEX
  5
1DD
330
1C9
100
AcDbEntity
  8
Ebene 1
370
     0
100
AcDbVertex
100
AcDb2dVertex
 10
563.42578125
 20
458.92626953125
 30
0.0
  0
VERTEX
  5
1DE
330
1C9
100
AcDbEntity
  8
Ebene 1
370
     0
100
AcDbVertex
100
AcDb2dVertex
 10
563.2060546875
 20
457.95556640625
 30
0.0
  0
VERTEX
  5
1DF
330
1C9
100
AcDbEntity
  8
Ebene 1
370
     0
100
AcDbVertex
100
AcDb2dVertex
 10
563.07421875
 20
456.94091796875
 30
0.0
  0
VERTEX
  5
1E0
330
1C9
100
AcDbEntity
  8
Ebene 1
370
     0
100
AcDbVertex
100
AcDb2dVertex
 10
563.029296875
 20
455.92626953125
 30
0.0
  0
VERTEX
  5
1E1
330
1C9
100
AcDbEntity
  8
Ebene 1
370
     0
100
AcDbVertex
100
AcDb2dVertex
 10
563.1171875
 20
454.95556640625
 30
0.0
  0
VERTEX
  5
1E2
330
1C9
100
AcDbEntity
  8
Ebene 1
370
     0
100
AcDbVertex
100
AcDb2dVertex
 10
563.337890625
 20
453.94091796875
 30
0.0
  0
VERTEX
  5
1E3
330
1C9
100
AcDbEntity
  8
Ebene 1
370
     0
100
AcDbVertex
100
AcDb2dVertex
 10
563.646484375
 20
453.01513671875
 30
0.0
  0
SEQEND
  5
1E4
330
1C9
100
AcDbEntity
  8
Ebene 1
370
     0
  0
POLYLINE
  5
1E5
330
3C
100
AcDbEntity
  8
Ebene 1
370
     0
100
AcDb2dPolyline
 66
     1
 10
0.0
 20
0.0
 30
0.0
  0
VERTEX
  5
1E6
330
1E5
100
AcDbEntity
  8
Ebene 1
370
     0
100
AcDbVertex
100
AcDb2dVertex
 10
580.2353515625
 20
459.32373046875
 30
0.0
  0
VERTEX
  5
1E7
330
1E5
100
AcDbEntity
  8
Ebene 1
370
     0
100
AcDbVertex
100
AcDb2dVertex
 10
580.6328125
 20
457.82373046875
 30
0.0
  0
VERTEX
  5
1E8
330
1E5
100
AcDbEntity
  8
Ebene 1
370
     0
100
AcDbVertex
100
AcDb2dVertex
 10
580.7646484375
 20
456.27978515625
 30
0.0
  0
SEQEND
  5
1E9
330
1E5
100
AcDbEntity
  8
Ebene 1
370
     0
  0
POLYLINE
  5
1EA
330
3C
100
AcDbEntity
  8
Ebene 1
370
     0
100
AcDb2dPolyline
 66
     1
 10
0.0
 20
0.0
 30
0.0
  0
VERTEX
  5
1EB
330
1EA
100
AcDbEntity
  8
Ebene 1
370
     0
100
AcDbVertex
100
AcDb2dVertex
 10
599.1171875
 20
470.61767578125
 30
0.0
  0
VERTEX
  5
1EC
330
1EA
100
AcDbEntity
  8
Ebene 1
370
     0
100
AcDbVertex
100
AcDb2dVertex
 10
599.1171875
 20
431.88232421875
 30
0.0
  0
SEQEND
  5
1ED
330
1EA
100
AcDbEntity
  8
Ebene 1
370
     0
  0
POLYLINE
  5
1EE
330
3C
100
AcDbEntity
  8
Ebene 1
370
     0
100
AcDb2dPolyline
 66
     1
 10
0.0
 20
0.0
 30
0.0
  0
VERTEX
  5
1EF
330
1EE
100
AcDbEntity
  8
Ebene 1
370
     0
100
AcDbVertex
100
AcDb2dVertex
 10
558.8828125
 20
408.94091796875
 30
0.0
  0
VERTEX
  5
1F0
330
1EE
100
AcDbEntity
  8
Ebene 1
370
     0
100
AcDbVertex
100
AcDb2dVertex
 10
558.8828125
 20
409.38232421875
 30
0.0
  0
VERTEX
  5
1F1
330
1EE
100
AcDbEntity
  8
Ebene 1
370
     0
100
AcDbVertex
100
AcDb2dVertex
 10
558.837890625
 20
410.79443359375
 30
0.0
  0
VERTEX
  5
1F2
330
1EE
100
AcDbEntity
  8
Ebene 1
370
     0
100
AcDbVertex
100
AcDb2dVertex
 10
558.837890625
 20
413.04443359375
 30
0.0
  0
VERTEX
  5
1F3
330
1EE
100
AcDbEntity
  8
Ebene 1
370
     0
100
AcDbVertex
100
AcDb2dVertex
 10
558.837890625
 20
416.08837890625
 30
0.0
  0
VERTEX
  5
1F4
330
1EE
100
AcDbEntity
  8
Ebene 1
370
     0
100
AcDbVertex
100
AcDb2dVertex
 10
558.837890625
 20
419.75048828125
 30
0.0
  0
VERTEX
  5
1F5
330
1EE
100
AcDbEntity
  8
Ebene 1
370
     0
100
AcDbVertex
100
AcDb2dVertex
 10
558.837890625
 20
423.98583984375
 30
0.0
  0
VERTEX
  5
1F6
330
1EE
100
AcDbEntity
  8
Ebene 1
370
     0
100
AcDbVertex
100
AcDb2dVertex
 10
558.8828125
 20
428.52978515625
 30
0.0
  0
VERTEX
  5
1F7
330
1EE
100
AcDbEntity
  8
Ebene 1
370
     0
100
AcDbVertex
100
AcDb2dVertex
 10
558.8828125
 20
433.29443359375
 30
0.0
  0
SEQEND
  5
1F8
330
1EE
100
AcDbEntity
  8
Ebene 1
370
     0
  0
POLYLINE
  5
1F9
330
3C
100
AcDbEntity
  8
Ebene 1
370
     0
100
AcDb2dPolyline
 66
     1
 10
0.0
 20
0.0
 30
0.0
  0
VERTEX
  5
1FA
330
1F9
100
AcDbEntity
  8
Ebene 1
370
     0
100
AcDbVertex
100
AcDb2dVertex
 10
558.8828125
 20
408.94091796875
 30
0.0
  0
VERTEX
  5
1FB
330
1F9
100
AcDbEntity
  8
Ebene 1
370
     0
100
AcDbVertex
100
AcDb2dVertex
 10
599.1171875
 20
407.52978515625
 30
0.0
  0
VERTEX
  5
1FC
330
1F9
100
AcDbEntity
  8
Ebene 1
370
     0
100
AcDbVertex
100
AcDb2dVertex
 10
599.1171875
 20
431.88232421875
 30
0.0
  0
SEQEND
  5
1FD
330
1F9
100
AcDbEntity
  8
Ebene 1
370
     0
  0
POLYLINE
  5
1FE
330
3C
100
AcDbEntity
  8
Ebene 1
370
     0
100
AcDb2dPolyline
 66
     1
 10
0.0
 20
0.0
 30
0.0
  0
VERTEX
  5
1FF
330
1FE
100
AcDbEntity
  8
Ebene 1
370
     0
100
AcDbVertex
100
AcDb2dVertex
 10
573.30859375
 20
473.4853515625
 30
0.0
  0
VERTEX
  5
200
330
1FE
100
AcDbEntity
  8
Ebene 1
370
     0
100
AcDbVertex
100
AcDb2dVertex
 10
571.896484375
 20
473.44140625
 30
0.0
  0
VERTEX
  5
201
330
1FE
100
AcDbEntity
  8
Ebene 1
370
     0
100
AcDbVertex
100
AcDb2dVertex
 10
570.4853515625
 20
473.2646484375
 30
0.0
  0
VERTEX
  5
202
330
1FE
100
AcDbEntity
  8
Ebene 1
370
     0
100
AcDbVertex
100
AcDb2dVertex
 10
569.1171875
 20
472.9560546875
 30
0.0
  0
VERTEX
  5
203
330
1FE
100
AcDbEntity
  8
Ebene 1
370
     0
100
AcDbVertex
100
AcDb2dVertex
 10
567.75
 20
472.55908203125
 30
0.0
  0
VERTEX
  5
204
330
1FE
100
AcDbEntity
  8
Ebene 1
370
     0
100
AcDbVertex
100
AcDb2dVertex
 10
566.42578125
 20
472.02978515625
 30
0.0
  0
VERTEX
  5
205
330
1FE
100
AcDbEntity
  8
Ebene 1
370
     0
100
AcDbVertex
100
AcDb2dVertex
 10
565.146484375
 20
471.412109375
 30
0.0
  0
VERTEX
  5
206
330
1FE
100
AcDbEntity
  8
Ebene 1
370
     0
100
AcDbVertex
100
AcDb2dVertex
 10
563.912109375
 20
470.662109375
 30
0.0
  0
VERTEX
  5
207
330
1FE
100
AcDbEntity
  8
Ebene 1
370
     0
100
AcDbVertex
100
AcDb2dVertex
 10
562.7646484375
 20
469.86767578125
 30
0.0
  0
VERTEX
  5
208
330
1FE
100
AcDbEntity
  8
Ebene 1
370
     0
100
AcDbVertex
100
AcDb2dVertex
 10
561.7060546875
 20
468.94140625
 30
0.0
  0
VERTEX
  5
209
330
1FE
100
AcDbEntity
  8
Ebene 1
370
     0
100
AcDbVertex
100
AcDb2dVertex
 10
560.69140625
 20
467.9267578125
 30
0.0
  0
VERTEX
  5
20A
330
1FE
100
AcDbEntity
  8
Ebene 1
370
     0
100
AcDbVertex
100
AcDb2dVertex
 10
559.7646484375
 20
466.86767578125
 30
0.0
  0
VERTEX
  5
20B
330
1FE
100
AcDbEntity
  8
Ebene 1
370
     0
100
AcDbVertex
100
AcDb2dVertex
 10
558.92578125
 20
465.6767578125
 30
0.0
  0
VERTEX
  5
20C
330
1FE
100
AcDbEntity
  8
Ebene 1
370
     0
100
AcDbVertex
100
AcDb2dVertex
 10
558.220703125
 20
464.4853515625
 30
0.0
  0
VERTEX
  5
20D
330
1FE
100
AcDbEntity
  8
Ebene 1
370
     0
100
AcDbVertex
100
AcDb2dVertex
 10
557.603515625
 20
463.2060546875
 30
0.0
  0
VERTEX
  5
20E
330
1FE
100
AcDbEntity
  8
Ebene 1
370
     0
100
AcDbVertex
100
AcDb2dVertex
 10
557.07421875
 20
461.88232421875
 30
0.0
  0
VERTEX
  5
20F
330
1FE
100
AcDbEntity
  8
Ebene 1
370
     0
100
AcDbVertex
100
AcDb2dVertex
 10
556.67578125
 20
460.51513671875
 30
0.0
  0
VERTEX
  5
210
330
1FE
100
AcDbEntity
  8
Ebene 1
370
     0
100
AcDbVertex
100
AcDb2dVertex
 10
556.3671875
 20
459.10302734375
 30
0.0
  0
VERTEX
  5
211
330
1FE
100
AcDbEntity
  8
Ebene 1
370
     0
100
AcDbVertex
100
AcDb2dVertex
 10
556.19140625
 20
457.69091796875
 30
0.0
  0
VERTEX
  5
212
330
1FE
100
AcDbEntity
  8
Ebene 1
370
     0
100
AcDbVertex
100
AcDb2dVertex
 10
556.146484375
 20
456.27978515625
 30
0.0
  0
SEQEND
  5
213
330
1FE
100
AcDbEntity
  8
Ebene 1
370
     0
  0
POLYLINE
  5
214
330
3C
100
AcDbEntity
  8
Ebene 1
370
     0
100
AcDb2dPolyline
 66
     1
 10
0.0
 20
0.0
 30
0.0
  0
VERTEX
  5
215
330
214
100
AcDbEntity
  8
Ebene 1
370
     0
100
AcDbVertex
100
AcDb2dVertex
 10
558.8828125
 20
456.27978515625
 30
0.0
  0
VERTEX
  5
216
330
214
100
AcDbEntity
  8
Ebene 1
370
     0
100
AcDbVertex
100
AcDb2dVertex
 10
556.103515625
 20
456.27978515625
 30
0.0
  0
VERTEX
  5
217
330
214
100
AcDbEntity
  8
Ebene 1
370
     0
100
AcDbVertex
100
AcDb2dVertex
 10
556.103515625
 20
433.29443359375
 30
0.0
  0
VERTEX
  5
218
330
214
100
AcDbEntity
  8
Ebene 1
370
     0
100
AcDbVertex
100
AcDb2dVertex
 10
558.8828125
 20
433.29443359375
 30
0.0
  0
SEQEND
  5
219
330
214
100
AcDbEntity
  8
Ebene 1
370
     0
  0
POLYLINE
  5
21A
330
3C
100
AcDbEntity
  8
Ebene 1
370
     0
100
AcDb2dPolyline
 66
     1
 10
0.0
 20
0.0
 30
0.0
  0
VERTEX
  5
21B
330
21A
100
AcDbEntity
  8
Ebene 1
370
     0
100
AcDbVertex
100
AcDb2dVertex
 10
556.103515625
 20
433.29443359375
 30
0.0
  0
VERTEX
  5
21C
330
21A
100
AcDbEntity
  8
Ebene 1
370
     0
100
AcDbVertex
100
AcDb2dVertex
 10
556.103515625
 20
411.80908203125
 30
0.0
  0
SEQEND
  5
21D
330
21A
100
AcDbEntity
  8
Ebene 1
370
     0
  0
POLYLINE
  5
21E
330
3C
100
AcDbEntity
  8
Ebene 1
370
     0
100
AcDb2dPolyline
 66
     1
 10
0.0
 20
0.0
 30
0.0
  0
VERTEX
  5
21F
330
21E
100
AcDbEntity
  8
Ebene 1
370
     0
100
AcDbVertex
100
AcDb2dVertex
 10
556.146484375
 20
411.80908203125
 30
0.0
  0
VERTEX
  5
220
330
21E
100
AcDbEntity
  8
Ebene 1
370
     0
100
AcDbVertex
100
AcDb2dVertex
 10
556.2353515625
 20
411.19091796875
 30
0.0
  0
VERTEX
  5
221
330
21E
100
AcDbEntity
  8
Ebene 1
370
     0
100
AcDbVertex
100
AcDb2dVertex
 10
556.412109375
 20
410.57373046875
 30
0.0
  0
VERTEX
  5
222
330
21E
100
AcDbEntity
  8
Ebene 1
370
     0
100
AcDbVertex
100
AcDb2dVertex
 10
556.720703125
 20
410.04443359375
 30
0.0
  0
VERTEX
  5
223
330
21E
100
AcDbEntity
  8
Ebene 1
370
     0
100
AcDbVertex
100
AcDb2dVertex
 10
557.162109375
 20
409.60302734375
 30
0.0
  0
VERTEX
  5
224
330
21E
100
AcDbEntity
  8
Ebene 1
370
     0
100
AcDbVertex
100
AcDb2dVertex
 10
557.69140625
 20
409.25048828125
 30
0.0
  0
VERTEX
  5
225
330
21E
100
AcDbEntity
  8
Ebene 1
370
     0
100
AcDbVertex
100
AcDb2dVertex
 10
558.2646484375
 20
409.02978515625
 30
0.0
  0
VERTEX
  5
226
330
21E
100
AcDbEntity
  8
Ebene 1
370
     0
100
AcDbVertex
100
AcDb2dVertex
 10
558.8828125
 20
408.94091796875
 30
0.0
  0
SEQEND
  5
227
330
21E
100
AcDbEntity
  8
Ebene 1
370
     0
  0
POLYLINE
  5
228
330
3C
100
AcDbEntity
  8
Ebene 1
370
     0
100
AcDb2dPolyline
 66
     1
 10
0.0
 20
0.0
 30
0.0
  0
VERTEX
  5
229
330
228
100
AcDbEntity
  8
Ebene 1
370
     0
100
AcDbVertex
100
AcDb2dVertex
 10
564.662109375
 20
408.72119140625
 30
0.0
  0
VERTEX
  5
22A
330
228
100
AcDbEntity
  8
Ebene 1
370
     0
100
AcDbVertex
100
AcDb2dVertex
 10
570.17578125
 20
408.54443359375
 30
0.0
  0
SEQEND
  5
22B
330
228
100
AcDbEntity
  8
Ebene 1
370
     0
  0
POLYLINE
  5
22C
330
3C
100
AcDbEntity
  8
Ebene 1
370
     0
100
AcDb2dPolyline
 66
     1
 10
0.0
 20
0.0
 30
0.0
  0
VERTEX
  5
22D
330
22C
100
AcDbEntity
  8
Ebene 1
370
     0
100
AcDbVertex
100
AcDb2dVertex
 10
558.8828125
 20
408.94091796875
 30
0.0
  0
VERTEX
  5
22E
330
22C
100
AcDbEntity
  8
Ebene 1
370
     0
100
AcDbVertex
100
AcDb2dVertex
 10
564.662109375
 20
408.72119140625
 30
0.0
  0
SEQEND
  5
22F
330
22C
100
AcDbEntity
  8
Ebene 1
370
     0
  0
POLYLINE
  5
230
330
3C
100
AcDbEntity
  8
Ebene 1
370
     0
100
AcDb2dPolyline
 66
     1
 10
0.0
 20
0.0
 30
0.0
  0
VERTEX
  5
231
330
230
100
AcDbEntity
  8
Ebene 1
370
     0
100
AcDbVertex
100
AcDb2dVertex
 10
580.80859375
 20
462.94140625
 30
0.0
  0
VERTEX
  5
232
330
230
100
AcDbEntity
  8
Ebene 1
370
     0
100
AcDbVertex
100
AcDb2dVertex
 10
581.603515625
 20
461.48583984375
 30
0.0
  0
SEQEND
  5
233
330
230
100
AcDbEntity
  8
Ebene 1
370
     0
  0
POLYLINE
  5
234
330
3C
100
AcDbEntity
  8
Ebene 1
370
     0
100
AcDb2dPolyline
 66
     1
 10
0.0
 20
0.0
 30
0.0
  0
VERTEX
  5
235
330
234
100
AcDbEntity
  8
Ebene 1
370
     0
100
AcDbVertex
100
AcDb2dVertex
 10
562.5
 20
452.75048828125
 30
0.0
  0
VERTEX
  5
236
330
234
100
AcDbEntity
  8
Ebene 1
370
     0
100
AcDbVertex
100
AcDb2dVertex
 10
562.5439453125
 20
452.70556640625
 30
0.0
  0
VERTEX
  5
237
330
234
100
AcDbEntity
  8
Ebene 1
370
     0
100
AcDbVertex
100
AcDb2dVertex
 10
562.587890625
 20
452.48583984375
 30
0.0
  0
VERTEX
  5
238
330
234
100
AcDbEntity
  8
Ebene 1
370
     0
100
AcDbVertex
100
AcDb2dVertex
 10
562.5439453125
 20
452.13232421875
 30
0.0
  0
VERTEX
  5
239
330
234
100
AcDbEntity
  8
Ebene 1
370
     0
100
AcDbVertex
100
AcDb2dVertex
 10
562.4560546875
 20
451.69091796875
 30
0.0
  0
VERTEX
  5
23A
330
234
100
AcDbEntity
  8
Ebene 1
370
     0
100
AcDbVertex
100
AcDb2dVertex
 10
562.32421875
 20
451.20556640625
 30
0.0
  0
SEQEND
  5
23B
330
234
100
AcDbEntity
  8
Ebene 1
370
     0
  0
POLYLINE
  5
23C
330
3C
100
AcDbEntity
  8
Ebene 1
370
     0
100
AcDb2dPolyline
 66
     1
 10
0.0
 20
0.0
 30
0.0
  0
VERTEX
  5
23D
330
23C
100
AcDbEntity
  8
Ebene 1
370
     0
100
AcDbVertex
100
AcDb2dVertex
 10
564.30859375
 20
449.66162109375
 30
0.0
  0
VERTEX
  5
23E
330
23C
100
AcDbEntity
  8
Ebene 1
370
     0
100
AcDbVertex
100
AcDb2dVertex
 10
564.2646484375
 20
449.61767578125
 30
0.0
  0
VERTEX
  5
23F
330
23C
100
AcDbEntity
  8
Ebene 1
370
     0
100
AcDbVertex
100
AcDb2dVertex
 10
564.0439453125
 20
449.57373046875
 30
0.0
  0
VERTEX
  5
240
330
23C
100
AcDbEntity
  8
Ebene 1
370
     0
100
AcDbVertex
100
AcDb2dVertex
 10
563.69140625
 20
449.57373046875
 30
0.0
  0
VERTEX
  5
241
330
23C
100
AcDbEntity
  8
Ebene 1
370
     0
100
AcDbVertex
100
AcDb2dVertex
 10
563.25
 20
449.61767578125
 30
0.0
  0
SEQEND
  5
242
330
23C
100
AcDbEntity
  8
Ebene 1
370
     0
  0
POLYLINE
  5
243
330
3C
100
AcDbEntity
  8
Ebene 1
370
     0
100
AcDb2dPolyline
 66
     1
 10
0.0
 20
0.0
 30
0.0
  0
VERTEX
  5
244
330
243
100
AcDbEntity
  8
Ebene 1
370
     0
100
AcDbVertex
100
AcDb2dVertex
 10
563.42578125
 20
452.88232421875
 30
0.0
  0
VERTEX
  5
245
330
243
100
AcDbEntity
  8
Ebene 1
370
     0
100
AcDbVertex
100
AcDb2dVertex
 10
564.2646484375
 20
451.42626953125
 30
0.0
  0
SEQEND
  5
246
330
243
100
AcDbEntity
  8
Ebene 1
370
     0
  0
POLYLINE
  5
247
330
3C
100
AcDbEntity
  8
Ebene 1
370
     0
100
AcDb2dPolyline
 66
     1
 10
0.0
 20
0.0
 30
0.0
  0
VERTEX
  5
248
330
247
100
AcDbEntity
  8
Ebene 1
370
     0
100
AcDbVertex
100
AcDb2dVertex
 10
581.779296875
 20
461.26513671875
 30
0.0
  0
VERTEX
  5
249
330
247
100
AcDbEntity
  8
Ebene 1
370
     0
100
AcDbVertex
100
AcDb2dVertex
 10
581.603515625
 20
461.48583984375
 30
0.0
  0
SEQEND
  5
24A
330
247
100
AcDbEntity
  8
Ebene 1
370
     0
  0
POLYLINE
  5
24B
330
3C
100
AcDbEntity
  8
Ebene 1
370
     0
100
AcDb2dPolyline
 66
     1
 10
0.0
 20
0.0
 30
0.0
  0
VERTEX
  5
24C
330
24B
100
AcDbEntity
  8
Ebene 1
370
     0
100
AcDbVertex
100
AcDb2dVertex
 10
582.220703125
 20
460.47119140625
 30
0.0
  0
VERTEX
  5
24D
330
24B
100
AcDbEntity
  8
Ebene 1
370
     0
100
AcDbVertex
100
AcDb2dVertex
 10
581.779296875
 20
461.26513671875
 30
0.0
  0
SEQEND
  5
24E
330
24B
100
AcDbEntity
  8
Ebene 1
370
     0
  0
POLYLINE
  5
24F
330
3C
100
AcDbEntity
  8
Ebene 1
370
     0
100
AcDb2dPolyline
 66
     1
 10
0.0
 20
0.0
 30
0.0
  0
VERTEX
  5
250
330
24F
100
AcDbEntity
  8
Ebene 1
370
     0
100
AcDbVertex
100
AcDb2dVertex
 10
564.837890625
 20
450.41162109375
 30
0.0
  0
VERTEX
  5
251
330
24F
100
AcDbEntity
  8
Ebene 1
370
     0
100
AcDbVertex
100
AcDb2dVertex
 10
564.396484375
 20
451.20556640625
 30
0.0
  0
VERTEX
  5
252
330
24F
100
AcDbEntity
  8
Ebene 1
370
     0
100
AcDbVertex
100
AcDb2dVertex
 10
564.2646484375
 20
451.42626953125
 30
0.0
  0
SEQEND
  5
253
330
24F
100
AcDbEntity
  8
Ebene 1
370
     0
  0
POLYLINE
  5
254
330
3C
100
AcDbEntity
  8
Ebene 1
370
     0
100
AcDb2dPolyline
 66
     1
 10
0.0
 20
0.0
 30
0.0
  0
VERTEX
  5
255
330
254
100
AcDbEntity
  8
Ebene 1
370
     0
100
AcDbVertex
100
AcDb2dVertex
 10
649.587890625
 20
431.92626953125
 30
0.0
  0
VERTEX
  5
256
330
254
100
AcDbEntity
  8
Ebene 1
370
     0
100
AcDbVertex
100
AcDb2dVertex
 10
635.1171875
 20
431.92626953125
 30
0.0
  0
SEQEND
  5
257
330
254
100
AcDbEntity
  8
Ebene 1
370
     0
  0
POLYLINE
  5
258
330
3C
100
AcDbEntity
  8
Ebene 1
370
     0
100
AcDb2dPolyline
 66
     1
 10
0.0
 20
0.0
 30
0.0
  0
VERTEX
  5
259
330
258
100
AcDbEntity
  8
Ebene 1
370
     0
100
AcDbVertex
100
AcDb2dVertex
 10
631.5
 20
431.92626953125
 30
0.0
  0
VERTEX
  5
25A
330
258
100
AcDbEntity
  8
Ebene 1
370
     0
100
AcDbVertex
100
AcDb2dVertex
 10
627.837890625
 20
431.92626953125
 30
0.0
  0
SEQEND
  5
25B
330
258
100
AcDbEntity
  8
Ebene 1
370
     0
  0
POLYLINE
  5
25C
330
3C
100
AcDbEntity
  8
Ebene 1
370
     0
100
AcDb2dPolyline
 66
     1
 10
0.0
 20
0.0
 30
0.0
  0
VERTEX
  5
25D
330
25C
100
AcDbEntity
  8
Ebene 1
370
     0
100
AcDbVertex
100
AcDb2dVertex
 10
624.220703125
 20
431.92626953125
 30
0.0
  0
VERTEX
  5
25E
330
25C
100
AcDbEntity
  8
Ebene 1
370
     0
100
AcDbVertex
100
AcDb2dVertex
 10
620.55859375
 20
431.92626953125
 30
0.0
  0
SEQEND
  5
25F
330
25C
100
AcDbEntity
  8
Ebene 1
370
     0
  0
POLYLINE
  5
260
330
3C
100
AcDbEntity
  8
Ebene 1
370
     0
100
AcDb2dPolyline
 66
     1
 10
0.0
 20
0.0
 30
0.0
  0
VERTEX
  5
261
330
260
100
AcDbEntity
  8
Ebene 1
370
     0
100
AcDbVertex
100
AcDb2dVertex
 10
616.94140625
 20
431.92626953125
 30
0.0
  0
VERTEX
  5
262
330
260
100
AcDbEntity
  8
Ebene 1
370
     0
100
AcDbVertex
100
AcDb2dVertex
 10
598.720703125
 20
431.92626953125
 30
0.0
  0
SEQEND
  5
263
330
260
100
AcDbEntity
  8
Ebene 1
370
     0
  0
POLYLINE
  5
264
330
3C
100
AcDbEntity
  8
Ebene 1
370
     0
100
AcDb2dPolyline
 66
     1
 10
0.0
 20
0.0
 30
0.0
  0
VERTEX
  5
265
330
264
100
AcDbEntity
  8
Ebene 1
370
     0
100
AcDbVertex
100
AcDb2dVertex
 10
595.05859375
 20
431.92626953125
 30
0.0
  0
VERTEX
  5
266
330
264
100
AcDbEntity
  8
Ebene 1
370
     0
100
AcDbVertex
100
AcDb2dVertex
 10
591.44140625
 20
431.92626953125
 30
0.0
  0
SEQEND
  5
267
330
264
100
AcDbEntity
  8
Ebene 1
370
     0
  0
POLYLINE
  5
268
330
3C
100
AcDbEntity
  8
Ebene 1
370
     0
100
AcDb2dPolyline
 66
     1
 10
0.0
 20
0.0
 30
0.0
  0
VERTEX
  5
269
330
268
100
AcDbEntity
  8
Ebene 1
370
     0
100
AcDbVertex
100
AcDb2dVertex
 10
587.779296875
 20
431.92626953125
 30
0.0
  0
VERTEX
  5
26A
330
268
100
AcDbEntity
  8
Ebene 1
370
     0
100
AcDbVertex
100
AcDb2dVertex
 10
584.162109375
 20
431.92626953125
 30
0.0
  0
SEQEND
  5
26B
330
268
100
AcDbEntity
  8
Ebene 1
370
     0
  0
POLYLINE
  5
26C
330
3C
100
AcDbEntity
  8
Ebene 1
370
     0
100
AcDb2dPolyline
 66
     1
 10
0.0
 20
0.0
 30
0.0
  0
VERTEX
  5
26D
330
26C
100
AcDbEntity
  8
Ebene 1
370
     0
100
AcDbVertex
100
AcDb2dVertex
 10
580.5
 20
431.92626953125
 30
0.0
  0
VERTEX
  5
26E
330
26C
100
AcDbEntity
  8
Ebene 1
370
     0
100
AcDbVertex
100
AcDb2dVertex
 10
562.32421875
 20
431.92626953125
 30
0.0
  0
SEQEND
  5
26F
330
26C
100
AcDbEntity
  8
Ebene 1
370
     0
  0
POLYLINE
  5
270
330
3C
100
AcDbEntity
  8
Ebene 1
370
     0
100
AcDb2dPolyline
 66
     1
 10
0.0
 20
0.0
 30
0.0
  0
VERTEX
  5
271
330
270
100
AcDbEntity
  8
Ebene 1
370
     0
100
AcDbVertex
100
AcDb2dVertex
 10
558.662109375
 20
431.92626953125
 30
0.0
  0
VERTEX
  5
272
330
270
100
AcDbEntity
  8
Ebene 1
370
     0
100
AcDbVertex
100
AcDb2dVertex
 10
555.0439453125
 20
431.92626953125
 30
0.0
  0
SEQEND
  5
273
330
270
100
AcDbEntity
  8
Ebene 1
370
     0
  0
POLYLINE
  5
274
330
3C
100
AcDbEntity
  8
Ebene 1
370
     0
100
AcDb2dPolyline
 66
     1
 10
0.0
 20
0.0
 30
0.0
  0
VERTEX
  5
275
330
274
100
AcDbEntity
  8
Ebene 1
370
     0
100
AcDbVertex
100
AcDb2dVertex
 10
551.3828125
 20
431.92626953125
 30
0.0
  0
VERTEX
  5
276
330
274
100
AcDbEntity
  8
Ebene 1
370
     0
100
AcDbVertex
100
AcDb2dVertex
 10
547.7646484375
 20
431.92626953125
 30
0.0
  0
SEQEND
  5
277
330
274
100
AcDbEntity
  8
Ebene 1
370
     0
  0
POLYLINE
  5
278
330
3C
100
AcDbEntity
  8
Ebene 1
370
     0
100
AcDb2dPolyline
 66
     1
 10
0.0
 20
0.0
 30
0.0
  0
VERTEX
  5
279
330
278
100
AcDbEntity
  8
Ebene 1
370
     0
100
AcDbVertex
100
AcDb2dVertex
 10
544.103515625
 20
431.92626953125
 30
0.0
  0
VERTEX
  5
27A
330
278
100
AcDbEntity
  8
Ebene 1
370
     0
100
AcDbVertex
100
AcDb2dVertex
 10
529.6328125
 20
431.92626953125
 30
0.0
  0
SEQEND
  5
27B
330
278
100
AcDbEntity
  8
Ebene 1
370
     0
  0
POLYLINE
  5
27C
330
3C
100
AcDbEntity
  8
Ebene 1
370
     0
100
AcDb2dPolyline
 66
     1
 10
0.0
 20
0.0
 30
0.0
  0
VERTEX
  5
27D
330
27C
100
AcDbEntity
  8
Ebene 1
370
     0
100
AcDbVertex
100
AcDb2dVertex
 10
378.44140625
 20
441.85302734375
 30
0.0
  0
VERTEX
  5
27E
330
27C
100
AcDbEntity
  8
Ebene 1
370
     0
100
AcDbVertex
100
AcDb2dVertex
 10
379.146484375
 20
482.13232421875
 30
0.0
  0
SEQEND
  5
27F
330
27C
100
AcDbEntity
  8
Ebene 1
370
     0
  0
POLYLINE
  5
280
330
3C
100
AcDbEntity
  8
Ebene 1
370
     0
100
AcDb2dPolyline
 66
     1
 10
0.0
 20
0.0
 30
0.0
  0
VERTEX
  5
281
330
280
100
AcDbEntity
  8
Ebene 1
370
     0
100
AcDbVertex
100
AcDb2dVertex
 10
379.146484375
 20
482.13232421875
 30
0.0
  0
VERTEX
  5
282
330
280
100
AcDbEntity
  8
Ebene 1
370
     0
100
AcDbVertex
100
AcDb2dVertex
 10
373.412109375
 20
482.13232421875
 30
0.0
  0
SEQEND
  5
283
330
280
100
AcDbEntity
  8
Ebene 1
370
     0
  0
POLYLINE
  5
284
330
3C
100
AcDbEntity
  8
Ebene 1
370
     0
100
AcDb2dPolyline
 66
     1
 10
0.0
 20
0.0
 30
0.0
  0
VERTEX
  5
285
330
284
100
AcDbEntity
  8
Ebene 1
370
     0
100
AcDbVertex
100
AcDb2dVertex
 10
373.412109375
 20
482.13232421875
 30
0.0
  0
VERTEX
  5
286
330
284
100
AcDbEntity
  8
Ebene 1
370
     0
100
AcDbVertex
100
AcDb2dVertex
 10
372.75
 20
441.85302734375
 30
0.0
  0
VERTEX
  5
287
330
284
100
AcDbEntity
  8
Ebene 1
370
     0
100
AcDbVertex
100
AcDb2dVertex
 10
378.44140625
 20
441.85302734375
 30
0.0
  0
SEQEND
  5
288
330
284
100
AcDbEntity
  8
Ebene 1
370
     0
  0
POLYLINE
  5
289
330
3C
100
AcDbEntity
  8
Ebene 1
370
     0
100
AcDb2dPolyline
 66
     1
 10
0.0
 20
0.0
 30
0.0
  0
VERTEX
  5
28A
330
289
100
AcDbEntity
  8
Ebene 1
370
     0
100
AcDbVertex
100
AcDb2dVertex
 10
529.587890625
 20
482.13232421875
 30
0.0
  0
VERTEX
  5
28B
330
289
100
AcDbEntity
  8
Ebene 1
370
     0
100
AcDbVertex
100
AcDb2dVertex
 10
530.2939453125
 20
441.85302734375
 30
0.0
  0
SEQEND
  5
28C
330
289
100
AcDbEntity
  8
Ebene 1
370
     0
  0
POLYLINE
  5
28D
330
3C
100
AcDbEntity
  8
Ebene 1
370
     0
100
AcDb2dPolyline
 66
     1
 10
0.0
 20
0.0
 30
0.0
  0
VERTEX
  5
28E
330
28D
100
AcDbEntity
  8
Ebene 1
370
     0
100
AcDbVertex
100
AcDb2dVertex
 10
379.146484375
 20
482.13232421875
 30
0.0
  0
VERTEX
  5
28F
330
28D
100
AcDbEntity
  8
Ebene 1
370
     0
100
AcDbVertex
100
AcDb2dVertex
 10
424.279296875
 20
482.13232421875
 30
0.0
  0
SEQEND
  5
290
330
28D
100
AcDbEntity
  8
Ebene 1
370
     0
  0
POLYLINE
  5
291
330
3C
100
AcDbEntity
  8
Ebene 1
370
     0
100
AcDb2dPolyline
 66
     1
 10
0.0
 20
0.0
 30
0.0
  0
VERTEX
  5
292
330
291
100
AcDbEntity
  8
Ebene 1
370
     0
100
AcDbVertex
100
AcDb2dVertex
 10
514.5439453125
 20
454.77978515625
 30
0.0
  0
VERTEX
  5
293
330
291
100
AcDbEntity
  8
Ebene 1
370
     0
100
AcDbVertex
100
AcDb2dVertex
 10
514.5
 20
455.66162109375
 30
0.0
  0
VERTEX
  5
294
330
291
100
AcDbEntity
  8
Ebene 1
370
     0
100
AcDbVertex
100
AcDb2dVertex
 10
514.32421875
 20
456.54443359375
 30
0.0
  0
VERTEX
  5
295
330
291
100
AcDbEntity
  8
Ebene 1
370
     0
100
AcDbVertex
100
AcDb2dVertex
 10
514.05859375
 20
457.42626953125
 30
0.0
  0
VERTEX
  5
296
330
291
100
AcDbEntity
  8
Ebene 1
370
     0
100
AcDbVertex
100
AcDb2dVertex
 10
513.662109375
 20
458.22119140625
 30
0.0
  0
VERTEX
  5
297
330
291
100
AcDbEntity
  8
Ebene 1
370
     0
100
AcDbVertex
100
AcDb2dVertex
 10
513.17578125
 20
458.97119140625
 30
0.0
  0
VERTEX
  5
298
330
291
100
AcDbEntity
  8
Ebene 1
370
     0
100
AcDbVertex
100
AcDb2dVertex
 10
512.603515625
 20
459.67626953125
 30
0.0
  0
VERTEX
  5
299
330
291
100
AcDbEntity
  8
Ebene 1
370
     0
100
AcDbVertex
100
AcDb2dVertex
 10
511.94140625
 20
460.29443359375
 30
0.0
  0
VERTEX
  5
29A
330
291
100
AcDbEntity
  8
Ebene 1
370
     0
100
AcDbVertex
100
AcDb2dVertex
 10
511.2353515625
 20
460.82373046875
 30
0.0
  0
VERTEX
  5
29B
330
291
100
AcDbEntity
  8
Ebene 1
370
     0
100
AcDbVertex
100
AcDb2dVertex
 10
510.44140625
 20
461.26513671875
 30
0.0
  0
VERTEX
  5
29C
330
291
100
AcDbEntity
  8
Ebene 1
370
     0
100
AcDbVertex
100
AcDb2dVertex
 10
509.603515625
 20
461.57373046875
 30
0.0
  0
VERTEX
  5
29D
330
291
100
AcDbEntity
  8
Ebene 1
370
     0
100
AcDbVertex
100
AcDb2dVertex
 10
508.720703125
 20
461.79443359375
 30
0.0
  0
VERTEX
  5
29E
330
291
100
AcDbEntity
  8
Ebene 1
370
     0
100
AcDbVertex
100
AcDb2dVertex
 10
507.837890625
 20
461.9267578125
 30
0.0
  0
VERTEX
  5
29F
330
291
100
AcDbEntity
  8
Ebene 1
370
     0
100
AcDbVertex
100
AcDb2dVertex
 10
506.9560546875
 20
461.9267578125
 30
0.0
  0
VERTEX
  5
2A0
330
291
100
AcDbEntity
  8
Ebene 1
370
     0
100
AcDbVertex
100
AcDb2dVertex
 10
506.07421875
 20
461.79443359375
 30
0.0
  0
VERTEX
  5
2A1
330
291
100
AcDbEntity
  8
Ebene 1
370
     0
100
AcDbVertex
100
AcDb2dVertex
 10
505.19140625
 20
461.57373046875
 30
0.0
  0
VERTEX
  5
2A2
330
291
100
AcDbEntity
  8
Ebene 1
370
     0
100
AcDbVertex
100
AcDb2dVertex
 10
504.353515625
 20
461.26513671875
 30
0.0
  0
VERTEX
  5
2A3
330
291
100
AcDbEntity
  8
Ebene 1
370
     0
100
AcDbVertex
100
AcDb2dVertex
 10
503.55859375
 20
460.82373046875
 30
0.0
  0
VERTEX
  5
2A4
330
291
100
AcDbEntity
  8
Ebene 1
370
     0
100
AcDbVertex
100
AcDb2dVertex
 10
502.853515625
 20
460.29443359375
 30
0.0
  0
VERTEX
  5
2A5
330
291
100
AcDbEntity
  8
Ebene 1
370
     0
100
AcDbVertex
100
AcDb2dVertex
 10
502.19140625
 20
459.67626953125
 30
0.0
  0
VERTEX
  5
2A6
330
291
100
AcDbEntity
  8
Ebene 1
370
     0
100
AcDbVertex
100
AcDb2dVertex
 10
501.6171875
 20
458.97119140625
 30
0.0
  0
VERTEX
  5
2A7
330
291
100
AcDbEntity
  8
Ebene 1
370
     0
100
AcDbVertex
100
AcDb2dVertex
 10
501.1328125
 20
458.22119140625
 30
0.0
  0
VERTEX
  5
2A8
330
291
100
AcDbEntity
  8
Ebene 1
370
     0
100
AcDbVertex
100
AcDb2dVertex
 10
500.7353515625
 20
457.42626953125
 30
0.0
  0
VERTEX
  5
2A9
330
291
100
AcDbEntity
  8
Ebene 1
370
     0
100
AcDbVertex
100
AcDb2dVertex
 10
500.470703125
 20
456.54443359375
 30
0.0
  0
VERTEX
  5
2AA
330
291
100
AcDbEntity
  8
Ebene 1
370
     0
100
AcDbVertex
100
AcDb2dVertex
 10
500.2939453125
 20
455.66162109375
 30
0.0
  0
VERTEX
  5
2AB
330
291
100
AcDbEntity
  8
Ebene 1
370
     0
100
AcDbVertex
100
AcDb2dVertex
 10
500.25
 20
454.77978515625
 30
0.0
  0
VERTEX
  5
2AC
330
291
100
AcDbEntity
  8
Ebene 1
370
     0
100
AcDbVertex
100
AcDb2dVertex
 10
500.2939453125
 20
453.89697265625
 30
0.0
  0
VERTEX
  5
2AD
330
291
100
AcDbEntity
  8
Ebene 1
370
     0
100
AcDbVertex
100
AcDb2dVertex
 10
500.470703125
 20
453.01513671875
 30
0.0
  0
VERTEX
  5
2AE
330
291
100
AcDbEntity
  8
Ebene 1
370
     0
100
AcDbVertex
100
AcDb2dVertex
 10
500.7353515625
 20
452.13232421875
 30
0.0
  0
VERTEX
  5
2AF
330
291
100
AcDbEntity
  8
Ebene 1
370
     0
100
AcDbVertex
100
AcDb2dVertex
 10
501.1328125
 20
451.33837890625
 30
0.0
  0
VERTEX
  5
2B0
330
291
100
AcDbEntity
  8
Ebene 1
370
     0
100
AcDbVertex
100
AcDb2dVertex
 10
501.6171875
 20
450.58837890625
 30
0.0
  0
VERTEX
  5
2B1
330
291
100
AcDbEntity
  8
Ebene 1
370
     0
100
AcDbVertex
100
AcDb2dVertex
 10
502.19140625
 20
449.88232421875
 30
0.0
  0
VERTEX
  5
2B2
330
291
100
AcDbEntity
  8
Ebene 1
370
     0
100
AcDbVertex
100
AcDb2dVertex
 10
502.853515625
 20
449.26513671875
 30
0.0
  0
VERTEX
  5
2B3
330
291
100
AcDbEntity
  8
Ebene 1
370
     0
100
AcDbVertex
100
AcDb2dVertex
 10
503.55859375
 20
448.73583984375
 30
0.0
  0
VERTEX
  5
2B4
330
291
100
AcDbEntity
  8
Ebene 1
370
     0
100
AcDbVertex
100
AcDb2dVertex
 10
504.353515625
 20
448.29443359375
 30
0.0
  0
VERTEX
  5
2B5
330
291
100
AcDbEntity
  8
Ebene 1
370
     0
100
AcDbVertex
100
AcDb2dVertex
 10
505.19140625
 20
447.98583984375
 30
0.0
  0
VERTEX
  5
2B6
330
291
100
AcDbEntity
  8
Ebene 1
370
     0
100
AcDbVertex
100
AcDb2dVertex
 10
506.07421875
 20
447.76513671875
 30
0.0
  0
VERTEX
  5
2B7
330
291
100
AcDbEntity
  8
Ebene 1
370
     0
100
AcDbVertex
100
AcDb2dVertex
 10
506.9560546875
 20
447.63232421875
 30
0.0
  0
VERTEX
  5
2B8
330
291
100
AcDbEntity
  8
Ebene 1
370
     0
100
AcDbVertex
100
AcDb2dVertex
 10
507.837890625
 20
447.63232421875
 30
0.0
  0
VERTEX
  5
2B9
330
291
100
AcDbEntity
  8
Ebene 1
370
     0
100
AcDbVertex
100
AcDb2dVertex
 10
508.720703125
 20
447.76513671875
 30
0.0
  0
VERTEX
  5
2BA
330
291
100
AcDbEntity
  8
Ebene 1
370
     0
100
AcDbVertex
100
AcDb2dVertex
 10
509.603515625
 20
447.98583984375
 30
0.0
  0
VERTEX
  5
2BB
330
291
100
AcDbEntity
  8
Ebene 1
370
     0
100
AcDbVertex
100
AcDb2dVertex
 10
510.44140625
 20
448.29443359375
 30
0.0
  0
VERTEX
  5
2BC
330
291
100
AcDbEntity
  8
Ebene 1
370
     0
100
AcDbVertex
100
AcDb2dVertex
 10
511.2353515625
 20
448.73583984375
 30
0.0
  0
VERTEX
  5
2BD
330
291
100
AcDbEntity
  8
Ebene 1
370
     0
100
AcDbVertex
100
AcDb2dVertex
 10
511.94140625
 20
449.26513671875
 30
0.0
  0
VERTEX
  5
2BE
330
291
100
AcDbEntity
  8
Ebene 1
370
     0
100
AcDbVertex
100
AcDb2dVertex
 10
512.603515625
 20
449.88232421875
 30
0.0
  0
VERTEX
  5
2BF
330
291
100
AcDbEntity
  8
Ebene 1
370
     0
100
AcDbVertex
100
AcDb2dVertex
 10
513.17578125
 20
450.58837890625
 30
0.0
  0
VERTEX
  5
2C0
330
291
100
AcDbEntity
  8
Ebene 1
370
     0
100
AcDbVertex
100
AcDb2dVertex
 10
513.662109375
 20
451.33837890625
 30
0.0
  0
VERTEX
  5
2C1
330
291
100
AcDbEntity
  8
Ebene 1
370
     0
100
AcDbVertex
100
AcDb2dVertex
 10
514.05859375
 20
452.13232421875
 30
0.0
  0
VERTEX
  5
2C2
330
291
100
AcDbEntity
  8
Ebene 1
370
     0
100
AcDbVertex
100
AcDb2dVertex
 10
514.32421875
 20
453.01513671875
 30
0.0
  0
VERTEX
  5
2C3
330
291
100
AcDbEntity
  8
Ebene 1
370
     0
100
AcDbVertex
100
AcDb2dVertex
 10
514.5
 20
453.89697265625
 30
0.0
  0
VERTEX
  5
2C4
330
291
100
AcDbEntity
  8
Ebene 1
370
     0
100
AcDbVertex
100
AcDb2dVertex
 10
514.5439453125
 20
454.77978515625
 30
0.0
  0
VERTEX
  5
2C5
330
291
100
AcDbEntity
  8
Ebene 1
370
     0
100
AcDbVertex
100
AcDb2dVertex
 10
514.5439453125
 20
454.77978515625
 30
0.0
  0
SEQEND
  5
2C6
330
291
100
AcDbEntity
  8
Ebene 1
370
     0
  0
POLYLINE
  5
2C7
330
3C
100
AcDbEntity
  8
Ebene 1
370
     0
100
AcDb2dPolyline
 66
     1
 10
0.0
 20
0.0
 30
0.0
  0
VERTEX
  5
2C8
330
2C7
100
AcDbEntity
  8
Ebene 1
370
     0
100
AcDbVertex
100
AcDb2dVertex
 10
408.4853515625
 20
454.77978515625
 30
0.0
  0
VERTEX
  5
2C9
330
2C7
100
AcDbEntity
  8
Ebene 1
370
     0
100
AcDbVertex
100
AcDb2dVertex
 10
408.44140625
 20
455.66162109375
 30
0.0
  0
VERTEX
  5
2CA
330
2C7
100
AcDbEntity
  8
Ebene 1
370
     0
100
AcDbVertex
100
AcDb2dVertex
 10
408.2646484375
 20
456.54443359375
 30
0.0
  0
VERTEX
  5
2CB
330
2C7
100
AcDbEntity
  8
Ebene 1
370
     0
100
AcDbVertex
100
AcDb2dVertex
 10
408.0
 20
457.42626953125
 30
0.0
  0
VERTEX
  5
2CC
330
2C7
100
AcDbEntity
  8
Ebene 1
370
     0
100
AcDbVertex
100
AcDb2dVertex
 10
407.603515625
 20
458.22119140625
 30
0.0
  0
VERTEX
  5
2CD
330
2C7
100
AcDbEntity
  8
Ebene 1
370
     0
100
AcDbVertex
100
AcDb2dVertex
 10
407.1171875
 20
458.97119140625
 30
0.0
  0
VERTEX
  5
2CE
330
2C7
100
AcDbEntity
  8
Ebene 1
370
     0
100
AcDbVertex
100
AcDb2dVertex
 10
406.5439453125
 20
459.67626953125
 30
0.0
  0
VERTEX
  5
2CF
330
2C7
100
AcDbEntity
  8
Ebene 1
370
     0
100
AcDbVertex
100
AcDb2dVertex
 10
405.8828125
 20
460.29443359375
 30
0.0
  0
VERTEX
  5
2D0
330
2C7
100
AcDbEntity
  8
Ebene 1
370
     0
100
AcDbVertex
100
AcDb2dVertex
 10
405.17578125
 20
460.82373046875
 30
0.0
  0
VERTEX
  5
2D1
330
2C7
100
AcDbEntity
  8
Ebene 1
370
     0
100
AcDbVertex
100
AcDb2dVertex
 10
404.3828125
 20
461.26513671875
 30
0.0
  0
VERTEX
  5
2D2
330
2C7
100
AcDbEntity
  8
Ebene 1
370
     0
100
AcDbVertex
100
AcDb2dVertex
 10
403.5439453125
 20
461.57373046875
 30
0.0
  0
VERTEX
  5
2D3
330
2C7
100
AcDbEntity
  8
Ebene 1
370
     0
100
AcDbVertex
100
AcDb2dVertex
 10
402.662109375
 20
461.79443359375
 30
0.0
  0
VERTEX
  5
2D4
330
2C7
100
AcDbEntity
  8
Ebene 1
370
     0
100
AcDbVertex
100
AcDb2dVertex
 10
401.779296875
 20
461.9267578125
 30
0.0
  0
VERTEX
  5
2D5
330
2C7
100
AcDbEntity
  8
Ebene 1
370
     0
100
AcDbVertex
100
AcDb2dVertex
 10
400.896484375
 20
461.9267578125
 30
0.0
  0
VERTEX
  5
2D6
330
2C7
100
AcDbEntity
  8
Ebene 1
370
     0
100
AcDbVertex
100
AcDb2dVertex
 10
400.0146484375
 20
461.79443359375
 30
0.0
  0
VERTEX
  5
2D7
330
2C7
100
AcDbEntity
  8
Ebene 1
370
     0
100
AcDbVertex
100
AcDb2dVertex
 10
399.1328125
 20
461.57373046875
 30
0.0
  0
VERTEX
  5
2D8
330
2C7
100
AcDbEntity
  8
Ebene 1
370
     0
100
AcDbVertex
100
AcDb2dVertex
 10
398.2939453125
 20
461.26513671875
 30
0.0
  0
VERTEX
  5
2D9
330
2C7
100
AcDbEntity
  8
Ebene 1
370
     0
100
AcDbVertex
100
AcDb2dVertex
 10
397.5
 20
460.82373046875
 30
0.0
  0
VERTEX
  5
2DA
330
2C7
100
AcDbEntity
  8
Ebene 1
370
     0
100
AcDbVertex
100
AcDb2dVertex
 10
396.7939453125
 20
460.29443359375
 30
0.0
  0
VERTEX
  5
2DB
330
2C7
100
AcDbEntity
  8
Ebene 1
370
     0
100
AcDbVertex
100
AcDb2dVertex
 10
396.1328125
 20
459.67626953125
 30
0.0
  0
VERTEX
  5
2DC
330
2C7
100
AcDbEntity
  8
Ebene 1
370
     0
100
AcDbVertex
100
AcDb2dVertex
 10
395.55859375
 20
458.97119140625
 30
0.0
  0
VERTEX
  5
2DD
330
2C7
100
AcDbEntity
  8
Ebene 1
370
     0
100
AcDbVertex
100
AcDb2dVertex
 10
395.07421875
 20
458.22119140625
 30
0.0
  0
VERTEX
  5
2DE
330
2C7
100
AcDbEntity
  8
Ebene 1
370
     0
100
AcDbVertex
100
AcDb2dVertex
 10
394.67578125
 20
457.42626953125
 30
0.0
  0
VERTEX
  5
2DF
330
2C7
100
AcDbEntity
  8
Ebene 1
370
     0
100
AcDbVertex
100
AcDb2dVertex
 10
394.412109375
 20
456.54443359375
 30
0.0
  0
VERTEX
  5
2E0
330
2C7
100
AcDbEntity
  8
Ebene 1
370
     0
100
AcDbVertex
100
AcDb2dVertex
 10
394.2353515625
 20
455.66162109375
 30
0.0
  0
VERTEX
  5
2E1
330
2C7
100
AcDbEntity
  8
Ebene 1
370
     0
100
AcDbVertex
100
AcDb2dVertex
 10
394.19140625
 20
454.77978515625
 30
0.0
  0
VERTEX
  5
2E2
330
2C7
100
AcDbEntity
  8
Ebene 1
370
     0
100
AcDbVertex
100
AcDb2dVertex
 10
394.2353515625
 20
453.89697265625
 30
0.0
  0
VERTEX
  5
2E3
330
2C7
100
AcDbEntity
  8
Ebene 1
370
     0
100
AcDbVertex
100
AcDb2dVertex
 10
394.412109375
 20
453.01513671875
 30
0.0
  0
VERTEX
  5
2E4
330
2C7
100
AcDbEntity
  8
Ebene 1
370
     0
100
AcDbVertex
100
AcDb2dVertex
 10
394.67578125
 20
452.13232421875
 30
0.0
  0
VERTEX
  5
2E5
330
2C7
100
AcDbEntity
  8
Ebene 1
370
     0
100
AcDbVertex
100
AcDb2dVertex
 10
395.07421875
 20
451.33837890625
 30
0.0
  0
VERTEX
  5
2E6
330
2C7
100
AcDbEntity
  8
Ebene 1
370
     0
100
AcDbVertex
100
AcDb2dVertex
 10
395.55859375
 20
450.58837890625
 30
0.0
  0
VERTEX
  5
2E7
330
2C7
100
AcDbEntity
  8
Ebene 1
370
     0
100
AcDbVertex
100
AcDb2dVertex
 10
396.1328125
 20
449.88232421875
 30
0.0
  0
VERTEX
  5
2E8
330
2C7
100
AcDbEntity
  8
Ebene 1
370
     0
100
AcDbVertex
100
AcDb2dVertex
 10
396.7939453125
 20
449.26513671875
 30
0.0
  0
VERTEX
  5
2E9
330
2C7
100
AcDbEntity
  8
Ebene 1
370
     0
100
AcDbVertex
100
AcDb2dVertex
 10
397.5
 20
448.73583984375
 30
0.0
  0
VERTEX
  5
2EA
330
2C7
100
AcDbEntity
  8
Ebene 1
370
     0
100
AcDbVertex
100
AcDb2dVertex
 10
398.2939453125
 20
448.29443359375
 30
0.0
  0
VERTEX
  5
2EB
330
2C7
100
AcDbEntity
  8
Ebene 1
370
     0
100
AcDbVertex
100
AcDb2dVertex
 10
399.1328125
 20
447.98583984375
 30
0.0
  0
VERTEX
  5
2EC
330
2C7
100
AcDbEntity
  8
Ebene 1
370
     0
100
AcDbVertex
100
AcDb2dVertex
 10
400.0146484375
 20
447.76513671875
 30
0.0
  0
VERTEX
  5
2ED
330
2C7
100
AcDbEntity
  8
Ebene 1
370
     0
100
AcDbVertex
100
AcDb2dVertex
 10
400.896484375
 20
447.63232421875
 30
0.0
  0
VERTEX
  5
2EE
330
2C7
100
AcDbEntity
  8
Ebene 1
370
     0
100
AcDbVertex
100
AcDb2dVertex
 10
401.779296875
 20
447.63232421875
 30
0.0
  0
VERTEX
  5
2EF
330
2C7
100
AcDbEntity
  8
Ebene 1
370
     0
100
AcDbVertex
100
AcDb2dVertex
 10
402.662109375
 20
447.76513671875
 30
0.0
  0
VERTEX
  5
2F0
330
2C7
100
AcDbEntity
  8
Ebene 1
370
     0
100
AcDbVertex
100
AcDb2dVertex
 10
403.5439453125
 20
447.98583984375
 30
0.0
  0
VERTEX
  5
2F1
330
2C7
100
AcDbEntity
  8
Ebene 1
370
     0
100
AcDbVertex
100
AcDb2dVertex
 10
404.3828125
 20
448.29443359375
 30
0.0
  0
VERTEX
  5
2F2
330
2C7
100
AcDbEntity
  8
Ebene 1
370
     0
100
AcDbVertex
100
AcDb2dVertex
 10
405.17578125
 20
448.73583984375
 30
0.0
  0
VERTEX
  5
2F3
330
2C7
100
AcDbEntity
  8
Ebene 1
370
     0
100
AcDbVertex
100
AcDb2dVertex
 10
405.8828125
 20
449.26513671875
 30
0.0
  0
VERTEX
  5
2F4
330
2C7
100
AcDbEntity
  8
Ebene 1
370
     0
100
AcDbVertex
100
AcDb2dVertex
 10
406.5439453125
 20
449.88232421875
 30
0.0
  0
VERTEX
  5
2F5
330
2C7
100
AcDbEntity
  8
Ebene 1
370
     0
100
AcDbVertex
100
AcDb2dVertex
 10
407.1171875
 20
450.58837890625
 30
0.0
  0
VERTEX
  5
2F6
330
2C7
100
AcDbEntity
  8
Ebene 1
370
     0
100
AcDbVertex
100
AcDb2dVertex
 10
407.603515625
 20
451.33837890625
 30
0.0
  0
VERTEX
  5
2F7
330
2C7
100
AcDbEntity
  8
Ebene 1
370
     0
100
AcDbVertex
100
AcDb2dVertex
 10
408.0
 20
452.13232421875
 30
0.0
  0
VERTEX
  5
2F8
330
2C7
100
AcDbEntity
  8
Ebene 1
370
     0
100
AcDbVertex
100
AcDb2dVertex
 10
408.2646484375
 20
453.01513671875
 30
0.0
  0
VERTEX
  5
2F9
330
2C7
100
AcDbEntity
  8
Ebene 1
370
     0
100
AcDbVertex
100
AcDb2dVertex
 10
408.44140625
 20
453.89697265625
 30
0.0
  0
VERTEX
  5
2FA
330
2C7
100
AcDbEntity
  8
Ebene 1
370
     0
100
AcDbVertex
100
AcDb2dVertex
 10
408.4853515625
 20
454.77978515625
 30
0.0
  0
VERTEX
  5
2FB
330
2C7
100
AcDbEntity
  8
Ebene 1
370
     0
100
AcDbVertex
100
AcDb2dVertex
 10
408.4853515625
 20
454.77978515625
 30
0.0
  0
SEQEND
  5
2FC
330
2C7
100
AcDbEntity
  8
Ebene 1
370
     0
  0
POLYLINE
  5
2FD
330
3C
100
AcDbEntity
  8
Ebene 1
370
     0
100
AcDb2dPolyline
 66
     1
 10
0.0
 20
0.0
 30
0.0
  0
VERTEX
  5
2FE
330
2FD
100
AcDbEntity
  8
Ebene 1
370
     0
100
AcDbVertex
100
AcDb2dVertex
 10
378.44140625
 20
441.85302734375
 30
0.0
  0
VERTEX
  5
2FF
330
2FD
100
AcDbEntity
  8
Ebene 1
370
     0
100
AcDbVertex
100
AcDb2dVertex
 10
425.2060546875
 20
441.85302734375
 30
0.0
  0
SEQEND
  5
300
330
2FD
100
AcDbEntity
  8
Ebene 1
370
     0
  0
POLYLINE
  5
301
330
3C
100
AcDbEntity
  8
Ebene 1
370
     0
100
AcDb2dPolyline
 66
     1
 10
0.0
 20
0.0
 30
0.0
  0
VERTEX
  5
302
330
301
100
AcDbEntity
  8
Ebene 1
370
     0
100
AcDbVertex
100
AcDb2dVertex
 10
536.029296875
 20
441.85302734375
 30
0.0
  0
VERTEX
  5
303
330
301
100
AcDbEntity
  8
Ebene 1
370
     0
100
AcDbVertex
100
AcDb2dVertex
 10
535.32421875
 20
482.13232421875
 30
0.0
  0
SEQEND
  5
304
330
301
100
AcDbEntity
  8
Ebene 1
370
     0
  0
POLYLINE
  5
305
330
3C
100
AcDbEntity
  8
Ebene 1
370
     0
100
AcDb2dPolyline
 66
     1
 10
0.0
 20
0.0
 30
0.0
  0
VERTEX
  5
306
330
305
100
AcDbEntity
  8
Ebene 1
370
     0
100
AcDbVertex
100
AcDb2dVertex
 10
535.279296875
 20
482.08837890625
 30
0.0
  0
VERTEX
  5
307
330
305
100
AcDbEntity
  8
Ebene 1
370
     0
100
AcDbVertex
100
AcDb2dVertex
 10
522.57421875
 20
482.2646484375
 30
0.0
  0
VERTEX
  5
308
330
305
100
AcDbEntity
  8
Ebene 1
370
     0
100
AcDbVertex
100
AcDb2dVertex
 10
509.8671875
 20
482.30908203125
 30
0.0
  0
VERTEX
  5
309
330
305
100
AcDbEntity
  8
Ebene 1
370
     0
100
AcDbVertex
100
AcDb2dVertex
 10
497.162109375
 20
482.2646484375
 30
0.0
  0
VERTEX
  5
30A
330
305
100
AcDbEntity
  8
Ebene 1
370
     0
100
AcDbVertex
100
AcDb2dVertex
 10
484.4560546875
 20
482.08837890625
 30
0.0
  0
SEQEND
  5
30B
330
305
100
AcDbEntity
  8
Ebene 1
370
     0
  0
POLYLINE
  5
30C
330
3C
100
AcDbEntity
  8
Ebene 1
370
     0
100
AcDb2dPolyline
 66
     1
 10
0.0
 20
0.0
 30
0.0
  0
VERTEX
  5
30D
330
30C
100
AcDbEntity
  8
Ebene 1
370
     0
100
AcDbVertex
100
AcDb2dVertex
 10
483.57421875
 20
441.80908203125
 30
0.0
  0
VERTEX
  5
30E
330
30C
100
AcDbEntity
  8
Ebene 1
370
     0
100
AcDbVertex
100
AcDb2dVertex
 10
536.029296875
 20
441.85302734375
 30
0.0
  0
SEQEND
  5
30F
330
30C
100
AcDbEntity
  8
Ebene 1
370
     0
  0
POLYLINE
  5
310
330
3C
100
AcDbEntity
  8
Ebene 1
370
     0
100
AcDb2dPolyline
 66
     1
 10
0.0
 20
0.0
 30
0.0
  0
VERTEX
  5
311
330
310
100
AcDbEntity
  8
Ebene 1
370
     0
100
AcDbVertex
100
AcDb2dVertex
 10
379.146484375
 20
482.13232421875
 30
0.0
  0
VERTEX
  5
312
330
310
100
AcDbEntity
  8
Ebene 1
370
     0
100
AcDbVertex
100
AcDb2dVertex
 10
379.146484375
 20
487.7353515625
 30
0.0
  0
SEQEND
  5
313
330
310
100
AcDbEntity
  8
Ebene 1
370
     0
  0
POLYLINE
  5
314
330
3C
100
AcDbEntity
  8
Ebene 1
370
     0
100
AcDb2dPolyline
 66
     1
 10
0.0
 20
0.0
 30
0.0
  0
VERTEX
  5
315
330
314
100
AcDbEntity
  8
Ebene 1
370
     0
100
AcDbVertex
100
AcDb2dVertex
 10
529.587890625
 20
482.13232421875
 30
0.0
  0
VERTEX
  5
316
330
314
100
AcDbEntity
  8
Ebene 1
370
     0
100
AcDbVertex
100
AcDb2dVertex
 10
529.587890625
 20
487.7353515625
 30
0.0
  0
VERTEX
  5
317
330
314
100
AcDbEntity
  8
Ebene 1
370
     0
100
AcDbVertex
100
AcDb2dVertex
 10
527.25
 20
487.7353515625
 30
0.0
  0
SEQEND
  5
318
330
314
100
AcDbEntity
  8
Ebene 1
370
     0
  0
POLYLINE
  5
319
330
3C
100
AcDbEntity
  8
Ebene 1
370
     0
100
AcDb2dPolyline
 66
     1
 10
0.0
 20
0.0
 30
0.0
  0
VERTEX
  5
31A
330
319
100
AcDbEntity
  8
Ebene 1
370
     0
100
AcDbVertex
100
AcDb2dVertex
 10
516.17578125
 20
487.7353515625
 30
0.0
  0
VERTEX
  5
31B
330
319
100
AcDbEntity
  8
Ebene 1
370
     0
100
AcDbVertex
100
AcDb2dVertex
 10
517.4560546875
 20
487.69140625
 30
0.0
  0
VERTEX
  5
31C
330
319
100
AcDbEntity
  8
Ebene 1
370
     0
100
AcDbVertex
100
AcDb2dVertex
 10
518.1171875
 20
487.60302734375
 30
0.0
  0
VERTEX
  5
31D
330
319
100
AcDbEntity
  8
Ebene 1
370
     0
100
AcDbVertex
100
AcDb2dVertex
 10
518.779296875
 20
487.55908203125
 30
0.0
  0
VERTEX
  5
31E
330
319
100
AcDbEntity
  8
Ebene 1
370
     0
100
AcDbVertex
100
AcDb2dVertex
 10
520.2353515625
 20
487.4267578125
 30
0.0
  0
VERTEX
  5
31F
330
319
100
AcDbEntity
  8
Ebene 1
370
     0
100
AcDbVertex
100
AcDb2dVertex
 10
521.7353515625
 20
487.38232421875
 30
0.0
  0
VERTEX
  5
320
330
319
100
AcDbEntity
  8
Ebene 1
370
     0
100
AcDbVertex
100
AcDb2dVertex
 10
523.2353515625
 20
487.4267578125
 30
0.0
  0
VERTEX
  5
321
330
319
100
AcDbEntity
  8
Ebene 1
370
     0
100
AcDbVertex
100
AcDb2dVertex
 10
524.69140625
 20
487.55908203125
 30
0.0
  0
VERTEX
  5
322
330
319
100
AcDbEntity
  8
Ebene 1
370
     0
100
AcDbVertex
100
AcDb2dVertex
 10
525.353515625
 20
487.64697265625
 30
0.0
  0
VERTEX
  5
323
330
319
100
AcDbEntity
  8
Ebene 1
370
     0
100
AcDbVertex
100
AcDb2dVertex
 10
526.0146484375
 20
487.69140625
 30
0.0
  0
VERTEX
  5
324
330
319
100
AcDbEntity
  8
Ebene 1
370
     0
100
AcDbVertex
100
AcDb2dVertex
 10
526.67578125
 20
487.7353515625
 30
0.0
  0
VERTEX
  5
325
330
319
100
AcDbEntity
  8
Ebene 1
370
     0
100
AcDbVertex
100
AcDb2dVertex
 10
527.25
 20
487.7353515625
 30
0.0
  0
SEQEND
  5
326
330
319
100
AcDbEntity
  8
Ebene 1
370
     0
  0
POLYLINE
  5
327
330
3C
100
AcDbEntity
  8
Ebene 1
370
     0
100
AcDb2dPolyline
 66
     1
 10
0.0
 20
0.0
 30
0.0
  0
VERTEX
  5
328
330
327
100
AcDbEntity
  8
Ebene 1
370
     0
100
AcDbVertex
100
AcDb2dVertex
 10
516.17578125
 20
487.7353515625
 30
0.0
  0
VERTEX
  5
329
330
327
100
AcDbEntity
  8
Ebene 1
370
     0
100
AcDbVertex
100
AcDb2dVertex
 10
392.55859375
 20
487.7353515625
 30
0.0
  0
SEQEND
  5
32A
330
327
100
AcDbEntity
  8
Ebene 1
370
     0
  0
POLYLINE
  5
32B
330
3C
100
AcDbEntity
  8
Ebene 1
370
     0
100
AcDb2dPolyline
 66
     1
 10
0.0
 20
0.0
 30
0.0
  0
VERTEX
  5
32C
330
32B
100
AcDbEntity
  8
Ebene 1
370
     0
100
AcDbVertex
100
AcDb2dVertex
 10
381.4853515625
 20
487.7353515625
 30
0.0
  0
VERTEX
  5
32D
330
32B
100
AcDbEntity
  8
Ebene 1
370
     0
100
AcDbVertex
100
AcDb2dVertex
 10
382.720703125
 20
487.69140625
 30
0.0
  0
VERTEX
  5
32E
330
32B
100
AcDbEntity
  8
Ebene 1
370
     0
100
AcDbVertex
100
AcDb2dVertex
 10
383.3828125
 20
487.60302734375
 30
0.0
  0
VERTEX
  5
32F
330
32B
100
AcDbEntity
  8
Ebene 1
370
     0
100
AcDbVertex
100
AcDb2dVertex
 10
384.087890625
 20
487.55908203125
 30
0.0
  0
VERTEX
  5
330
330
32B
100
AcDbEntity
  8
Ebene 1
370
     0
100
AcDbVertex
100
AcDb2dVertex
 10
385.5
 20
487.4267578125
 30
0.0
  0
VERTEX
  5
331
330
32B
100
AcDbEntity
  8
Ebene 1
370
     0
100
AcDbVertex
100
AcDb2dVertex
 10
387.0
 20
487.38232421875
 30
0.0
  0
VERTEX
  5
332
330
32B
100
AcDbEntity
  8
Ebene 1
370
     0
100
AcDbVertex
100
AcDb2dVertex
 10
388.5
 20
487.4267578125
 30
0.0
  0
VERTEX
  5
333
330
32B
100
AcDbEntity
  8
Ebene 1
370
     0
100
AcDbVertex
100
AcDb2dVertex
 10
389.9560546875
 20
487.55908203125
 30
0.0
  0
VERTEX
  5
334
330
32B
100
AcDbEntity
  8
Ebene 1
370
     0
100
AcDbVertex
100
AcDb2dVertex
 10
390.662109375
 20
487.64697265625
 30
0.0
  0
VERTEX
  5
335
330
32B
100
AcDbEntity
  8
Ebene 1
370
     0
100
AcDbVertex
100
AcDb2dVertex
 10
391.32421875
 20
487.69140625
 30
0.0
  0
VERTEX
  5
336
330
32B
100
AcDbEntity
  8
Ebene 1
370
     0
100
AcDbVertex
100
AcDb2dVertex
 10
391.94140625
 20
487.7353515625
 30
0.0
  0
VERTEX
  5
337
330
32B
100
AcDbEntity
  8
Ebene 1
370
     0
100
AcDbVertex
100
AcDb2dVertex
 10
392.55859375
 20
487.7353515625
 30
0.0
  0
SEQEND
  5
338
330
32B
100
AcDbEntity
  8
Ebene 1
370
     0
  0
POLYLINE
  5
339
330
3C
100
AcDbEntity
  8
Ebene 1
370
     0
100
AcDb2dPolyline
 66
     1
 10
0.0
 20
0.0
 30
0.0
  0
VERTEX
  5
33A
330
339
100
AcDbEntity
  8
Ebene 1
370
     0
100
AcDbVertex
100
AcDb2dVertex
 10
381.4853515625
 20
487.7353515625
 30
0.0
  0
VERTEX
  5
33B
330
339
100
AcDbEntity
  8
Ebene 1
370
     0
100
AcDbVertex
100
AcDb2dVertex
 10
379.146484375
 20
487.7353515625
 30
0.0
  0
SEQEND
  5
33C
330
339
100
AcDbEntity
  8
Ebene 1
370
     0
  0
POLYLINE
  5
33D
330
3C
100
AcDbEntity
  8
Ebene 1
370
     0
100
AcDb2dPolyline
 66
     1
 10
0.0
 20
0.0
 30
0.0
  0
VERTEX
  5
33E
330
33D
100
AcDbEntity
  8
Ebene 1
370
     0
100
AcDbVertex
100
AcDb2dVertex
 10
379.146484375
 20
487.7353515625
 30
0.0
  0
VERTEX
  5
33F
330
33D
100
AcDbEntity
  8
Ebene 1
370
     0
100
AcDbVertex
100
AcDb2dVertex
 10
378.353515625
 20
487.69140625
 30
0.0
  0
VERTEX
  5
340
330
33D
100
AcDbEntity
  8
Ebene 1
370
     0
100
AcDbVertex
100
AcDb2dVertex
 10
377.55859375
 20
487.5146484375
 30
0.0
  0
VERTEX
  5
341
330
33D
100
AcDbEntity
  8
Ebene 1
370
     0
100
AcDbVertex
100
AcDb2dVertex
 10
376.80859375
 20
487.25
 30
0.0
  0
VERTEX
  5
342
330
33D
100
AcDbEntity
  8
Ebene 1
370
     0
100
AcDbVertex
100
AcDb2dVertex
 10
376.103515625
 20
486.85302734375
 30
0.0
  0
VERTEX
  5
343
330
33D
100
AcDbEntity
  8
Ebene 1
370
     0
100
AcDbVertex
100
AcDb2dVertex
 10
375.44140625
 20
486.36767578125
 30
0.0
  0
VERTEX
  5
344
330
33D
100
AcDbEntity
  8
Ebene 1
370
     0
100
AcDbVertex
100
AcDb2dVertex
 10
374.8671875
 20
485.79443359375
 30
0.0
  0
VERTEX
  5
345
330
33D
100
AcDbEntity
  8
Ebene 1
370
     0
100
AcDbVertex
100
AcDb2dVertex
 10
374.3828125
 20
485.13232421875
 30
0.0
  0
VERTEX
  5
346
330
33D
100
AcDbEntity
  8
Ebene 1
370
     0
100
AcDbVertex
100
AcDb2dVertex
 10
373.9853515625
 20
484.470703125
 30
0.0
  0
VERTEX
  5
347
330
33D
100
AcDbEntity
  8
Ebene 1
370
     0
100
AcDbVertex
100
AcDb2dVertex
 10
373.720703125
 20
483.6767578125
 30
0.0
  0
VERTEX
  5
348
330
33D
100
AcDbEntity
  8
Ebene 1
370
     0
100
AcDbVertex
100
AcDb2dVertex
 10
373.5439453125
 20
482.9267578125
 30
0.0
  0
VERTEX
  5
349
330
33D
100
AcDbEntity
  8
Ebene 1
370
     0
100
AcDbVertex
100
AcDb2dVertex
 10
373.4560546875
 20
482.08837890625
 30
0.0
  0
SEQEND
  5
34A
330
33D
100
AcDbEntity
  8
Ebene 1
370
     0
  0
POLYLINE
  5
34B
330
3C
100
AcDbEntity
  8
Ebene 1
370
     0
100
AcDb2dPolyline
 66
     1
 10
0.0
 20
0.0
 30
0.0
  0
VERTEX
  5
34C
330
34B
100
AcDbEntity
  8
Ebene 1
370
     0
100
AcDbVertex
100
AcDb2dVertex
 10
535.279296875
 20
482.08837890625
 30
0.0
  0
VERTEX
  5
34D
330
34B
100
AcDbEntity
  8
Ebene 1
370
     0
100
AcDbVertex
100
AcDb2dVertex
 10
535.19140625
 20
482.9267578125
 30
0.0
  0
VERTEX
  5
34E
330
34B
100
AcDbEntity
  8
Ebene 1
370
     0
100
AcDbVertex
100
AcDb2dVertex
 10
535.0146484375
 20
483.6767578125
 30
0.0
  0
VERTEX
  5
34F
330
34B
100
AcDbEntity
  8
Ebene 1
370
     0
100
AcDbVertex
100
AcDb2dVertex
 10
534.75
 20
484.470703125
 30
0.0
  0
VERTEX
  5
350
330
34B
100
AcDbEntity
  8
Ebene 1
370
     0
100
AcDbVertex
100
AcDb2dVertex
 10
534.353515625
 20
485.13232421875
 30
0.0
  0
VERTEX
  5
351
330
34B
100
AcDbEntity
  8
Ebene 1
370
     0
100
AcDbVertex
100
AcDb2dVertex
 10
533.8671875
 20
485.79443359375
 30
0.0
  0
VERTEX
  5
352
330
34B
100
AcDbEntity
  8
Ebene 1
370
     0
100
AcDbVertex
100
AcDb2dVertex
 10
533.2939453125
 20
486.36767578125
 30
0.0
  0
VERTEX
  5
353
330
34B
100
AcDbEntity
  8
Ebene 1
370
     0
100
AcDbVertex
100
AcDb2dVertex
 10
532.6328125
 20
486.85302734375
 30
0.0
  0
VERTEX
  5
354
330
34B
100
AcDbEntity
  8
Ebene 1
370
     0
100
AcDbVertex
100
AcDb2dVertex
 10
531.92578125
 20
487.25
 30
0.0
  0
VERTEX
  5
355
330
34B
100
AcDbEntity
  8
Ebene 1
370
     0
100
AcDbVertex
100
AcDb2dVertex
 10
531.17578125
 20
487.5146484375
 30
0.0
  0
VERTEX
  5
356
330
34B
100
AcDbEntity
  8
Ebene 1
370
     0
100
AcDbVertex
100
AcDb2dVertex
 10
530.3828125
 20
487.69140625
 30
0.0
  0
VERTEX
  5
357
330
34B
100
AcDbEntity
  8
Ebene 1
370
     0
100
AcDbVertex
100
AcDb2dVertex
 10
529.587890625
 20
487.7353515625
 30
0.0
  0
SEQEND
  5
358
330
34B
100
AcDbEntity
  8
Ebene 1
370
     0
  0
POLYLINE
  5
359
330
3C
100
AcDbEntity
  8
Ebene 1
370
     0
100
AcDb2dPolyline
 66
     1
 10
0.0
 20
0.0
 30
0.0
  0
VERTEX
  5
35A
330
359
100
AcDbEntity
  8
Ebene 1
370
     0
100
AcDbVertex
100
AcDb2dVertex
 10
379.853515625
 20
438.98583984375
 30
0.0
  0
VERTEX
  5
35B
330
359
100
AcDbEntity
  8
Ebene 1
370
     0
100
AcDbVertex
100
AcDb2dVertex
 10
379.853515625
 20
441.85302734375
 30
0.0
  0
SEQEND
  5
35C
330
359
100
AcDbEntity
  8
Ebene 1
370
     0
  0
POLYLINE
  5
35D
330
3C
100
AcDbEntity
  8
Ebene 1
370
     0
100
AcDb2dPolyline
 66
     1
 10
0.0
 20
0.0
 30
0.0
  0
VERTEX
  5
35E
330
35D
100
AcDbEntity
  8
Ebene 1
370
     0
100
AcDbVertex
100
AcDb2dVertex
 10
528.8828125
 20
441.85302734375
 30
0.0
  0
VERTEX
  5
35F
330
35D
100
AcDbEntity
  8
Ebene 1
370
     0
100
AcDbVertex
100
AcDb2dVertex
 10
528.8828125
 20
438.98583984375
 30
0.0
  0
SEQEND
  5
360
330
35D
100
AcDbEntity
  8
Ebene 1
370
     0
  0
POLYLINE
  5
361
330
3C
100
AcDbEntity
  8
Ebene 1
370
     0
100
AcDb2dPolyline
 66
     1
 10
0.0
 20
0.0
 30
0.0
  0
VERTEX
  5
362
330
361
100
AcDbEntity
  8
Ebene 1
370
     0
100
AcDbVertex
100
AcDb2dVertex
 10
374.1171875
 20
441.85302734375
 30
0.0
  0
VERTEX
  5
363
330
361
100
AcDbEntity
  8
Ebene 1
370
     0
100
AcDbVertex
100
AcDb2dVertex
 10
374.162109375
 20
438.98583984375
 30
0.0
  0
SEQEND
  5
364
330
361
100
AcDbEntity
  8
Ebene 1
370
     0
  0
POLYLINE
  5
365
330
3C
100
AcDbEntity
  8
Ebene 1
370
     0
100
AcDb2dPolyline
 66
     1
 10
0.0
 20
0.0
 30
0.0
  0
VERTEX
  5
366
330
365
100
AcDbEntity
  8
Ebene 1
370
     0
100
AcDbVertex
100
AcDb2dVertex
 10
534.57421875
 20
438.98583984375
 30
0.0
  0
VERTEX
  5
367
330
365
100
AcDbEntity
  8
Ebene 1
370
     0
100
AcDbVertex
100
AcDb2dVertex
 10
534.6171875
 20
441.85302734375
 30
0.0
  0
SEQEND
  5
368
330
365
100
AcDbEntity
  8
Ebene 1
370
     0
  0
POLYLINE
  5
369
330
3C
100
AcDbEntity
  8
Ebene 1
370
     0
100
AcDb2dPolyline
 66
     1
 10
0.0
 20
0.0
 30
0.0
  0
VERTEX
  5
36A
330
369
100
AcDbEntity
  8
Ebene 1
370
     0
100
AcDbVertex
100
AcDb2dVertex
 10
535.32421875
 20
482.220703125
 30
0.0
  0
VERTEX
  5
36B
330
369
100
AcDbEntity
  8
Ebene 1
370
     0
100
AcDbVertex
100
AcDb2dVertex
 10
535.279296875
 20
482.57373046875
 30
0.0
  0
VERTEX
  5
36C
330
369
100
AcDbEntity
  8
Ebene 1
370
     0
100
AcDbVertex
100
AcDb2dVertex
 10
535.2353515625
 20
482.83837890625
 30
0.0
  0
VERTEX
  5
36D
330
369
100
AcDbEntity
  8
Ebene 1
370
     0
100
AcDbVertex
100
AcDb2dVertex
 10
535.2353515625
 20
483.05908203125
 30
0.0
  0
VERTEX
  5
36E
330
369
100
AcDbEntity
  8
Ebene 1
370
     0
100
AcDbVertex
100
AcDb2dVertex
 10
535.19140625
 20
483.10302734375
 30
0.0
  0
SEQEND
  5
36F
330
369
100
AcDbEntity
  8
Ebene 1
370
     0
  0
POLYLINE
  5
370
330
3C
100
AcDbEntity
  8
Ebene 1
370
     0
100
AcDb2dPolyline
 66
     1
 10
0.0
 20
0.0
 30
0.0
  0
VERTEX
  5
371
330
370
100
AcDbEntity
  8
Ebene 1
370
     0
100
AcDbVertex
100
AcDb2dVertex
 10
372.662109375
 20
438.98583984375
 30
0.0
  0
VERTEX
  5
372
330
370
100
AcDbEntity
  8
Ebene 1
370
     0
100
AcDbVertex
100
AcDb2dVertex
 10
373.853515625
 20
372.94140625
 30
0.0
  0
SEQEND
  5
373
330
370
100
AcDbEntity
  8
Ebene 1
370
     0
  0
POLYLINE
  5
374
330
3C
100
AcDbEntity
  8
Ebene 1
370
     0
100
AcDb2dPolyline
 66
     1
 10
0.0
 20
0.0
 30
0.0
  0
VERTEX
  5
375
330
374
100
AcDbEntity
  8
Ebene 1
370
     0
100
AcDbVertex
100
AcDb2dVertex
 10
373.80859375
 20
373.029296875
 30
0.0
  0
VERTEX
  5
376
330
374
100
AcDbEntity
  8
Ebene 1
370
     0
100
AcDbVertex
100
AcDb2dVertex
 10
379.5439453125
 20
373.029296875
 30
0.0
  0
SEQEND
  5
377
330
374
100
AcDbEntity
  8
Ebene 1
370
     0
  0
POLYLINE
  5
378
330
3C
100
AcDbEntity
  8
Ebene 1
370
     0
100
AcDb2dPolyline
 66
     1
 10
0.0
 20
0.0
 30
0.0
  0
VERTEX
  5
379
330
378
100
AcDbEntity
  8
Ebene 1
370
     0
100
AcDbVertex
100
AcDb2dVertex
 10
379.5439453125
 20
372.94140625
 30
0.0
  0
VERTEX
  5
37A
330
378
100
AcDbEntity
  8
Ebene 1
370
     0
100
AcDbVertex
100
AcDb2dVertex
 10
378.396484375
 20
438.98583984375
 30
0.0
  0
SEQEND
  5
37B
330
378
100
AcDbEntity
  8
Ebene 1
370
     0
  0
POLYLINE
  5
37C
330
3C
100
AcDbEntity
  8
Ebene 1
370
     0
100
AcDb2dPolyline
 66
     1
 10
0.0
 20
0.0
 30
0.0
  0
VERTEX
  5
37D
330
37C
100
AcDbEntity
  8
Ebene 1
370
     0
100
AcDbVertex
100
AcDb2dVertex
 10
423.57421875
 20
438.98583984375
 30
0.0
  0
VERTEX
  5
37E
330
37C
100
AcDbEntity
  8
Ebene 1
370
     0
100
AcDbVertex
100
AcDb2dVertex
 10
372.662109375
 20
438.98583984375
 30
0.0
  0
SEQEND
  5
37F
330
37C
100
AcDbEntity
  8
Ebene 1
370
     0
  0
POLYLINE
  5
380
330
3C
100
AcDbEntity
  8
Ebene 1
370
     0
100
AcDb2dPolyline
 66
     1
 10
0.0
 20
0.0
 30
0.0
  0
VERTEX
  5
381
330
380
100
AcDbEntity
  8
Ebene 1
370
     0
100
AcDbVertex
100
AcDb2dVertex
 10
529.19140625
 20
372.94140625
 30
0.0
  0
VERTEX
  5
382
330
380
100
AcDbEntity
  8
Ebene 1
370
     0
100
AcDbVertex
100
AcDb2dVertex
 10
379.5439453125
 20
372.94140625
 30
0.0
  0
SEQEND
  5
383
330
380
100
AcDbEntity
  8
Ebene 1
370
     0
  0
POLYLINE
  5
384
330
3C
100
AcDbEntity
  8
Ebene 1
370
     0
100
AcDb2dPolyline
 66
     1
 10
0.0
 20
0.0
 30
0.0
  0
VERTEX
  5
385
330
384
100
AcDbEntity
  8
Ebene 1
370
     0
100
AcDbVertex
100
AcDb2dVertex
 10
530.337890625
 20
438.98583984375
 30
0.0
  0
VERTEX
  5
386
330
384
100
AcDbEntity
  8
Ebene 1
370
     0
100
AcDbVertex
100
AcDb2dVertex
 10
529.19140625
 20
372.94140625
 30
0.0
  0
SEQEND
  5
387
330
384
100
AcDbEntity
  8
Ebene 1
370
     0
  0
POLYLINE
  5
388
330
3C
100
AcDbEntity
  8
Ebene 1
370
     0
100
AcDb2dPolyline
 66
     1
 10
0.0
 20
0.0
 30
0.0
  0
VERTEX
  5
389
330
388
100
AcDbEntity
  8
Ebene 1
370
     0
100
AcDbVertex
100
AcDb2dVertex
 10
529.19140625
 20
372.94140625
 30
0.0
  0
VERTEX
  5
38A
330
388
100
AcDbEntity
  8
Ebene 1
370
     0
100
AcDbVertex
100
AcDb2dVertex
 10
534.92578125
 20
372.94140625
 30
0.0
  0
SEQEND
  5
38B
330
388
100
AcDbEntity
  8
Ebene 1
370
     0
  0
POLYLINE
  5
38C
330
3C
100
AcDbEntity
  8
Ebene 1
370
     0
100
AcDb2dPolyline
 66
     1
 10
0.0
 20
0.0
 30
0.0
  0
VERTEX
  5
38D
330
38C
100
AcDbEntity
  8
Ebene 1
370
     0
100
AcDbVertex
100
AcDb2dVertex
 10
534.92578125
 20
372.94140625
 30
0.0
  0
VERTEX
  5
38E
330
38C
100
AcDbEntity
  8
Ebene 1
370
     0
100
AcDbVertex
100
AcDb2dVertex
 10
536.07421875
 20
438.98583984375
 30
0.0
  0
VERTEX
  5
38F
330
38C
100
AcDbEntity
  8
Ebene 1
370
     0
100
AcDbVertex
100
AcDb2dVertex
 10
485.2060546875
 20
438.98583984375
 30
0.0
  0
SEQEND
  5
390
330
38C
100
AcDbEntity
  8
Ebene 1
370
     0
  0
POLYLINE
  5
391
330
3C
100
AcDbEntity
  8
Ebene 1
370
     0
100
AcDb2dPolyline
 66
     1
 10
0.0
 20
0.0
 30
0.0
  0
VERTEX
  5
392
330
391
100
AcDbEntity
  8
Ebene 1
370
     0
100
AcDbVertex
100
AcDb2dVertex
 10
379.5439453125
 20
367.294921875
 30
0.0
  0
VERTEX
  5
393
330
391
100
AcDbEntity
  8
Ebene 1
370
     0
100
AcDbVertex
100
AcDb2dVertex
 10
529.19140625
 20
367.294921875
 30
0.0
  0
VERTEX
  5
394
330
391
100
AcDbEntity
  8
Ebene 1
370
     0
100
AcDbVertex
100
AcDb2dVertex
 10
529.19140625
 20
372.94140625
 30
0.0
  0
SEQEND
  5
395
330
391
100
AcDbEntity
  8
Ebene 1
370
     0
  0
POLYLINE
  5
396
330
3C
100
AcDbEntity
  8
Ebene 1
370
     0
100
AcDb2dPolyline
 66
     1
 10
0.0
 20
0.0
 30
0.0
  0
VERTEX
  5
397
330
396
100
AcDbEntity
  8
Ebene 1
370
     0
100
AcDbVertex
100
AcDb2dVertex
 10
379.5439453125
 20
367.294921875
 30
0.0
  0
VERTEX
  5
398
330
396
100
AcDbEntity
  8
Ebene 1
370
     0
100
AcDbVertex
100
AcDb2dVertex
 10
379.5439453125
 20
372.94140625
 30
0.0
  0
SEQEND
  5
399
330
396
100
AcDbEntity
  8
Ebene 1
370
     0
  0
POLYLINE
  5
39A
330
3C
100
AcDbEntity
  8
Ebene 1
370
     0
100
AcDb2dPolyline
 66
     1
 10
0.0
 20
0.0
 30
0.0
  0
VERTEX
  5
39B
330
39A
100
AcDbEntity
  8
Ebene 1
370
     0
100
AcDbVertex
100
AcDb2dVertex
 10
373.853515625
 20
372.94140625
 30
0.0
  0
VERTEX
  5
39C
330
39A
100
AcDbEntity
  8
Ebene 1
370
     0
100
AcDbVertex
100
AcDb2dVertex
 10
373.94140625
 20
372.103515625
 30
0.0
  0
VERTEX
  5
39D
330
39A
100
AcDbEntity
  8
Ebene 1
370
     0
100
AcDbVertex
100
AcDb2dVertex
 10
374.1171875
 20
371.353515625
 30
0.0
  0
VERTEX
  5
39E
330
39A
100
AcDbEntity
  8
Ebene 1
370
     0
100
AcDbVertex
100
AcDb2dVertex
 10
374.3828125
 20
370.55859375
 30
0.0
  0
VERTEX
  5
39F
330
39A
100
AcDbEntity
  8
Ebene 1
370
     0
100
AcDbVertex
100
AcDb2dVertex
 10
374.779296875
 20
369.896484375
 30
0.0
  0
VERTEX
  5
3A0
330
39A
100
AcDbEntity
  8
Ebene 1
370
     0
100
AcDbVertex
100
AcDb2dVertex
 10
375.2646484375
 20
369.236328125
 30
0.0
  0
VERTEX
  5
3A1
330
39A
100
AcDbEntity
  8
Ebene 1
370
     0
100
AcDbVertex
100
AcDb2dVertex
 10
375.837890625
 20
368.662109375
 30
0.0
  0
VERTEX
  5
3A2
330
39A
100
AcDbEntity
  8
Ebene 1
370
     0
100
AcDbVertex
100
AcDb2dVertex
 10
376.5
 20
368.17578125
 30
0.0
  0
VERTEX
  5
3A3
330
39A
100
AcDbEntity
  8
Ebene 1
370
     0
100
AcDbVertex
100
AcDb2dVertex
 10
377.2060546875
 20
367.779296875
 30
0.0
  0
VERTEX
  5
3A4
330
39A
100
AcDbEntity
  8
Ebene 1
370
     0
100
AcDbVertex
100
AcDb2dVertex
 10
377.9560546875
 20
367.515625
 30
0.0
  0
VERTEX
  5
3A5
330
39A
100
AcDbEntity
  8
Ebene 1
370
     0
100
AcDbVertex
100
AcDb2dVertex
 10
378.75
 20
367.337890625
 30
0.0
  0
VERTEX
  5
3A6
330
39A
100
AcDbEntity
  8
Ebene 1
370
     0
100
AcDbVertex
100
AcDb2dVertex
 10
379.5439453125
 20
367.294921875
 30
0.0
  0
SEQEND
  5
3A7
330
39A
100
AcDbEntity
  8
Ebene 1
370
     0
  0
POLYLINE
  5
3A8
330
3C
100
AcDbEntity
  8
Ebene 1
370
     0
100
AcDb2dPolyline
 66
     1
 10
0.0
 20
0.0
 30
0.0
  0
VERTEX
  5
3A9
330
3A8
100
AcDbEntity
  8
Ebene 1
370
     0
100
AcDbVertex
100
AcDb2dVertex
 10
529.19140625
 20
367.294921875
 30
0.0
  0
VERTEX
  5
3AA
330
3A8
100
AcDbEntity
  8
Ebene 1
370
     0
100
AcDbVertex
100
AcDb2dVertex
 10
529.9853515625
 20
367.337890625
 30
0.0
  0
VERTEX
  5
3AB
330
3A8
100
AcDbEntity
  8
Ebene 1
370
     0
100
AcDbVertex
100
AcDb2dVertex
 10
530.779296875
 20
367.515625
 30
0.0
  0
VERTEX
  5
3AC
330
3A8
100
AcDbEntity
  8
Ebene 1
370
     0
100
AcDbVertex
100
AcDb2dVertex
 10
531.529296875
 20
367.779296875
 30
0.0
  0
VERTEX
  5
3AD
330
3A8
100
AcDbEntity
  8
Ebene 1
370
     0
100
AcDbVertex
100
AcDb2dVertex
 10
532.2353515625
 20
368.17578125
 30
0.0
  0
VERTEX
  5
3AE
330
3A8
100
AcDbEntity
  8
Ebene 1
370
     0
100
AcDbVertex
100
AcDb2dVertex
 10
532.896484375
 20
368.662109375
 30
0.0
  0
VERTEX
  5
3AF
330
3A8
100
AcDbEntity
  8
Ebene 1
370
     0
100
AcDbVertex
100
AcDb2dVertex
 10
533.470703125
 20
369.236328125
 30
0.0
  0
VERTEX
  5
3B0
330
3A8
100
AcDbEntity
  8
Ebene 1
370
     0
100
AcDbVertex
100
AcDb2dVertex
 10
533.9560546875
 20
369.896484375
 30
0.0
  0
VERTEX
  5
3B1
330
3A8
100
AcDbEntity
  8
Ebene 1
370
     0
100
AcDbVertex
100
AcDb2dVertex
 10
534.353515625
 20
370.55859375
 30
0.0
  0
VERTEX
  5
3B2
330
3A8
100
AcDbEntity
  8
Ebene 1
370
     0
100
AcDbVertex
100
AcDb2dVertex
 10
534.6171875
 20
371.353515625
 30
0.0
  0
VERTEX
  5
3B3
330
3A8
100
AcDbEntity
  8
Ebene 1
370
     0
100
AcDbVertex
100
AcDb2dVertex
 10
534.7939453125
 20
372.103515625
 30
0.0
  0
VERTEX
  5
3B4
330
3A8
100
AcDbEntity
  8
Ebene 1
370
     0
100
AcDbVertex
100
AcDb2dVertex
 10
534.8828125
 20
372.94140625
 30
0.0
  0
SEQEND
  5
3B5
330
3A8
100
AcDbEntity
  8
Ebene 1
370
     0
  0
POLYLINE
  5
3B6
330
3C
100
AcDbEntity
  8
Ebene 1
370
     0
100
AcDb2dPolyline
 66
     1
 10
0.0
 20
0.0
 30
0.0
  0
VERTEX
  5
3B7
330
3B6
100
AcDbEntity
  8
Ebene 1
370
     0
100
AcDbVertex
100
AcDb2dVertex
 10
423.75
 20
441.85302734375
 30
0.0
  0
VERTEX
  5
3B8
330
3B6
100
AcDbEntity
  8
Ebene 1
370
     0
100
AcDbVertex
100
AcDb2dVertex
 10
424.3671875
 20
477.14697265625
 30
0.0
  0
SEQEND
  5
3B9
330
3B6
100
AcDbEntity
  8
Ebene 1
370
     0
  0
POLYLINE
  5
3BA
330
3C
100
AcDbEntity
  8
Ebene 1
370
     0
100
AcDb2dPolyline
 66
     1
 10
0.0
 20
0.0
 30
0.0
  0
VERTEX
  5
3BB
330
3BA
100
AcDbEntity
  8
Ebene 1
370
     0
100
AcDbVertex
100
AcDb2dVertex
 10
425.779296875
 20
477.10302734375
 30
0.0
  0
VERTEX
  5
3BC
330
3BA
100
AcDbEntity
  8
Ebene 1
370
     0
100
AcDbVertex
100
AcDb2dVertex
 10
425.69140625
 20
477.10302734375
 30
0.0
  0
VERTEX
  5
3BD
330
3BA
100
AcDbEntity
  8
Ebene 1
370
     0
100
AcDbVertex
100
AcDb2dVertex
 10
425.5146484375
 20
477.10302734375
 30
0.0
  0
VERTEX
  5
3BE
330
3BA
100
AcDbEntity
  8
Ebene 1
370
     0
100
AcDbVertex
100
AcDb2dVertex
 10
425.2060546875
 20
477.10302734375
 30
0.0
  0
VERTEX
  5
3BF
330
3BA
100
AcDbEntity
  8
Ebene 1
370
     0
100
AcDbVertex
100
AcDb2dVertex
 10
424.80859375
 20
477.10302734375
 30
0.0
  0
VERTEX
  5
3C0
330
3BA
100
AcDbEntity
  8
Ebene 1
370
     0
100
AcDbVertex
100
AcDb2dVertex
 10
424.3671875
 20
477.10302734375
 30
0.0
  0
SEQEND
  5
3C1
330
3BA
100
AcDbEntity
  8
Ebene 1
370
     0
  0
POLYLINE
  5
3C2
330
3C
100
AcDbEntity
  8
Ebene 1
370
     0
100
AcDb2dPolyline
 66
     1
 10
0.0
 20
0.0
 30
0.0
  0
VERTEX
  5
3C3
330
3C2
100
AcDbEntity
  8
Ebene 1
370
     0
100
AcDbVertex
100
AcDb2dVertex
 10
425.82421875
 20
477.10302734375
 30
0.0
  0
VERTEX
  5
3C4
330
3C2
100
AcDbEntity
  8
Ebene 1
370
     0
100
AcDbVertex
100
AcDb2dVertex
 10
425.2060546875
 20
441.80908203125
 30
0.0
  0
SEQEND
  5
3C5
330
3C2
100
AcDbEntity
  8
Ebene 1
370
     0
  0
POLYLINE
  5
3C6
330
3C
100
AcDbEntity
  8
Ebene 1
370
     0
100
AcDb2dPolyline
 66
     1
 10
0.0
 20
0.0
 30
0.0
  0
VERTEX
  5
3C7
330
3C6
100
AcDbEntity
  8
Ebene 1
370
     0
100
AcDbVertex
100
AcDb2dVertex
 10
483.57421875
 20
441.80908203125
 30
0.0
  0
VERTEX
  5
3C8
330
3C6
100
AcDbEntity
  8
Ebene 1
370
     0
100
AcDbVertex
100
AcDb2dVertex
 10
482.9560546875
 20
477.14697265625
 30
0.0
  0
SEQEND
  5
3C9
330
3C6
100
AcDbEntity
  8
Ebene 1
370
     0
  0
POLYLINE
  5
3CA
330
3C
100
AcDbEntity
  8
Ebene 1
370
     0
100
AcDb2dPolyline
 66
     1
 10
0.0
 20
0.0
 30
0.0
  0
VERTEX
  5
3CB
330
3CA
100
AcDbEntity
  8
Ebene 1
370
     0
100
AcDbVertex
100
AcDb2dVertex
 10
484.3671875
 20
477.14697265625
 30
0.0
  0
VERTEX
  5
3CC
330
3CA
100
AcDbEntity
  8
Ebene 1
370
     0
100
AcDbVertex
100
AcDb2dVertex
 10
483.92578125
 20
477.14697265625
 30
0.0
  0
VERTEX
  5
3CD
330
3CA
100
AcDbEntity
  8
Ebene 1
370
     0
100
AcDbVertex
100
AcDb2dVertex
 10
483.529296875
 20
477.14697265625
 30
0.0
  0
VERTEX
  5
3CE
330
3CA
100
AcDbEntity
  8
Ebene 1
370
     0
100
AcDbVertex
100
AcDb2dVertex
 10
483.220703125
 20
477.14697265625
 30
0.0
  0
VERTEX
  5
3CF
330
3CA
100
AcDbEntity
  8
Ebene 1
370
     0
100
AcDbVertex
100
AcDb2dVertex
 10
483.0439453125
 20
477.14697265625
 30
0.0
  0
VERTEX
  5
3D0
330
3CA
100
AcDbEntity
  8
Ebene 1
370
     0
100
AcDbVertex
100
AcDb2dVertex
 10
482.9560546875
 20
477.14697265625
 30
0.0
  0
SEQEND
  5
3D1
330
3CA
100
AcDbEntity
  8
Ebene 1
370
     0
  0
POLYLINE
  5
3D2
330
3C
100
AcDbEntity
  8
Ebene 1
370
     0
100
AcDb2dPolyline
 66
     1
 10
0.0
 20
0.0
 30
0.0
  0
VERTEX
  5
3D3
330
3D2
100
AcDbEntity
  8
Ebene 1
370
     0
100
AcDbVertex
100
AcDb2dVertex
 10
484.3671875
 20
477.14697265625
 30
0.0
  0
VERTEX
  5
3D4
330
3D2
100
AcDbEntity
  8
Ebene 1
370
     0
100
AcDbVertex
100
AcDb2dVertex
 10
484.9853515625
 20
441.85302734375
 30
0.0
  0
SEQEND
  5
3D5
330
3D2
100
AcDbEntity
  8
Ebene 1
370
     0
  0
POLYLINE
  5
3D6
330
3C
100
AcDbEntity
  8
Ebene 1
370
     0
100
AcDb2dPolyline
 66
     1
 10
0.0
 20
0.0
 30
0.0
  0
VERTEX
  5
3D7
330
3D6
100
AcDbEntity
  8
Ebene 1
370
     0
100
AcDbVertex
100
AcDb2dVertex
 10
484.4560546875
 20
482.13232421875
 30
0.0
  0
VERTEX
  5
3D8
330
3D6
100
AcDbEntity
  8
Ebene 1
370
     0
100
AcDbVertex
100
AcDb2dVertex
 10
484.3671875
 20
477.14697265625
 30
0.0
  0
SEQEND
  5
3D9
330
3D6
100
AcDbEntity
  8
Ebene 1
370
     0
  0
POLYLINE
  5
3DA
330
3C
100
AcDbEntity
  8
Ebene 1
370
     0
100
AcDb2dPolyline
 66
     1
 10
0.0
 20
0.0
 30
0.0
  0
VERTEX
  5
3DB
330
3DA
100
AcDbEntity
  8
Ebene 1
370
     0
100
AcDbVertex
100
AcDb2dVertex
 10
424.3671875
 20
477.14697265625
 30
0.0
  0
VERTEX
  5
3DC
330
3DA
100
AcDbEntity
  8
Ebene 1
370
     0
100
AcDbVertex
100
AcDb2dVertex
 10
424.279296875
 20
482.13232421875
 30
0.0
  0
SEQEND
  5
3DD
330
3DA
100
AcDbEntity
  8
Ebene 1
370
     0
  0
POLYLINE
  5
3DE
330
3C
100
AcDbEntity
  8
Ebene 1
370
     0
100
AcDb2dPolyline
 66
     1
 10
0.0
 20
0.0
 30
0.0
  0
VERTEX
  5
3DF
330
3DE
100
AcDbEntity
  8
Ebene 1
370
     0
100
AcDbVertex
100
AcDb2dVertex
 10
425.7353515625
 20
482.13232421875
 30
0.0
  0
VERTEX
  5
3E0
330
3DE
100
AcDbEntity
  8
Ebene 1
370
     0
100
AcDbVertex
100
AcDb2dVertex
 10
425.82421875
 20
477.10302734375
 30
0.0
  0
SEQEND
  5
3E1
330
3DE
100
AcDbEntity
  8
Ebene 1
370
     0
  0
POLYLINE
  5
3E2
330
3C
100
AcDbEntity
  8
Ebene 1
370
     0
100
AcDb2dPolyline
 66
     1
 10
0.0
 20
0.0
 30
0.0
  0
VERTEX
  5
3E3
330
3E2
100
AcDbEntity
  8
Ebene 1
370
     0
100
AcDbVertex
100
AcDb2dVertex
 10
482.9560546875
 20
477.14697265625
 30
0.0
  0
VERTEX
  5
3E4
330
3E2
100
AcDbEntity
  8
Ebene 1
370
     0
100
AcDbVertex
100
AcDb2dVertex
 10
483.0439453125
 20
482.13232421875
 30
0.0
  0
SEQEND
  5
3E5
330
3E2
100
AcDbEntity
  8
Ebene 1
370
     0
  0
POLYLINE
  5
3E6
330
3C
100
AcDbEntity
  8
Ebene 1
370
     0
100
AcDb2dPolyline
 66
     1
 10
0.0
 20
0.0
 30
0.0
  0
VERTEX
  5
3E7
330
3E6
100
AcDbEntity
  8
Ebene 1
370
     0
100
AcDbVertex
100
AcDb2dVertex
 10
484.4560546875
 20
482.08837890625
 30
0.0
  0
VERTEX
  5
3E8
330
3E6
100
AcDbEntity
  8
Ebene 1
370
     0
100
AcDbVertex
100
AcDb2dVertex
 10
483.0439453125
 20
482.08837890625
 30
0.0
  0
SEQEND
  5
3E9
330
3E6
100
AcDbEntity
  8
Ebene 1
370
     0
  0
POLYLINE
  5
3EA
330
3C
100
AcDbEntity
  8
Ebene 1
370
     0
100
AcDb2dPolyline
 66
     1
 10
0.0
 20
0.0
 30
0.0
  0
VERTEX
  5
3EB
330
3EA
100
AcDbEntity
  8
Ebene 1
370
     0
100
AcDbVertex
100
AcDb2dVertex
 10
484.5439453125
 20
487.7353515625
 30
0.0
  0
VERTEX
  5
3EC
330
3EA
100
AcDbEntity
  8
Ebene 1
370
     0
100
AcDbVertex
100
AcDb2dVertex
 10
484.5439453125
 20
487.64697265625
 30
0.0
  0
VERTEX
  5
3ED
330
3EA
100
AcDbEntity
  8
Ebene 1
370
     0
100
AcDbVertex
100
AcDb2dVertex
 10
484.5439453125
 20
487.33837890625
 30
0.0
  0
VERTEX
  5
3EE
330
3EA
100
AcDbEntity
  8
Ebene 1
370
     0
100
AcDbVertex
100
AcDb2dVertex
 10
484.5
 20
486.80908203125
 30
0.0
  0
VERTEX
  5
3EF
330
3EA
100
AcDbEntity
  8
Ebene 1
370
     0
100
AcDbVertex
100
AcDb2dVertex
 10
484.5
 20
486.10302734375
 30
0.0
  0
VERTEX
  5
3F0
330
3EA
100
AcDbEntity
  8
Ebene 1
370
     0
100
AcDbVertex
100
AcDb2dVertex
 10
484.5
 20
485.2646484375
 30
0.0
  0
VERTEX
  5
3F1
330
3EA
100
AcDbEntity
  8
Ebene 1
370
     0
100
AcDbVertex
100
AcDb2dVertex
 10
484.5
 20
484.29443359375
 30
0.0
  0
VERTEX
  5
3F2
330
3EA
100
AcDbEntity
  8
Ebene 1
370
     0
100
AcDbVertex
100
AcDb2dVertex
 10
484.4560546875
 20
483.2353515625
 30
0.0
  0
VERTEX
  5
3F3
330
3EA
100
AcDbEntity
  8
Ebene 1
370
     0
100
AcDbVertex
100
AcDb2dVertex
 10
484.4560546875
 20
482.13232421875
 30
0.0
  0
SEQEND
  5
3F4
330
3EA
100
AcDbEntity
  8
Ebene 1
370
     0
  0
POLYLINE
  5
3F5
330
3C
100
AcDbEntity
  8
Ebene 1
370
     0
100
AcDb2dPolyline
 66
     1
 10
0.0
 20
0.0
 30
0.0
  0
VERTEX
  5
3F6
330
3F5
100
AcDbEntity
  8
Ebene 1
370
     0
100
AcDbVertex
100
AcDb2dVertex
 10
424.279296875
 20
482.13232421875
 30
0.0
  0
VERTEX
  5
3F7
330
3F5
100
AcDbEntity
  8
Ebene 1
370
     0
100
AcDbVertex
100
AcDb2dVertex
 10
424.279296875
 20
483.2353515625
 30
0.0
  0
VERTEX
  5
3F8
330
3F5
100
AcDbEntity
  8
Ebene 1
370
     0
100
AcDbVertex
100
AcDb2dVertex
 10
424.279296875
 20
484.29443359375
 30
0.0
  0
VERTEX
  5
3F9
330
3F5
100
AcDbEntity
  8
Ebene 1
370
     0
100
AcDbVertex
100
AcDb2dVertex
 10
424.2353515625
 20
485.2646484375
 30
0.0
  0
VERTEX
  5
3FA
330
3F5
100
AcDbEntity
  8
Ebene 1
370
     0
100
AcDbVertex
100
AcDb2dVertex
 10
424.2353515625
 20
486.10302734375
 30
0.0
  0
VERTEX
  5
3FB
330
3F5
100
AcDbEntity
  8
Ebene 1
370
     0
100
AcDbVertex
100
AcDb2dVertex
 10
424.2353515625
 20
486.80908203125
 30
0.0
  0
VERTEX
  5
3FC
330
3F5
100
AcDbEntity
  8
Ebene 1
370
     0
100
AcDbVertex
100
AcDb2dVertex
 10
424.2353515625
 20
487.33837890625
 30
0.0
  0
VERTEX
  5
3FD
330
3F5
100
AcDbEntity
  8
Ebene 1
370
     0
100
AcDbVertex
100
AcDb2dVertex
 10
424.2353515625
 20
487.64697265625
 30
0.0
  0
VERTEX
  5
3FE
330
3F5
100
AcDbEntity
  8
Ebene 1
370
     0
100
AcDbVertex
100
AcDb2dVertex
 10
424.2353515625
 20
487.7353515625
 30
0.0
  0
SEQEND
  5
3FF
330
3F5
100
AcDbEntity
  8
Ebene 1
370
     0
  0
POLYLINE
  5
400
330
3C
100
AcDbEntity
  8
Ebene 1
370
     0
100
AcDb2dPolyline
 66
     1
 10
0.0
 20
0.0
 30
0.0
  0
VERTEX
  5
401
330
400
100
AcDbEntity
  8
Ebene 1
370
     0
100
AcDbVertex
100
AcDb2dVertex
 10
425.646484375
 20
486.36767578125
 30
0.0
  0
VERTEX
  5
402
330
400
100
AcDbEntity
  8
Ebene 1
370
     0
100
AcDbVertex
100
AcDb2dVertex
 10
425.55859375
 20
486.7646484375
 30
0.0
  0
VERTEX
  5
403
330
400
100
AcDbEntity
  8
Ebene 1
370
     0
100
AcDbVertex
100
AcDb2dVertex
 10
425.3828125
 20
487.162109375
 30
0.0
  0
VERTEX
  5
404
330
400
100
AcDbEntity
  8
Ebene 1
370
     0
100
AcDbVertex
100
AcDb2dVertex
 10
425.07421875
 20
487.470703125
 30
0.0
  0
VERTEX
  5
405
330
400
100
AcDbEntity
  8
Ebene 1
370
     0
100
AcDbVertex
100
AcDb2dVertex
 10
424.67578125
 20
487.64697265625
 30
0.0
  0
VERTEX
  5
406
330
400
100
AcDbEntity
  8
Ebene 1
370
     0
100
AcDbVertex
100
AcDb2dVertex
 10
424.2353515625
 20
487.7353515625
 30
0.0
  0
SEQEND
  5
407
330
400
100
AcDbEntity
  8
Ebene 1
370
     0
  0
POLYLINE
  5
408
330
3C
100
AcDbEntity
  8
Ebene 1
370
     0
100
AcDb2dPolyline
 66
     1
 10
0.0
 20
0.0
 30
0.0
  0
VERTEX
  5
409
330
408
100
AcDbEntity
  8
Ebene 1
370
     0
100
AcDbVertex
100
AcDb2dVertex
 10
425.646484375
 20
486.32373046875
 30
0.0
  0
VERTEX
  5
40A
330
408
100
AcDbEntity
  8
Ebene 1
370
     0
100
AcDbVertex
100
AcDb2dVertex
 10
425.646484375
 20
486.27978515625
 30
0.0
  0
VERTEX
  5
40B
330
408
100
AcDbEntity
  8
Ebene 1
370
     0
100
AcDbVertex
100
AcDb2dVertex
 10
425.646484375
 20
486.0146484375
 30
0.0
  0
VERTEX
  5
40C
330
408
100
AcDbEntity
  8
Ebene 1
370
     0
100
AcDbVertex
100
AcDb2dVertex
 10
425.646484375
 20
485.61767578125
 30
0.0
  0
VERTEX
  5
40D
330
408
100
AcDbEntity
  8
Ebene 1
370
     0
100
AcDbVertex
100
AcDb2dVertex
 10
425.69140625
 20
485.13232421875
 30
0.0
  0
VERTEX
  5
40E
330
408
100
AcDbEntity
  8
Ebene 1
370
     0
100
AcDbVertex
100
AcDb2dVertex
 10
425.69140625
 20
484.470703125
 30
0.0
  0
VERTEX
  5
40F
330
408
100
AcDbEntity
  8
Ebene 1
370
     0
100
AcDbVertex
100
AcDb2dVertex
 10
425.69140625
 20
483.720703125
 30
0.0
  0
VERTEX
  5
410
330
408
100
AcDbEntity
  8
Ebene 1
370
     0
100
AcDbVertex
100
AcDb2dVertex
 10
425.69140625
 20
482.9267578125
 30
0.0
  0
VERTEX
  5
411
330
408
100
AcDbEntity
  8
Ebene 1
370
     0
100
AcDbVertex
100
AcDb2dVertex
 10
425.7353515625
 20
482.13232421875
 30
0.0
  0
SEQEND
  5
412
330
408
100
AcDbEntity
  8
Ebene 1
370
     0
  0
POLYLINE
  5
413
330
3C
100
AcDbEntity
  8
Ebene 1
370
     0
100
AcDb2dPolyline
 66
     1
 10
0.0
 20
0.0
 30
0.0
  0
VERTEX
  5
414
330
413
100
AcDbEntity
  8
Ebene 1
370
     0
100
AcDbVertex
100
AcDb2dVertex
 10
483.0439453125
 20
482.13232421875
 30
0.0
  0
VERTEX
  5
415
330
413
100
AcDbEntity
  8
Ebene 1
370
     0
100
AcDbVertex
100
AcDb2dVertex
 10
483.0439453125
 20
482.9267578125
 30
0.0
  0
VERTEX
  5
416
330
413
100
AcDbEntity
  8
Ebene 1
370
     0
100
AcDbVertex
100
AcDb2dVertex
 10
483.0439453125
 20
483.720703125
 30
0.0
  0
VERTEX
  5
417
330
413
100
AcDbEntity
  8
Ebene 1
370
     0
100
AcDbVertex
100
AcDb2dVertex
 10
483.0439453125
 20
484.470703125
 30
0.0
  0
VERTEX
  5
418
330
413
100
AcDbEntity
  8
Ebene 1
370
     0
100
AcDbVertex
100
AcDb2dVertex
 10
483.087890625
 20
485.13232421875
 30
0.0
  0
VERTEX
  5
419
330
413
100
AcDbEntity
  8
Ebene 1
370
     0
100
AcDbVertex
100
AcDb2dVertex
 10
483.087890625
 20
485.61767578125
 30
0.0
  0
VERTEX
  5
41A
330
413
100
AcDbEntity
  8
Ebene 1
370
     0
100
AcDbVertex
100
AcDb2dVertex
 10
483.087890625
 20
486.0146484375
 30
0.0
  0
VERTEX
  5
41B
330
413
100
AcDbEntity
  8
Ebene 1
370
     0
100
AcDbVertex
100
AcDb2dVertex
 10
483.087890625
 20
486.27978515625
 30
0.0
  0
VERTEX
  5
41C
330
413
100
AcDbEntity
  8
Ebene 1
370
     0
100
AcDbVertex
100
AcDb2dVertex
 10
483.087890625
 20
486.32373046875
 30
0.0
  0
SEQEND
  5
41D
330
413
100
AcDbEntity
  8
Ebene 1
370
     0
  0
POLYLINE
  5
41E
330
3C
100
AcDbEntity
  8
Ebene 1
370
     0
100
AcDb2dPolyline
 66
     1
 10
0.0
 20
0.0
 30
0.0
  0
VERTEX
  5
41F
330
41E
100
AcDbEntity
  8
Ebene 1
370
     0
100
AcDbVertex
100
AcDb2dVertex
 10
484.5439453125
 20
487.7353515625
 30
0.0
  0
VERTEX
  5
420
330
41E
100
AcDbEntity
  8
Ebene 1
370
     0
100
AcDbVertex
100
AcDb2dVertex
 10
484.103515625
 20
487.64697265625
 30
0.0
  0
VERTEX
  5
421
330
41E
100
AcDbEntity
  8
Ebene 1
370
     0
100
AcDbVertex
100
AcDb2dVertex
 10
483.7060546875
 20
487.470703125
 30
0.0
  0
VERTEX
  5
422
330
41E
100
AcDbEntity
  8
Ebene 1
370
     0
100
AcDbVertex
100
AcDb2dVertex
 10
483.396484375
 20
487.162109375
 30
0.0
  0
VERTEX
  5
423
330
41E
100
AcDbEntity
  8
Ebene 1
370
     0
100
AcDbVertex
100
AcDb2dVertex
 10
483.220703125
 20
486.7646484375
 30
0.0
  0
VERTEX
  5
424
330
41E
100
AcDbEntity
  8
Ebene 1
370
     0
100
AcDbVertex
100
AcDb2dVertex
 10
483.1328125
 20
486.36767578125
 30
0.0
  0
SEQEND
  5
425
330
41E
100
AcDbEntity
  8
Ebene 1
370
     0
  0
POLYLINE
  5
426
330
3C
100
AcDbEntity
  8
Ebene 1
370
     0
100
AcDb2dPolyline
 66
     1
 10
0.0
 20
0.0
 30
0.0
  0
VERTEX
  5
427
330
426
100
AcDbEntity
  8
Ebene 1
370
     0
100
AcDbVertex
100
AcDb2dVertex
 10
445.7646484375
 20
461.9267578125
 30
0.0
  0
VERTEX
  5
428
330
426
100
AcDbEntity
  8
Ebene 1
370
     0
100
AcDbVertex
100
AcDb2dVertex
 10
454.3671875
 20
461.9267578125
 30
0.0
  0
VERTEX
  5
429
330
426
100
AcDbEntity
  8
Ebene 1
370
     0
100
AcDbVertex
100
AcDb2dVertex
 10
462.970703125
 20
461.9267578125
 30
0.0
  0
SEQEND
  5
42A
330
426
100
AcDbEntity
  8
Ebene 1
370
     0
  0
POLYLINE
  5
42B
330
3C
100
AcDbEntity
  8
Ebene 1
370
     0
100
AcDb2dPolyline
 66
     1
 10
0.0
 20
0.0
 30
0.0
  0
VERTEX
  5
42C
330
42B
100
AcDbEntity
  8
Ebene 1
370
     0
100
AcDbVertex
100
AcDb2dVertex
 10
444.353515625
 20
461.9267578125
 30
0.0
  0
VERTEX
  5
42D
330
42B
100
AcDbEntity
  8
Ebene 1
370
     0
100
AcDbVertex
100
AcDb2dVertex
 10
445.7646484375
 20
461.9267578125
 30
0.0
  0
SEQEND
  5
42E
330
42B
100
AcDbEntity
  8
Ebene 1
370
     0
  0
POLYLINE
  5
42F
330
3C
100
AcDbEntity
  8
Ebene 1
370
     0
100
AcDb2dPolyline
 66
     1
 10
0.0
 20
0.0
 30
0.0
  0
VERTEX
  5
430
330
42F
100
AcDbEntity
  8
Ebene 1
370
     0
100
AcDbVertex
100
AcDb2dVertex
 10
462.970703125
 20
461.9267578125
 30
0.0
  0
VERTEX
  5
431
330
42F
100
AcDbEntity
  8
Ebene 1
370
     0
100
AcDbVertex
100
AcDb2dVertex
 10
464.42578125
 20
461.9267578125
 30
0.0
  0
SEQEND
  5
432
330
42F
100
AcDbEntity
  8
Ebene 1
370
     0
  0
POLYLINE
  5
433
330
3C
100
AcDbEntity
  8
Ebene 1
370
     0
100
AcDb2dPolyline
 66
     1
 10
0.0
 20
0.0
 30
0.0
  0
VERTEX
  5
434
330
433
100
AcDbEntity
  8
Ebene 1
370
     0
100
AcDbVertex
100
AcDb2dVertex
 10
423.57421875
 20
438.98583984375
 30
0.0
  0
VERTEX
  5
435
330
433
100
AcDbEntity
  8
Ebene 1
370
     0
100
AcDbVertex
100
AcDb2dVertex
 10
424.103515625
 20
439.02978515625
 30
0.0
  0
VERTEX
  5
436
330
433
100
AcDbEntity
  8
Ebene 1
370
     0
100
AcDbVertex
100
AcDb2dVertex
 10
424.6328125
 20
439.20556640625
 30
0.0
  0
VERTEX
  5
437
330
433
100
AcDbEntity
  8
Ebene 1
370
     0
100
AcDbVertex
100
AcDb2dVertex
 10
425.162109375
 20
439.47119140625
 30
0.0
  0
VERTEX
  5
438
330
433
100
AcDbEntity
  8
Ebene 1
370
     0
100
AcDbVertex
100
AcDb2dVertex
 10
425.55859375
 20
439.82373046875
 30
0.0
  0
VERTEX
  5
439
330
433
100
AcDbEntity
  8
Ebene 1
370
     0
100
AcDbVertex
100
AcDb2dVertex
 10
425.912109375
 20
440.26513671875
 30
0.0
  0
VERTEX
  5
43A
330
433
100
AcDbEntity
  8
Ebene 1
370
     0
100
AcDbVertex
100
AcDb2dVertex
 10
426.17578125
 20
440.75048828125
 30
0.0
  0
VERTEX
  5
43B
330
433
100
AcDbEntity
  8
Ebene 1
370
     0
100
AcDbVertex
100
AcDb2dVertex
 10
426.353515625
 20
441.27978515625
 30
0.0
  0
VERTEX
  5
43C
330
433
100
AcDbEntity
  8
Ebene 1
370
     0
100
AcDbVertex
100
AcDb2dVertex
 10
426.396484375
 20
441.85302734375
 30
0.0
  0
SEQEND
  5
43D
330
433
100
AcDbEntity
  8
Ebene 1
370
     0
  0
POLYLINE
  5
43E
330
3C
100
AcDbEntity
  8
Ebene 1
370
     0
100
AcDb2dPolyline
 66
     1
 10
0.0
 20
0.0
 30
0.0
  0
VERTEX
  5
43F
330
43E
100
AcDbEntity
  8
Ebene 1
370
     0
100
AcDbVertex
100
AcDb2dVertex
 10
426.44140625
 20
461.9267578125
 30
0.0
  0
VERTEX
  5
440
330
43E
100
AcDbEntity
  8
Ebene 1
370
     0
100
AcDbVertex
100
AcDb2dVertex
 10
426.44140625
 20
441.85302734375
 30
0.0
  0
SEQEND
  5
441
330
43E
100
AcDbEntity
  8
Ebene 1
370
     0
  0
POLYLINE
  5
442
330
3C
100
AcDbEntity
  8
Ebene 1
370
     0
100
AcDb2dPolyline
 66
     1
 10
0.0
 20
0.0
 30
0.0
  0
VERTEX
  5
443
330
442
100
AcDbEntity
  8
Ebene 1
370
     0
100
AcDbVertex
100
AcDb2dVertex
 10
426.44140625
 20
461.9267578125
 30
0.0
  0
VERTEX
  5
444
330
442
100
AcDbEntity
  8
Ebene 1
370
     0
100
AcDbVertex
100
AcDb2dVertex
 10
444.353515625
 20
461.9267578125
 30
0.0
  0
SEQEND
  5
445
330
442
100
AcDbEntity
  8
Ebene 1
370
     0
  0
POLYLINE
  5
446
330
3C
100
AcDbEntity
  8
Ebene 1
370
     0
100
AcDb2dPolyline
 66
     1
 10
0.0
 20
0.0
 30
0.0
  0
VERTEX
  5
447
330
446
100
AcDbEntity
  8
Ebene 1
370
     0
100
AcDbVertex
100
AcDb2dVertex
 10
482.337890625
 20
461.9267578125
 30
0.0
  0
VERTEX
  5
448
330
446
100
AcDbEntity
  8
Ebene 1
370
     0
100
AcDbVertex
100
AcDb2dVertex
 10
482.337890625
 20
441.85302734375
 30
0.0
  0
SEQEND
  5
449
330
446
100
AcDbEntity
  8
Ebene 1
370
     0
  0
POLYLINE
  5
44A
330
3C
100
AcDbEntity
  8
Ebene 1
370
     0
100
AcDb2dPolyline
 66
     1
 10
0.0
 20
0.0
 30
0.0
  0
VERTEX
  5
44B
330
44A
100
AcDbEntity
  8
Ebene 1
370
     0
100
AcDbVertex
100
AcDb2dVertex
 10
482.3828125
 20
441.85302734375
 30
0.0
  0
VERTEX
  5
44C
330
44A
100
AcDbEntity
  8
Ebene 1
370
     0
100
AcDbVertex
100
AcDb2dVertex
 10
482.42578125
 20
441.27978515625
 30
0.0
  0
VERTEX
  5
44D
330
44A
100
AcDbEntity
  8
Ebene 1
370
     0
100
AcDbVertex
100
AcDb2dVertex
 10
482.603515625
 20
440.75048828125
 30
0.0
  0
VERTEX
  5
44E
330
44A
100
AcDbEntity
  8
Ebene 1
370
     0
100
AcDbVertex
100
AcDb2dVertex
 10
482.8671875
 20
440.26513671875
 30
0.0
  0
VERTEX
  5
44F
330
44A
100
AcDbEntity
  8
Ebene 1
370
     0
100
AcDbVertex
100
AcDb2dVertex
 10
483.220703125
 20
439.82373046875
 30
0.0
  0
VERTEX
  5
450
330
44A
100
AcDbEntity
  8
Ebene 1
370
     0
100
AcDbVertex
100
AcDb2dVertex
 10
483.6171875
 20
439.47119140625
 30
0.0
  0
VERTEX
  5
451
330
44A
100
AcDbEntity
  8
Ebene 1
370
     0
100
AcDbVertex
100
AcDb2dVertex
 10
484.146484375
 20
439.20556640625
 30
0.0
  0
VERTEX
  5
452
330
44A
100
AcDbEntity
  8
Ebene 1
370
     0
100
AcDbVertex
100
AcDb2dVertex
 10
484.67578125
 20
439.02978515625
 30
0.0
  0
VERTEX
  5
453
330
44A
100
AcDbEntity
  8
Ebene 1
370
     0
100
AcDbVertex
100
AcDb2dVertex
 10
485.2060546875
 20
438.98583984375
 30
0.0
  0
SEQEND
  5
454
330
44A
100
AcDbEntity
  8
Ebene 1
370
     0
  0
POLYLINE
  5
455
330
3C
100
AcDbEntity
  8
Ebene 1
370
     0
100
AcDb2dPolyline
 66
     1
 10
0.0
 20
0.0
 30
0.0
  0
VERTEX
  5
456
330
455
100
AcDbEntity
  8
Ebene 1
370
     0
100
AcDbVertex
100
AcDb2dVertex
 10
464.42578125
 20
461.9267578125
 30
0.0
  0
VERTEX
  5
457
330
455
100
AcDbEntity
  8
Ebene 1
370
     0
100
AcDbVertex
100
AcDb2dVertex
 10
482.337890625
 20
461.9267578125
 30
0.0
  0
SEQEND
  5
458
330
455
100
AcDbEntity
  8
Ebene 1
370
     0
  0
POLYLINE
  5
459
330
3C
100
AcDbEntity
  8
Ebene 1
370
     0
100
AcDb2dPolyline
 66
     1
 10
0.0
 20
0.0
 30
0.0
  0
VERTEX
  5
45A
330
459
100
AcDbEntity
  8
Ebene 1
370
     0
100
AcDbVertex
100
AcDb2dVertex
 10
446.5146484375
 20
471.32373046875
 30
0.0
  0
VERTEX
  5
45B
330
459
100
AcDbEntity
  8
Ebene 1
370
     0
100
AcDbVertex
100
AcDb2dVertex
 10
446.69140625
 20
462.63232421875
 30
0.0
  0
SEQEND
  5
45C
330
459
100
AcDbEntity
  8
Ebene 1
370
     0
  0
POLYLINE
  5
45D
330
3C
100
AcDbEntity
  8
Ebene 1
370
     0
100
AcDb2dPolyline
 66
     1
 10
0.0
 20
0.0
 30
0.0
  0
VERTEX
  5
45E
330
45D
100
AcDbEntity
  8
Ebene 1
370
     0
100
AcDbVertex
100
AcDb2dVertex
 10
462.0439453125
 20
462.63232421875
 30
0.0
  0
VERTEX
  5
45F
330
45D
100
AcDbEntity
  8
Ebene 1
370
     0
100
AcDbVertex
100
AcDb2dVertex
 10
462.220703125
 20
471.32373046875
 30
0.0
  0
SEQEND
  5
460
330
45D
100
AcDbEntity
  8
Ebene 1
370
     0
  0
POLYLINE
  5
461
330
3C
100
AcDbEntity
  8
Ebene 1
370
     0
100
AcDb2dPolyline
 66
     1
 10
0.0
 20
0.0
 30
0.0
  0
VERTEX
  5
462
330
461
100
AcDbEntity
  8
Ebene 1
370
     0
100
AcDbVertex
100
AcDb2dVertex
 10
446.69140625
 20
462.6767578125
 30
0.0
  0
VERTEX
  5
463
330
461
100
AcDbEntity
  8
Ebene 1
370
     0
100
AcDbVertex
100
AcDb2dVertex
 10
446.779296875
 20
462.32373046875
 30
0.0
  0
VERTEX
  5
464
330
461
100
AcDbEntity
  8
Ebene 1
370
     0
100
AcDbVertex
100
AcDb2dVertex
 10
447.0439453125
 20
462.05908203125
 30
0.0
  0
VERTEX
  5
465
330
461
100
AcDbEntity
  8
Ebene 1
370
     0
100
AcDbVertex
100
AcDb2dVertex
 10
447.396484375
 20
461.970703125
 30
0.0
  0
SEQEND
  5
466
330
461
100
AcDbEntity
  8
Ebene 1
370
     0
  0
POLYLINE
  5
467
330
3C
100
AcDbEntity
  8
Ebene 1
370
     0
100
AcDb2dPolyline
 66
     1
 10
0.0
 20
0.0
 30
0.0
  0
VERTEX
  5
468
330
467
100
AcDbEntity
  8
Ebene 1
370
     0
100
AcDbVertex
100
AcDb2dVertex
 10
461.337890625
 20
461.970703125
 30
0.0
  0
VERTEX
  5
469
330
467
100
AcDbEntity
  8
Ebene 1
370
     0
100
AcDbVertex
100
AcDb2dVertex
 10
461.69140625
 20
462.05908203125
 30
0.0
  0
VERTEX
  5
46A
330
467
100
AcDbEntity
  8
Ebene 1
370
     0
100
AcDbVertex
100
AcDb2dVertex
 10
461.9560546875
 20
462.32373046875
 30
0.0
  0
VERTEX
  5
46B
330
467
100
AcDbEntity
  8
Ebene 1
370
     0
100
AcDbVertex
100
AcDb2dVertex
 10
462.0439453125
 20
462.6767578125
 30
0.0
  0
SEQEND
  5
46C
330
467
100
AcDbEntity
  8
Ebene 1
370
     0
  0
POLYLINE
  5
46D
330
3C
100
AcDbEntity
  8
Ebene 1
370
     0
100
AcDb2dPolyline
 66
     1
 10
0.0
 20
0.0
 30
0.0
  0
VERTEX
  5
46E
330
46D
100
AcDbEntity
  8
Ebene 1
370
     0
100
AcDbVertex
100
AcDb2dVertex
 10
448.4560546875
 20
487.7353515625
 30
0.0
  0
VERTEX
  5
46F
330
46D
100
AcDbEntity
  8
Ebene 1
370
     0
100
AcDbVertex
100
AcDb2dVertex
 10
448.279296875
 20
487.7353515625
 30
0.0
  0
SEQEND
  5
470
330
46D
100
AcDbEntity
  8
Ebene 1
370
     0
  0
POLYLINE
  5
471
330
3C
100
AcDbEntity
  8
Ebene 1
370
     0
100
AcDb2dPolyline
 66
     1
 10
0.0
 20
0.0
 30
0.0
  0
VERTEX
  5
472
330
471
100
AcDbEntity
  8
Ebene 1
370
     0
100
AcDbVertex
100
AcDb2dVertex
 10
427.5
 20
482.9267578125
 30
0.0
  0
VERTEX
  5
473
330
471
100
AcDbEntity
  8
Ebene 1
370
     0
100
AcDbVertex
100
AcDb2dVertex
 10
425.69140625
 20
482.9267578125
 30
0.0
  0
SEQEND
  5
474
330
471
100
AcDbEntity
  8
Ebene 1
370
     0
  0
POLYLINE
  5
475
330
3C
100
AcDbEntity
  8
Ebene 1
370
     0
100
AcDb2dPolyline
 66
     1
 10
0.0
 20
0.0
 30
0.0
  0
VERTEX
  5
476
330
475
100
AcDbEntity
  8
Ebene 1
370
     0
100
AcDbVertex
100
AcDb2dVertex
 10
481.2353515625
 20
486.32373046875
 30
0.0
  0
VERTEX
  5
477
330
475
100
AcDbEntity
  8
Ebene 1
370
     0
100
AcDbVertex
100
AcDb2dVertex
 10
427.5
 20
486.32373046875
 30
0.0
  0
SEQEND
  5
478
330
475
100
AcDbEntity
  8
Ebene 1
370
     0
  0
POLYLINE
  5
479
330
3C
100
AcDbEntity
  8
Ebene 1
370
     0
100
AcDb2dPolyline
 66
     1
 10
0.0
 20
0.0
 30
0.0
  0
VERTEX
  5
47A
330
479
100
AcDbEntity
  8
Ebene 1
370
     0
100
AcDbVertex
100
AcDb2dVertex
 10
411.7939453125
 20
487.7353515625
 30
0.0
  0
VERTEX
  5
47B
330
479
100
AcDbEntity
  8
Ebene 1
370
     0
100
AcDbVertex
100
AcDb2dVertex
 10
496.94140625
 20
487.7353515625
 30
0.0
  0
SEQEND
  5
47C
330
479
100
AcDbEntity
  8
Ebene 1
370
     0
  0
POLYLINE
  5
47D
330
3C
100
AcDbEntity
  8
Ebene 1
370
     0
100
AcDb2dPolyline
 66
     1
 10
0.0
 20
0.0
 30
0.0
  0
VERTEX
  5
47E
330
47D
100
AcDbEntity
  8
Ebene 1
370
     0
100
AcDbVertex
100
AcDb2dVertex
 10
461.337890625
 20
461.9267578125
 30
0.0
  0
VERTEX
  5
47F
330
47D
100
AcDbEntity
  8
Ebene 1
370
     0
100
AcDbVertex
100
AcDb2dVertex
 10
447.396484375
 20
461.9267578125
 30
0.0
  0
SEQEND
  5
480
330
47D
100
AcDbEntity
  8
Ebene 1
370
     0
  0
POLYLINE
  5
481
330
3C
100
AcDbEntity
  8
Ebene 1
370
     0
100
AcDb2dPolyline
 66
     1
 10
0.0
 20
0.0
 30
0.0
  0
VERTEX
  5
482
330
481
100
AcDbEntity
  8
Ebene 1
370
     0
100
AcDbVertex
100
AcDb2dVertex
 10
481.2353515625
 20
486.32373046875
 30
0.0
  0
VERTEX
  5
483
330
481
100
AcDbEntity
  8
Ebene 1
370
     0
100
AcDbVertex
100
AcDb2dVertex
 10
481.2353515625
 20
482.1767578125
 30
0.0
  0
SEQEND
  5
484
330
481
100
AcDbEntity
  8
Ebene 1
370
     0
  0
POLYLINE
  5
485
330
3C
100
AcDbEntity
  8
Ebene 1
370
     0
100
AcDb2dPolyline
 66
     1
 10
0.0
 20
0.0
 30
0.0
  0
VERTEX
  5
486
330
485
100
AcDbEntity
  8
Ebene 1
370
     0
100
AcDbVertex
100
AcDb2dVertex
 10
427.5
 20
482.1767578125
 30
0.0
  0
VERTEX
  5
487
330
485
100
AcDbEntity
  8
Ebene 1
370
     0
100
AcDbVertex
100
AcDb2dVertex
 10
427.5
 20
486.32373046875
 30
0.0
  0
SEQEND
  5
488
330
485
100
AcDbEntity
  8
Ebene 1
370
     0
  0
POLYLINE
  5
489
330
3C
100
AcDbEntity
  8
Ebene 1
370
     0
100
AcDb2dPolyline
 66
     1
 10
0.0
 20
0.0
 30
0.0
  0
VERTEX
  5
48A
330
489
100
AcDbEntity
  8
Ebene 1
370
     0
100
AcDbVertex
100
AcDb2dVertex
 10
478.896484375
 20
474.54443359375
 30
0.0
  0
VERTEX
  5
48B
330
489
100
AcDbEntity
  8
Ebene 1
370
     0
100
AcDbVertex
100
AcDb2dVertex
 10
479.2060546875
 20
474.27978515625
 30
0.0
  0
VERTEX
  5
48C
330
489
100
AcDbEntity
  8
Ebene 1
370
     0
100
AcDbVertex
100
AcDb2dVertex
 10
479.603515625
 20
474.14697265625
 30
0.0
  0
VERTEX
  5
48D
330
489
100
AcDbEntity
  8
Ebene 1
370
     0
100
AcDbVertex
100
AcDb2dVertex
 10
480.0439453125
 20
474.10302734375
 30
0.0
  0
VERTEX
  5
48E
330
489
100
AcDbEntity
  8
Ebene 1
370
     0
100
AcDbVertex
100
AcDb2dVertex
 10
480.44140625
 20
474.19140625
 30
0.0
  0
VERTEX
  5
48F
330
489
100
AcDbEntity
  8
Ebene 1
370
     0
100
AcDbVertex
100
AcDb2dVertex
 10
480.7939453125
 20
474.412109375
 30
0.0
  0
VERTEX
  5
490
330
489
100
AcDbEntity
  8
Ebene 1
370
     0
100
AcDbVertex
100
AcDb2dVertex
 10
481.103515625
 20
474.720703125
 30
0.0
  0
VERTEX
  5
491
330
489
100
AcDbEntity
  8
Ebene 1
370
     0
100
AcDbVertex
100
AcDb2dVertex
 10
481.279296875
 20
475.11767578125
 30
0.0
  0
VERTEX
  5
492
330
489
100
AcDbEntity
  8
Ebene 1
370
     0
100
AcDbVertex
100
AcDb2dVertex
 10
481.32421875
 20
475.55908203125
 30
0.0
  0
SEQEND
  5
493
330
489
100
AcDbEntity
  8
Ebene 1
370
     0
  0
POLYLINE
  5
494
330
3C
100
AcDbEntity
  8
Ebene 1
370
     0
100
AcDb2dPolyline
 66
     1
 10
0.0
 20
0.0
 30
0.0
  0
VERTEX
  5
495
330
494
100
AcDbEntity
  8
Ebene 1
370
     0
100
AcDbVertex
100
AcDb2dVertex
 10
478.896484375
 20
474.5
 30
0.0
  0
VERTEX
  5
496
330
494
100
AcDbEntity
  8
Ebene 1
370
     0
100
AcDbVertex
100
AcDb2dVertex
 10
478.103515625
 20
475.25
 30
0.0
  0
VERTEX
  5
497
330
494
100
AcDbEntity
  8
Ebene 1
370
     0
100
AcDbVertex
100
AcDb2dVertex
 10
477.2646484375
 20
475.912109375
 30
0.0
  0
VERTEX
  5
498
330
494
100
AcDbEntity
  8
Ebene 1
370
     0
100
AcDbVertex
100
AcDb2dVertex
 10
476.3828125
 20
476.44140625
 30
0.0
  0
VERTEX
  5
499
330
494
100
AcDbEntity
  8
Ebene 1
370
     0
100
AcDbVertex
100
AcDb2dVertex
 10
475.412109375
 20
476.9267578125
 30
0.0
  0
VERTEX
  5
49A
330
494
100
AcDbEntity
  8
Ebene 1
370
     0
100
AcDbVertex
100
AcDb2dVertex
 10
474.396484375
 20
477.27978515625
 30
0.0
  0
VERTEX
  5
49B
330
494
100
AcDbEntity
  8
Ebene 1
370
     0
100
AcDbVertex
100
AcDb2dVertex
 10
473.3828125
 20
477.5
 30
0.0
  0
VERTEX
  5
49C
330
494
100
AcDbEntity
  8
Ebene 1
370
     0
100
AcDbVertex
100
AcDb2dVertex
 10
472.32421875
 20
477.63232421875
 30
0.0
  0
VERTEX
  5
49D
330
494
100
AcDbEntity
  8
Ebene 1
370
     0
100
AcDbVertex
100
AcDb2dVertex
 10
471.2646484375
 20
477.6767578125
 30
0.0
  0
VERTEX
  5
49E
330
494
100
AcDbEntity
  8
Ebene 1
370
     0
100
AcDbVertex
100
AcDb2dVertex
 10
470.2060546875
 20
477.58837890625
 30
0.0
  0
VERTEX
  5
49F
330
494
100
AcDbEntity
  8
Ebene 1
370
     0
100
AcDbVertex
100
AcDb2dVertex
 10
469.146484375
 20
477.36767578125
 30
0.0
  0
VERTEX
  5
4A0
330
494
100
AcDbEntity
  8
Ebene 1
370
     0
100
AcDbVertex
100
AcDb2dVertex
 10
468.1328125
 20
477.05908203125
 30
0.0
  0
VERTEX
  5
4A1
330
494
100
AcDbEntity
  8
Ebene 1
370
     0
100
AcDbVertex
100
AcDb2dVertex
 10
467.162109375
 20
476.662109375
 30
0.0
  0
VERTEX
  5
4A2
330
494
100
AcDbEntity
  8
Ebene 1
370
     0
100
AcDbVertex
100
AcDb2dVertex
 10
466.2353515625
 20
476.13232421875
 30
0.0
  0
VERTEX
  5
4A3
330
494
100
AcDbEntity
  8
Ebene 1
370
     0
100
AcDbVertex
100
AcDb2dVertex
 10
465.353515625
 20
475.5146484375
 30
0.0
  0
VERTEX
  5
4A4
330
494
100
AcDbEntity
  8
Ebene 1
370
     0
100
AcDbVertex
100
AcDb2dVertex
 10
464.55859375
 20
474.80908203125
 30
0.0
  0
VERTEX
  5
4A5
330
494
100
AcDbEntity
  8
Ebene 1
370
     0
100
AcDbVertex
100
AcDb2dVertex
 10
463.853515625
 20
474.0146484375
 30
0.0
  0
VERTEX
  5
4A6
330
494
100
AcDbEntity
  8
Ebene 1
370
     0
100
AcDbVertex
100
AcDb2dVertex
 10
463.19140625
 20
473.1767578125
 30
0.0
  0
VERTEX
  5
4A7
330
494
100
AcDbEntity
  8
Ebene 1
370
     0
100
AcDbVertex
100
AcDb2dVertex
 10
462.662109375
 20
472.25
 30
0.0
  0
VERTEX
  5
4A8
330
494
100
AcDbEntity
  8
Ebene 1
370
     0
100
AcDbVertex
100
AcDb2dVertex
 10
462.220703125
 20
471.27978515625
 30
0.0
  0
SEQEND
  5
4A9
330
494
100
AcDbEntity
  8
Ebene 1
370
     0
  0
POLYLINE
  5
4AA
330
3C
100
AcDbEntity
  8
Ebene 1
370
     0
100
AcDb2dPolyline
 66
     1
 10
0.0
 20
0.0
 30
0.0
  0
VERTEX
  5
4AB
330
4AA
100
AcDbEntity
  8
Ebene 1
370
     0
100
AcDbVertex
100
AcDb2dVertex
 10
481.2353515625
 20
482.1767578125
 30
0.0
  0
VERTEX
  5
4AC
330
4AA
100
AcDbEntity
  8
Ebene 1
370
     0
100
AcDbVertex
100
AcDb2dVertex
 10
481.3671875
 20
475.55908203125
 30
0.0
  0
SEQEND
  5
4AD
330
4AA
100
AcDbEntity
  8
Ebene 1
370
     0
  0
POLYLINE
  5
4AE
330
3C
100
AcDbEntity
  8
Ebene 1
370
     0
100
AcDb2dPolyline
 66
     1
 10
0.0
 20
0.0
 30
0.0
  0
VERTEX
  5
4AF
330
4AE
100
AcDbEntity
  8
Ebene 1
370
     0
100
AcDbVertex
100
AcDb2dVertex
 10
446.5146484375
 20
471.27978515625
 30
0.0
  0
VERTEX
  5
4B0
330
4AE
100
AcDbEntity
  8
Ebene 1
370
     0
100
AcDbVertex
100
AcDb2dVertex
 10
446.07421875
 20
472.25
 30
0.0
  0
VERTEX
  5
4B1
330
4AE
100
AcDbEntity
  8
Ebene 1
370
     0
100
AcDbVertex
100
AcDb2dVertex
 10
445.5439453125
 20
473.1767578125
 30
0.0
  0
VERTEX
  5
4B2
330
4AE
100
AcDbEntity
  8
Ebene 1
370
     0
100
AcDbVertex
100
AcDb2dVertex
 10
444.8828125
 20
474.0146484375
 30
0.0
  0
VERTEX
  5
4B3
330
4AE
100
AcDbEntity
  8
Ebene 1
370
     0
100
AcDbVertex
100
AcDb2dVertex
 10
444.17578125
 20
474.80908203125
 30
0.0
  0
VERTEX
  5
4B4
330
4AE
100
AcDbEntity
  8
Ebene 1
370
     0
100
AcDbVertex
100
AcDb2dVertex
 10
443.3828125
 20
475.5146484375
 30
0.0
  0
VERTEX
  5
4B5
330
4AE
100
AcDbEntity
  8
Ebene 1
370
     0
100
AcDbVertex
100
AcDb2dVertex
 10
442.5
 20
476.13232421875
 30
0.0
  0
VERTEX
  5
4B6
330
4AE
100
AcDbEntity
  8
Ebene 1
370
     0
100
AcDbVertex
100
AcDb2dVertex
 10
441.57421875
 20
476.662109375
 30
0.0
  0
VERTEX
  5
4B7
330
4AE
100
AcDbEntity
  8
Ebene 1
370
     0
100
AcDbVertex
100
AcDb2dVertex
 10
440.603515625
 20
477.05908203125
 30
0.0
  0
VERTEX
  5
4B8
330
4AE
100
AcDbEntity
  8
Ebene 1
370
     0
100
AcDbVertex
100
AcDb2dVertex
 10
439.587890625
 20
477.36767578125
 30
0.0
  0
VERTEX
  5
4B9
330
4AE
100
AcDbEntity
  8
Ebene 1
370
     0
100
AcDbVertex
100
AcDb2dVertex
 10
438.529296875
 20
477.58837890625
 30
0.0
  0
VERTEX
  5
4BA
330
4AE
100
AcDbEntity
  8
Ebene 1
370
     0
100
AcDbVertex
100
AcDb2dVertex
 10
437.470703125
 20
477.6767578125
 30
0.0
  0
VERTEX
  5
4BB
330
4AE
100
AcDbEntity
  8
Ebene 1
370
     0
100
AcDbVertex
100
AcDb2dVertex
 10
436.412109375
 20
477.63232421875
 30
0.0
  0
VERTEX
  5
4BC
330
4AE
100
AcDbEntity
  8
Ebene 1
370
     0
100
AcDbVertex
100
AcDb2dVertex
 10
435.353515625
 20
477.5
 30
0.0
  0
VERTEX
  5
4BD
330
4AE
100
AcDbEntity
  8
Ebene 1
370
     0
100
AcDbVertex
100
AcDb2dVertex
 10
434.337890625
 20
477.27978515625
 30
0.0
  0
VERTEX
  5
4BE
330
4AE
100
AcDbEntity
  8
Ebene 1
370
     0
100
AcDbVertex
100
AcDb2dVertex
 10
433.32421875
 20
476.9267578125
 30
0.0
  0
VERTEX
  5
4BF
330
4AE
100
AcDbEntity
  8
Ebene 1
370
     0
100
AcDbVertex
100
AcDb2dVertex
 10
432.353515625
 20
476.44140625
 30
0.0
  0
VERTEX
  5
4C0
330
4AE
100
AcDbEntity
  8
Ebene 1
370
     0
100
AcDbVertex
100
AcDb2dVertex
 10
431.470703125
 20
475.912109375
 30
0.0
  0
VERTEX
  5
4C1
330
4AE
100
AcDbEntity
  8
Ebene 1
370
     0
100
AcDbVertex
100
AcDb2dVertex
 10
430.6328125
 20
475.25
 30
0.0
  0
VERTEX
  5
4C2
330
4AE
100
AcDbEntity
  8
Ebene 1
370
     0
100
AcDbVertex
100
AcDb2dVertex
 10
429.837890625
 20
474.5
 30
0.0
  0
SEQEND
  5
4C3
330
4AE
100
AcDbEntity
  8
Ebene 1
370
     0
  0
POLYLINE
  5
4C4
330
3C
100
AcDbEntity
  8
Ebene 1
370
     0
100
AcDb2dPolyline
 66
     1
 10
0.0
 20
0.0
 30
0.0
  0
VERTEX
  5
4C5
330
4C4
100
AcDbEntity
  8
Ebene 1
370
     0
100
AcDbVertex
100
AcDb2dVertex
 10
427.412109375
 20
475.55908203125
 30
0.0
  0
VERTEX
  5
4C6
330
4C4
100
AcDbEntity
  8
Ebene 1
370
     0
100
AcDbVertex
100
AcDb2dVertex
 10
427.4560546875
 20
475.11767578125
 30
0.0
  0
VERTEX
  5
4C7
330
4C4
100
AcDbEntity
  8
Ebene 1
370
     0
100
AcDbVertex
100
AcDb2dVertex
 10
427.6328125
 20
474.720703125
 30
0.0
  0
VERTEX
  5
4C8
330
4C4
100
AcDbEntity
  8
Ebene 1
370
     0
100
AcDbVertex
100
AcDb2dVertex
 10
427.94140625
 20
474.412109375
 30
0.0
  0
VERTEX
  5
4C9
330
4C4
100
AcDbEntity
  8
Ebene 1
370
     0
100
AcDbVertex
100
AcDb2dVertex
 10
428.2939453125
 20
474.19140625
 30
0.0
  0
VERTEX
  5
4CA
330
4C4
100
AcDbEntity
  8
Ebene 1
370
     0
100
AcDbVertex
100
AcDb2dVertex
 10
428.69140625
 20
474.10302734375
 30
0.0
  0
VERTEX
  5
4CB
330
4C4
100
AcDbEntity
  8
Ebene 1
370
     0
100
AcDbVertex
100
AcDb2dVertex
 10
429.1328125
 20
474.14697265625
 30
0.0
  0
VERTEX
  5
4CC
330
4C4
100
AcDbEntity
  8
Ebene 1
370
     0
100
AcDbVertex
100
AcDb2dVertex
 10
429.529296875
 20
474.27978515625
 30
0.0
  0
VERTEX
  5
4CD
330
4C4
100
AcDbEntity
  8
Ebene 1
370
     0
100
AcDbVertex
100
AcDb2dVertex
 10
429.837890625
 20
474.54443359375
 30
0.0
  0
SEQEND
  5
4CE
330
4C4
100
AcDbEntity
  8
Ebene 1
370
     0
  0
POLYLINE
  5
4CF
330
3C
100
AcDbEntity
  8
Ebene 1
370
     0
100
AcDb2dPolyline
 66
     1
 10
0.0
 20
0.0
 30
0.0
  0
VERTEX
  5
4D0
330
4CF
100
AcDbEntity
  8
Ebene 1
370
     0
100
AcDbVertex
100
AcDb2dVertex
 10
427.5
 20
482.1767578125
 30
0.0
  0
VERTEX
  5
4D1
330
4CF
100
AcDbEntity
  8
Ebene 1
370
     0
100
AcDbVertex
100
AcDb2dVertex
 10
427.3671875
 20
475.55908203125
 30
0.0
  0
SEQEND
  5
4D2
330
4CF
100
AcDbEntity
  8
Ebene 1
370
     0
  0
POLYLINE
  5
4D3
330
3C
100
AcDbEntity
  8
Ebene 1
370
     0
100
AcDb2dPolyline
 66
     1
 10
0.0
 20
0.0
 30
0.0
  0
VERTEX
  5
4D4
330
4D3
100
AcDbEntity
  8
Ebene 1
370
     0
100
AcDbVertex
100
AcDb2dVertex
 10
446.69140625
 20
462.63232421875
 30
0.0
  0
VERTEX
  5
4D5
330
4D3
100
AcDbEntity
  8
Ebene 1
370
     0
100
AcDbVertex
100
AcDb2dVertex
 10
462.0439453125
 20
462.63232421875
 30
0.0
  0
SEQEND
  5
4D6
330
4D3
100
AcDbEntity
  8
Ebene 1
370
     0
  0
POLYLINE
  5
4D7
330
3C
100
AcDbEntity
  8
Ebene 1
370
     0
100
AcDb2dPolyline
 66
     1
 10
0.0
 20
0.0
 30
0.0
  0
VERTEX
  5
4D8
330
4D7
100
AcDbEntity
  8
Ebene 1
370
     0
100
AcDbVertex
100
AcDb2dVertex
 10
482.69140625
 20
487.7353515625
 30
0.0
  0
VERTEX
  5
4D9
330
4D7
100
AcDbEntity
  8
Ebene 1
370
     0
100
AcDbVertex
100
AcDb2dVertex
 10
482.25
 20
487.64697265625
 30
0.0
  0
VERTEX
  5
4DA
330
4D7
100
AcDbEntity
  8
Ebene 1
370
     0
100
AcDbVertex
100
AcDb2dVertex
 10
481.853515625
 20
487.470703125
 30
0.0
  0
VERTEX
  5
4DB
330
4D7
100
AcDbEntity
  8
Ebene 1
370
     0
100
AcDbVertex
100
AcDb2dVertex
 10
481.5439453125
 20
487.162109375
 30
0.0
  0
VERTEX
  5
4DC
330
4D7
100
AcDbEntity
  8
Ebene 1
370
     0
100
AcDbVertex
100
AcDb2dVertex
 10
481.3671875
 20
486.7646484375
 30
0.0
  0
VERTEX
  5
4DD
330
4D7
100
AcDbEntity
  8
Ebene 1
370
     0
100
AcDbVertex
100
AcDb2dVertex
 10
481.279296875
 20
486.36767578125
 30
0.0
  0
SEQEND
  5
4DE
330
4D7
100
AcDbEntity
  8
Ebene 1
370
     0
  0
POLYLINE
  5
4DF
330
3C
100
AcDbEntity
  8
Ebene 1
370
     0
100
AcDb2dPolyline
 66
     1
 10
0.0
 20
0.0
 30
0.0
  0
VERTEX
  5
4E0
330
4DF
100
AcDbEntity
  8
Ebene 1
370
     0
100
AcDbVertex
100
AcDb2dVertex
 10
427.4560546875
 20
486.36767578125
 30
0.0
  0
VERTEX
  5
4E1
330
4DF
100
AcDbEntity
  8
Ebene 1
370
     0
100
AcDbVertex
100
AcDb2dVertex
 10
427.3671875
 20
486.7646484375
 30
0.0
  0
VERTEX
  5
4E2
330
4DF
100
AcDbEntity
  8
Ebene 1
370
     0
100
AcDbVertex
100
AcDb2dVertex
 10
427.19140625
 20
487.162109375
 30
0.0
  0
VERTEX
  5
4E3
330
4DF
100
AcDbEntity
  8
Ebene 1
370
     0
100
AcDbVertex
100
AcDb2dVertex
 10
426.8828125
 20
487.470703125
 30
0.0
  0
VERTEX
  5
4E4
330
4DF
100
AcDbEntity
  8
Ebene 1
370
     0
100
AcDbVertex
100
AcDb2dVertex
 10
426.4853515625
 20
487.64697265625
 30
0.0
  0
VERTEX
  5
4E5
330
4DF
100
AcDbEntity
  8
Ebene 1
370
     0
100
AcDbVertex
100
AcDb2dVertex
 10
426.0439453125
 20
487.7353515625
 30
0.0
  0
SEQEND
  5
4E6
330
4DF
100
AcDbEntity
  8
Ebene 1
370
     0
  0
POLYLINE
  5
4E7
330
3C
100
AcDbEntity
  8
Ebene 1
370
     0
100
AcDb2dPolyline
 66
     1
 10
0.0
 20
0.0
 30
0.0
  0
VERTEX
  5
4E8
330
4E7
100
AcDbEntity
  8
Ebene 1
370
     0
100
AcDbVertex
100
AcDb2dVertex
 10
483.0439453125
 20
482.9267578125
 30
0.0
  0
VERTEX
  5
4E9
330
4E7
100
AcDbEntity
  8
Ebene 1
370
     0
100
AcDbVertex
100
AcDb2dVertex
 10
481.279296875
 20
482.9267578125
 30
0.0
  0
SEQEND
  5
4EA
330
4E7
100
AcDbEntity
  8
Ebene 1
370
     0
  0
POLYLINE
  5
4EB
330
3C
100
AcDbEntity
  8
Ebene 1
370
     0
100
AcDb2dPolyline
 66
     1
 10
0.0
 20
0.0
 30
0.0
  0
VERTEX
  5
4EC
330
4EB
100
AcDbEntity
  8
Ebene 1
370
     0
100
AcDbVertex
100
AcDb2dVertex
 10
576.17578125
 20
282.67578125
 30
0.0
  0
VERTEX
  5
4ED
330
4EB
100
AcDbEntity
  8
Ebene 1
370
     0
100
AcDbVertex
100
AcDb2dVertex
 10
576.17578125
 20
368.75
 30
0.0
  0
VERTEX
  5
4EE
330
4EB
100
AcDbEntity
  8
Ebene 1
370
     0
100
AcDbVertex
100
AcDb2dVertex
 10
577.19140625
 20
368.705078125
 30
0.0
  0
VERTEX
  5
4EF
330
4EB
100
AcDbEntity
  8
Ebene 1
370
     0
100
AcDbVertex
100
AcDb2dVertex
 10
599.1171875
 20
368.705078125
 30
0.0
  0
VERTEX
  5
4F0
330
4EB
100
AcDbEntity
  8
Ebene 1
370
     0
100
AcDbVertex
100
AcDb2dVertex
 10
599.1171875
 20
282.67578125
 30
0.0
  0
VERTEX
  5
4F1
330
4EB
100
AcDbEntity
  8
Ebene 1
370
     0
100
AcDbVertex
100
AcDb2dVertex
 10
576.17578125
 20
282.67578125
 30
0.0
  0
VERTEX
  5
4F2
330
4EB
100
AcDbEntity
  8
Ebene 1
370
     0
100
AcDbVertex
100
AcDb2dVertex
 10
576.17578125
 20
282.67578125
 30
0.0
  0
SEQEND
  5
4F3
330
4EB
100
AcDbEntity
  8
Ebene 1
370
     0
  0
POLYLINE
  5
4F4
330
3C
100
AcDbEntity
  8
Ebene 1
370
     0
100
AcDb2dPolyline
 66
     1
 10
0.0
 20
0.0
 30
0.0
  0
VERTEX
  5
4F5
330
4F4
100
AcDbEntity
  8
Ebene 1
370
     0
100
AcDbVertex
100
AcDb2dVertex
 10
486.7939453125
 20
442.95556640625
 30
0.0
  0
VERTEX
  5
4F6
330
4F4
100
AcDbEntity
  8
Ebene 1
370
     0
100
AcDbVertex
100
AcDb2dVertex
 10
487.146484375
 20
441.80908203125
 30
0.0
  0
VERTEX
  5
4F7
330
4F4
100
AcDbEntity
  8
Ebene 1
370
     0
100
AcDbVertex
100
AcDb2dVertex
 10
487.6328125
 20
440.70556640625
 30
0.0
  0
VERTEX
  5
4F8
330
4F4
100
AcDbEntity
  8
Ebene 1
370
     0
100
AcDbVertex
100
AcDb2dVertex
 10
488.2060546875
 20
439.64697265625
 30
0.0
  0
VERTEX
  5
4F9
330
4F4
100
AcDbEntity
  8
Ebene 1
370
     0
100
AcDbVertex
100
AcDb2dVertex
 10
488.912109375
 20
438.63232421875
 30
0.0
  0
VERTEX
  5
4FA
330
4F4
100
AcDbEntity
  8
Ebene 1
370
     0
100
AcDbVertex
100
AcDb2dVertex
 10
489.7060546875
 20
437.75048828125
 30
0.0
  0
VERTEX
  5
4FB
330
4F4
100
AcDbEntity
  8
Ebene 1
370
     0
100
AcDbVertex
100
AcDb2dVertex
 10
490.587890625
 20
436.91162109375
 30
0.0
  0
VERTEX
  5
4FC
330
4F4
100
AcDbEntity
  8
Ebene 1
370
     0
100
AcDbVertex
100
AcDb2dVertex
 10
491.55859375
 20
436.20556640625
 30
0.0
  0
VERTEX
  5
4FD
330
4F4
100
AcDbEntity
  8
Ebene 1
370
     0
100
AcDbVertex
100
AcDb2dVertex
 10
492.6171875
 20
435.58837890625
 30
0.0
  0
VERTEX
  5
4FE
330
4F4
100
AcDbEntity
  8
Ebene 1
370
     0
100
AcDbVertex
100
AcDb2dVertex
 10
493.720703125
 20
435.10302734375
 30
0.0
  0
VERTEX
  5
4FF
330
4F4
100
AcDbEntity
  8
Ebene 1
370
     0
100
AcDbVertex
100
AcDb2dVertex
 10
494.82421875
 20
434.70556640625
 30
0.0
  0
VERTEX
  5
500
330
4F4
100
AcDbEntity
  8
Ebene 1
370
     0
100
AcDbVertex
100
AcDb2dVertex
 10
496.0146484375
 20
434.44091796875
 30
0.0
  0
SEQEND
  5
501
330
4F4
100
AcDbEntity
  8
Ebene 1
370
     0
  0
POLYLINE
  5
502
330
3C
100
AcDbEntity
  8
Ebene 1
370
     0
100
AcDb2dPolyline
 66
     1
 10
0.0
 20
0.0
 30
0.0
  0
VERTEX
  5
503
330
502
100
AcDbEntity
  8
Ebene 1
370
     0
100
AcDbVertex
100
AcDb2dVertex
 10
485.162109375
 20
449.13232421875
 30
0.0
  0
VERTEX
  5
504
330
502
100
AcDbEntity
  8
Ebene 1
370
     0
100
AcDbVertex
100
AcDb2dVertex
 10
486.75
 20
442.95556640625
 30
0.0
  0
SEQEND
  5
505
330
502
100
AcDbEntity
  8
Ebene 1
370
     0
  0
POLYLINE
  5
506
330
3C
100
AcDbEntity
  8
Ebene 1
370
     0
100
AcDb2dPolyline
 66
     1
 10
0.0
 20
0.0
 30
0.0
  0
VERTEX
  5
507
330
506
100
AcDbEntity
  8
Ebene 1
370
     0
100
AcDbVertex
100
AcDb2dVertex
 10
528.57421875
 20
463.5146484375
 30
0.0
  0
VERTEX
  5
508
330
506
100
AcDbEntity
  8
Ebene 1
370
     0
100
AcDbVertex
100
AcDb2dVertex
 10
527.912109375
 20
464.970703125
 30
0.0
  0
VERTEX
  5
509
330
506
100
AcDbEntity
  8
Ebene 1
370
     0
100
AcDbVertex
100
AcDb2dVertex
 10
527.162109375
 20
466.38232421875
 30
0.0
  0
VERTEX
  5
50A
330
506
100
AcDbEntity
  8
Ebene 1
370
     0
100
AcDbVertex
100
AcDb2dVertex
 10
526.279296875
 20
467.7060546875
 30
0.0
  0
VERTEX
  5
50B
330
506
100
AcDbEntity
  8
Ebene 1
370
     0
100
AcDbVertex
100
AcDb2dVertex
 10
525.353515625
 20
469.02978515625
 30
0.0
  0
VERTEX
  5
50C
330
506
100
AcDbEntity
  8
Ebene 1
370
     0
100
AcDbVertex
100
AcDb2dVertex
 10
524.337890625
 20
470.220703125
 30
0.0
  0
VERTEX
  5
50D
330
506
100
AcDbEntity
  8
Ebene 1
370
     0
100
AcDbVertex
100
AcDb2dVertex
 10
523.19140625
 20
471.36767578125
 30
0.0
  0
VERTEX
  5
50E
330
506
100
AcDbEntity
  8
Ebene 1
370
     0
100
AcDbVertex
100
AcDb2dVertex
 10
522.0
 20
472.4267578125
 30
0.0
  0
VERTEX
  5
50F
330
506
100
AcDbEntity
  8
Ebene 1
370
     0
100
AcDbVertex
100
AcDb2dVertex
 10
520.720703125
 20
473.44140625
 30
0.0
  0
VERTEX
  5
510
330
506
100
AcDbEntity
  8
Ebene 1
370
     0
100
AcDbVertex
100
AcDb2dVertex
 10
519.396484375
 20
474.32373046875
 30
0.0
  0
VERTEX
  5
511
330
506
100
AcDbEntity
  8
Ebene 1
370
     0
100
AcDbVertex
100
AcDb2dVertex
 10
518.029296875
 20
475.11767578125
 30
0.0
  0
VERTEX
  5
512
330
506
100
AcDbEntity
  8
Ebene 1
370
     0
100
AcDbVertex
100
AcDb2dVertex
 10
516.57421875
 20
475.77978515625
 30
0.0
  0
VERTEX
  5
513
330
506
100
AcDbEntity
  8
Ebene 1
370
     0
100
AcDbVertex
100
AcDb2dVertex
 10
515.1171875
 20
476.39697265625
 30
0.0
  0
VERTEX
  5
514
330
506
100
AcDbEntity
  8
Ebene 1
370
     0
100
AcDbVertex
100
AcDb2dVertex
 10
513.57421875
 20
476.88232421875
 30
0.0
  0
VERTEX
  5
515
330
506
100
AcDbEntity
  8
Ebene 1
370
     0
100
AcDbVertex
100
AcDb2dVertex
 10
512.029296875
 20
477.2353515625
 30
0.0
  0
VERTEX
  5
516
330
506
100
AcDbEntity
  8
Ebene 1
370
     0
100
AcDbVertex
100
AcDb2dVertex
 10
510.44140625
 20
477.5
 30
0.0
  0
VERTEX
  5
517
330
506
100
AcDbEntity
  8
Ebene 1
370
     0
100
AcDbVertex
100
AcDb2dVertex
 10
508.853515625
 20
477.6767578125
 30
0.0
  0
VERTEX
  5
518
330
506
100
AcDbEntity
  8
Ebene 1
370
     0
100
AcDbVertex
100
AcDb2dVertex
 10
507.2646484375
 20
477.720703125
 30
0.0
  0
VERTEX
  5
519
330
506
100
AcDbEntity
  8
Ebene 1
370
     0
100
AcDbVertex
100
AcDb2dVertex
 10
505.67578125
 20
477.6767578125
 30
0.0
  0
VERTEX
  5
51A
330
506
100
AcDbEntity
  8
Ebene 1
370
     0
100
AcDbVertex
100
AcDb2dVertex
 10
504.087890625
 20
477.5
 30
0.0
  0
VERTEX
  5
51B
330
506
100
AcDbEntity
  8
Ebene 1
370
     0
100
AcDbVertex
100
AcDb2dVertex
 10
502.5
 20
477.19140625
 30
0.0
  0
VERTEX
  5
51C
330
506
100
AcDbEntity
  8
Ebene 1
370
     0
100
AcDbVertex
100
AcDb2dVertex
 10
500.9560546875
 20
476.79443359375
 30
0.0
  0
VERTEX
  5
51D
330
506
100
AcDbEntity
  8
Ebene 1
370
     0
100
AcDbVertex
100
AcDb2dVertex
 10
499.4560546875
 20
476.30908203125
 30
0.0
  0
VERTEX
  5
51E
330
506
100
AcDbEntity
  8
Ebene 1
370
     0
100
AcDbVertex
100
AcDb2dVertex
 10
497.9560546875
 20
475.69140625
 30
0.0
  0
VERTEX
  5
51F
330
506
100
AcDbEntity
  8
Ebene 1
370
     0
100
AcDbVertex
100
AcDb2dVertex
 10
496.5439453125
 20
474.9853515625
 30
0.0
  0
VERTEX
  5
520
330
506
100
AcDbEntity
  8
Ebene 1
370
     0
100
AcDbVertex
100
AcDb2dVertex
 10
495.17578125
 20
474.19140625
 30
0.0
  0
VERTEX
  5
521
330
506
100
AcDbEntity
  8
Ebene 1
370
     0
100
AcDbVertex
100
AcDb2dVertex
 10
493.853515625
 20
473.2646484375
 30
0.0
  0
VERTEX
  5
522
330
506
100
AcDbEntity
  8
Ebene 1
370
     0
100
AcDbVertex
100
AcDb2dVertex
 10
492.57421875
 20
472.29443359375
 30
0.0
  0
VERTEX
  5
523
330
506
100
AcDbEntity
  8
Ebene 1
370
     0
100
AcDbVertex
100
AcDb2dVertex
 10
491.42578125
 20
471.19140625
 30
0.0
  0
VERTEX
  5
524
330
506
100
AcDbEntity
  8
Ebene 1
370
     0
100
AcDbVertex
100
AcDb2dVertex
 10
490.32421875
 20
470.04443359375
 30
0.0
  0
VERTEX
  5
525
330
506
100
AcDbEntity
  8
Ebene 1
370
     0
100
AcDbVertex
100
AcDb2dVertex
 10
489.2646484375
 20
468.80908203125
 30
0.0
  0
VERTEX
  5
526
330
506
100
AcDbEntity
  8
Ebene 1
370
     0
100
AcDbVertex
100
AcDb2dVertex
 10
488.337890625
 20
467.52978515625
 30
0.0
  0
VERTEX
  5
527
330
506
100
AcDbEntity
  8
Ebene 1
370
     0
100
AcDbVertex
100
AcDb2dVertex
 10
487.5
 20
466.162109375
 30
0.0
  0
VERTEX
  5
528
330
506
100
AcDbEntity
  8
Ebene 1
370
     0
100
AcDbVertex
100
AcDb2dVertex
 10
486.75
 20
464.75
 30
0.0
  0
VERTEX
  5
529
330
506
100
AcDbEntity
  8
Ebene 1
370
     0
100
AcDbVertex
100
AcDb2dVertex
 10
486.1328125
 20
463.25
 30
0.0
  0
VERTEX
  5
52A
330
506
100
AcDbEntity
  8
Ebene 1
370
     0
100
AcDbVertex
100
AcDb2dVertex
 10
485.603515625
 20
461.75048828125
 30
0.0
  0
VERTEX
  5
52B
330
506
100
AcDbEntity
  8
Ebene 1
370
     0
100
AcDbVertex
100
AcDb2dVertex
 10
485.162109375
 20
460.20556640625
 30
0.0
  0
VERTEX
  5
52C
330
506
100
AcDbEntity
  8
Ebene 1
370
     0
100
AcDbVertex
100
AcDb2dVertex
 10
484.80859375
 20
458.66162109375
 30
0.0
  0
VERTEX
  5
52D
330
506
100
AcDbEntity
  8
Ebene 1
370
     0
100
AcDbVertex
100
AcDb2dVertex
 10
484.6328125
 20
457.07373046875
 30
0.0
  0
VERTEX
  5
52E
330
506
100
AcDbEntity
  8
Ebene 1
370
     0
100
AcDbVertex
100
AcDb2dVertex
 10
484.5
 20
455.48583984375
 30
0.0
  0
VERTEX
  5
52F
330
506
100
AcDbEntity
  8
Ebene 1
370
     0
100
AcDbVertex
100
AcDb2dVertex
 10
484.5
 20
453.85302734375
 30
0.0
  0
VERTEX
  5
530
330
506
100
AcDbEntity
  8
Ebene 1
370
     0
100
AcDbVertex
100
AcDb2dVertex
 10
484.6328125
 20
452.26513671875
 30
0.0
  0
VERTEX
  5
531
330
506
100
AcDbEntity
  8
Ebene 1
370
     0
100
AcDbVertex
100
AcDb2dVertex
 10
484.853515625
 20
450.67626953125
 30
0.0
  0
VERTEX
  5
532
330
506
100
AcDbEntity
  8
Ebene 1
370
     0
100
AcDbVertex
100
AcDb2dVertex
 10
485.2060546875
 20
449.13232421875
 30
0.0
  0
SEQEND
  5
533
330
506
100
AcDbEntity
  8
Ebene 1
370
     0
  0
POLYLINE
  5
534
330
3C
100
AcDbEntity
  8
Ebene 1
370
     0
100
AcDb2dPolyline
 66
     1
 10
0.0
 20
0.0
 30
0.0
  0
VERTEX
  5
535
330
534
100
AcDbEntity
  8
Ebene 1
370
     0
100
AcDbVertex
100
AcDb2dVertex
 10
563.9560546875
 20
377.6171875
 30
0.0
  0
VERTEX
  5
536
330
534
100
AcDbEntity
  8
Ebene 1
370
     0
100
AcDbVertex
100
AcDb2dVertex
 10
528.6171875
 20
463.5146484375
 30
0.0
  0
SEQEND
  5
537
330
534
100
AcDbEntity
  8
Ebene 1
370
     0
  0
POLYLINE
  5
538
330
3C
100
AcDbEntity
  8
Ebene 1
370
     0
100
AcDb2dPolyline
 66
     1
 10
0.0
 20
0.0
 30
0.0
  0
VERTEX
  5
539
330
538
100
AcDbEntity
  8
Ebene 1
370
     0
100
AcDbVertex
100
AcDb2dVertex
 10
563.9560546875
 20
377.57421875
 30
0.0
  0
VERTEX
  5
53A
330
538
100
AcDbEntity
  8
Ebene 1
370
     0
100
AcDbVertex
100
AcDb2dVertex
 10
564.529296875
 20
376.3828125
 30
0.0
  0
VERTEX
  5
53B
330
538
100
AcDbEntity
  8
Ebene 1
370
     0
100
AcDbVertex
100
AcDb2dVertex
 10
565.19140625
 20
375.236328125
 30
0.0
  0
VERTEX
  5
53C
330
538
100
AcDbEntity
  8
Ebene 1
370
     0
100
AcDbVertex
100
AcDb2dVertex
 10
565.9853515625
 20
374.17578125
 30
0.0
  0
VERTEX
  5
53D
330
538
100
AcDbEntity
  8
Ebene 1
370
     0
100
AcDbVertex
100
AcDb2dVertex
 10
566.82421875
 20
373.162109375
 30
0.0
  0
VERTEX
  5
53E
330
538
100
AcDbEntity
  8
Ebene 1
370
     0
100
AcDbVertex
100
AcDb2dVertex
 10
567.7939453125
 20
372.236328125
 30
0.0
  0
VERTEX
  5
53F
330
538
100
AcDbEntity
  8
Ebene 1
370
     0
100
AcDbVertex
100
AcDb2dVertex
 10
568.80859375
 20
371.396484375
 30
0.0
  0
VERTEX
  5
540
330
538
100
AcDbEntity
  8
Ebene 1
370
     0
100
AcDbVertex
100
AcDb2dVertex
 10
569.912109375
 20
370.69140625
 30
0.0
  0
VERTEX
  5
541
330
538
100
AcDbEntity
  8
Ebene 1
370
     0
100
AcDbVertex
100
AcDb2dVertex
 10
571.103515625
 20
370.07421875
 30
0.0
  0
VERTEX
  5
542
330
538
100
AcDbEntity
  8
Ebene 1
370
     0
100
AcDbVertex
100
AcDb2dVertex
 10
572.337890625
 20
369.544921875
 30
0.0
  0
VERTEX
  5
543
330
538
100
AcDbEntity
  8
Ebene 1
370
     0
100
AcDbVertex
100
AcDb2dVertex
 10
573.57421875
 20
369.19140625
 30
0.0
  0
VERTEX
  5
544
330
538
100
AcDbEntity
  8
Ebene 1
370
     0
100
AcDbVertex
100
AcDb2dVertex
 10
574.896484375
 20
368.8828125
 30
0.0
  0
VERTEX
  5
545
330
538
100
AcDbEntity
  8
Ebene 1
370
     0
100
AcDbVertex
100
AcDb2dVertex
 10
576.17578125
 20
368.75
 30
0.0
  0
SEQEND
  5
546
330
538
100
AcDbEntity
  8
Ebene 1
370
     0
  0
POLYLINE
  5
547
330
3C
100
AcDbEntity
  8
Ebene 1
370
     0
100
AcDb2dPolyline
 66
     1
 10
0.0
 20
0.0
 30
0.0
  0
VERTEX
  5
548
330
547
100
AcDbEntity
  8
Ebene 1
370
     0
100
AcDbVertex
100
AcDb2dVertex
 10
522.0
 20
304.294921875
 30
0.0
  0
VERTEX
  5
549
330
547
100
AcDbEntity
  8
Ebene 1
370
     0
100
AcDbVertex
100
AcDb2dVertex
 10
522.4853515625
 20
302.57421875
 30
0.0
  0
VERTEX
  5
54A
330
547
100
AcDbEntity
  8
Ebene 1
370
     0
100
AcDbVertex
100
AcDb2dVertex
 10
523.103515625
 20
300.853515625
 30
0.0
  0
VERTEX
  5
54B
330
547
100
AcDbEntity
  8
Ebene 1
370
     0
100
AcDbVertex
100
AcDb2dVertex
 10
523.80859375
 20
299.17578125
 30
0.0
  0
VERTEX
  5
54C
330
547
100
AcDbEntity
  8
Ebene 1
370
     0
100
AcDbVertex
100
AcDb2dVertex
 10
524.646484375
 20
297.587890625
 30
0.0
  0
VERTEX
  5
54D
330
547
100
AcDbEntity
  8
Ebene 1
370
     0
100
AcDbVertex
100
AcDb2dVertex
 10
525.529296875
 20
296.044921875
 30
0.0
  0
VERTEX
  5
54E
330
547
100
AcDbEntity
  8
Ebene 1
370
     0
100
AcDbVertex
100
AcDb2dVertex
 10
526.5439453125
 20
294.544921875
 30
0.0
  0
VERTEX
  5
54F
330
547
100
AcDbEntity
  8
Ebene 1
370
     0
100
AcDbVertex
100
AcDb2dVertex
 10
527.646484375
 20
293.087890625
 30
0.0
  0
VERTEX
  5
550
330
547
100
AcDbEntity
  8
Ebene 1
370
     0
100
AcDbVertex
100
AcDb2dVertex
 10
528.837890625
 20
291.765625
 30
0.0
  0
VERTEX
  5
551
330
547
100
AcDbEntity
  8
Ebene 1
370
     0
100
AcDbVertex
100
AcDb2dVertex
 10
530.1171875
 20
290.486328125
 30
0.0
  0
VERTEX
  5
552
330
547
100
AcDbEntity
  8
Ebene 1
370
     0
100
AcDbVertex
100
AcDb2dVertex
 10
531.4853515625
 20
289.294921875
 30
0.0
  0
VERTEX
  5
553
330
547
100
AcDbEntity
  8
Ebene 1
370
     0
100
AcDbVertex
100
AcDb2dVertex
 10
532.896484375
 20
288.19140625
 30
0.0
  0
VERTEX
  5
554
330
547
100
AcDbEntity
  8
Ebene 1
370
     0
100
AcDbVertex
100
AcDb2dVertex
 10
534.396484375
 20
287.17578125
 30
0.0
  0
VERTEX
  5
555
330
547
100
AcDbEntity
  8
Ebene 1
370
     0
100
AcDbVertex
100
AcDb2dVertex
 10
535.94140625
 20
286.25
 30
0.0
  0
VERTEX
  5
556
330
547
100
AcDbEntity
  8
Ebene 1
370
     0
100
AcDbVertex
100
AcDb2dVertex
 10
537.529296875
 20
285.412109375
 30
0.0
  0
VERTEX
  5
557
330
547
100
AcDbEntity
  8
Ebene 1
370
     0
100
AcDbVertex
100
AcDb2dVertex
 10
539.2060546875
 20
284.705078125
 30
0.0
  0
VERTEX
  5
558
330
547
100
AcDbEntity
  8
Ebene 1
370
     0
100
AcDbVertex
100
AcDb2dVertex
 10
540.8828125
 20
284.087890625
 30
0.0
  0
VERTEX
  5
559
330
547
100
AcDbEntity
  8
Ebene 1
370
     0
100
AcDbVertex
100
AcDb2dVertex
 10
542.603515625
 20
283.603515625
 30
0.0
  0
VERTEX
  5
55A
330
547
100
AcDbEntity
  8
Ebene 1
370
     0
100
AcDbVertex
100
AcDb2dVertex
 10
544.3671875
 20
283.205078125
 30
0.0
  0
VERTEX
  5
55B
330
547
100
AcDbEntity
  8
Ebene 1
370
     0
100
AcDbVertex
100
AcDb2dVertex
 10
546.1328125
 20
282.896484375
 30
0.0
  0
VERTEX
  5
55C
330
547
100
AcDbEntity
  8
Ebene 1
370
     0
100
AcDbVertex
100
AcDb2dVertex
 10
547.94140625
 20
282.720703125
 30
0.0
  0
VERTEX
  5
55D
330
547
100
AcDbEntity
  8
Ebene 1
370
     0
100
AcDbVertex
100
AcDb2dVertex
 10
549.75
 20
282.67578125
 30
0.0
  0
SEQEND
  5
55E
330
547
100
AcDbEntity
  8
Ebene 1
370
     0
  0
POLYLINE
  5
55F
330
3C
100
AcDbEntity
  8
Ebene 1
370
     0
100
AcDb2dPolyline
 66
     1
 10
0.0
 20
0.0
 30
0.0
  0
VERTEX
  5
560
330
55F
100
AcDbEntity
  8
Ebene 1
370
     0
100
AcDbVertex
100
AcDb2dVertex
 10
499.67578125
 20
392.0
 30
0.0
  0
VERTEX
  5
561
330
55F
100
AcDbEntity
  8
Ebene 1
370
     0
100
AcDbVertex
100
AcDb2dVertex
 10
521.9560546875
 20
304.294921875
 30
0.0
  0
SEQEND
  5
562
330
55F
100
AcDbEntity
  8
Ebene 1
370
     0
  0
POLYLINE
  5
563
330
3C
100
AcDbEntity
  8
Ebene 1
370
     0
100
AcDb2dPolyline
 66
     1
 10
0.0
 20
0.0
 30
0.0
  0
VERTEX
  5
564
330
563
100
AcDbEntity
  8
Ebene 1
370
     0
100
AcDbVertex
100
AcDb2dVertex
 10
503.779296875
 20
403.86767578125
 30
0.0
  0
VERTEX
  5
565
330
563
100
AcDbEntity
  8
Ebene 1
370
     0
100
AcDbVertex
100
AcDb2dVertex
 10
502.853515625
 20
403.07373046875
 30
0.0
  0
VERTEX
  5
566
330
563
100
AcDbEntity
  8
Ebene 1
370
     0
100
AcDbVertex
100
AcDb2dVertex
 10
502.05859375
 20
402.19091796875
 30
0.0
  0
VERTEX
  5
567
330
563
100
AcDbEntity
  8
Ebene 1
370
     0
100
AcDbVertex
100
AcDb2dVertex
 10
501.30859375
 20
401.26513671875
 30
0.0
  0
VERTEX
  5
568
330
563
100
AcDbEntity
  8
Ebene 1
370
     0
100
AcDbVertex
100
AcDb2dVertex
 10
500.69140625
 20
400.20556640625
 30
0.0
  0
VERTEX
  5
569
330
563
100
AcDbEntity
  8
Ebene 1
370
     0
100
AcDbVertex
100
AcDb2dVertex
 10
500.2060546875
 20
399.10302734375
 30
0.0
  0
VERTEX
  5
56A
330
563
100
AcDbEntity
  8
Ebene 1
370
     0
100
AcDbVertex
100
AcDb2dVertex
 10
499.80859375
 20
397.95556640625
 30
0.0
  0
VERTEX
  5
56B
330
563
100
AcDbEntity
  8
Ebene 1
370
     0
100
AcDbVertex
100
AcDb2dVertex
 10
499.5439453125
 20
396.80908203125
 30
0.0
  0
VERTEX
  5
56C
330
563
100
AcDbEntity
  8
Ebene 1
370
     0
100
AcDbVertex
100
AcDb2dVertex
 10
499.412109375
 20
395.57421875
 30
0.0
  0
VERTEX
  5
56D
330
563
100
AcDbEntity
  8
Ebene 1
370
     0
100
AcDbVertex
100
AcDb2dVertex
 10
499.3671875
 20
394.3828125
 30
0.0
  0
VERTEX
  5
56E
330
563
100
AcDbEntity
  8
Ebene 1
370
     0
100
AcDbVertex
100
AcDb2dVertex
 10
499.5
 20
393.19140625
 30
0.0
  0
VERTEX
  5
56F
330
563
100
AcDbEntity
  8
Ebene 1
370
     0
100
AcDbVertex
100
AcDb2dVertex
 10
499.720703125
 20
392.0
 30
0.0
  0
SEQEND
  5
570
330
563
100
AcDbEntity
  8
Ebene 1
370
     0
  0
POLYLINE
  5
571
330
3C
100
AcDbEntity
  8
Ebene 1
370
     0
100
AcDb2dPolyline
 66
     1
 10
0.0
 20
0.0
 30
0.0
  0
VERTEX
  5
572
330
571
100
AcDbEntity
  8
Ebene 1
370
     0
100
AcDbVertex
100
AcDb2dVertex
 10
503.7353515625
 20
403.91162109375
 30
0.0
  0
VERTEX
  5
573
330
571
100
AcDbEntity
  8
Ebene 1
370
     0
100
AcDbVertex
100
AcDb2dVertex
 10
504.75
 20
404.79443359375
 30
0.0
  0
VERTEX
  5
574
330
571
100
AcDbEntity
  8
Ebene 1
370
     0
100
AcDbVertex
100
AcDb2dVertex
 10
505.720703125
 20
405.76513671875
 30
0.0
  0
VERTEX
  5
575
330
571
100
AcDbEntity
  8
Ebene 1
370
     0
100
AcDbVertex
100
AcDb2dVertex
 10
506.646484375
 20
406.82373046875
 30
0.0
  0
VERTEX
  5
576
330
571
100
AcDbEntity
  8
Ebene 1
370
     0
100
AcDbVertex
100
AcDb2dVertex
 10
507.44140625
 20
407.92626953125
 30
0.0
  0
VERTEX
  5
577
330
571
100
AcDbEntity
  8
Ebene 1
370
     0
100
AcDbVertex
100
AcDb2dVertex
 10
508.146484375
 20
409.07373046875
 30
0.0
  0
VERTEX
  5
578
330
571
100
AcDbEntity
  8
Ebene 1
370
     0
100
AcDbVertex
100
AcDb2dVertex
 10
508.7646484375
 20
410.30908203125
 30
0.0
  0
VERTEX
  5
579
330
571
100
AcDbEntity
  8
Ebene 1
370
     0
100
AcDbVertex
100
AcDb2dVertex
 10
509.2939453125
 20
411.58837890625
 30
0.0
  0
VERTEX
  5
57A
330
571
100
AcDbEntity
  8
Ebene 1
370
     0
100
AcDbVertex
100
AcDb2dVertex
 10
509.7353515625
 20
412.91162109375
 30
0.0
  0
VERTEX
  5
57B
330
571
100
AcDbEntity
  8
Ebene 1
370
     0
100
AcDbVertex
100
AcDb2dVertex
 10
510.0439453125
 20
414.23583984375
 30
0.0
  0
VERTEX
  5
57C
330
571
100
AcDbEntity
  8
Ebene 1
370
     0
100
AcDbVertex
100
AcDb2dVertex
 10
510.2646484375
 20
415.60302734375
 30
0.0
  0
VERTEX
  5
57D
330
571
100
AcDbEntity
  8
Ebene 1
370
     0
100
AcDbVertex
100
AcDb2dVertex
 10
510.353515625
 20
416.97119140625
 30
0.0
  0
VERTEX
  5
57E
330
571
100
AcDbEntity
  8
Ebene 1
370
     0
100
AcDbVertex
100
AcDb2dVertex
 10
510.353515625
 20
418.33837890625
 30
0.0
  0
VERTEX
  5
57F
330
571
100
AcDbEntity
  8
Ebene 1
370
     0
100
AcDbVertex
100
AcDb2dVertex
 10
510.220703125
 20
419.70556640625
 30
0.0
  0
VERTEX
  5
580
330
571
100
AcDbEntity
  8
Ebene 1
370
     0
100
AcDbVertex
100
AcDb2dVertex
 10
510.0
 20
421.07373046875
 30
0.0
  0
VERTEX
  5
581
330
571
100
AcDbEntity
  8
Ebene 1
370
     0
100
AcDbVertex
100
AcDb2dVertex
 10
509.646484375
 20
422.39697265625
 30
0.0
  0
VERTEX
  5
582
330
571
100
AcDbEntity
  8
Ebene 1
370
     0
100
AcDbVertex
100
AcDb2dVertex
 10
509.2060546875
 20
423.72119140625
 30
0.0
  0
VERTEX
  5
583
330
571
100
AcDbEntity
  8
Ebene 1
370
     0
100
AcDbVertex
100
AcDb2dVertex
 10
508.6328125
 20
424.95556640625
 30
0.0
  0
VERTEX
  5
584
330
571
100
AcDbEntity
  8
Ebene 1
370
     0
100
AcDbVertex
100
AcDb2dVertex
 10
508.0146484375
 20
426.19091796875
 30
0.0
  0
VERTEX
  5
585
330
571
100
AcDbEntity
  8
Ebene 1
370
     0
100
AcDbVertex
100
AcDb2dVertex
 10
507.2646484375
 20
427.33837890625
 30
0.0
  0
VERTEX
  5
586
330
571
100
AcDbEntity
  8
Ebene 1
370
     0
100
AcDbVertex
100
AcDb2dVertex
 10
506.42578125
 20
428.44091796875
 30
0.0
  0
VERTEX
  5
587
330
571
100
AcDbEntity
  8
Ebene 1
370
     0
100
AcDbVertex
100
AcDb2dVertex
 10
505.5439453125
 20
429.45556640625
 30
0.0
  0
VERTEX
  5
588
330
571
100
AcDbEntity
  8
Ebene 1
370
     0
100
AcDbVertex
100
AcDb2dVertex
 10
504.529296875
 20
430.42626953125
 30
0.0
  0
VERTEX
  5
589
330
571
100
AcDbEntity
  8
Ebene 1
370
     0
100
AcDbVertex
100
AcDb2dVertex
 10
503.470703125
 20
431.26513671875
 30
0.0
  0
VERTEX
  5
58A
330
571
100
AcDbEntity
  8
Ebene 1
370
     0
100
AcDbVertex
100
AcDb2dVertex
 10
502.32421875
 20
432.05908203125
 30
0.0
  0
VERTEX
  5
58B
330
571
100
AcDbEntity
  8
Ebene 1
370
     0
100
AcDbVertex
100
AcDb2dVertex
 10
501.1328125
 20
432.72119140625
 30
0.0
  0
VERTEX
  5
58C
330
571
100
AcDbEntity
  8
Ebene 1
370
     0
100
AcDbVertex
100
AcDb2dVertex
 10
499.896484375
 20
433.33837890625
 30
0.0
  0
VERTEX
  5
58D
330
571
100
AcDbEntity
  8
Ebene 1
370
     0
100
AcDbVertex
100
AcDb2dVertex
 10
498.6171875
 20
433.82373046875
 30
0.0
  0
VERTEX
  5
58E
330
571
100
AcDbEntity
  8
Ebene 1
370
     0
100
AcDbVertex
100
AcDb2dVertex
 10
497.2939453125
 20
434.22119140625
 30
0.0
  0
VERTEX
  5
58F
330
571
100
AcDbEntity
  8
Ebene 1
370
     0
100
AcDbVertex
100
AcDb2dVertex
 10
495.970703125
 20
434.48583984375
 30
0.0
  0
SEQEND
  5
590
330
571
100
AcDbEntity
  8
Ebene 1
370
     0
  0
POLYLINE
  5
591
330
3C
100
AcDbEntity
  8
Ebene 1
370
     0
100
AcDb2dPolyline
 66
     1
 10
0.0
 20
0.0
 30
0.0
  0
VERTEX
  5
592
330
591
100
AcDbEntity
  8
Ebene 1
370
     0
100
AcDbVertex
100
AcDb2dVertex
 10
549.75
 20
282.67578125
 30
0.0
  0
VERTEX
  5
593
330
591
100
AcDbEntity
  8
Ebene 1
370
     0
100
AcDbVertex
100
AcDb2dVertex
 10
576.17578125
 20
282.67578125
 30
0.0
  0
SEQEND
  5
594
330
591
100
AcDbEntity
  8
Ebene 1
370
     0
  0
POLYLINE
  5
595
330
3C
100
AcDbEntity
  8
Ebene 1
370
     0
100
AcDb2dPolyline
 66
     1
 10
0.0
 20
0.0
 30
0.0
  0
VERTEX
  5
596
330
595
100
AcDbEntity
  8
Ebene 1
370
     0
100
AcDbVertex
100
AcDb2dVertex
 10
507.396484375
 20
444.50048828125
 30
0.0
  0
VERTEX
  5
597
330
595
100
AcDbEntity
  8
Ebene 1
370
     0
100
AcDbVertex
100
AcDb2dVertex
 10
508.4560546875
 20
444.54443359375
 30
0.0
  0
VERTEX
  5
598
330
595
100
AcDbEntity
  8
Ebene 1
370
     0
100
AcDbVertex
100
AcDb2dVertex
 10
509.5146484375
 20
444.72119140625
 30
0.0
  0
VERTEX
  5
599
330
595
100
AcDbEntity
  8
Ebene 1
370
     0
100
AcDbVertex
100
AcDb2dVertex
 10
510.529296875
 20
444.98583984375
 30
0.0
  0
VERTEX
  5
59A
330
595
100
AcDbEntity
  8
Ebene 1
370
     0
100
AcDbVertex
100
AcDb2dVertex
 10
511.5439453125
 20
445.33837890625
 30
0.0
  0
VERTEX
  5
59B
330
595
100
AcDbEntity
  8
Ebene 1
370
     0
100
AcDbVertex
100
AcDb2dVertex
 10
512.470703125
 20
445.82373046875
 30
0.0
  0
VERTEX
  5
59C
330
595
100
AcDbEntity
  8
Ebene 1
370
     0
100
AcDbVertex
100
AcDb2dVertex
 10
513.396484375
 20
446.39697265625
 30
0.0
  0
VERTEX
  5
59D
330
595
100
AcDbEntity
  8
Ebene 1
370
     0
100
AcDbVertex
100
AcDb2dVertex
 10
514.19140625
 20
447.05908203125
 30
0.0
  0
VERTEX
  5
59E
330
595
100
AcDbEntity
  8
Ebene 1
370
     0
100
AcDbVertex
100
AcDb2dVertex
 10
514.9853515625
 20
447.80908203125
 30
0.0
  0
VERTEX
  5
59F
330
595
100
AcDbEntity
  8
Ebene 1
370
     0
100
AcDbVertex
100
AcDb2dVertex
 10
515.646484375
 20
448.60302734375
 30
0.0
  0
VERTEX
  5
5A0
330
595
100
AcDbEntity
  8
Ebene 1
370
     0
100
AcDbVertex
100
AcDb2dVertex
 10
516.2646484375
 20
449.48583984375
 30
0.0
  0
VERTEX
  5
5A1
330
595
100
AcDbEntity
  8
Ebene 1
370
     0
100
AcDbVertex
100
AcDb2dVertex
 10
516.75
 20
450.41162109375
 30
0.0
  0
VERTEX
  5
5A2
330
595
100
AcDbEntity
  8
Ebene 1
370
     0
100
AcDbVertex
100
AcDb2dVertex
 10
517.146484375
 20
451.38232421875
 30
0.0
  0
VERTEX
  5
5A3
330
595
100
AcDbEntity
  8
Ebene 1
370
     0
100
AcDbVertex
100
AcDb2dVertex
 10
517.4560546875
 20
452.39697265625
 30
0.0
  0
VERTEX
  5
5A4
330
595
100
AcDbEntity
  8
Ebene 1
370
     0
100
AcDbVertex
100
AcDb2dVertex
 10
517.6328125
 20
453.45556640625
 30
0.0
  0
VERTEX
  5
5A5
330
595
100
AcDbEntity
  8
Ebene 1
370
     0
100
AcDbVertex
100
AcDb2dVertex
 10
517.720703125
 20
454.51513671875
 30
0.0
  0
VERTEX
  5
5A6
330
595
100
AcDbEntity
  8
Ebene 1
370
     0
100
AcDbVertex
100
AcDb2dVertex
 10
517.67578125
 20
455.57373046875
 30
0.0
  0
VERTEX
  5
5A7
330
595
100
AcDbEntity
  8
Ebene 1
370
     0
100
AcDbVertex
100
AcDb2dVertex
 10
517.5439453125
 20
456.63232421875
 30
0.0
  0
VERTEX
  5
5A8
330
595
100
AcDbEntity
  8
Ebene 1
370
     0
100
AcDbVertex
100
AcDb2dVertex
 10
517.32421875
 20
457.64697265625
 30
0.0
  0
VERTEX
  5
5A9
330
595
100
AcDbEntity
  8
Ebene 1
370
     0
100
AcDbVertex
100
AcDb2dVertex
 10
516.970703125
 20
458.66162109375
 30
0.0
  0
VERTEX
  5
5AA
330
595
100
AcDbEntity
  8
Ebene 1
370
     0
100
AcDbVertex
100
AcDb2dVertex
 10
516.529296875
 20
459.63232421875
 30
0.0
  0
VERTEX
  5
5AB
330
595
100
AcDbEntity
  8
Ebene 1
370
     0
100
AcDbVertex
100
AcDb2dVertex
 10
515.9560546875
 20
460.51513671875
 30
0.0
  0
VERTEX
  5
5AC
330
595
100
AcDbEntity
  8
Ebene 1
370
     0
100
AcDbVertex
100
AcDb2dVertex
 10
515.337890625
 20
461.35302734375
 30
0.0
  0
VERTEX
  5
5AD
330
595
100
AcDbEntity
  8
Ebene 1
370
     0
100
AcDbVertex
100
AcDb2dVertex
 10
514.587890625
 20
462.14697265625
 30
0.0
  0
VERTEX
  5
5AE
330
595
100
AcDbEntity
  8
Ebene 1
370
     0
100
AcDbVertex
100
AcDb2dVertex
 10
513.7939453125
 20
462.85302734375
 30
0.0
  0
VERTEX
  5
5AF
330
595
100
AcDbEntity
  8
Ebene 1
370
     0
100
AcDbVertex
100
AcDb2dVertex
 10
512.9560546875
 20
463.470703125
 30
0.0
  0
VERTEX
  5
5B0
330
595
100
AcDbEntity
  8
Ebene 1
370
     0
100
AcDbVertex
100
AcDb2dVertex
 10
512.029296875
 20
463.9560546875
 30
0.0
  0
VERTEX
  5
5B1
330
595
100
AcDbEntity
  8
Ebene 1
370
     0
100
AcDbVertex
100
AcDb2dVertex
 10
511.05859375
 20
464.39697265625
 30
0.0
  0
VERTEX
  5
5B2
330
595
100
AcDbEntity
  8
Ebene 1
370
     0
100
AcDbVertex
100
AcDb2dVertex
 10
510.0439453125
 20
464.7060546875
 30
0.0
  0
VERTEX
  5
5B3
330
595
100
AcDbEntity
  8
Ebene 1
370
     0
100
AcDbVertex
100
AcDb2dVertex
 10
508.9853515625
 20
464.9267578125
 30
0.0
  0
VERTEX
  5
5B4
330
595
100
AcDbEntity
  8
Ebene 1
370
     0
100
AcDbVertex
100
AcDb2dVertex
 10
507.92578125
 20
465.05908203125
 30
0.0
  0
VERTEX
  5
5B5
330
595
100
AcDbEntity
  8
Ebene 1
370
     0
100
AcDbVertex
100
AcDb2dVertex
 10
506.8671875
 20
465.05908203125
 30
0.0
  0
VERTEX
  5
5B6
330
595
100
AcDbEntity
  8
Ebene 1
370
     0
100
AcDbVertex
100
AcDb2dVertex
 10
505.80859375
 20
464.9267578125
 30
0.0
  0
VERTEX
  5
5B7
330
595
100
AcDbEntity
  8
Ebene 1
370
     0
100
AcDbVertex
100
AcDb2dVertex
 10
504.75
 20
464.7060546875
 30
0.0
  0
VERTEX
  5
5B8
330
595
100
AcDbEntity
  8
Ebene 1
370
     0
100
AcDbVertex
100
AcDb2dVertex
 10
503.7353515625
 20
464.39697265625
 30
0.0
  0
VERTEX
  5
5B9
330
595
100
AcDbEntity
  8
Ebene 1
370
     0
100
AcDbVertex
100
AcDb2dVertex
 10
502.7646484375
 20
463.9560546875
 30
0.0
  0
VERTEX
  5
5BA
330
595
100
AcDbEntity
  8
Ebene 1
370
     0
100
AcDbVertex
100
AcDb2dVertex
 10
501.837890625
 20
463.470703125
 30
0.0
  0
VERTEX
  5
5BB
330
595
100
AcDbEntity
  8
Ebene 1
370
     0
100
AcDbVertex
100
AcDb2dVertex
 10
501.0
 20
462.85302734375
 30
0.0
  0
VERTEX
  5
5BC
330
595
100
AcDbEntity
  8
Ebene 1
370
     0
100
AcDbVertex
100
AcDb2dVertex
 10
500.2060546875
 20
462.14697265625
 30
0.0
  0
VERTEX
  5
5BD
330
595
100
AcDbEntity
  8
Ebene 1
370
     0
100
AcDbVertex
100
AcDb2dVertex
 10
499.4560546875
 20
461.35302734375
 30
0.0
  0
VERTEX
  5
5BE
330
595
100
AcDbEntity
  8
Ebene 1
370
     0
100
AcDbVertex
100
AcDb2dVertex
 10
498.837890625
 20
460.51513671875
 30
0.0
  0
VERTEX
  5
5BF
330
595
100
AcDbEntity
  8
Ebene 1
370
     0
100
AcDbVertex
100
AcDb2dVertex
 10
498.2646484375
 20
459.63232421875
 30
0.0
  0
VERTEX
  5
5C0
330
595
100
AcDbEntity
  8
Ebene 1
370
     0
100
AcDbVertex
100
AcDb2dVertex
 10
497.82421875
 20
458.66162109375
 30
0.0
  0
VERTEX
  5
5C1
330
595
100
AcDbEntity
  8
Ebene 1
370
     0
100
AcDbVertex
100
AcDb2dVertex
 10
497.470703125
 20
457.64697265625
 30
0.0
  0
VERTEX
  5
5C2
330
595
100
AcDbEntity
  8
Ebene 1
370
     0
100
AcDbVertex
100
AcDb2dVertex
 10
497.25
 20
456.63232421875
 30
0.0
  0
VERTEX
  5
5C3
330
595
100
AcDbEntity
  8
Ebene 1
370
     0
100
AcDbVertex
100
AcDb2dVertex
 10
497.1171875
 20
455.57373046875
 30
0.0
  0
VERTEX
  5
5C4
330
595
100
AcDbEntity
  8
Ebene 1
370
     0
100
AcDbVertex
100
AcDb2dVertex
 10
497.07421875
 20
454.51513671875
 30
0.0
  0
VERTEX
  5
5C5
330
595
100
AcDbEntity
  8
Ebene 1
370
     0
100
AcDbVertex
100
AcDb2dVertex
 10
497.162109375
 20
453.45556640625
 30
0.0
  0
VERTEX
  5
5C6
330
595
100
AcDbEntity
  8
Ebene 1
370
     0
100
AcDbVertex
100
AcDb2dVertex
 10
497.337890625
 20
452.39697265625
 30
0.0
  0
VERTEX
  5
5C7
330
595
100
AcDbEntity
  8
Ebene 1
370
     0
100
AcDbVertex
100
AcDb2dVertex
 10
497.646484375
 20
451.38232421875
 30
0.0
  0
VERTEX
  5
5C8
330
595
100
AcDbEntity
  8
Ebene 1
370
     0
100
AcDbVertex
100
AcDb2dVertex
 10
498.0439453125
 20
450.41162109375
 30
0.0
  0
VERTEX
  5
5C9
330
595
100
AcDbEntity
  8
Ebene 1
370
     0
100
AcDbVertex
100
AcDb2dVertex
 10
498.529296875
 20
449.48583984375
 30
0.0
  0
VERTEX
  5
5CA
330
595
100
AcDbEntity
  8
Ebene 1
370
     0
100
AcDbVertex
100
AcDb2dVertex
 10
499.146484375
 20
448.60302734375
 30
0.0
  0
VERTEX
  5
5CB
330
595
100
AcDbEntity
  8
Ebene 1
370
     0
100
AcDbVertex
100
AcDb2dVertex
 10
499.80859375
 20
447.80908203125
 30
0.0
  0
VERTEX
  5
5CC
330
595
100
AcDbEntity
  8
Ebene 1
370
     0
100
AcDbVertex
100
AcDb2dVertex
 10
500.603515625
 20
447.05908203125
 30
0.0
  0
VERTEX
  5
5CD
330
595
100
AcDbEntity
  8
Ebene 1
370
     0
100
AcDbVertex
100
AcDb2dVertex
 10
501.396484375
 20
446.39697265625
 30
0.0
  0
VERTEX
  5
5CE
330
595
100
AcDbEntity
  8
Ebene 1
370
     0
100
AcDbVertex
100
AcDb2dVertex
 10
502.32421875
 20
445.82373046875
 30
0.0
  0
VERTEX
  5
5CF
330
595
100
AcDbEntity
  8
Ebene 1
370
     0
100
AcDbVertex
100
AcDb2dVertex
 10
503.25
 20
445.33837890625
 30
0.0
  0
VERTEX
  5
5D0
330
595
100
AcDbEntity
  8
Ebene 1
370
     0
100
AcDbVertex
100
AcDb2dVertex
 10
504.2646484375
 20
444.98583984375
 30
0.0
  0
VERTEX
  5
5D1
330
595
100
AcDbEntity
  8
Ebene 1
370
     0
100
AcDbVertex
100
AcDb2dVertex
 10
505.279296875
 20
444.72119140625
 30
0.0
  0
VERTEX
  5
5D2
330
595
100
AcDbEntity
  8
Ebene 1
370
     0
100
AcDbVertex
100
AcDb2dVertex
 10
506.337890625
 20
444.54443359375
 30
0.0
  0
VERTEX
  5
5D3
330
595
100
AcDbEntity
  8
Ebene 1
370
     0
100
AcDbVertex
100
AcDb2dVertex
 10
507.396484375
 20
444.50048828125
 30
0.0
  0
VERTEX
  5
5D4
330
595
100
AcDbEntity
  8
Ebene 1
370
     0
100
AcDbVertex
100
AcDb2dVertex
 10
507.396484375
 20
444.50048828125
 30
0.0
  0
SEQEND
  5
5D5
330
595
100
AcDbEntity
  8
Ebene 1
370
     0
  0
POLYLINE
  5
5D6
330
3C
100
AcDbEntity
  8
Ebene 1
370
     0
100
AcDb2dPolyline
 66
     1
 10
0.0
 20
0.0
 30
0.0
  0
VERTEX
  5
5D7
330
5D6
100
AcDbEntity
  8
Ebene 1
370
     0
100
AcDbVertex
100
AcDb2dVertex
 10
624.92578125
 20
347.220703125
 30
0.0
  0
VERTEX
  5
5D8
330
5D6
100
AcDbEntity
  8
Ebene 1
370
     0
100
AcDbVertex
100
AcDb2dVertex
 10
615.4853515625
 20
347.220703125
 30
0.0
  0
SEQEND
  5
5D9
330
5D6
100
AcDbEntity
  8
Ebene 1
370
     0
  0
POLYLINE
  5
5DA
330
3C
100
AcDbEntity
  8
Ebene 1
370
     0
100
AcDb2dPolyline
 66
     1
 10
0.0
 20
0.0
 30
0.0
  0
VERTEX
  5
5DB
330
5DA
100
AcDbEntity
  8
Ebene 1
370
     0
100
AcDbVertex
100
AcDb2dVertex
 10
611.82421875
 20
347.220703125
 30
0.0
  0
VERTEX
  5
5DC
330
5DA
100
AcDbEntity
  8
Ebene 1
370
     0
100
AcDbVertex
100
AcDb2dVertex
 10
608.2060546875
 20
347.220703125
 30
0.0
  0
SEQEND
  5
5DD
330
5DA
100
AcDbEntity
  8
Ebene 1
370
     0
  0
POLYLINE
  5
5DE
330
3C
100
AcDbEntity
  8
Ebene 1
370
     0
100
AcDb2dPolyline
 66
     1
 10
0.0
 20
0.0
 30
0.0
  0
VERTEX
  5
5DF
330
5DE
100
AcDbEntity
  8
Ebene 1
370
     0
100
AcDbVertex
100
AcDb2dVertex
 10
604.5439453125
 20
347.220703125
 30
0.0
  0
VERTEX
  5
5E0
330
5DE
100
AcDbEntity
  8
Ebene 1
370
     0
100
AcDbVertex
100
AcDb2dVertex
 10
600.92578125
 20
347.220703125
 30
0.0
  0
SEQEND
  5
5E1
330
5DE
100
AcDbEntity
  8
Ebene 1
370
     0
  0
POLYLINE
  5
5E2
330
3C
100
AcDbEntity
  8
Ebene 1
370
     0
100
AcDb2dPolyline
 66
     1
 10
0.0
 20
0.0
 30
0.0
  0
VERTEX
  5
5E3
330
5E2
100
AcDbEntity
  8
Ebene 1
370
     0
100
AcDbVertex
100
AcDb2dVertex
 10
597.2646484375
 20
347.220703125
 30
0.0
  0
VERTEX
  5
5E4
330
5E2
100
AcDbEntity
  8
Ebene 1
370
     0
100
AcDbVertex
100
AcDb2dVertex
 10
579.087890625
 20
347.220703125
 30
0.0
  0
SEQEND
  5
5E5
330
5E2
100
AcDbEntity
  8
Ebene 1
370
     0
  0
POLYLINE
  5
5E6
330
3C
100
AcDbEntity
  8
Ebene 1
370
     0
100
AcDb2dPolyline
 66
     1
 10
0.0
 20
0.0
 30
0.0
  0
VERTEX
  5
5E7
330
5E6
100
AcDbEntity
  8
Ebene 1
370
     0
100
AcDbVertex
100
AcDb2dVertex
 10
575.42578125
 20
347.220703125
 30
0.0
  0
VERTEX
  5
5E8
330
5E6
100
AcDbEntity
  8
Ebene 1
370
     0
100
AcDbVertex
100
AcDb2dVertex
 10
571.7646484375
 20
347.220703125
 30
0.0
  0
SEQEND
  5
5E9
330
5E6
100
AcDbEntity
  8
Ebene 1
370
     0
  0
POLYLINE
  5
5EA
330
3C
100
AcDbEntity
  8
Ebene 1
370
     0
100
AcDb2dPolyline
 66
     1
 10
0.0
 20
0.0
 30
0.0
  0
VERTEX
  5
5EB
330
5EA
100
AcDbEntity
  8
Ebene 1
370
     0
100
AcDbVertex
100
AcDb2dVertex
 10
568.146484375
 20
347.220703125
 30
0.0
  0
VERTEX
  5
5EC
330
5EA
100
AcDbEntity
  8
Ebene 1
370
     0
100
AcDbVertex
100
AcDb2dVertex
 10
564.4853515625
 20
347.220703125
 30
0.0
  0
SEQEND
  5
5ED
330
5EA
100
AcDbEntity
  8
Ebene 1
370
     0
  0
POLYLINE
  5
5EE
330
3C
100
AcDbEntity
  8
Ebene 1
370
     0
100
AcDb2dPolyline
 66
     1
 10
0.0
 20
0.0
 30
0.0
  0
VERTEX
  5
5EF
330
5EE
100
AcDbEntity
  8
Ebene 1
370
     0
100
AcDbVertex
100
AcDb2dVertex
 10
560.8671875
 20
347.220703125
 30
0.0
  0
VERTEX
  5
5F0
330
5EE
100
AcDbEntity
  8
Ebene 1
370
     0
100
AcDbVertex
100
AcDb2dVertex
 10
551.42578125
 20
347.220703125
 30
0.0
  0
SEQEND
  5
5F1
330
5EE
100
AcDbEntity
  8
Ebene 1
370
     0
  0
POLYLINE
  5
5F2
330
3C
100
AcDbEntity
  8
Ebene 1
370
     0
100
AcDb2dPolyline
 66
     1
 10
0.0
 20
0.0
 30
0.0
  0
VERTEX
  5
5F3
330
5F2
100
AcDbEntity
  8
Ebene 1
370
     0
100
AcDbVertex
100
AcDb2dVertex
 10
622.67578125
 20
304.162109375
 30
0.0
  0
VERTEX
  5
5F4
330
5F2
100
AcDbEntity
  8
Ebene 1
370
     0
100
AcDbVertex
100
AcDb2dVertex
 10
612.970703125
 20
304.162109375
 30
0.0
  0
SEQEND
  5
5F5
330
5F2
100
AcDbEntity
  8
Ebene 1
370
     0
  0
POLYLINE
  5
5F6
330
3C
100
AcDbEntity
  8
Ebene 1
370
     0
100
AcDb2dPolyline
 66
     1
 10
0.0
 20
0.0
 30
0.0
  0
VERTEX
  5
5F7
330
5F6
100
AcDbEntity
  8
Ebene 1
370
     0
100
AcDbVertex
100
AcDb2dVertex
 10
609.353515625
 20
304.162109375
 30
0.0
  0
VERTEX
  5
5F8
330
5F6
100
AcDbEntity
  8
Ebene 1
370
     0
100
AcDbVertex
100
AcDb2dVertex
 10
605.69140625
 20
304.162109375
 30
0.0
  0
SEQEND
  5
5F9
330
5F6
100
AcDbEntity
  8
Ebene 1
370
     0
  0
POLYLINE
  5
5FA
330
3C
100
AcDbEntity
  8
Ebene 1
370
     0
100
AcDb2dPolyline
 66
     1
 10
0.0
 20
0.0
 30
0.0
  0
VERTEX
  5
5FB
330
5FA
100
AcDbEntity
  8
Ebene 1
370
     0
100
AcDbVertex
100
AcDb2dVertex
 10
602.07421875
 20
304.162109375
 30
0.0
  0
VERTEX
  5
5FC
330
5FA
100
AcDbEntity
  8
Ebene 1
370
     0
100
AcDbVertex
100
AcDb2dVertex
 10
598.412109375
 20
304.162109375
 30
0.0
  0
SEQEND
  5
5FD
330
5FA
100
AcDbEntity
  8
Ebene 1
370
     0
  0
POLYLINE
  5
5FE
330
3C
100
AcDbEntity
  8
Ebene 1
370
     0
100
AcDb2dPolyline
 66
     1
 10
0.0
 20
0.0
 30
0.0
  0
VERTEX
  5
5FF
330
5FE
100
AcDbEntity
  8
Ebene 1
370
     0
100
AcDbVertex
100
AcDb2dVertex
 10
594.7939453125
 20
304.162109375
 30
0.0
  0
VERTEX
  5
600
330
5FE
100
AcDbEntity
  8
Ebene 1
370
     0
100
AcDbVertex
100
AcDb2dVertex
 10
576.57421875
 20
304.162109375
 30
0.0
  0
SEQEND
  5
601
330
5FE
100
AcDbEntity
  8
Ebene 1
370
     0
  0
POLYLINE
  5
602
330
3C
100
AcDbEntity
  8
Ebene 1
370
     0
100
AcDb2dPolyline
 66
     1
 10
0.0
 20
0.0
 30
0.0
  0
VERTEX
  5
603
330
602
100
AcDbEntity
  8
Ebene 1
370
     0
100
AcDbVertex
100
AcDb2dVertex
 10
572.9560546875
 20
304.162109375
 30
0.0
  0
VERTEX
  5
604
330
602
100
AcDbEntity
  8
Ebene 1
370
     0
100
AcDbVertex
100
AcDb2dVertex
 10
569.2939453125
 20
304.162109375
 30
0.0
  0
SEQEND
  5
605
330
602
100
AcDbEntity
  8
Ebene 1
370
     0
  0
POLYLINE
  5
606
330
3C
100
AcDbEntity
  8
Ebene 1
370
     0
100
AcDb2dPolyline
 66
     1
 10
0.0
 20
0.0
 30
0.0
  0
VERTEX
  5
607
330
606
100
AcDbEntity
  8
Ebene 1
370
     0
100
AcDbVertex
100
AcDb2dVertex
 10
565.67578125
 20
304.162109375
 30
0.0
  0
VERTEX
  5
608
330
606
100
AcDbEntity
  8
Ebene 1
370
     0
100
AcDbVertex
100
AcDb2dVertex
 10
562.0146484375
 20
304.162109375
 30
0.0
  0
SEQEND
  5
609
330
606
100
AcDbEntity
  8
Ebene 1
370
     0
  0
POLYLINE
  5
60A
330
3C
100
AcDbEntity
  8
Ebene 1
370
     0
100
AcDb2dPolyline
 66
     1
 10
0.0
 20
0.0
 30
0.0
  0
VERTEX
  5
60B
330
60A
100
AcDbEntity
  8
Ebene 1
370
     0
100
AcDbVertex
100
AcDb2dVertex
 10
558.396484375
 20
304.162109375
 30
0.0
  0
VERTEX
  5
60C
330
60A
100
AcDbEntity
  8
Ebene 1
370
     0
100
AcDbVertex
100
AcDb2dVertex
 10
548.69140625
 20
304.162109375
 30
0.0
  0
SEQEND
  5
60D
330
60A
100
AcDbEntity
  8
Ebene 1
370
     0
  0
POLYLINE
  5
60E
330
3C
100
AcDbEntity
  8
Ebene 1
370
     0
100
AcDb2dPolyline
 66
     1
 10
0.0
 20
0.0
 30
0.0
  0
VERTEX
  5
60F
330
60E
100
AcDbEntity
  8
Ebene 1
370
     0
100
AcDbVertex
100
AcDb2dVertex
 10
599.1171875
 20
479.220703125
 30
0.0
  0
VERTEX
  5
610
330
60E
100
AcDbEntity
  8
Ebene 1
370
     0
100
AcDbVertex
100
AcDb2dVertex
 10
599.1171875
 20
566.52978515625
 30
0.0
  0
SEQEND
  5
611
330
60E
100
AcDbEntity
  8
Ebene 1
370
     0
  0
POLYLINE
  5
612
330
3C
100
AcDbEntity
  8
Ebene 1
370
     0
100
AcDb2dPolyline
 66
     1
 10
0.0
 20
0.0
 30
0.0
  0
VERTEX
  5
613
330
612
100
AcDbEntity
  8
Ebene 1
370
     0
100
AcDbVertex
100
AcDb2dVertex
 10
372.75
 20
447.58837890625
 30
0.0
  0
VERTEX
  5
614
330
612
100
AcDbEntity
  8
Ebene 1
370
     0
100
AcDbVertex
100
AcDb2dVertex
 10
372.75
 20
566.52978515625
 30
0.0
  0
SEQEND
  5
615
330
612
100
AcDbEntity
  8
Ebene 1
370
     0
  0
POLYLINE
  5
616
330
3C
100
AcDbEntity
  8
Ebene 1
370
     0
100
AcDb2dPolyline
 66
     1
 10
0.0
 20
0.0
 30
0.0
  0
VERTEX
  5
617
330
616
100
AcDbEntity
  8
Ebene 1
370
     0
100
AcDbVertex
100
AcDb2dVertex
 10
584.779296875
 20
555.05908203125
 30
0.0
  0
VERTEX
  5
618
330
616
100
AcDbEntity
  8
Ebene 1
370
     0
100
AcDbVertex
100
AcDb2dVertex
 10
387.0439453125
 20
555.05908203125
 30
0.0
  0
SEQEND
  5
619
330
616
100
AcDbEntity
  8
Ebene 1
370
     0
  0
POLYLINE
  5
61A
330
3C
100
AcDbEntity
  8
Ebene 1
370
     0
100
AcDb2dPolyline
 66
     1
 10
0.0
 20
0.0
 30
0.0
  0
VERTEX
  5
61B
330
61A
100
AcDbEntity
  8
Ebene 1
370
     0
100
AcDbVertex
100
AcDb2dVertex
 10
584.779296875
 20
557.44140625
 30
0.0
  0
VERTEX
  5
61C
330
61A
100
AcDbEntity
  8
Ebene 1
370
     0
100
AcDbVertex
100
AcDb2dVertex
 10
584.779296875
 20
552.6767578125
 30
0.0
  0
VERTEX
  5
61D
330
61A
100
AcDbEntity
  8
Ebene 1
370
     0
100
AcDbVertex
100
AcDb2dVertex
 10
599.1171875
 20
555.05908203125
 30
0.0
  0
VERTEX
  5
61E
330
61A
100
AcDbEntity
  8
Ebene 1
370
     0
100
AcDbVertex
100
AcDb2dVertex
 10
584.779296875
 20
557.44140625
 30
0.0
  0
SEQEND
  5
61F
330
61A
100
AcDbEntity
  8
Ebene 1
370
     0
  0
HATCH
  5
620
330
3C
100
AcDbEntity
  8
Ebene 1
 62
   251
420
  6710886
100
AcDbHatch
 10
0.0
 20
0.0
 30
0.0
210
0.0
220
0.0
230
1.0
  2
SOLID
 70
     1
 71
     0
 91
        1
 92
        1
 93
        3
 72
     1
 10
584.779296875
 20
557.44140625
 11
584.779296875
 21
552.6767578125
 72
     1
 10
584.779296875
 20
552.6767578125
 11
599.1171875
 21
555.05908203125
 72
     1
 10
599.1171875
 20
555.05908203125
 11
584.779296875
 21
557.44140625
 97
        0
 75
     0
 76
     1
 98
        0
  0
POLYLINE
  5
621
330
3C
100
AcDbEntity
  8
Ebene 1
370
     0
100
AcDb2dPolyline
 66
     1
 10
0.0
 20
0.0
 30
0.0
  0
VERTEX
  5
622
330
621
100
AcDbEntity
  8
Ebene 1
370
     0
100
AcDbVertex
100
AcDb2dVertex
 10
387.0439453125
 20
557.44140625
 30
0.0
  0
VERTEX
  5
623
330
621
100
AcDbEntity
  8
Ebene 1
370
     0
100
AcDbVertex
100
AcDb2dVertex
 10
387.0439453125
 20
552.6767578125
 30
0.0
  0
VERTEX
  5
624
330
621
100
AcDbEntity
  8
Ebene 1
370
     0
100
AcDbVertex
100
AcDb2dVertex
 10
372.75
 20
555.05908203125
 30
0.0
  0
VERTEX
  5
625
330
621
100
AcDbEntity
  8
Ebene 1
370
     0
100
AcDbVertex
100
AcDb2dVertex
 10
387.0439453125
 20
557.44140625
 30
0.0
  0
SEQEND
  5
626
330
621
100
AcDbEntity
  8
Ebene 1
370
     0
  0
HATCH
  5
627
330
3C
100
AcDbEntity
  8
Ebene 1
 62
   251
420
  6710886
100
AcDbHatch
 10
0.0
 20
0.0
 30
0.0
210
0.0
220
0.0
230
1.0
  2
SOLID
 70
     1
 71
     0
 91
        1
 92
        1
 93
        3
 72
     1
 10
387.0439453125
 20
557.44140625
 11
387.0439453125
 21
552.6767578125
 72
     1
 10
387.0439453125
 20
552.6767578125
 11
372.75
 21
555.05908203125
 72
     1
 10
372.75
 20
555.05908203125
 11
387.0439453125
 21
557.44140625
 97
        0
 75
     0
 76
     1
 98
        0
  0
POLYLINE
  5
628
330
3C
100
AcDbEntity
  8
Ebene 1
370
     0
100
AcDb2dPolyline
 66
     1
 10
0.0
 20
0.0
 30
0.0
  0
VERTEX
  5
629
330
628
100
AcDbEntity
  8
Ebene 1
370
     0
100
AcDbVertex
100
AcDb2dVertex
 10
453.662109375
 20
578.0
 30
0.0
  0
VERTEX
  5
62A
330
628
100
AcDbEntity
  8
Ebene 1
370
     0
100
AcDbVertex
100
AcDb2dVertex
 10
453.662109375
 20
560.79443359375
 30
0.0
  0
SEQEND
  5
62B
330
628
100
AcDbEntity
  8
Ebene 1
370
     0
  0
POLYLINE
  5
62C
330
3C
100
AcDbEntity
  8
Ebene 1
370
     0
100
AcDb2dPolyline
 66
     1
 10
0.0
 20
0.0
 30
0.0
  0
VERTEX
  5
62D
330
62C
100
AcDbEntity
  8
Ebene 1
370
     0
100
AcDbVertex
100
AcDb2dVertex
 10
453.662109375
 20
578.0
 30
0.0
  0
VERTEX
  5
62E
330
62C
100
AcDbEntity
  8
Ebene 1
370
     0
100
AcDbVertex
100
AcDb2dVertex
 10
458.912109375
 20
560.79443359375
 30
0.0
  0
VERTEX
  5
62F
330
62C
100
AcDbEntity
  8
Ebene 1
370
     0
100
AcDbVertex
100
AcDb2dVertex
 10
464.162109375
 20
578.0
 30
0.0
  0
VERTEX
  5
630
330
62C
100
AcDbEntity
  8
Ebene 1
370
     0
100
AcDbVertex
100
AcDb2dVertex
 10
464.162109375
 20
560.79443359375
 30
0.0
  0
SEQEND
  5
631
330
62C
100
AcDbEntity
  8
Ebene 1
370
     0
  0
POLYLINE
  5
632
330
3C
100
AcDbEntity
  8
Ebene 1
370
     0
100
AcDb2dPolyline
 66
     1
 10
0.0
 20
0.0
 30
0.0
  0
VERTEX
  5
633
330
632
100
AcDbEntity
  8
Ebene 1
370
     0
100
AcDbVertex
100
AcDb2dVertex
 10
468.7060546875
 20
577.162109375
 30
0.0
  0
VERTEX
  5
634
330
632
100
AcDbEntity
  8
Ebene 1
370
     0
100
AcDbVertex
100
AcDb2dVertex
 10
469.3671875
 20
576.36767578125
 30
0.0
  0
VERTEX
  5
635
330
632
100
AcDbEntity
  8
Ebene 1
370
     0
100
AcDbVertex
100
AcDb2dVertex
 10
470.029296875
 20
577.162109375
 30
0.0
  0
VERTEX
  5
636
330
632
100
AcDbEntity
  8
Ebene 1
370
     0
100
AcDbVertex
100
AcDb2dVertex
 10
469.3671875
 20
578.0
 30
0.0
  0
VERTEX
  5
637
330
632
100
AcDbEntity
  8
Ebene 1
370
     0
100
AcDbVertex
100
AcDb2dVertex
 10
468.7060546875
 20
577.162109375
 30
0.0
  0
VERTEX
  5
638
330
632
100
AcDbEntity
  8
Ebene 1
370
     0
100
AcDbVertex
100
AcDb2dVertex
 10
468.7060546875
 20
577.162109375
 30
0.0
  0
SEQEND
  5
639
330
632
100
AcDbEntity
  8
Ebene 1
370
     0
  0
POLYLINE
  5
63A
330
3C
100
AcDbEntity
  8
Ebene 1
370
     0
100
AcDb2dPolyline
 66
     1
 10
0.0
 20
0.0
 30
0.0
  0
VERTEX
  5
63B
330
63A
100
AcDbEntity
  8
Ebene 1
370
     0
100
AcDbVertex
100
AcDb2dVertex
 10
469.3671875
 20
571.4267578125
 30
0.0
  0
VERTEX
  5
63C
330
63A
100
AcDbEntity
  8
Ebene 1
370
     0
100
AcDbVertex
100
AcDb2dVertex
 10
469.3671875
 20
560.79443359375
 30
0.0
  0
SEQEND
  5
63D
330
63A
100
AcDbEntity
  8
Ebene 1
370
     0
  0
POLYLINE
  5
63E
330
3C
100
AcDbEntity
  8
Ebene 1
370
     0
100
AcDb2dPolyline
 66
     1
 10
0.0
 20
0.0
 30
0.0
  0
VERTEX
  5
63F
330
63E
100
AcDbEntity
  8
Ebene 1
370
     0
100
AcDbVertex
100
AcDb2dVertex
 10
474.6171875
 20
572.2646484375
 30
0.0
  0
VERTEX
  5
640
330
63E
100
AcDbEntity
  8
Ebene 1
370
     0
100
AcDbVertex
100
AcDb2dVertex
 10
474.6171875
 20
560.79443359375
 30
0.0
  0
SEQEND
  5
641
330
63E
100
AcDbEntity
  8
Ebene 1
370
     0
  0
POLYLINE
  5
642
330
3C
100
AcDbEntity
  8
Ebene 1
370
     0
100
AcDb2dPolyline
 66
     1
 10
0.0
 20
0.0
 30
0.0
  0
VERTEX
  5
643
330
642
100
AcDbEntity
  8
Ebene 1
370
     0
100
AcDbVertex
100
AcDb2dVertex
 10
474.6171875
 20
569.0
 30
0.0
  0
VERTEX
  5
644
330
642
100
AcDbEntity
  8
Ebene 1
370
     0
100
AcDbVertex
100
AcDb2dVertex
 10
476.603515625
 20
571.4267578125
 30
0.0
  0
VERTEX
  5
645
330
642
100
AcDbEntity
  8
Ebene 1
370
     0
100
AcDbVertex
100
AcDb2dVertex
 10
477.8828125
 20
572.2646484375
 30
0.0
  0
VERTEX
  5
646
330
642
100
AcDbEntity
  8
Ebene 1
370
     0
100
AcDbVertex
100
AcDb2dVertex
 10
479.8671875
 20
572.2646484375
 30
0.0
  0
VERTEX
  5
647
330
642
100
AcDbEntity
  8
Ebene 1
370
     0
100
AcDbVertex
100
AcDb2dVertex
 10
481.19140625
 20
571.4267578125
 30
0.0
  0
VERTEX
  5
648
330
642
100
AcDbEntity
  8
Ebene 1
370
     0
100
AcDbVertex
100
AcDb2dVertex
 10
481.80859375
 20
569.0
 30
0.0
  0
VERTEX
  5
649
330
642
100
AcDbEntity
  8
Ebene 1
370
     0
100
AcDbVertex
100
AcDb2dVertex
 10
481.80859375
 20
560.79443359375
 30
0.0
  0
SEQEND
  5
64A
330
642
100
AcDbEntity
  8
Ebene 1
370
     0
  0
POLYLINE
  5
64B
330
3C
100
AcDbEntity
  8
Ebene 1
370
     0
100
AcDb2dPolyline
 66
     1
 10
0.0
 20
0.0
 30
0.0
  0
VERTEX
  5
64C
330
64B
100
AcDbEntity
  8
Ebene 1
370
     0
100
AcDbVertex
100
AcDb2dVertex
 10
487.720703125
 20
562.4267578125
 30
0.0
  0
VERTEX
  5
64D
330
64B
100
AcDbEntity
  8
Ebene 1
370
     0
100
AcDbVertex
100
AcDb2dVertex
 10
487.05859375
 20
561.58837890625
 30
0.0
  0
VERTEX
  5
64E
330
64B
100
AcDbEntity
  8
Ebene 1
370
     0
100
AcDbVertex
100
AcDb2dVertex
 10
487.720703125
 20
560.79443359375
 30
0.0
  0
VERTEX
  5
64F
330
64B
100
AcDbEntity
  8
Ebene 1
370
     0
100
AcDbVertex
100
AcDb2dVertex
 10
488.3828125
 20
561.58837890625
 30
0.0
  0
VERTEX
  5
650
330
64B
100
AcDbEntity
  8
Ebene 1
370
     0
100
AcDbVertex
100
AcDb2dVertex
 10
487.720703125
 20
562.4267578125
 30
0.0
  0
VERTEX
  5
651
330
64B
100
AcDbEntity
  8
Ebene 1
370
     0
100
AcDbVertex
100
AcDb2dVertex
 10
487.720703125
 20
562.4267578125
 30
0.0
  0
SEQEND
  5
652
330
64B
100
AcDbEntity
  8
Ebene 1
370
     0
  0
POLYLINE
  5
653
330
3C
100
AcDbEntity
  8
Ebene 1
370
     0
100
AcDb2dPolyline
 66
     1
 10
0.0
 20
0.0
 30
0.0
  0
VERTEX
  5
654
330
653
100
AcDbEntity
  8
Ebene 1
370
     0
100
AcDbVertex
100
AcDb2dVertex
 10
-96.0
 20
322.8671875
 30
0.0
  0
VERTEX
  5
655
330
653
100
AcDbEntity
  8
Ebene 1
370
     0
100
AcDbVertex
100
AcDb2dVertex
 10
-96.0
 20
322.8671875
 30
0.0
  0
SEQEND
  5
656
330
653
100
AcDbEntity
  8
Ebene 1
370
     0
  0
POLYLINE
  5
657
330
3C
100
AcDbEntity
  8
Ebene 1
370
     0
100
AcDb2dPolyline
 66
     1
 10
0.0
 20
0.0
 30
0.0
  0
VERTEX
  5
658
330
657
100
AcDbEntity
  8
Ebene 1
370
     0
100
AcDbVertex
100
AcDb2dVertex
 10
-96.0
 20
322.8671875
 30
0.0
  0
VERTEX
  5
659
330
657
100
AcDbEntity
  8
Ebene 1
370
     0
100
AcDbVertex
100
AcDb2dVertex
 10
-96.0
 20
322.8671875
 30
0.0
  0
SEQEND
  5
65A
330
657
100
AcDbEntity
  8
Ebene 1
370
     0
  0
POLYLINE
  5
65B
330
3C
100
AcDbEntity
  8
Ebene 1
370
     0
100
AcDb2dPolyline
 66
     1
 10
0.0
 20
0.0
 30
0.0
  0
VERTEX
  5
65C
330
65B
100
AcDbEntity
  8
Ebene 1
370
     0
100
AcDbVertex
100
AcDb2dVertex
 10
-96.0
 20
322.8671875
 30
0.0
  0
VERTEX
  5
65D
330
65B
100
AcDbEntity
  8
Ebene 1
370
     0
100
AcDbVertex
100
AcDb2dVertex
 10
-96.0
 20
322.8671875
 30
0.0
  0
SEQEND
  5
65E
330
65B
100
AcDbEntity
  8
Ebene 1
370
     0
  0
POLYLINE
  5
65F
330
3C
100
AcDbEntity
  8
Ebene 1
370
     0
100
AcDb2dPolyline
 66
     1
 10
0.0
 20
0.0
 30
0.0
  0
VERTEX
  5
660
330
65F
100
AcDbEntity
  8
Ebene 1
370
     0
100
AcDbVertex
100
AcDb2dVertex
 10
515.912109375
 20
578.0
 30
0.0
  0
VERTEX
  5
661
330
65F
100
AcDbEntity
  8
Ebene 1
370
     0
100
AcDbVertex
100
AcDb2dVertex
 10
509.337890625
 20
560.79443359375
 30
0.0
  0
SEQEND
  5
662
330
65F
100
AcDbEntity
  8
Ebene 1
370
     0
  0
POLYLINE
  5
663
330
3C
100
AcDbEntity
  8
Ebene 1
370
     0
100
AcDb2dPolyline
 66
     1
 10
0.0
 20
0.0
 30
0.0
  0
VERTEX
  5
664
330
663
100
AcDbEntity
  8
Ebene 1
370
     0
100
AcDbVertex
100
AcDb2dVertex
 10
506.7353515625
 20
578.0
 30
0.0
  0
VERTEX
  5
665
330
663
100
AcDbEntity
  8
Ebene 1
370
     0
100
AcDbVertex
100
AcDb2dVertex
 10
515.912109375
 20
578.0
 30
0.0
  0
SEQEND
  5
666
330
663
100
AcDbEntity
  8
Ebene 1
370
     0
  0
POLYLINE
  5
667
330
3C
100
AcDbEntity
  8
Ebene 1
370
     0
100
AcDb2dPolyline
 66
     1
 10
0.0
 20
0.0
 30
0.0
  0
VERTEX
  5
668
330
667
100
AcDbEntity
  8
Ebene 1
370
     0
100
AcDbVertex
100
AcDb2dVertex
 10
528.353515625
 20
572.2646484375
 30
0.0
  0
VERTEX
  5
669
330
667
100
AcDbEntity
  8
Ebene 1
370
     0
100
AcDbVertex
100
AcDb2dVertex
 10
527.69140625
 20
569.79443359375
 30
0.0
  0
VERTEX
  5
66A
330
667
100
AcDbEntity
  8
Ebene 1
370
     0
100
AcDbVertex
100
AcDb2dVertex
 10
526.3671875
 20
568.162109375
 30
0.0
  0
VERTEX
  5
66B
330
667
100
AcDbEntity
  8
Ebene 1
370
     0
100
AcDbVertex
100
AcDb2dVertex
 10
524.42578125
 20
567.32373046875
 30
0.0
  0
VERTEX
  5
66C
330
667
100
AcDbEntity
  8
Ebene 1
370
     0
100
AcDbVertex
100
AcDb2dVertex
 10
523.7646484375
 20
567.32373046875
 30
0.0
  0
VERTEX
  5
66D
330
667
100
AcDbEntity
  8
Ebene 1
370
     0
100
AcDbVertex
100
AcDb2dVertex
 10
521.779296875
 20
568.162109375
 30
0.0
  0
VERTEX
  5
66E
330
667
100
AcDbEntity
  8
Ebene 1
370
     0
100
AcDbVertex
100
AcDb2dVertex
 10
520.5
 20
569.79443359375
 30
0.0
  0
VERTEX
  5
66F
330
667
100
AcDbEntity
  8
Ebene 1
370
     0
100
AcDbVertex
100
AcDb2dVertex
 10
519.837890625
 20
572.2646484375
 30
0.0
  0
VERTEX
  5
670
330
667
100
AcDbEntity
  8
Ebene 1
370
     0
100
AcDbVertex
100
AcDb2dVertex
 10
519.837890625
 20
573.05908203125
 30
0.0
  0
VERTEX
  5
671
330
667
100
AcDbEntity
  8
Ebene 1
370
     0
100
AcDbVertex
100
AcDb2dVertex
 10
520.5
 20
575.52978515625
 30
0.0
  0
VERTEX
  5
672
330
667
100
AcDbEntity
  8
Ebene 1
370
     0
100
AcDbVertex
100
AcDb2dVertex
 10
521.779296875
 20
577.162109375
 30
0.0
  0
VERTEX
  5
673
330
667
100
AcDbEntity
  8
Ebene 1
370
     0
100
AcDbVertex
100
AcDb2dVertex
 10
523.7646484375
 20
578.0
 30
0.0
  0
VERTEX
  5
674
330
667
100
AcDbEntity
  8
Ebene 1
370
     0
100
AcDbVertex
100
AcDb2dVertex
 10
524.42578125
 20
578.0
 30
0.0
  0
VERTEX
  5
675
330
667
100
AcDbEntity
  8
Ebene 1
370
     0
100
AcDbVertex
100
AcDb2dVertex
 10
526.3671875
 20
577.162109375
 30
0.0
  0
VERTEX
  5
676
330
667
100
AcDbEntity
  8
Ebene 1
370
     0
100
AcDbVertex
100
AcDb2dVertex
 10
527.69140625
 20
575.52978515625
 30
0.0
  0
VERTEX
  5
677
330
667
100
AcDbEntity
  8
Ebene 1
370
     0
100
AcDbVertex
100
AcDb2dVertex
 10
528.353515625
 20
572.2646484375
 30
0.0
  0
VERTEX
  5
678
330
667
100
AcDbEntity
  8
Ebene 1
370
     0
100
AcDbVertex
100
AcDb2dVertex
 10
528.353515625
 20
568.162109375
 30
0.0
  0
VERTEX
  5
679
330
667
100
AcDbEntity
  8
Ebene 1
370
     0
100
AcDbVertex
100
AcDb2dVertex
 10
527.69140625
 20
564.05908203125
 30
0.0
  0
VERTEX
  5
67A
330
667
100
AcDbEntity
  8
Ebene 1
370
     0
100
AcDbVertex
100
AcDb2dVertex
 10
526.3671875
 20
561.58837890625
 30
0.0
  0
VERTEX
  5
67B
330
667
100
AcDbEntity
  8
Ebene 1
370
     0
100
AcDbVertex
100
AcDb2dVertex
 10
524.42578125
 20
560.79443359375
 30
0.0
  0
VERTEX
  5
67C
330
667
100
AcDbEntity
  8
Ebene 1
370
     0
100
AcDbVertex
100
AcDb2dVertex
 10
523.103515625
 20
560.79443359375
 30
0.0
  0
VERTEX
  5
67D
330
667
100
AcDbEntity
  8
Ebene 1
370
     0
100
AcDbVertex
100
AcDb2dVertex
 10
521.162109375
 20
561.58837890625
 30
0.0
  0
VERTEX
  5
67E
330
667
100
AcDbEntity
  8
Ebene 1
370
     0
100
AcDbVertex
100
AcDb2dVertex
 10
520.5
 20
563.2646484375
 30
0.0
  0
SEQEND
  5
67F
330
667
100
AcDbEntity
  8
Ebene 1
370
     0
  0
POLYLINE
  5
680
330
3C
100
AcDbEntity
  8
Ebene 1
370
     0
100
AcDb2dPolyline
 66
     1
 10
0.0
 20
0.0
 30
0.0
  0
VERTEX
  5
681
330
680
100
AcDbEntity
  8
Ebene 1
370
     0
100
AcDbVertex
100
AcDb2dVertex
 10
630.662109375
 20
347.220703125
 30
0.0
  0
VERTEX
  5
682
330
680
100
AcDbEntity
  8
Ebene 1
370
     0
100
AcDbVertex
100
AcDb2dVertex
 10
706.896484375
 20
347.220703125
 30
0.0
  0
SEQEND
  5
683
330
680
100
AcDbEntity
  8
Ebene 1
370
     0
  0
POLYLINE
  5
684
330
3C
100
AcDbEntity
  8
Ebene 1
370
     0
100
AcDb2dPolyline
 66
     1
 10
0.0
 20
0.0
 30
0.0
  0
VERTEX
  5
685
330
684
100
AcDbEntity
  8
Ebene 1
370
     0
100
AcDbVertex
100
AcDb2dVertex
 10
652.853515625
 20
431.92626953125
 30
0.0
  0
VERTEX
  5
686
330
684
100
AcDbEntity
  8
Ebene 1
370
     0
100
AcDbVertex
100
AcDb2dVertex
 10
706.896484375
 20
431.92626953125
 30
0.0
  0
SEQEND
  5
687
330
684
100
AcDbEntity
  8
Ebene 1
370
     0
  0
POLYLINE
  5
688
330
3C
100
AcDbEntity
  8
Ebene 1
370
     0
100
AcDb2dPolyline
 66
     1
 10
0.0
 20
0.0
 30
0.0
  0
VERTEX
  5
689
330
688
100
AcDbEntity
  8
Ebene 1
370
     0
100
AcDbVertex
100
AcDb2dVertex
 10
695.42578125
 20
361.55859375
 30
0.0
  0
VERTEX
  5
68A
330
688
100
AcDbEntity
  8
Ebene 1
370
     0
100
AcDbVertex
100
AcDb2dVertex
 10
695.42578125
 20
417.54443359375
 30
0.0
  0
SEQEND
  5
68B
330
688
100
AcDbEntity
  8
Ebene 1
370
     0
  0
POLYLINE
  5
68C
330
3C
100
AcDbEntity
  8
Ebene 1
370
     0
100
AcDb2dPolyline
 66
     1
 10
0.0
 20
0.0
 30
0.0
  0
VERTEX
  5
68D
330
68C
100
AcDbEntity
  8
Ebene 1
370
     0
100
AcDbVertex
100
AcDb2dVertex
 10
693.044921875
 20
361.55859375
 30
0.0
  0
VERTEX
  5
68E
330
68C
100
AcDbEntity
  8
Ebene 1
370
     0
100
AcDbVertex
100
AcDb2dVertex
 10
697.853515625
 20
361.55859375
 30
0.0
  0
VERTEX
  5
68F
330
68C
100
AcDbEntity
  8
Ebene 1
370
     0
100
AcDbVertex
100
AcDb2dVertex
 10
695.42578125
 20
347.220703125
 30
0.0
  0
VERTEX
  5
690
330
68C
100
AcDbEntity
  8
Ebene 1
370
     0
100
AcDbVertex
100
AcDb2dVertex
 10
693.044921875
 20
361.55859375
 30
0.0
  0
SEQEND
  5
691
330
68C
100
AcDbEntity
  8
Ebene 1
370
     0
  0
HATCH
  5
692
330
3C
100
AcDbEntity
  8
Ebene 1
 62
   251
420
  6710886
100
AcDbHatch
 10
0.0
 20
0.0
 30
0.0
210
0.0
220
0.0
230
1.0
  2
SOLID
 70
     1
 71
     0
 91
        1
 92
        1
 93
        3
 72
     1
 10
693.044921875
 20
361.55859375
 11
697.853515625
 21
361.55859375
 72
     1
 10
697.853515625
 20
361.55859375
 11
695.42578125
 21
347.220703125
 72
     1
 10
695.42578125
 20
347.220703125
 11
693.044921875
 21
361.55859375
 97
        0
 75
     0
 76
     1
 98
        0
  0
POLYLINE
  5
693
330
3C
100
AcDbEntity
  8
Ebene 1
370
     0
100
AcDb2dPolyline
 66
     1
 10
0.0
 20
0.0
 30
0.0
  0
VERTEX
  5
694
330
693
100
AcDbEntity
  8
Ebene 1
370
     0
100
AcDbVertex
100
AcDb2dVertex
 10
693.044921875
 20
417.54443359375
 30
0.0
  0
VERTEX
  5
695
330
693
100
AcDbEntity
  8
Ebene 1
370
     0
100
AcDbVertex
100
AcDb2dVertex
 10
697.853515625
 20
417.54443359375
 30
0.0
  0
VERTEX
  5
696
330
693
100
AcDbEntity
  8
Ebene 1
370
     0
100
AcDbVertex
100
AcDb2dVertex
 10
695.42578125
 20
431.92626953125
 30
0.0
  0
VERTEX
  5
697
330
693
100
AcDbEntity
  8
Ebene 1
370
     0
100
AcDbVertex
100
AcDb2dVertex
 10
693.044921875
 20
417.54443359375
 30
0.0
  0
SEQEND
  5
698
330
693
100
AcDbEntity
  8
Ebene 1
370
     0
  0
HATCH
  5
699
330
3C
100
AcDbEntity
  8
Ebene 1
 62
   251
420
  6710886
100
AcDbHatch
 10
0.0
 20
0.0
 30
0.0
210
0.0
220
0.0
230
1.0
  2
SOLID
 70
     1
 71
     0
 91
        1
 92
        1
 93
        3
 72
     1
 10
693.044921875
 20
417.54443359375
 11
697.853515625
 21
417.54443359375
 72
     1
 10
697.853515625
 20
417.54443359375
 11
695.42578125
 21
431.92626953125
 72
     1
 10
695.42578125
 20
431.92626953125
 11
693.044921875
 21
417.54443359375
 97
        0
 75
     0
 76
     1
 98
        0
  0
POLYLINE
  5
69A
330
3C
100
AcDbEntity
  8
Ebene 1
370
     0
100
AcDb2dPolyline
 66
     1
 10
0.0
 20
0.0
 30
0.0
  0
VERTEX
  5
69B
330
69A
100
AcDbEntity
  8
Ebene 1
370
     0
100
AcDbVertex
100
AcDb2dVertex
 10
676.6328125
 20
369.236328125
 30
0.0
  0
VERTEX
  5
69C
330
69A
100
AcDbEntity
  8
Ebene 1
370
     0
100
AcDbVertex
100
AcDb2dVertex
 10
675.794921875
 20
369.236328125
 30
0.0
  0
VERTEX
  5
69D
330
69A
100
AcDbEntity
  8
Ebene 1
370
     0
100
AcDbVertex
100
AcDb2dVertex
 10
674.162109375
 20
369.896484375
 30
0.0
  0
VERTEX
  5
69E
330
69A
100
AcDbEntity
  8
Ebene 1
370
     0
100
AcDbVertex
100
AcDb2dVertex
 10
673.32421875
 20
370.55859375
 30
0.0
  0
VERTEX
  5
69F
330
69A
100
AcDbEntity
  8
Ebene 1
370
     0
100
AcDbVertex
100
AcDb2dVertex
 10
672.529296875
 20
371.837890625
 30
0.0
  0
VERTEX
  5
6A0
330
69A
100
AcDbEntity
  8
Ebene 1
370
     0
100
AcDbVertex
100
AcDb2dVertex
 10
672.529296875
 20
374.486328125
 30
0.0
  0
VERTEX
  5
6A1
330
69A
100
AcDbEntity
  8
Ebene 1
370
     0
100
AcDbVertex
100
AcDb2dVertex
 10
673.32421875
 20
375.80859375
 30
0.0
  0
VERTEX
  5
6A2
330
69A
100
AcDbEntity
  8
Ebene 1
370
     0
100
AcDbVertex
100
AcDb2dVertex
 10
674.162109375
 20
376.42578125
 30
0.0
  0
VERTEX
  5
6A3
330
69A
100
AcDbEntity
  8
Ebene 1
370
     0
100
AcDbVertex
100
AcDb2dVertex
 10
675.794921875
 20
377.087890625
 30
0.0
  0
VERTEX
  5
6A4
330
69A
100
AcDbEntity
  8
Ebene 1
370
     0
100
AcDbVertex
100
AcDb2dVertex
 10
677.42578125
 20
377.087890625
 30
0.0
  0
VERTEX
  5
6A5
330
69A
100
AcDbEntity
  8
Ebene 1
370
     0
100
AcDbVertex
100
AcDb2dVertex
 10
679.05859375
 20
376.42578125
 30
0.0
  0
VERTEX
  5
6A6
330
69A
100
AcDbEntity
  8
Ebene 1
370
     0
100
AcDbVertex
100
AcDb2dVertex
 10
681.529296875
 20
375.146484375
 30
0.0
  0
VERTEX
  5
6A7
330
69A
100
AcDbEntity
  8
Ebene 1
370
     0
100
AcDbVertex
100
AcDb2dVertex
 10
689.734375
 20
368.57421875
 30
0.0
  0
VERTEX
  5
6A8
330
69A
100
AcDbEntity
  8
Ebene 1
370
     0
100
AcDbVertex
100
AcDb2dVertex
 10
689.734375
 20
377.75
 30
0.0
  0
SEQEND
  5
6A9
330
69A
100
AcDbEntity
  8
Ebene 1
370
     0
  0
POLYLINE
  5
6AA
330
3C
100
AcDbEntity
  8
Ebene 1
370
     0
100
AcDb2dPolyline
 66
     1
 10
0.0
 20
0.0
 30
0.0
  0
VERTEX
  5
6AB
330
6AA
100
AcDbEntity
  8
Ebene 1
370
     0
100
AcDbVertex
100
AcDb2dVertex
 10
678.265625
 20
390.19140625
 30
0.0
  0
VERTEX
  5
6AC
330
6AA
100
AcDbEntity
  8
Ebene 1
370
     0
100
AcDbVertex
100
AcDb2dVertex
 10
680.69140625
 20
389.57421875
 30
0.0
  0
VERTEX
  5
6AD
330
6AA
100
AcDbEntity
  8
Ebene 1
370
     0
100
AcDbVertex
100
AcDb2dVertex
 10
682.32421875
 20
388.25
 30
0.0
  0
VERTEX
  5
6AE
330
6AA
100
AcDbEntity
  8
Ebene 1
370
     0
100
AcDbVertex
100
AcDb2dVertex
 10
683.162109375
 20
386.265625
 30
0.0
  0
VERTEX
  5
6AF
330
6AA
100
AcDbEntity
  8
Ebene 1
370
     0
100
AcDbVertex
100
AcDb2dVertex
 10
683.162109375
 20
385.603515625
 30
0.0
  0
VERTEX
  5
6B0
330
6AA
100
AcDbEntity
  8
Ebene 1
370
     0
100
AcDbVertex
100
AcDb2dVertex
 10
682.32421875
 20
383.662109375
 30
0.0
  0
VERTEX
  5
6B1
330
6AA
100
AcDbEntity
  8
Ebene 1
370
     0
100
AcDbVertex
100
AcDb2dVertex
 10
680.69140625
 20
382.337890625
 30
0.0
  0
VERTEX
  5
6B2
330
6AA
100
AcDbEntity
  8
Ebene 1
370
     0
100
AcDbVertex
100
AcDb2dVertex
 10
678.265625
 20
381.67578125
 30
0.0
  0
VERTEX
  5
6B3
330
6AA
100
AcDbEntity
  8
Ebene 1
370
     0
100
AcDbVertex
100
AcDb2dVertex
 10
677.42578125
 20
381.67578125
 30
0.0
  0
VERTEX
  5
6B4
330
6AA
100
AcDbEntity
  8
Ebene 1
370
     0
100
AcDbVertex
100
AcDb2dVertex
 10
674.955078125
 20
382.337890625
 30
0.0
  0
VERTEX
  5
6B5
330
6AA
100
AcDbEntity
  8
Ebene 1
370
     0
100
AcDbVertex
100
AcDb2dVertex
 10
673.32421875
 20
383.662109375
 30
0.0
  0
VERTEX
  5
6B6
330
6AA
100
AcDbEntity
  8
Ebene 1
370
     0
100
AcDbVertex
100
AcDb2dVertex
 10
672.529296875
 20
385.603515625
 30
0.0
  0
VERTEX
  5
6B7
330
6AA
100
AcDbEntity
  8
Ebene 1
370
     0
100
AcDbVertex
100
AcDb2dVertex
 10
672.529296875
 20
386.265625
 30
0.0
  0
VERTEX
  5
6B8
330
6AA
100
AcDbEntity
  8
Ebene 1
370
     0
100
AcDbVertex
100
AcDb2dVertex
 10
673.32421875
 20
388.25
 30
0.0
  0
VERTEX
  5
6B9
330
6AA
100
AcDbEntity
  8
Ebene 1
370
     0
100
AcDbVertex
100
AcDb2dVertex
 10
674.955078125
 20
389.57421875
 30
0.0
  0
VERTEX
  5
6BA
330
6AA
100
AcDbEntity
  8
Ebene 1
370
     0
100
AcDbVertex
100
AcDb2dVertex
 10
678.265625
 20
390.19140625
 30
0.0
  0
VERTEX
  5
6BB
330
6AA
100
AcDbEntity
  8
Ebene 1
370
     0
100
AcDbVertex
100
AcDb2dVertex
 10
682.32421875
 20
390.19140625
 30
0.0
  0
VERTEX
  5
6BC
330
6AA
100
AcDbEntity
  8
Ebene 1
370
     0
100
AcDbVertex
100
AcDb2dVertex
 10
686.42578125
 20
389.57421875
 30
0.0
  0
VERTEX
  5
6BD
330
6AA
100
AcDbEntity
  8
Ebene 1
370
     0
100
AcDbVertex
100
AcDb2dVertex
 10
688.896484375
 20
388.25
 30
0.0
  0
VERTEX
  5
6BE
330
6AA
100
AcDbEntity
  8
Ebene 1
370
     0
100
AcDbVertex
100
AcDb2dVertex
 10
689.734375
 20
386.265625
 30
0.0
  0
VERTEX
  5
6BF
330
6AA
100
AcDbEntity
  8
Ebene 1
370
     0
100
AcDbVertex
100
AcDb2dVertex
 10
689.734375
 20
384.986328125
 30
0.0
  0
VERTEX
  5
6C0
330
6AA
100
AcDbEntity
  8
Ebene 1
370
     0
100
AcDbVertex
100
AcDb2dVertex
 10
688.896484375
 20
383.0
 30
0.0
  0
VERTEX
  5
6C1
330
6AA
100
AcDbEntity
  8
Ebene 1
370
     0
100
AcDbVertex
100
AcDb2dVertex
 10
687.265625
 20
382.337890625
 30
0.0
  0
SEQEND
  5
6C2
330
6AA
100
AcDbEntity
  8
Ebene 1
370
     0
  0
POLYLINE
  5
6C3
330
3C
100
AcDbEntity
  8
Ebene 1
370
     0
100
AcDb2dPolyline
 66
     1
 10
0.0
 20
0.0
 30
0.0
  0
VERTEX
  5
6C4
330
6C3
100
AcDbEntity
  8
Ebene 1
370
     0
100
AcDbVertex
100
AcDb2dVertex
 10
688.05859375
 20
396.10302734375
 30
0.0
  0
VERTEX
  5
6C5
330
6C3
100
AcDbEntity
  8
Ebene 1
370
     0
100
AcDbVertex
100
AcDb2dVertex
 10
688.896484375
 20
395.44140625
 30
0.0
  0
VERTEX
  5
6C6
330
6C3
100
AcDbEntity
  8
Ebene 1
370
     0
100
AcDbVertex
100
AcDb2dVertex
 10
689.734375
 20
396.10302734375
 30
0.0
  0
VERTEX
  5
6C7
330
6C3
100
AcDbEntity
  8
Ebene 1
370
     0
100
AcDbVertex
100
AcDb2dVertex
 10
688.896484375
 20
396.76513671875
 30
0.0
  0
VERTEX
  5
6C8
330
6C3
100
AcDbEntity
  8
Ebene 1
370
     0
100
AcDbVertex
100
AcDb2dVertex
 10
688.05859375
 20
396.10302734375
 30
0.0
  0
VERTEX
  5
6C9
330
6C3
100
AcDbEntity
  8
Ebene 1
370
     0
100
AcDbVertex
100
AcDb2dVertex
 10
688.05859375
 20
396.10302734375
 30
0.0
  0
SEQEND
  5
6CA
330
6C3
100
AcDbEntity
  8
Ebene 1
370
     0
  0
POLYLINE
  5
6CB
330
3C
100
AcDbEntity
  8
Ebene 1
370
     0
100
AcDb2dPolyline
 66
     1
 10
0.0
 20
0.0
 30
0.0
  0
VERTEX
  5
6CC
330
6CB
100
AcDbEntity
  8
Ebene 1
370
     0
100
AcDbVertex
100
AcDb2dVertex
 10
-96.0
 20
322.8671875
 30
0.0
  0
VERTEX
  5
6CD
330
6CB
100
AcDbEntity
  8
Ebene 1
370
     0
100
AcDbVertex
100
AcDb2dVertex
 10
-96.0
 20
322.8671875
 30
0.0
  0
SEQEND
  5
6CE
330
6CB
100
AcDbEntity
  8
Ebene 1
370
     0
  0
POLYLINE
  5
6CF
330
3C
100
AcDbEntity
  8
Ebene 1
370
     0
100
AcDb2dPolyline
 66
     1
 10
0.0
 20
0.0
 30
0.0
  0
VERTEX
  5
6D0
330
6CF
100
AcDbEntity
  8
Ebene 1
370
     0
100
AcDbVertex
100
AcDb2dVertex
 10
-96.0
 20
322.8671875
 30
0.0
  0
VERTEX
  5
6D1
330
6CF
100
AcDbEntity
  8
Ebene 1
370
     0
100
AcDbVertex
100
AcDb2dVertex
 10
-96.0
 20
322.8671875
 30
0.0
  0
SEQEND
  5
6D2
330
6CF
100
AcDbEntity
  8
Ebene 1
370
     0
  0
POLYLINE
  5
6D3
330
3C
100
AcDbEntity
  8
Ebene 1
370
     0
100
AcDb2dPolyline
 66
     1
 10
0.0
 20
0.0
 30
0.0
  0
VERTEX
  5
6D4
330
6D3
100
AcDbEntity
  8
Ebene 1
370
     0
100
AcDbVertex
100
AcDb2dVertex
 10
-96.0
 20
322.8671875
 30
0.0
  0
VERTEX
  5
6D5
330
6D3
100
AcDbEntity
  8
Ebene 1
370
     0
100
AcDbVertex
100
AcDb2dVertex
 10
-96.0
 20
322.8671875
 30
0.0
  0
SEQEND
  5
6D6
330
6D3
100
AcDbEntity
  8
Ebene 1
370
     0
  0
POLYLINE
  5
6D7
330
3C
100
AcDbEntity
  8
Ebene 1
370
     0
100
AcDb2dPolyline
 66
     1
 10
0.0
 20
0.0
 30
0.0
  0
VERTEX
  5
6D8
330
6D7
100
AcDbEntity
  8
Ebene 1
370
     0
100
AcDbVertex
100
AcDb2dVertex
 10
672.529296875
 20
409.20556640625
 30
0.0
  0
VERTEX
  5
6D9
330
6D7
100
AcDbEntity
  8
Ebene 1
370
     0
100
AcDbVertex
100
AcDb2dVertex
 10
672.529296875
 20
402.67626953125
 30
0.0
  0
VERTEX
  5
6DA
330
6D7
100
AcDbEntity
  8
Ebene 1
370
     0
100
AcDbVertex
100
AcDb2dVertex
 10
679.896484375
 20
402.01513671875
 30
0.0
  0
VERTEX
  5
6DB
330
6D7
100
AcDbEntity
  8
Ebene 1
370
     0
100
AcDbVertex
100
AcDb2dVertex
 10
679.05859375
 20
402.67626953125
 30
0.0
  0
VERTEX
  5
6DC
330
6D7
100
AcDbEntity
  8
Ebene 1
370
     0
100
AcDbVertex
100
AcDb2dVertex
 10
678.265625
 20
404.61767578125
 30
0.0
  0
VERTEX
  5
6DD
330
6D7
100
AcDbEntity
  8
Ebene 1
370
     0
100
AcDbVertex
100
AcDb2dVertex
 10
678.265625
 20
406.60302734375
 30
0.0
  0
VERTEX
  5
6DE
330
6D7
100
AcDbEntity
  8
Ebene 1
370
     0
100
AcDbVertex
100
AcDb2dVertex
 10
679.05859375
 20
408.58837890625
 30
0.0
  0
VERTEX
  5
6DF
330
6D7
100
AcDbEntity
  8
Ebene 1
370
     0
100
AcDbVertex
100
AcDb2dVertex
 10
680.69140625
 20
409.86767578125
 30
0.0
  0
VERTEX
  5
6E0
330
6D7
100
AcDbEntity
  8
Ebene 1
370
     0
100
AcDbVertex
100
AcDb2dVertex
 10
683.162109375
 20
410.52978515625
 30
0.0
  0
VERTEX
  5
6E1
330
6D7
100
AcDbEntity
  8
Ebene 1
370
     0
100
AcDbVertex
100
AcDb2dVertex
 10
684.794921875
 20
410.52978515625
 30
0.0
  0
VERTEX
  5
6E2
330
6D7
100
AcDbEntity
  8
Ebene 1
370
     0
100
AcDbVertex
100
AcDb2dVertex
 10
687.265625
 20
409.86767578125
 30
0.0
  0
VERTEX
  5
6E3
330
6D7
100
AcDbEntity
  8
Ebene 1
370
     0
100
AcDbVertex
100
AcDb2dVertex
 10
688.896484375
 20
408.58837890625
 30
0.0
  0
VERTEX
  5
6E4
330
6D7
100
AcDbEntity
  8
Ebene 1
370
     0
100
AcDbVertex
100
AcDb2dVertex
 10
689.734375
 20
406.60302734375
 30
0.0
  0
VERTEX
  5
6E5
330
6D7
100
AcDbEntity
  8
Ebene 1
370
     0
100
AcDbVertex
100
AcDb2dVertex
 10
689.734375
 20
404.61767578125
 30
0.0
  0
VERTEX
  5
6E6
330
6D7
100
AcDbEntity
  8
Ebene 1
370
     0
100
AcDbVertex
100
AcDb2dVertex
 10
688.896484375
 20
402.67626953125
 30
0.0
  0
VERTEX
  5
6E7
330
6D7
100
AcDbEntity
  8
Ebene 1
370
     0
100
AcDbVertex
100
AcDb2dVertex
 10
688.05859375
 20
402.01513671875
 30
0.0
  0
VERTEX
  5
6E8
330
6D7
100
AcDbEntity
  8
Ebene 1
370
     0
100
AcDbVertex
100
AcDb2dVertex
 10
686.42578125
 20
401.35302734375
 30
0.0
  0
SEQEND
  5
6E9
330
6D7
100
AcDbEntity
  8
Ebene 1
370
     0
  0
POLYLINE
  5
6EA
330
3C
100
AcDbEntity
  8
Ebene 1
370
     0
100
AcDb2dPolyline
 66
     1
 10
0.0
 20
0.0
 30
0.0
  0
VERTEX
  5
6EB
330
6EA
100
AcDbEntity
  8
Ebene 1
370
     0
100
AcDbVertex
100
AcDb2dVertex
 10
630.662109375
 20
347.220703125
 30
0.0
  0
VERTEX
  5
6EC
330
6EA
100
AcDbEntity
  8
Ebene 1
370
     0
100
AcDbVertex
100
AcDb2dVertex
 10
706.853515625
 20
347.220703125
 30
0.0
  0
SEQEND
  5
6ED
330
6EA
100
AcDbEntity
  8
Ebene 1
370
     0
  0
POLYLINE
  5
6EE
330
3C
100
AcDbEntity
  8
Ebene 1
370
     0
100
AcDb2dPolyline
 66
     1
 10
0.0
 20
0.0
 30
0.0
  0
VERTEX
  5
6EF
330
6EE
100
AcDbEntity
  8
Ebene 1
370
     0
100
AcDbVertex
100
AcDb2dVertex
 10
628.412109375
 20
304.162109375
 30
0.0
  0
VERTEX
  5
6F0
330
6EE
100
AcDbEntity
  8
Ebene 1
370
     0
100
AcDbVertex
100
AcDb2dVertex
 10
706.853515625
 20
304.162109375
 30
0.0
  0
SEQEND
  5
6F1
330
6EE
100
AcDbEntity
  8
Ebene 1
370
     0
  0
POLYLINE
  5
6F2
330
3C
100
AcDbEntity
  8
Ebene 1
370
     0
100
AcDb2dPolyline
 66
     1
 10
0.0
 20
0.0
 30
0.0
  0
VERTEX
  5
6F3
330
6F2
100
AcDbEntity
  8
Ebene 1
370
     0
100
AcDbVertex
100
AcDb2dVertex
 10
695.3828125
 20
332.8828125
 30
0.0
  0
VERTEX
  5
6F4
330
6F2
100
AcDbEntity
  8
Ebene 1
370
     0
100
AcDbVertex
100
AcDb2dVertex
 10
695.3828125
 20
318.544921875
 30
0.0
  0
SEQEND
  5
6F5
330
6F2
100
AcDbEntity
  8
Ebene 1
370
     0
  0
POLYLINE
  5
6F6
330
3C
100
AcDbEntity
  8
Ebene 1
370
     0
100
AcDb2dPolyline
 66
     1
 10
0.0
 20
0.0
 30
0.0
  0
VERTEX
  5
6F7
330
6F6
100
AcDbEntity
  8
Ebene 1
370
     0
100
AcDbVertex
100
AcDb2dVertex
 10
693.0
 20
332.8828125
 30
0.0
  0
VERTEX
  5
6F8
330
6F6
100
AcDbEntity
  8
Ebene 1
370
     0
100
AcDbVertex
100
AcDb2dVertex
 10
697.765625
 20
332.8828125
 30
0.0
  0
VERTEX
  5
6F9
330
6F6
100
AcDbEntity
  8
Ebene 1
370
     0
100
AcDbVertex
100
AcDb2dVertex
 10
695.3828125
 20
347.220703125
 30
0.0
  0
VERTEX
  5
6FA
330
6F6
100
AcDbEntity
  8
Ebene 1
370
     0
100
AcDbVertex
100
AcDb2dVertex
 10
693.0
 20
332.8828125
 30
0.0
  0
SEQEND
  5
6FB
330
6F6
100
AcDbEntity
  8
Ebene 1
370
     0
  0
HATCH
  5
6FC
330
3C
100
AcDbEntity
  8
Ebene 1
 62
   251
420
  6710886
100
AcDbHatch
 10
0.0
 20
0.0
 30
0.0
210
0.0
220
0.0
230
1.0
  2
SOLID
 70
     1
 71
     0
 91
        1
 92
        1
 93
        3
 72
     1
 10
693.0
 20
332.8828125
 11
697.765625
 21
332.8828125
 72
     1
 10
697.765625
 20
332.8828125
 11
695.3828125
 21
347.220703125
 72
     1
 10
695.3828125
 20
347.220703125
 11
693.0
 21
332.8828125
 97
        0
 75
     0
 76
     1
 98
        0
  0
POLYLINE
  5
6FD
330
3C
100
AcDbEntity
  8
Ebene 1
370
     0
100
AcDb2dPolyline
 66
     1
 10
0.0
 20
0.0
 30
0.0
  0
VERTEX
  5
6FE
330
6FD
100
AcDbEntity
  8
Ebene 1
370
     0
100
AcDbVertex
100
AcDb2dVertex
 10
693.0
 20
318.544921875
 30
0.0
  0
VERTEX
  5
6FF
330
6FD
100
AcDbEntity
  8
Ebene 1
370
     0
100
AcDbVertex
100
AcDb2dVertex
 10
697.765625
 20
318.544921875
 30
0.0
  0
VERTEX
  5
700
330
6FD
100
AcDbEntity
  8
Ebene 1
370
     0
100
AcDbVertex
100
AcDb2dVertex
 10
695.3828125
 20
304.162109375
 30
0.0
  0
VERTEX
  5
701
330
6FD
100
AcDbEntity
  8
Ebene 1
370
     0
100
AcDbVertex
100
AcDb2dVertex
 10
693.0
 20
318.544921875
 30
0.0
  0
SEQEND
  5
702
330
6FD
100
AcDbEntity
  8
Ebene 1
370
     0
  0
HATCH
  5
703
330
3C
100
AcDbEntity
  8
Ebene 1
 62
   251
420
  6710886
100
AcDbHatch
 10
0.0
 20
0.0
 30
0.0
210
0.0
220
0.0
230
1.0
  2
SOLID
 70
     1
 71
     0
 91
        1
 92
        1
 93
        3
 72
     1
 10
693.0
 20
318.544921875
 11
697.765625
 21
318.544921875
 72
     1
 10
697.765625
 20
318.544921875
 11
695.3828125
 21
304.162109375
 72
     1
 10
695.3828125
 20
304.162109375
 11
693.0
 21
318.544921875
 97
        0
 75
     0
 76
     1
 98
        0
  0
POLYLINE
  5
704
330
3C
100
AcDbEntity
  8
Ebene 1
370
     0
100
AcDb2dPolyline
 66
     1
 10
0.0
 20
0.0
 30
0.0
  0
VERTEX
  5
705
330
704
100
AcDbEntity
  8
Ebene 1
370
     0
100
AcDbVertex
100
AcDb2dVertex
 10
-96.0
 20
322.8671875
 30
0.0
  0
VERTEX
  5
706
330
704
100
AcDbEntity
  8
Ebene 1
370
     0
100
AcDbVertex
100
AcDb2dVertex
 10
-96.0
 20
322.8671875
 30
0.0
  0
SEQEND
  5
707
330
704
100
AcDbEntity
  8
Ebene 1
370
     0
  0
POLYLINE
  5
708
330
3C
100
AcDbEntity
  8
Ebene 1
370
     0
100
AcDb2dPolyline
 66
     1
 10
0.0
 20
0.0
 30
0.0
  0
VERTEX
  5
709
330
708
100
AcDbEntity
  8
Ebene 1
370
     0
100
AcDbVertex
100
AcDb2dVertex
 10
-96.0
 20
322.8671875
 30
0.0
  0
VERTEX
  5
70A
330
708
100
AcDbEntity
  8
Ebene 1
370
     0
100
AcDbVertex
100
AcDb2dVertex
 10
-96.0
 20
322.8671875
 30
0.0
  0
SEQEND
  5
70B
330
708
100
AcDbEntity
  8
Ebene 1
370
     0
  0
POLYLINE
  5
70C
330
3C
100
AcDbEntity
  8
Ebene 1
370
     0
100
AcDb2dPolyline
 66
     1
 10
0.0
 20
0.0
 30
0.0
  0
VERTEX
  5
70D
330
70C
100
AcDbEntity
  8
Ebene 1
370
     0
100
AcDbVertex
100
AcDb2dVertex
 10
-96.0
 20
322.8671875
 30
0.0
  0
VERTEX
  5
70E
330
70C
100
AcDbEntity
  8
Ebene 1
370
     0
100
AcDbVertex
100
AcDb2dVertex
 10
-96.0
 20
322.8671875
 30
0.0
  0
SEQEND
  5
70F
330
70C
100
AcDbEntity
  8
Ebene 1
370
     0
  0
POLYLINE
  5
710
330
3C
100
AcDbEntity
  8
Ebene 1
370
     0
100
AcDb2dPolyline
 66
     1
 10
0.0
 20
0.0
 30
0.0
  0
VERTEX
  5
711
330
710
100
AcDbEntity
  8
Ebene 1
370
     0
100
AcDbVertex
100
AcDb2dVertex
 10
675.75
 20
315.544921875
 30
0.0
  0
VERTEX
  5
712
330
710
100
AcDbEntity
  8
Ebene 1
370
     0
100
AcDbVertex
100
AcDb2dVertex
 10
674.912109375
 20
316.82421875
 30
0.0
  0
VERTEX
  5
713
330
710
100
AcDbEntity
  8
Ebene 1
370
     0
100
AcDbVertex
100
AcDb2dVertex
 10
672.44140625
 20
318.80859375
 30
0.0
  0
VERTEX
  5
714
330
710
100
AcDbEntity
  8
Ebene 1
370
     0
100
AcDbVertex
100
AcDb2dVertex
 10
689.646484375
 20
318.80859375
 30
0.0
  0
SEQEND
  5
715
330
710
100
AcDbEntity
  8
Ebene 1
370
     0
  0
POLYLINE
  5
716
330
3C
100
AcDbEntity
  8
Ebene 1
370
     0
100
AcDb2dPolyline
 66
     1
 10
0.0
 20
0.0
 30
0.0
  0
VERTEX
  5
717
330
716
100
AcDbEntity
  8
Ebene 1
370
     0
100
AcDbVertex
100
AcDb2dVertex
 10
672.44140625
 20
334.55859375
 30
0.0
  0
VERTEX
  5
718
330
716
100
AcDbEntity
  8
Ebene 1
370
     0
100
AcDbVertex
100
AcDb2dVertex
 10
672.44140625
 20
327.986328125
 30
0.0
  0
VERTEX
  5
719
330
716
100
AcDbEntity
  8
Ebene 1
370
     0
100
AcDbVertex
100
AcDb2dVertex
 10
679.853515625
 20
327.32421875
 30
0.0
  0
VERTEX
  5
71A
330
716
100
AcDbEntity
  8
Ebene 1
370
     0
100
AcDbVertex
100
AcDb2dVertex
 10
679.015625
 20
327.986328125
 30
0.0
  0
VERTEX
  5
71B
330
716
100
AcDbEntity
  8
Ebene 1
370
     0
100
AcDbVertex
100
AcDb2dVertex
 10
678.17578125
 20
329.970703125
 30
0.0
  0
VERTEX
  5
71C
330
716
100
AcDbEntity
  8
Ebene 1
370
     0
100
AcDbVertex
100
AcDb2dVertex
 10
678.17578125
 20
331.912109375
 30
0.0
  0
VERTEX
  5
71D
330
716
100
AcDbEntity
  8
Ebene 1
370
     0
100
AcDbVertex
100
AcDb2dVertex
 10
679.015625
 20
333.896484375
 30
0.0
  0
VERTEX
  5
71E
330
716
100
AcDbEntity
  8
Ebene 1
370
     0
100
AcDbVertex
100
AcDb2dVertex
 10
680.646484375
 20
335.220703125
 30
0.0
  0
VERTEX
  5
71F
330
716
100
AcDbEntity
  8
Ebene 1
370
     0
100
AcDbVertex
100
AcDb2dVertex
 10
683.1171875
 20
335.837890625
 30
0.0
  0
VERTEX
  5
720
330
716
100
AcDbEntity
  8
Ebene 1
370
     0
100
AcDbVertex
100
AcDb2dVertex
 10
684.75
 20
335.837890625
 30
0.0
  0
VERTEX
  5
721
330
716
100
AcDbEntity
  8
Ebene 1
370
     0
100
AcDbVertex
100
AcDb2dVertex
 10
687.220703125
 20
335.220703125
 30
0.0
  0
VERTEX
  5
722
330
716
100
AcDbEntity
  8
Ebene 1
370
     0
100
AcDbVertex
100
AcDb2dVertex
 10
688.853515625
 20
333.896484375
 30
0.0
  0
VERTEX
  5
723
330
716
100
AcDbEntity
  8
Ebene 1
370
     0
100
AcDbVertex
100
AcDb2dVertex
 10
689.646484375
 20
331.912109375
 30
0.0
  0
VERTEX
  5
724
330
716
100
AcDbEntity
  8
Ebene 1
370
     0
100
AcDbVertex
100
AcDb2dVertex
 10
689.646484375
 20
329.970703125
 30
0.0
  0
VERTEX
  5
725
330
716
100
AcDbEntity
  8
Ebene 1
370
     0
100
AcDbVertex
100
AcDb2dVertex
 10
688.853515625
 20
327.986328125
 30
0.0
  0
VERTEX
  5
726
330
716
100
AcDbEntity
  8
Ebene 1
370
     0
100
AcDbVertex
100
AcDb2dVertex
 10
688.015625
 20
327.32421875
 30
0.0
  0
VERTEX
  5
727
330
716
100
AcDbEntity
  8
Ebene 1
370
     0
100
AcDbVertex
100
AcDb2dVertex
 10
686.3828125
 20
326.662109375
 30
0.0
  0
SEQEND
  5
728
330
716
100
AcDbEntity
  8
Ebene 1
370
     0
  0
POLYLINE
  5
729
330
3C
100
AcDbEntity
  8
Ebene 1
370
     0
100
AcDb2dPolyline
 66
     1
 10
0.0
 20
0.0
 30
0.0
  0
VERTEX
  5
72A
330
729
100
AcDbEntity
  8
Ebene 1
370
     0
100
AcDbVertex
100
AcDb2dVertex
 10
628.412109375
 20
304.162109375
 30
0.0
  0
VERTEX
  5
72B
330
729
100
AcDbEntity
  8
Ebene 1
370
     0
100
AcDbVertex
100
AcDb2dVertex
 10
663.30859375
 20
304.162109375
 30
0.0
  0
SEQEND
  5
72C
330
729
100
AcDbEntity
  8
Ebene 1
370
     0
  0
POLYLINE
  5
72D
330
3C
100
AcDbEntity
  8
Ebene 1
370
     0
100
AcDb2dPolyline
 66
     1
 10
0.0
 20
0.0
 30
0.0
  0
VERTEX
  5
72E
330
72D
100
AcDbEntity
  8
Ebene 1
370
     0
100
AcDbVertex
100
AcDb2dVertex
 10
604.853515625
 20
282.67578125
 30
0.0
  0
VERTEX
  5
72F
330
72D
100
AcDbEntity
  8
Ebene 1
370
     0
100
AcDbVertex
100
AcDb2dVertex
 10
663.30859375
 20
282.67578125
 30
0.0
  0
SEQEND
  5
730
330
72D
100
AcDbEntity
  8
Ebene 1
370
     0
  0
POLYLINE
  5
731
330
3C
100
AcDbEntity
  8
Ebene 1
370
     0
100
AcDb2dPolyline
 66
     1
 10
0.0
 20
0.0
 30
0.0
  0
VERTEX
  5
732
330
731
100
AcDbEntity
  8
Ebene 1
370
     0
100
AcDbVertex
100
AcDb2dVertex
 10
651.8828125
 20
318.544921875
 30
0.0
  0
VERTEX
  5
733
330
731
100
AcDbEntity
  8
Ebene 1
370
     0
100
AcDbVertex
100
AcDb2dVertex
 10
651.8828125
 20
332.8828125
 30
0.0
  0
SEQEND
  5
734
330
731
100
AcDbEntity
  8
Ebene 1
370
     0
  0
POLYLINE
  5
735
330
3C
100
AcDbEntity
  8
Ebene 1
370
     0
100
AcDb2dPolyline
 66
     1
 10
0.0
 20
0.0
 30
0.0
  0
VERTEX
  5
736
330
735
100
AcDbEntity
  8
Ebene 1
370
     0
100
AcDbVertex
100
AcDb2dVertex
 10
651.8828125
 20
268.337890625
 30
0.0
  0
VERTEX
  5
737
330
735
100
AcDbEntity
  8
Ebene 1
370
     0
100
AcDbVertex
100
AcDb2dVertex
 10
651.8828125
 20
213.67578125
 30
0.0
  0
SEQEND
  5
738
330
735
100
AcDbEntity
  8
Ebene 1
370
     0
  0
POLYLINE
  5
739
330
3C
100
AcDbEntity
  8
Ebene 1
370
     0
100
AcDb2dPolyline
 66
     1
 10
0.0
 20
0.0
 30
0.0
  0
VERTEX
  5
73A
330
739
100
AcDbEntity
  8
Ebene 1
370
     0
100
AcDbVertex
100
AcDb2dVertex
 10
651.8828125
 20
304.162109375
 30
0.0
  0
VERTEX
  5
73B
330
739
100
AcDbEntity
  8
Ebene 1
370
     0
100
AcDbVertex
100
AcDb2dVertex
 10
651.8828125
 20
282.67578125
 30
0.0
  0
SEQEND
  5
73C
330
739
100
AcDbEntity
  8
Ebene 1
370
     0
  0
POLYLINE
  5
73D
330
3C
100
AcDbEntity
  8
Ebene 1
370
     0
100
AcDb2dPolyline
 66
     1
 10
0.0
 20
0.0
 30
0.0
  0
VERTEX
  5
73E
330
73D
100
AcDbEntity
  8
Ebene 1
370
     0
100
AcDbVertex
100
AcDb2dVertex
 10
649.455078125
 20
318.544921875
 30
0.0
  0
VERTEX
  5
73F
330
73D
100
AcDbEntity
  8
Ebene 1
370
     0
100
AcDbVertex
100
AcDb2dVertex
 10
654.265625
 20
318.544921875
 30
0.0
  0
VERTEX
  5
740
330
73D
100
AcDbEntity
  8
Ebene 1
370
     0
100
AcDbVertex
100
AcDb2dVertex
 10
651.8828125
 20
304.162109375
 30
0.0
  0
VERTEX
  5
741
330
73D
100
AcDbEntity
  8
Ebene 1
370
     0
100
AcDbVertex
100
AcDb2dVertex
 10
649.455078125
 20
318.544921875
 30
0.0
  0
SEQEND
  5
742
330
73D
100
AcDbEntity
  8
Ebene 1
370
     0
  0
HATCH
  5
743
330
3C
100
AcDbEntity
  8
Ebene 1
 62
   251
420
  6710886
100
AcDbHatch
 10
0.0
 20
0.0
 30
0.0
210
0.0
220
0.0
230
1.0
  2
SOLID
 70
     1
 71
     0
 91
        1
 92
        1
 93
        3
 72
     1
 10
649.455078125
 20
318.544921875
 11
654.265625
 21
318.544921875
 72
     1
 10
654.265625
 20
318.544921875
 11
651.8828125
 21
304.162109375
 72
     1
 10
651.8828125
 20
304.162109375
 11
649.455078125
 21
318.544921875
 97
        0
 75
     0
 76
     1
 98
        0
  0
POLYLINE
  5
744
330
3C
100
AcDbEntity
  8
Ebene 1
370
     0
100
AcDb2dPolyline
 66
     1
 10
0.0
 20
0.0
 30
0.0
  0
VERTEX
  5
745
330
744
100
AcDbEntity
  8
Ebene 1
370
     0
100
AcDbVertex
100
AcDb2dVertex
 10
649.455078125
 20
268.337890625
 30
0.0
  0
VERTEX
  5
746
330
744
100
AcDbEntity
  8
Ebene 1
370
     0
100
AcDbVertex
100
AcDb2dVertex
 10
654.265625
 20
268.337890625
 30
0.0
  0
VERTEX
  5
747
330
744
100
AcDbEntity
  8
Ebene 1
370
     0
100
AcDbVertex
100
AcDb2dVertex
 10
651.8828125
 20
282.67578125
 30
0.0
  0
VERTEX
  5
748
330
744
100
AcDbEntity
  8
Ebene 1
370
     0
100
AcDbVertex
100
AcDb2dVertex
 10
649.455078125
 20
268.337890625
 30
0.0
  0
SEQEND
  5
749
330
744
100
AcDbEntity
  8
Ebene 1
370
     0
  0
HATCH
  5
74A
330
3C
100
AcDbEntity
  8
Ebene 1
 62
   251
420
  6710886
100
AcDbHatch
 10
0.0
 20
0.0
 30
0.0
210
0.0
220
0.0
230
1.0
  2
SOLID
 70
     1
 71
     0
 91
        1
 92
        1
 93
        3
 72
     1
 10
649.455078125
 20
268.337890625
 11
654.265625
 21
268.337890625
 72
     1
 10
654.265625
 20
268.337890625
 11
651.8828125
 21
282.67578125
 72
     1
 10
651.8828125
 20
282.67578125
 11
649.455078125
 21
268.337890625
 97
        0
 75
     0
 76
     1
 98
        0
  0
POLYLINE
  5
74B
330
3C
100
AcDbEntity
  8
Ebene 1
370
     0
100
AcDb2dPolyline
 66
     1
 10
0.0
 20
0.0
 30
0.0
  0
VERTEX
  5
74C
330
74B
100
AcDbEntity
  8
Ebene 1
370
     0
100
AcDbVertex
100
AcDb2dVertex
 10
628.94140625
 20
228.587890625
 30
0.0
  0
VERTEX
  5
74D
330
74B
100
AcDbEntity
  8
Ebene 1
370
     0
100
AcDbVertex
100
AcDb2dVertex
 10
646.146484375
 20
222.015625
 30
0.0
  0
SEQEND
  5
74E
330
74B
100
AcDbEntity
  8
Ebene 1
370
     0
  0
POLYLINE
  5
74F
330
3C
100
AcDbEntity
  8
Ebene 1
370
     0
100
AcDb2dPolyline
 66
     1
 10
0.0
 20
0.0
 30
0.0
  0
VERTEX
  5
750
330
74F
100
AcDbEntity
  8
Ebene 1
370
     0
100
AcDbVertex
100
AcDb2dVertex
 10
628.94140625
 20
219.412109375
 30
0.0
  0
VERTEX
  5
751
330
74F
100
AcDbEntity
  8
Ebene 1
370
     0
100
AcDbVertex
100
AcDb2dVertex
 10
628.94140625
 20
228.587890625
 30
0.0
  0
SEQEND
  5
752
330
74F
100
AcDbEntity
  8
Ebene 1
370
     0
  0
POLYLINE
  5
753
330
3C
100
AcDbEntity
  8
Ebene 1
370
     0
100
AcDb2dPolyline
 66
     1
 10
0.0
 20
0.0
 30
0.0
  0
VERTEX
  5
754
330
753
100
AcDbEntity
  8
Ebene 1
370
     0
100
AcDbVertex
100
AcDb2dVertex
 10
644.470703125
 20
233.837890625
 30
0.0
  0
VERTEX
  5
755
330
753
100
AcDbEntity
  8
Ebene 1
370
     0
100
AcDbVertex
100
AcDb2dVertex
 10
645.30859375
 20
233.17578125
 30
0.0
  0
VERTEX
  5
756
330
753
100
AcDbEntity
  8
Ebene 1
370
     0
100
AcDbVertex
100
AcDb2dVertex
 10
646.146484375
 20
233.837890625
 30
0.0
  0
VERTEX
  5
757
330
753
100
AcDbEntity
  8
Ebene 1
370
     0
100
AcDbVertex
100
AcDb2dVertex
 10
645.30859375
 20
234.5
 30
0.0
  0
VERTEX
  5
758
330
753
100
AcDbEntity
  8
Ebene 1
370
     0
100
AcDbVertex
100
AcDb2dVertex
 10
644.470703125
 20
233.837890625
 30
0.0
  0
VERTEX
  5
759
330
753
100
AcDbEntity
  8
Ebene 1
370
     0
100
AcDbVertex
100
AcDb2dVertex
 10
644.470703125
 20
233.837890625
 30
0.0
  0
SEQEND
  5
75A
330
753
100
AcDbEntity
  8
Ebene 1
370
     0
  0
POLYLINE
  5
75B
330
3C
100
AcDbEntity
  8
Ebene 1
370
     0
100
AcDb2dPolyline
 66
     1
 10
0.0
 20
0.0
 30
0.0
  0
VERTEX
  5
75C
330
75B
100
AcDbEntity
  8
Ebene 1
370
     0
100
AcDbVertex
100
AcDb2dVertex
 10
-96.0
 20
322.8671875
 30
0.0
  0
VERTEX
  5
75D
330
75B
100
AcDbEntity
  8
Ebene 1
370
     0
100
AcDbVertex
100
AcDb2dVertex
 10
-96.0
 20
322.8671875
 30
0.0
  0
SEQEND
  5
75E
330
75B
100
AcDbEntity
  8
Ebene 1
370
     0
  0
POLYLINE
  5
75F
330
3C
100
AcDbEntity
  8
Ebene 1
370
     0
100
AcDb2dPolyline
 66
     1
 10
0.0
 20
0.0
 30
0.0
  0
VERTEX
  5
760
330
75F
100
AcDbEntity
  8
Ebene 1
370
     0
100
AcDbVertex
100
AcDb2dVertex
 10
-96.0
 20
322.8671875
 30
0.0
  0
VERTEX
  5
761
330
75F
100
AcDbEntity
  8
Ebene 1
370
     0
100
AcDbVertex
100
AcDb2dVertex
 10
-96.0
 20
322.8671875
 30
0.0
  0
SEQEND
  5
762
330
75F
100
AcDbEntity
  8
Ebene 1
370
     0
  0
POLYLINE
  5
763
330
3C
100
AcDbEntity
  8
Ebene 1
370
     0
100
AcDb2dPolyline
 66
     1
 10
0.0
 20
0.0
 30
0.0
  0
VERTEX
  5
764
330
763
100
AcDbEntity
  8
Ebene 1
370
     0
100
AcDbVertex
100
AcDb2dVertex
 10
-96.0
 20
322.8671875
 30
0.0
  0
VERTEX
  5
765
330
763
100
AcDbEntity
  8
Ebene 1
370
     0
100
AcDbVertex
100
AcDb2dVertex
 10
-96.0
 20
322.8671875
 30
0.0
  0
SEQEND
  5
766
330
763
100
AcDbEntity
  8
Ebene 1
370
     0
  0
POLYLINE
  5
767
330
3C
100
AcDbEntity
  8
Ebene 1
370
     0
100
AcDb2dPolyline
 66
     1
 10
0.0
 20
0.0
 30
0.0
  0
VERTEX
  5
768
330
767
100
AcDbEntity
  8
Ebene 1
370
     0
100
AcDbVertex
100
AcDb2dVertex
 10
628.94140625
 20
246.94140625
 30
0.0
  0
VERTEX
  5
769
330
767
100
AcDbEntity
  8
Ebene 1
370
     0
100
AcDbVertex
100
AcDb2dVertex
 10
628.94140625
 20
240.3671875
 30
0.0
  0
VERTEX
  5
76A
330
767
100
AcDbEntity
  8
Ebene 1
370
     0
100
AcDbVertex
100
AcDb2dVertex
 10
636.30859375
 20
239.705078125
 30
0.0
  0
VERTEX
  5
76B
330
767
100
AcDbEntity
  8
Ebene 1
370
     0
100
AcDbVertex
100
AcDb2dVertex
 10
635.470703125
 20
240.3671875
 30
0.0
  0
VERTEX
  5
76C
330
767
100
AcDbEntity
  8
Ebene 1
370
     0
100
AcDbVertex
100
AcDb2dVertex
 10
634.67578125
 20
242.353515625
 30
0.0
  0
VERTEX
  5
76D
330
767
100
AcDbEntity
  8
Ebene 1
370
     0
100
AcDbVertex
100
AcDb2dVertex
 10
634.67578125
 20
244.337890625
 30
0.0
  0
VERTEX
  5
76E
330
767
100
AcDbEntity
  8
Ebene 1
370
     0
100
AcDbVertex
100
AcDb2dVertex
 10
635.470703125
 20
246.279296875
 30
0.0
  0
VERTEX
  5
76F
330
767
100
AcDbEntity
  8
Ebene 1
370
     0
100
AcDbVertex
100
AcDb2dVertex
 10
637.103515625
 20
247.603515625
 30
0.0
  0
VERTEX
  5
770
330
767
100
AcDbEntity
  8
Ebene 1
370
     0
100
AcDbVertex
100
AcDb2dVertex
 10
639.57421875
 20
248.265625
 30
0.0
  0
VERTEX
  5
771
330
767
100
AcDbEntity
  8
Ebene 1
370
     0
100
AcDbVertex
100
AcDb2dVertex
 10
641.205078125
 20
248.265625
 30
0.0
  0
VERTEX
  5
772
330
767
100
AcDbEntity
  8
Ebene 1
370
     0
100
AcDbVertex
100
AcDb2dVertex
 10
643.67578125
 20
247.603515625
 30
0.0
  0
VERTEX
  5
773
330
767
100
AcDbEntity
  8
Ebene 1
370
     0
100
AcDbVertex
100
AcDb2dVertex
 10
645.30859375
 20
246.279296875
 30
0.0
  0
VERTEX
  5
774
330
767
100
AcDbEntity
  8
Ebene 1
370
     0
100
AcDbVertex
100
AcDb2dVertex
 10
646.146484375
 20
244.337890625
 30
0.0
  0
VERTEX
  5
775
330
767
100
AcDbEntity
  8
Ebene 1
370
     0
100
AcDbVertex
100
AcDb2dVertex
 10
646.146484375
 20
242.353515625
 30
0.0
  0
VERTEX
  5
776
330
767
100
AcDbEntity
  8
Ebene 1
370
     0
100
AcDbVertex
100
AcDb2dVertex
 10
645.30859375
 20
240.3671875
 30
0.0
  0
VERTEX
  5
777
330
767
100
AcDbEntity
  8
Ebene 1
370
     0
100
AcDbVertex
100
AcDb2dVertex
 10
644.470703125
 20
239.705078125
 30
0.0
  0
VERTEX
  5
778
330
767
100
AcDbEntity
  8
Ebene 1
370
     0
100
AcDbVertex
100
AcDb2dVertex
 10
642.837890625
 20
239.087890625
 30
0.0
  0
SEQEND
  5
779
330
767
100
AcDbEntity
  8
Ebene 1
370
     0
  0
POLYLINE
  5
77A
330
3C
100
AcDbEntity
  8
Ebene 1
370
     0
100
AcDb2dPolyline
 66
     1
 10
0.0
 20
0.0
 30
0.0
  0
VERTEX
  5
77B
330
77A
100
AcDbEntity
  8
Ebene 1
370
     0
100
AcDbVertex
100
AcDb2dVertex
 10
544.0146484375
 20
282.67578125
 30
0.0
  0
VERTEX
  5
77C
330
77A
100
AcDbEntity
  8
Ebene 1
370
     0
100
AcDbVertex
100
AcDb2dVertex
 10
292.05859375
 20
282.67578125
 30
0.0
  0
SEQEND
  5
77D
330
77A
100
AcDbEntity
  8
Ebene 1
370
     0
  0
POLYLINE
  5
77E
330
3C
100
AcDbEntity
  8
Ebene 1
370
     0
100
AcDb2dPolyline
 66
     1
 10
0.0
 20
0.0
 30
0.0
  0
VERTEX
  5
77F
330
77E
100
AcDbEntity
  8
Ebene 1
370
     0
100
AcDbVertex
100
AcDb2dVertex
 10
375.4853515625
 20
487.7353515625
 30
0.0
  0
VERTEX
  5
780
330
77E
100
AcDbEntity
  8
Ebene 1
370
     0
100
AcDbVertex
100
AcDb2dVertex
 10
292.05859375
 20
487.7353515625
 30
0.0
  0
SEQEND
  5
781
330
77E
100
AcDbEntity
  8
Ebene 1
370
     0
  0
POLYLINE
  5
782
330
3C
100
AcDbEntity
  8
Ebene 1
370
     0
100
AcDb2dPolyline
 66
     1
 10
0.0
 20
0.0
 30
0.0
  0
VERTEX
  5
783
330
782
100
AcDbEntity
  8
Ebene 1
370
     0
100
AcDbVertex
100
AcDb2dVertex
 10
303.4853515625
 20
297.015625
 30
0.0
  0
VERTEX
  5
784
330
782
100
AcDbEntity
  8
Ebene 1
370
     0
100
AcDbVertex
100
AcDb2dVertex
 10
303.4853515625
 20
473.39697265625
 30
0.0
  0
SEQEND
  5
785
330
782
100
AcDbEntity
  8
Ebene 1
370
     0
  0
POLYLINE
  5
786
330
3C
100
AcDbEntity
  8
Ebene 1
370
     0
100
AcDb2dPolyline
 66
     1
 10
0.0
 20
0.0
 30
0.0
  0
VERTEX
  5
787
330
786
100
AcDbEntity
  8
Ebene 1
370
     0
100
AcDbVertex
100
AcDb2dVertex
 10
301.10302734375
 20
297.015625
 30
0.0
  0
VERTEX
  5
788
330
786
100
AcDbEntity
  8
Ebene 1
370
     0
100
AcDbVertex
100
AcDb2dVertex
 10
305.91162109375
 20
297.015625
 30
0.0
  0
VERTEX
  5
789
330
786
100
AcDbEntity
  8
Ebene 1
370
     0
100
AcDbVertex
100
AcDb2dVertex
 10
303.4853515625
 20
282.67578125
 30
0.0
  0
VERTEX
  5
78A
330
786
100
AcDbEntity
  8
Ebene 1
370
     0
100
AcDbVertex
100
AcDb2dVertex
 10
301.10302734375
 20
297.015625
 30
0.0
  0
SEQEND
  5
78B
330
786
100
AcDbEntity
  8
Ebene 1
370
     0
  0
HATCH
  5
78C
330
3C
100
AcDbEntity
  8
Ebene 1
 62
   251
420
  6710886
100
AcDbHatch
 10
0.0
 20
0.0
 30
0.0
210
0.0
220
0.0
230
1.0
  2
SOLID
 70
     1
 71
     0
 91
        1
 92
        1
 93
        3
 72
     1
 10
301.10302734375
 20
297.015625
 11
305.91162109375
 21
297.015625
 72
     1
 10
305.91162109375
 20
297.015625
 11
303.4853515625
 21
282.67578125
 72
     1
 10
303.4853515625
 20
282.67578125
 11
301.10302734375
 21
297.015625
 97
        0
 75
     0
 76
     1
 98
        0
  0
POLYLINE
  5
78D
330
3C
100
AcDbEntity
  8
Ebene 1
370
     0
100
AcDb2dPolyline
 66
     1
 10
0.0
 20
0.0
 30
0.0
  0
VERTEX
  5
78E
330
78D
100
AcDbEntity
  8
Ebene 1
370
     0
100
AcDbVertex
100
AcDb2dVertex
 10
301.10302734375
 20
473.39697265625
 30
0.0
  0
VERTEX
  5
78F
330
78D
100
AcDbEntity
  8
Ebene 1
370
     0
100
AcDbVertex
100
AcDb2dVertex
 10
305.91162109375
 20
473.39697265625
 30
0.0
  0
VERTEX
  5
790
330
78D
100
AcDbEntity
  8
Ebene 1
370
     0
100
AcDbVertex
100
AcDb2dVertex
 10
303.4853515625
 20
487.7353515625
 30
0.0
  0
VERTEX
  5
791
330
78D
100
AcDbEntity
  8
Ebene 1
370
     0
100
AcDbVertex
100
AcDb2dVertex
 10
301.10302734375
 20
473.39697265625
 30
0.0
  0
SEQEND
  5
792
330
78D
100
AcDbEntity
  8
Ebene 1
370
     0
  0
HATCH
  5
793
330
3C
100
AcDbEntity
  8
Ebene 1
 62
   251
420
  6710886
100
AcDbHatch
 10
0.0
 20
0.0
 30
0.0
210
0.0
220
0.0
230
1.0
  2
SOLID
 70
     1
 71
     0
 91
        1
 92
        1
 93
        3
 72
     1
 10
301.10302734375
 20
473.39697265625
 11
305.91162109375
 21
473.39697265625
 72
     1
 10
305.91162109375
 20
473.39697265625
 11
303.4853515625
 21
487.7353515625
 72
     1
 10
303.4853515625
 20
487.7353515625
 11
301.10302734375
 21
473.39697265625
 97
        0
 75
     0
 76
     1
 98
        0
  0
POLYLINE
  5
794
330
3C
100
AcDbEntity
  8
Ebene 1
370
     0
100
AcDb2dPolyline
 66
     1
 10
0.0
 20
0.0
 30
0.0
  0
VERTEX
  5
795
330
794
100
AcDbEntity
  8
Ebene 1
370
     0
100
AcDbVertex
100
AcDb2dVertex
 10
280.58837890625
 20
373.42578125
 30
0.0
  0
VERTEX
  5
796
330
794
100
AcDbEntity
  8
Ebene 1
370
     0
100
AcDbVertex
100
AcDb2dVertex
 10
297.7939453125
 20
366.853515625
 30
0.0
  0
SEQEND
  5
797
330
794
100
AcDbEntity
  8
Ebene 1
370
     0
  0
POLYLINE
  5
798
330
3C
100
AcDbEntity
  8
Ebene 1
370
     0
100
AcDb2dPolyline
 66
     1
 10
0.0
 20
0.0
 30
0.0
  0
VERTEX
  5
799
330
798
100
AcDbEntity
  8
Ebene 1
370
     0
100
AcDbVertex
100
AcDb2dVertex
 10
280.58837890625
 20
364.25
 30
0.0
  0
VERTEX
  5
79A
330
798
100
AcDbEntity
  8
Ebene 1
370
     0
100
AcDbVertex
100
AcDb2dVertex
 10
280.58837890625
 20
373.42578125
 30
0.0
  0
SEQEND
  5
79B
330
798
100
AcDbEntity
  8
Ebene 1
370
     0
  0
POLYLINE
  5
79C
330
3C
100
AcDbEntity
  8
Ebene 1
370
     0
100
AcDb2dPolyline
 66
     1
 10
0.0
 20
0.0
 30
0.0
  0
VERTEX
  5
79D
330
79C
100
AcDbEntity
  8
Ebene 1
370
     0
100
AcDbVertex
100
AcDb2dVertex
 10
283.85302734375
 20
379.294921875
 30
0.0
  0
VERTEX
  5
79E
330
79C
100
AcDbEntity
  8
Ebene 1
370
     0
100
AcDbVertex
100
AcDb2dVertex
 10
283.0146484375
 20
380.6171875
 30
0.0
  0
VERTEX
  5
79F
330
79C
100
AcDbEntity
  8
Ebene 1
370
     0
100
AcDbVertex
100
AcDb2dVertex
 10
280.58837890625
 20
382.603515625
 30
0.0
  0
VERTEX
  5
7A0
330
79C
100
AcDbEntity
  8
Ebene 1
370
     0
100
AcDbVertex
100
AcDb2dVertex
 10
297.7939453125
 20
382.603515625
 30
0.0
  0
SEQEND
  5
7A1
330
79C
100
AcDbEntity
  8
Ebene 1
370
     0
  0
POLYLINE
  5
7A2
330
3C
100
AcDbEntity
  8
Ebene 1
370
     0
100
AcDb2dPolyline
 66
     1
 10
0.0
 20
0.0
 30
0.0
  0
VERTEX
  5
7A3
330
7A2
100
AcDbEntity
  8
Ebene 1
370
     0
100
AcDbVertex
100
AcDb2dVertex
 10
296.11767578125
 20
391.779296875
 30
0.0
  0
VERTEX
  5
7A4
330
7A2
100
AcDbEntity
  8
Ebene 1
370
     0
100
AcDbVertex
100
AcDb2dVertex
 10
296.9560546875
 20
391.1171875
 30
0.0
  0
VERTEX
  5
7A5
330
7A2
100
AcDbEntity
  8
Ebene 1
370
     0
100
AcDbVertex
100
AcDb2dVertex
 10
297.7939453125
 20
391.779296875
 30
0.0
  0
VERTEX
  5
7A6
330
7A2
100
AcDbEntity
  8
Ebene 1
370
     0
100
AcDbVertex
100
AcDb2dVertex
 10
296.9560546875
 20
392.44140625
 30
0.0
  0
VERTEX
  5
7A7
330
7A2
100
AcDbEntity
  8
Ebene 1
370
     0
100
AcDbVertex
100
AcDb2dVertex
 10
296.11767578125
 20
391.779296875
 30
0.0
  0
VERTEX
  5
7A8
330
7A2
100
AcDbEntity
  8
Ebene 1
370
     0
100
AcDbVertex
100
AcDb2dVertex
 10
296.11767578125
 20
391.779296875
 30
0.0
  0
SEQEND
  5
7A9
330
7A2
100
AcDbEntity
  8
Ebene 1
370
     0
  0
POLYLINE
  5
7AA
330
3C
100
AcDbEntity
  8
Ebene 1
370
     0
100
AcDb2dPolyline
 66
     1
 10
0.0
 20
0.0
 30
0.0
  0
VERTEX
  5
7AB
330
7AA
100
AcDbEntity
  8
Ebene 1
370
     0
100
AcDbVertex
100
AcDb2dVertex
 10
-96.0
 20
322.8671875
 30
0.0
  0
VERTEX
  5
7AC
330
7AA
100
AcDbEntity
  8
Ebene 1
370
     0
100
AcDbVertex
100
AcDb2dVertex
 10
-96.0
 20
322.8671875
 30
0.0
  0
SEQEND
  5
7AD
330
7AA
100
AcDbEntity
  8
Ebene 1
370
     0
  0
POLYLINE
  5
7AE
330
3C
100
AcDbEntity
  8
Ebene 1
370
     0
100
AcDb2dPolyline
 66
     1
 10
0.0
 20
0.0
 30
0.0
  0
VERTEX
  5
7AF
330
7AE
100
AcDbEntity
  8
Ebene 1
370
     0
100
AcDbVertex
100
AcDb2dVertex
 10
-96.0
 20
322.8671875
 30
0.0
  0
VERTEX
  5
7B0
330
7AE
100
AcDbEntity
  8
Ebene 1
370
     0
100
AcDbVertex
100
AcDb2dVertex
 10
-96.0
 20
322.8671875
 30
0.0
  0
SEQEND
  5
7B1
330
7AE
100
AcDbEntity
  8
Ebene 1
370
     0
  0
POLYLINE
  5
7B2
330
3C
100
AcDbEntity
  8
Ebene 1
370
     0
100
AcDb2dPolyline
 66
     1
 10
0.0
 20
0.0
 30
0.0
  0
VERTEX
  5
7B3
330
7B2
100
AcDbEntity
  8
Ebene 1
370
     0
100
AcDbVertex
100
AcDb2dVertex
 10
-96.0
 20
322.8671875
 30
0.0
  0
VERTEX
  5
7B4
330
7B2
100
AcDbEntity
  8
Ebene 1
370
     0
100
AcDbVertex
100
AcDb2dVertex
 10
-96.0
 20
322.8671875
 30
0.0
  0
SEQEND
  5
7B5
330
7B2
100
AcDbEntity
  8
Ebene 1
370
     0
  0
POLYLINE
  5
7B6
330
3C
100
AcDbEntity
  8
Ebene 1
370
     0
100
AcDb2dPolyline
 66
     1
 10
0.0
 20
0.0
 30
0.0
  0
VERTEX
  5
7B7
330
7B6
100
AcDbEntity
  8
Ebene 1
370
     0
100
AcDbVertex
100
AcDb2dVertex
 10
280.58837890625
 20
404.88232421875
 30
0.0
  0
VERTEX
  5
7B8
330
7B6
100
AcDbEntity
  8
Ebene 1
370
     0
100
AcDbVertex
100
AcDb2dVertex
 10
280.58837890625
 20
398.30908203125
 30
0.0
  0
VERTEX
  5
7B9
330
7B6
100
AcDbEntity
  8
Ebene 1
370
     0
100
AcDbVertex
100
AcDb2dVertex
 10
287.9560546875
 20
397.69091796875
 30
0.0
  0
VERTEX
  5
7BA
330
7B6
100
AcDbEntity
  8
Ebene 1
370
     0
100
AcDbVertex
100
AcDb2dVertex
 10
287.11767578125
 20
398.30908203125
 30
0.0
  0
VERTEX
  5
7BB
330
7B6
100
AcDbEntity
  8
Ebene 1
370
     0
100
AcDbVertex
100
AcDb2dVertex
 10
286.32373046875
 20
400.29443359375
 30
0.0
  0
VERTEX
  5
7BC
330
7B6
100
AcDbEntity
  8
Ebene 1
370
     0
100
AcDbVertex
100
AcDb2dVertex
 10
286.32373046875
 20
402.27978515625
 30
0.0
  0
VERTEX
  5
7BD
330
7B6
100
AcDbEntity
  8
Ebene 1
370
     0
100
AcDbVertex
100
AcDb2dVertex
 10
287.11767578125
 20
404.22119140625
 30
0.0
  0
VERTEX
  5
7BE
330
7B6
100
AcDbEntity
  8
Ebene 1
370
     0
100
AcDbVertex
100
AcDb2dVertex
 10
288.75
 20
405.54443359375
 30
0.0
  0
VERTEX
  5
7BF
330
7B6
100
AcDbEntity
  8
Ebene 1
370
     0
100
AcDbVertex
100
AcDb2dVertex
 10
291.220703125
 20
406.20556640625
 30
0.0
  0
VERTEX
  5
7C0
330
7B6
100
AcDbEntity
  8
Ebene 1
370
     0
100
AcDbVertex
100
AcDb2dVertex
 10
292.85302734375
 20
406.20556640625
 30
0.0
  0
VERTEX
  5
7C1
330
7B6
100
AcDbEntity
  8
Ebene 1
370
     0
100
AcDbVertex
100
AcDb2dVertex
 10
295.32373046875
 20
405.54443359375
 30
0.0
  0
VERTEX
  5
7C2
330
7B6
100
AcDbEntity
  8
Ebene 1
370
     0
100
AcDbVertex
100
AcDb2dVertex
 10
296.9560546875
 20
404.22119140625
 30
0.0
  0
VERTEX
  5
7C3
330
7B6
100
AcDbEntity
  8
Ebene 1
370
     0
100
AcDbVertex
100
AcDb2dVertex
 10
297.7939453125
 20
402.27978515625
 30
0.0
  0
VERTEX
  5
7C4
330
7B6
100
AcDbEntity
  8
Ebene 1
370
     0
100
AcDbVertex
100
AcDb2dVertex
 10
297.7939453125
 20
400.29443359375
 30
0.0
  0
VERTEX
  5
7C5
330
7B6
100
AcDbEntity
  8
Ebene 1
370
     0
100
AcDbVertex
100
AcDb2dVertex
 10
296.9560546875
 20
398.30908203125
 30
0.0
  0
VERTEX
  5
7C6
330
7B6
100
AcDbEntity
  8
Ebene 1
370
     0
100
AcDbVertex
100
AcDb2dVertex
 10
296.11767578125
 20
397.69091796875
 30
0.0
  0
VERTEX
  5
7C7
330
7B6
100
AcDbEntity
  8
Ebene 1
370
     0
100
AcDbVertex
100
AcDb2dVertex
 10
294.4853515625
 20
397.02978515625
 30
0.0
  0
SEQEND
  5
7C8
330
7B6
100
AcDbEntity
  8
Ebene 1
370
     0
  0
POLYLINE
  5
7C9
330
3C
100
AcDbEntity
  8
Ebene 1
370
     0
100
AcDb2dPolyline
 66
     1
 10
0.0
 20
0.0
 30
0.0
  0
VERTEX
  5
7CA
330
7C9
100
AcDbEntity
  8
Ebene 1
370
     0
100
AcDbVertex
100
AcDb2dVertex
 10
655.32421875
 20
431.92626953125
 30
0.0
  0
VERTEX
  5
7CB
330
7C9
100
AcDbEntity
  8
Ebene 1
370
     0
100
AcDbVertex
100
AcDb2dVertex
 10
676.279296875
 20
431.92626953125
 30
0.0
  0
SEQEND
  5
7CC
330
7C9
100
AcDbEntity
  8
Ebene 1
370
     0
  0
POLYLINE
  5
7CD
330
3C
100
AcDbEntity
  8
Ebene 1
370
     0
100
AcDb2dPolyline
 66
     1
 10
0.0
 20
0.0
 30
0.0
  0
VERTEX
  5
7CE
330
7CD
100
AcDbEntity
  8
Ebene 1
370
     0
100
AcDbVertex
100
AcDb2dVertex
 10
604.853515625
 20
473.4853515625
 30
0.0
  0
VERTEX
  5
7CF
330
7CD
100
AcDbEntity
  8
Ebene 1
370
     0
100
AcDbVertex
100
AcDb2dVertex
 10
676.279296875
 20
473.4853515625
 30
0.0
  0
SEQEND
  5
7D0
330
7CD
100
AcDbEntity
  8
Ebene 1
370
     0
  0
POLYLINE
  5
7D1
330
3C
100
AcDbEntity
  8
Ebene 1
370
     0
100
AcDb2dPolyline
 66
     1
 10
0.0
 20
0.0
 30
0.0
  0
VERTEX
  5
7D2
330
7D1
100
AcDbEntity
  8
Ebene 1
370
     0
100
AcDbVertex
100
AcDb2dVertex
 10
664.80859375
 20
417.54443359375
 30
0.0
  0
VERTEX
  5
7D3
330
7D1
100
AcDbEntity
  8
Ebene 1
370
     0
100
AcDbVertex
100
AcDb2dVertex
 10
664.80859375
 20
403.20556640625
 30
0.0
  0
SEQEND
  5
7D4
330
7D1
100
AcDbEntity
  8
Ebene 1
370
     0
  0
POLYLINE
  5
7D5
330
3C
100
AcDbEntity
  8
Ebene 1
370
     0
100
AcDb2dPolyline
 66
     1
 10
0.0
 20
0.0
 30
0.0
  0
VERTEX
  5
7D6
330
7D5
100
AcDbEntity
  8
Ebene 1
370
     0
100
AcDbVertex
100
AcDb2dVertex
 10
664.80859375
 20
487.82373046875
 30
0.0
  0
VERTEX
  5
7D7
330
7D5
100
AcDbEntity
  8
Ebene 1
370
     0
100
AcDbVertex
100
AcDb2dVertex
 10
664.80859375
 20
553.64697265625
 30
0.0
  0
SEQEND
  5
7D8
330
7D5
100
AcDbEntity
  8
Ebene 1
370
     0
  0
POLYLINE
  5
7D9
330
3C
100
AcDbEntity
  8
Ebene 1
370
     0
100
AcDb2dPolyline
 66
     1
 10
0.0
 20
0.0
 30
0.0
  0
VERTEX
  5
7DA
330
7D9
100
AcDbEntity
  8
Ebene 1
370
     0
100
AcDbVertex
100
AcDb2dVertex
 10
664.80859375
 20
431.92626953125
 30
0.0
  0
VERTEX
  5
7DB
330
7D9
100
AcDbEntity
  8
Ebene 1
370
     0
100
AcDbVertex
100
AcDb2dVertex
 10
664.80859375
 20
473.4853515625
 30
0.0
  0
SEQEND
  5
7DC
330
7D9
100
AcDbEntity
  8
Ebene 1
370
     0
  0
POLYLINE
  5
7DD
330
3C
100
AcDbEntity
  8
Ebene 1
370
     0
100
AcDb2dPolyline
 66
     1
 10
0.0
 20
0.0
 30
0.0
  0
VERTEX
  5
7DE
330
7DD
100
AcDbEntity
  8
Ebene 1
370
     0
100
AcDbVertex
100
AcDb2dVertex
 10
662.42578125
 20
417.54443359375
 30
0.0
  0
VERTEX
  5
7DF
330
7DD
100
AcDbEntity
  8
Ebene 1
370
     0
100
AcDbVertex
100
AcDb2dVertex
 10
667.19140625
 20
417.54443359375
 30
0.0
  0
VERTEX
  5
7E0
330
7DD
100
AcDbEntity
  8
Ebene 1
370
     0
100
AcDbVertex
100
AcDb2dVertex
 10
664.80859375
 20
431.92626953125
 30
0.0
  0
VERTEX
  5
7E1
330
7DD
100
AcDbEntity
  8
Ebene 1
370
     0
100
AcDbVertex
100
AcDb2dVertex
 10
662.42578125
 20
417.54443359375
 30
0.0
  0
SEQEND
  5
7E2
330
7DD
100
AcDbEntity
  8
Ebene 1
370
     0
  0
HATCH
  5
7E3
330
3C
100
AcDbEntity
  8
Ebene 1
 62
   251
420
  6710886
100
AcDbHatch
 10
0.0
 20
0.0
 30
0.0
210
0.0
220
0.0
230
1.0
  2
SOLID
 70
     1
 71
     0
 91
        1
 92
        1
 93
        3
 72
     1
 10
662.42578125
 20
417.54443359375
 11
667.19140625
 21
417.54443359375
 72
     1
 10
667.19140625
 20
417.54443359375
 11
664.80859375
 21
431.92626953125
 72
     1
 10
664.80859375
 20
431.92626953125
 11
662.42578125
 21
417.54443359375
 97
        0
 75
     0
 76
     1
 98
        0
  0
POLYLINE
  5
7E4
330
3C
100
AcDbEntity
  8
Ebene 1
370
     0
100
AcDb2dPolyline
 66
     1
 10
0.0
 20
0.0
 30
0.0
  0
VERTEX
  5
7E5
330
7E4
100
AcDbEntity
  8
Ebene 1
370
     0
100
AcDbVertex
100
AcDb2dVertex
 10
662.42578125
 20
487.82373046875
 30
0.0
  0
VERTEX
  5
7E6
330
7E4
100
AcDbEntity
  8
Ebene 1
370
     0
100
AcDbVertex
100
AcDb2dVertex
 10
667.19140625
 20
487.82373046875
 30
0.0
  0
VERTEX
  5
7E7
330
7E4
100
AcDbEntity
  8
Ebene 1
370
     0
100
AcDbVertex
100
AcDb2dVertex
 10
664.80859375
 20
473.4853515625
 30
0.0
  0
VERTEX
  5
7E8
330
7E4
100
AcDbEntity
  8
Ebene 1
370
     0
100
AcDbVertex
100
AcDb2dVertex
 10
662.42578125
 20
487.82373046875
 30
0.0
  0
SEQEND
  5
7E9
330
7E4
100
AcDbEntity
  8
Ebene 1
370
     0
  0
HATCH
  5
7EA
330
3C
100
AcDbEntity
  8
Ebene 1
 62
   251
420
  6710886
100
AcDbHatch
 10
0.0
 20
0.0
 30
0.0
210
0.0
220
0.0
230
1.0
  2
SOLID
 70
     1
 71
     0
 91
        1
 92
        1
 93
        3
 72
     1
 10
662.42578125
 20
487.82373046875
 11
667.19140625
 21
487.82373046875
 72
     1
 10
667.19140625
 20
487.82373046875
 11
664.80859375
 21
473.4853515625
 72
     1
 10
664.80859375
 20
473.4853515625
 11
662.42578125
 21
487.82373046875
 97
        0
 75
     0
 76
     1
 98
        0
  0
POLYLINE
  5
7EB
330
3C
100
AcDbEntity
  8
Ebene 1
370
     0
100
AcDb2dPolyline
 66
     1
 10
0.0
 20
0.0
 30
0.0
  0
VERTEX
  5
7EC
330
7EB
100
AcDbEntity
  8
Ebene 1
370
     0
100
AcDbVertex
100
AcDb2dVertex
 10
645.17578125
 20
507.89697265625
 30
0.0
  0
VERTEX
  5
7ED
330
7EB
100
AcDbEntity
  8
Ebene 1
370
     0
100
AcDbVertex
100
AcDb2dVertex
 10
644.337890625
 20
509.220703125
 30
0.0
  0
VERTEX
  5
7EE
330
7EB
100
AcDbEntity
  8
Ebene 1
370
     0
100
AcDbVertex
100
AcDb2dVertex
 10
641.912109375
 20
511.2060546875
 30
0.0
  0
VERTEX
  5
7EF
330
7EB
100
AcDbEntity
  8
Ebene 1
370
     0
100
AcDbVertex
100
AcDb2dVertex
 10
659.07421875
 20
511.2060546875
 30
0.0
  0
SEQEND
  5
7F0
330
7EB
100
AcDbEntity
  8
Ebene 1
370
     0
  0
POLYLINE
  5
7F1
330
3C
100
AcDbEntity
  8
Ebene 1
370
     0
100
AcDb2dPolyline
 66
     1
 10
0.0
 20
0.0
 30
0.0
  0
VERTEX
  5
7F2
330
7F1
100
AcDbEntity
  8
Ebene 1
370
     0
100
AcDbVertex
100
AcDb2dVertex
 10
641.912109375
 20
525.63232421875
 30
0.0
  0
VERTEX
  5
7F3
330
7F1
100
AcDbEntity
  8
Ebene 1
370
     0
100
AcDbVertex
100
AcDb2dVertex
 10
653.337890625
 20
519.05908203125
 30
0.0
  0
VERTEX
  5
7F4
330
7F1
100
AcDbEntity
  8
Ebene 1
370
     0
100
AcDbVertex
100
AcDb2dVertex
 10
653.337890625
 20
528.89697265625
 30
0.0
  0
SEQEND
  5
7F5
330
7F1
100
AcDbEntity
  8
Ebene 1
370
     0
  0
POLYLINE
  5
7F6
330
3C
100
AcDbEntity
  8
Ebene 1
370
     0
100
AcDb2dPolyline
 66
     1
 10
0.0
 20
0.0
 30
0.0
  0
VERTEX
  5
7F7
330
7F6
100
AcDbEntity
  8
Ebene 1
370
     0
100
AcDbVertex
100
AcDb2dVertex
 10
641.912109375
 20
525.63232421875
 30
0.0
  0
VERTEX
  5
7F8
330
7F6
100
AcDbEntity
  8
Ebene 1
370
     0
100
AcDbVertex
100
AcDb2dVertex
 10
659.07421875
 20
525.63232421875
 30
0.0
  0
SEQEND
  5
7F9
330
7F6
100
AcDbEntity
  8
Ebene 1
370
     0
  0
POLYLINE
  5
7FA
330
3C
100
AcDbEntity
  8
Ebene 1
370
     0
100
AcDb2dPolyline
 66
     1
 10
0.0
 20
0.0
 30
0.0
  0
VERTEX
  5
7FB
330
7FA
100
AcDbEntity
  8
Ebene 1
370
     0
100
AcDbVertex
100
AcDb2dVertex
 10
657.44140625
 20
533.4853515625
 30
0.0
  0
VERTEX
  5
7FC
330
7FA
100
AcDbEntity
  8
Ebene 1
370
     0
100
AcDbVertex
100
AcDb2dVertex
 10
658.279296875
 20
532.82373046875
 30
0.0
  0
VERTEX
  5
7FD
330
7FA
100
AcDbEntity
  8
Ebene 1
370
     0
100
AcDbVertex
100
AcDb2dVertex
 10
659.07421875
 20
533.4853515625
 30
0.0
  0
VERTEX
  5
7FE
330
7FA
100
AcDbEntity
  8
Ebene 1
370
     0
100
AcDbVertex
100
AcDb2dVertex
 10
658.279296875
 20
534.14697265625
 30
0.0
  0
VERTEX
  5
7FF
330
7FA
100
AcDbEntity
  8
Ebene 1
370
     0
100
AcDbVertex
100
AcDb2dVertex
 10
657.44140625
 20
533.4853515625
 30
0.0
  0
VERTEX
  5
800
330
7FA
100
AcDbEntity
  8
Ebene 1
370
     0
100
AcDbVertex
100
AcDb2dVertex
 10
657.44140625
 20
533.4853515625
 30
0.0
  0
SEQEND
  5
801
330
7FA
100
AcDbEntity
  8
Ebene 1
370
     0
  0
POLYLINE
  5
802
330
3C
100
AcDbEntity
  8
Ebene 1
370
     0
100
AcDb2dPolyline
 66
     1
 10
0.0
 20
0.0
 30
0.0
  0
VERTEX
  5
803
330
802
100
AcDbEntity
  8
Ebene 1
370
     0
100
AcDbVertex
100
AcDb2dVertex
 10
-96.0
 20
322.8671875
 30
0.0
  0
VERTEX
  5
804
330
802
100
AcDbEntity
  8
Ebene 1
370
     0
100
AcDbVertex
100
AcDb2dVertex
 10
-96.0
 20
322.8671875
 30
0.0
  0
SEQEND
  5
805
330
802
100
AcDbEntity
  8
Ebene 1
370
     0
  0
POLYLINE
  5
806
330
3C
100
AcDbEntity
  8
Ebene 1
370
     0
100
AcDb2dPolyline
 66
     1
 10
0.0
 20
0.0
 30
0.0
  0
VERTEX
  5
807
330
806
100
AcDbEntity
  8
Ebene 1
370
     0
100
AcDbVertex
100
AcDb2dVertex
 10
-96.0
 20
322.8671875
 30
0.0
  0
VERTEX
  5
808
330
806
100
AcDbEntity
  8
Ebene 1
370
     0
100
AcDbVertex
100
AcDb2dVertex
 10
-96.0
 20
322.8671875
 30
0.0
  0
SEQEND
  5
809
330
806
100
AcDbEntity
  8
Ebene 1
370
     0
  0
POLYLINE
  5
80A
330
3C
100
AcDbEntity
  8
Ebene 1
370
     0
100
AcDb2dPolyline
 66
     1
 10
0.0
 20
0.0
 30
0.0
  0
VERTEX
  5
80B
330
80A
100
AcDbEntity
  8
Ebene 1
370
     0
100
AcDbVertex
100
AcDb2dVertex
 10
-96.0
 20
322.8671875
 30
0.0
  0
VERTEX
  5
80C
330
80A
100
AcDbEntity
  8
Ebene 1
370
     0
100
AcDbVertex
100
AcDb2dVertex
 10
-96.0
 20
322.8671875
 30
0.0
  0
SEQEND
  5
80D
330
80A
100
AcDbEntity
  8
Ebene 1
370
     0
  0
POLYLINE
  5
80E
330
3C
100
AcDbEntity
  8
Ebene 1
370
     0
100
AcDb2dPolyline
 66
     1
 10
0.0
 20
0.0
 30
0.0
  0
VERTEX
  5
80F
330
80E
100
AcDbEntity
  8
Ebene 1
370
     0
100
AcDbVertex
100
AcDb2dVertex
 10
641.912109375
 20
546.58837890625
 30
0.0
  0
VERTEX
  5
810
330
80E
100
AcDbEntity
  8
Ebene 1
370
     0
100
AcDbVertex
100
AcDb2dVertex
 10
641.912109375
 20
540.05908203125
 30
0.0
  0
VERTEX
  5
811
330
80E
100
AcDbEntity
  8
Ebene 1
370
     0
100
AcDbVertex
100
AcDb2dVertex
 10
649.279296875
 20
539.39697265625
 30
0.0
  0
VERTEX
  5
812
330
80E
100
AcDbEntity
  8
Ebene 1
370
     0
100
AcDbVertex
100
AcDb2dVertex
 10
648.44140625
 20
540.05908203125
 30
0.0
  0
VERTEX
  5
813
330
80E
100
AcDbEntity
  8
Ebene 1
370
     0
100
AcDbVertex
100
AcDb2dVertex
 10
647.603515625
 20
542.0
 30
0.0
  0
VERTEX
  5
814
330
80E
100
AcDbEntity
  8
Ebene 1
370
     0
100
AcDbVertex
100
AcDb2dVertex
 10
647.603515625
 20
543.9853515625
 30
0.0
  0
VERTEX
  5
815
330
80E
100
AcDbEntity
  8
Ebene 1
370
     0
100
AcDbVertex
100
AcDb2dVertex
 10
648.44140625
 20
545.9267578125
 30
0.0
  0
VERTEX
  5
816
330
80E
100
AcDbEntity
  8
Ebene 1
370
     0
100
AcDbVertex
100
AcDb2dVertex
 10
650.07421875
 20
547.25
 30
0.0
  0
VERTEX
  5
817
330
80E
100
AcDbEntity
  8
Ebene 1
370
     0
100
AcDbVertex
100
AcDb2dVertex
 10
652.544921875
 20
547.912109375
 30
0.0
  0
VERTEX
  5
818
330
80E
100
AcDbEntity
  8
Ebene 1
370
     0
100
AcDbVertex
100
AcDb2dVertex
 10
654.17578125
 20
547.912109375
 30
0.0
  0
VERTEX
  5
819
330
80E
100
AcDbEntity
  8
Ebene 1
370
     0
100
AcDbVertex
100
AcDb2dVertex
 10
656.646484375
 20
547.25
 30
0.0
  0
VERTEX
  5
81A
330
80E
100
AcDbEntity
  8
Ebene 1
370
     0
100
AcDbVertex
100
AcDb2dVertex
 10
658.279296875
 20
545.9267578125
 30
0.0
  0
VERTEX
  5
81B
330
80E
100
AcDbEntity
  8
Ebene 1
370
     0
100
AcDbVertex
100
AcDb2dVertex
 10
659.07421875
 20
543.9853515625
 30
0.0
  0
VERTEX
  5
81C
330
80E
100
AcDbEntity
  8
Ebene 1
370
     0
100
AcDbVertex
100
AcDb2dVertex
 10
659.07421875
 20
542.0
 30
0.0
  0
VERTEX
  5
81D
330
80E
100
AcDbEntity
  8
Ebene 1
370
     0
100
AcDbVertex
100
AcDb2dVertex
 10
658.279296875
 20
540.05908203125
 30
0.0
  0
VERTEX
  5
81E
330
80E
100
AcDbEntity
  8
Ebene 1
370
     0
100
AcDbVertex
100
AcDb2dVertex
 10
657.44140625
 20
539.39697265625
 30
0.0
  0
VERTEX
  5
81F
330
80E
100
AcDbEntity
  8
Ebene 1
370
     0
100
AcDbVertex
100
AcDb2dVertex
 10
655.80859375
 20
538.7353515625
 30
0.0
  0
SEQEND
  5
820
330
80E
100
AcDbEntity
  8
Ebene 1
370
     0
  0
POLYLINE
  5
821
330
3C
100
AcDbEntity
  8
Ebene 1
370
     0
100
AcDb2dPolyline
 66
     1
 10
0.0
 20
0.0
 30
0.0
  0
VERTEX
  5
822
330
821
100
AcDbEntity
  8
Ebene 1
370
     0
100
AcDbVertex
100
AcDb2dVertex
 10
536.07421875
 20
444.72119140625
 30
0.0
  0
VERTEX
  5
823
330
821
100
AcDbEntity
  8
Ebene 1
370
     0
100
AcDbVertex
100
AcDb2dVertex
 10
536.07421875
 20
520.29443359375
 30
0.0
  0
SEQEND
  5
824
330
821
100
AcDbEntity
  8
Ebene 1
370
     0
  0
POLYLINE
  5
825
330
3C
100
AcDbEntity
  8
Ebene 1
370
     0
100
AcDb2dPolyline
 66
     1
 10
0.0
 20
0.0
 30
0.0
  0
VERTEX
  5
826
330
825
100
AcDbEntity
  8
Ebene 1
370
     0
100
AcDbVertex
100
AcDb2dVertex
 10
372.75
 20
447.58837890625
 30
0.0
  0
VERTEX
  5
827
330
825
100
AcDbEntity
  8
Ebene 1
370
     0
100
AcDbVertex
100
AcDb2dVertex
 10
372.75
 20
520.29443359375
 30
0.0
  0
SEQEND
  5
828
330
825
100
AcDbEntity
  8
Ebene 1
370
     0
  0
POLYLINE
  5
829
330
3C
100
AcDbEntity
  8
Ebene 1
370
     0
100
AcDb2dPolyline
 66
     1
 10
0.0
 20
0.0
 30
0.0
  0
VERTEX
  5
82A
330
829
100
AcDbEntity
  8
Ebene 1
370
     0
100
AcDbVertex
100
AcDb2dVertex
 10
521.7353515625
 20
508.82373046875
 30
0.0
  0
VERTEX
  5
82B
330
829
100
AcDbEntity
  8
Ebene 1
370
     0
100
AcDbVertex
100
AcDb2dVertex
 10
387.0439453125
 20
508.82373046875
 30
0.0
  0
SEQEND
  5
82C
330
829
100
AcDbEntity
  8
Ebene 1
370
     0
  0
POLYLINE
  5
82D
330
3C
100
AcDbEntity
  8
Ebene 1
370
     0
100
AcDb2dPolyline
 66
     1
 10
0.0
 20
0.0
 30
0.0
  0
VERTEX
  5
82E
330
82D
100
AcDbEntity
  8
Ebene 1
370
     0
100
AcDbVertex
100
AcDb2dVertex
 10
521.7353515625
 20
511.25
 30
0.0
  0
VERTEX
  5
82F
330
82D
100
AcDbEntity
  8
Ebene 1
370
     0
100
AcDbVertex
100
AcDb2dVertex
 10
521.7353515625
 20
506.44140625
 30
0.0
  0
VERTEX
  5
830
330
82D
100
AcDbEntity
  8
Ebene 1
370
     0
100
AcDbVertex
100
AcDb2dVertex
 10
536.07421875
 20
508.82373046875
 30
0.0
  0
VERTEX
  5
831
330
82D
100
AcDbEntity
  8
Ebene 1
370
     0
100
AcDbVertex
100
AcDb2dVertex
 10
521.7353515625
 20
511.25
 30
0.0
  0
SEQEND
  5
832
330
82D
100
AcDbEntity
  8
Ebene 1
370
     0
  0
HATCH
  5
833
330
3C
100
AcDbEntity
  8
Ebene 1
 62
   251
420
  6710886
100
AcDbHatch
 10
0.0
 20
0.0
 30
0.0
210
0.0
220
0.0
230
1.0
  2
SOLID
 70
     1
 71
     0
 91
        1
 92
        1
 93
        3
 72
     1
 10
521.7353515625
 20
511.25
 11
521.7353515625
 21
506.44140625
 72
     1
 10
521.7353515625
 20
506.44140625
 11
536.07421875
 21
508.82373046875
 72
     1
 10
536.07421875
 20
508.82373046875
 11
521.7353515625
 21
511.25
 97
        0
 75
     0
 76
     1
 98
        0
  0
POLYLINE
  5
834
330
3C
100
AcDbEntity
  8
Ebene 1
370
     0
100
AcDb2dPolyline
 66
     1
 10
0.0
 20
0.0
 30
0.0
  0
VERTEX
  5
835
330
834
100
AcDbEntity
  8
Ebene 1
370
     0
100
AcDbVertex
100
AcDb2dVertex
 10
387.0439453125
 20
511.25
 30
0.0
  0
VERTEX
  5
836
330
834
100
AcDbEntity
  8
Ebene 1
370
     0
100
AcDbVertex
100
AcDb2dVertex
 10
387.0439453125
 20
506.44140625
 30
0.0
  0
VERTEX
  5
837
330
834
100
AcDbEntity
  8
Ebene 1
370
     0
100
AcDbVertex
100
AcDb2dVertex
 10
372.75
 20
508.82373046875
 30
0.0
  0
VERTEX
  5
838
330
834
100
AcDbEntity
  8
Ebene 1
370
     0
100
AcDbVertex
100
AcDb2dVertex
 10
387.0439453125
 20
511.25
 30
0.0
  0
SEQEND
  5
839
330
834
100
AcDbEntity
  8
Ebene 1
370
     0
  0
HATCH
  5
83A
330
3C
100
AcDbEntity
  8
Ebene 1
 62
   251
420
  6710886
100
AcDbHatch
 10
0.0
 20
0.0
 30
0.0
210
0.0
220
0.0
230
1.0
  2
SOLID
 70
     1
 71
     0
 91
        1
 92
        1
 93
        3
 72
     1
 10
387.0439453125
 20
511.25
 11
387.0439453125
 21
506.44140625
 72
     1
 10
387.0439453125
 20
506.44140625
 11
372.75
 21
508.82373046875
 72
     1
 10
372.75
 20
508.82373046875
 11
387.0439453125
 21
511.25
 97
        0
 75
     0
 76
     1
 98
        0
  0
POLYLINE
  5
83B
330
3C
100
AcDbEntity
  8
Ebene 1
370
     0
100
AcDb2dPolyline
 66
     1
 10
0.0
 20
0.0
 30
0.0
  0
VERTEX
  5
83C
330
83B
100
AcDbEntity
  8
Ebene 1
370
     0
100
AcDbVertex
100
AcDb2dVertex
 10
-96.0
 20
322.8671875
 30
0.0
  0
VERTEX
  5
83D
330
83B
100
AcDbEntity
  8
Ebene 1
370
     0
100
AcDbVertex
100
AcDb2dVertex
 10
-96.0
 20
322.8671875
 30
0.0
  0
SEQEND
  5
83E
330
83B
100
AcDbEntity
  8
Ebene 1
370
     0
  0
POLYLINE
  5
83F
330
3C
100
AcDbEntity
  8
Ebene 1
370
     0
100
AcDb2dPolyline
 66
     1
 10
0.0
 20
0.0
 30
0.0
  0
VERTEX
  5
840
330
83F
100
AcDbEntity
  8
Ebene 1
370
     0
100
AcDbVertex
100
AcDb2dVertex
 10
-96.0
 20
322.8671875
 30
0.0
  0
VERTEX
  5
841
330
83F
100
AcDbEntity
  8
Ebene 1
370
     0
100
AcDbVertex
100
AcDb2dVertex
 10
-96.0
 20
322.8671875
 30
0.0
  0
SEQEND
  5
842
330
83F
100
AcDbEntity
  8
Ebene 1
370
     0
  0
POLYLINE
  5
843
330
3C
100
AcDbEntity
  8
Ebene 1
370
     0
100
AcDb2dPolyline
 66
     1
 10
0.0
 20
0.0
 30
0.0
  0
VERTEX
  5
844
330
843
100
AcDbEntity
  8
Ebene 1
370
     0
100
AcDbVertex
100
AcDb2dVertex
 10
-96.0
 20
322.8671875
 30
0.0
  0
VERTEX
  5
845
330
843
100
AcDbEntity
  8
Ebene 1
370
     0
100
AcDbVertex
100
AcDb2dVertex
 10
-96.0
 20
322.8671875
 30
0.0
  0
SEQEND
  5
846
330
843
100
AcDbEntity
  8
Ebene 1
370
     0
  0
POLYLINE
  5
847
330
3C
100
AcDbEntity
  8
Ebene 1
370
     0
100
AcDb2dPolyline
 66
     1
 10
0.0
 20
0.0
 30
0.0
  0
VERTEX
  5
848
330
847
100
AcDbEntity
  8
Ebene 1
370
     0
100
AcDbVertex
100
AcDb2dVertex
 10
451.103515625
 20
531.7646484375
 30
0.0
  0
VERTEX
  5
849
330
847
100
AcDbEntity
  8
Ebene 1
370
     0
100
AcDbVertex
100
AcDb2dVertex
 10
444.57421875
 20
531.7646484375
 30
0.0
  0
VERTEX
  5
84A
330
847
100
AcDbEntity
  8
Ebene 1
370
     0
100
AcDbVertex
100
AcDb2dVertex
 10
443.912109375
 20
524.39697265625
 30
0.0
  0
VERTEX
  5
84B
330
847
100
AcDbEntity
  8
Ebene 1
370
     0
100
AcDbVertex
100
AcDb2dVertex
 10
444.57421875
 20
525.2353515625
 30
0.0
  0
VERTEX
  5
84C
330
847
100
AcDbEntity
  8
Ebene 1
370
     0
100
AcDbVertex
100
AcDb2dVertex
 10
446.5146484375
 20
526.02978515625
 30
0.0
  0
VERTEX
  5
84D
330
847
100
AcDbEntity
  8
Ebene 1
370
     0
100
AcDbVertex
100
AcDb2dVertex
 10
448.5
 20
526.02978515625
 30
0.0
  0
VERTEX
  5
84E
330
847
100
AcDbEntity
  8
Ebene 1
370
     0
100
AcDbVertex
100
AcDb2dVertex
 10
450.4853515625
 20
525.2353515625
 30
0.0
  0
VERTEX
  5
84F
330
847
100
AcDbEntity
  8
Ebene 1
370
     0
100
AcDbVertex
100
AcDb2dVertex
 10
451.7646484375
 20
523.60302734375
 30
0.0
  0
VERTEX
  5
850
330
847
100
AcDbEntity
  8
Ebene 1
370
     0
100
AcDbVertex
100
AcDb2dVertex
 10
452.42578125
 20
521.13232421875
 30
0.0
  0
VERTEX
  5
851
330
847
100
AcDbEntity
  8
Ebene 1
370
     0
100
AcDbVertex
100
AcDb2dVertex
 10
452.42578125
 20
519.5
 30
0.0
  0
VERTEX
  5
852
330
847
100
AcDbEntity
  8
Ebene 1
370
     0
100
AcDbVertex
100
AcDb2dVertex
 10
451.7646484375
 20
517.02978515625
 30
0.0
  0
VERTEX
  5
853
330
847
100
AcDbEntity
  8
Ebene 1
370
     0
100
AcDbVertex
100
AcDb2dVertex
 10
450.4853515625
 20
515.39697265625
 30
0.0
  0
VERTEX
  5
854
330
847
100
AcDbEntity
  8
Ebene 1
370
     0
100
AcDbVertex
100
AcDb2dVertex
 10
448.5
 20
514.55908203125
 30
0.0
  0
VERTEX
  5
855
330
847
100
AcDbEntity
  8
Ebene 1
370
     0
100
AcDbVertex
100
AcDb2dVertex
 10
446.5146484375
 20
514.55908203125
 30
0.0
  0
VERTEX
  5
856
330
847
100
AcDbEntity
  8
Ebene 1
370
     0
100
AcDbVertex
100
AcDb2dVertex
 10
444.57421875
 20
515.39697265625
 30
0.0
  0
VERTEX
  5
857
330
847
100
AcDbEntity
  8
Ebene 1
370
     0
100
AcDbVertex
100
AcDb2dVertex
 10
443.912109375
 20
516.2353515625
 30
0.0
  0
VERTEX
  5
858
330
847
100
AcDbEntity
  8
Ebene 1
370
     0
100
AcDbVertex
100
AcDb2dVertex
 10
443.25
 20
517.86767578125
 30
0.0
  0
SEQEND
  5
859
330
847
100
AcDbEntity
  8
Ebene 1
370
     0
  0
POLYLINE
  5
85A
330
3C
100
AcDbEntity
  8
Ebene 1
370
     0
100
AcDb2dPolyline
 66
     1
 10
0.0
 20
0.0
 30
0.0
  0
VERTEX
  5
85B
330
85A
100
AcDbEntity
  8
Ebene 1
370
     0
100
AcDbVertex
100
AcDb2dVertex
 10
465.529296875
 20
531.7646484375
 30
0.0
  0
VERTEX
  5
85C
330
85A
100
AcDbEntity
  8
Ebene 1
370
     0
100
AcDbVertex
100
AcDb2dVertex
 10
459.0
 20
514.55908203125
 30
0.0
  0
SEQEND
  5
85D
330
85A
100
AcDbEntity
  8
Ebene 1
370
     0
  0
POLYLINE
  5
85E
330
3C
100
AcDbEntity
  8
Ebene 1
370
     0
100
AcDb2dPolyline
 66
     1
 10
0.0
 20
0.0
 30
0.0
  0
VERTEX
  5
85F
330
85E
100
AcDbEntity
  8
Ebene 1
370
     0
100
AcDbVertex
100
AcDb2dVertex
 10
456.353515625
 20
531.7646484375
 30
0.0
  0
VERTEX
  5
860
330
85E
100
AcDbEntity
  8
Ebene 1
370
     0
100
AcDbVertex
100
AcDb2dVertex
 10
465.529296875
 20
531.7646484375
 30
0.0
  0
SEQEND
  5
861
330
85E
100
AcDbEntity
  8
Ebene 1
370
     0
  0
POLYLINE
  5
862
330
3C
100
AcDbEntity
  8
Ebene 1
370
     0
100
AcDb2dPolyline
 66
     1
 10
0.0
 20
0.0
 30
0.0
  0
VERTEX
  5
863
330
862
100
AcDbEntity
  8
Ebene 1
370
     0
100
AcDbVertex
100
AcDb2dVertex
 10
373.853515625
 20
367.294921875
 30
0.0
  0
VERTEX
  5
864
330
862
100
AcDbEntity
  8
Ebene 1
370
     0
100
AcDbVertex
100
AcDb2dVertex
 10
338.42578125
 20
367.294921875
 30
0.0
  0
SEQEND
  5
865
330
862
100
AcDbEntity
  8
Ebene 1
370
     0
  0
POLYLINE
  5
866
330
3C
100
AcDbEntity
  8
Ebene 1
370
     0
100
AcDb2dPolyline
 66
     1
 10
0.0
 20
0.0
 30
0.0
  0
VERTEX
  5
867
330
866
100
AcDbEntity
  8
Ebene 1
370
     0
100
AcDbVertex
100
AcDb2dVertex
 10
375.75
 20
487.7353515625
 30
0.0
  0
VERTEX
  5
868
330
866
100
AcDbEntity
  8
Ebene 1
370
     0
100
AcDbVertex
100
AcDb2dVertex
 10
338.42578125
 20
487.7353515625
 30
0.0
  0
SEQEND
  5
869
330
866
100
AcDbEntity
  8
Ebene 1
370
     0
  0
POLYLINE
  5
86A
330
3C
100
AcDbEntity
  8
Ebene 1
370
     0
100
AcDb2dPolyline
 66
     1
 10
0.0
 20
0.0
 30
0.0
  0
VERTEX
  5
86B
330
86A
100
AcDbEntity
  8
Ebene 1
370
     0
100
AcDbVertex
100
AcDb2dVertex
 10
349.896484375
 20
381.6328125
 30
0.0
  0
VERTEX
  5
86C
330
86A
100
AcDbEntity
  8
Ebene 1
370
     0
100
AcDbVertex
100
AcDb2dVertex
 10
349.896484375
 20
473.39697265625
 30
0.0
  0
SEQEND
  5
86D
330
86A
100
AcDbEntity
  8
Ebene 1
370
     0
  0
POLYLINE
  5
86E
330
3C
100
AcDbEntity
  8
Ebene 1
370
     0
100
AcDb2dPolyline
 66
     1
 10
0.0
 20
0.0
 30
0.0
  0
VERTEX
  5
86F
330
86E
100
AcDbEntity
  8
Ebene 1
370
     0
100
AcDbVertex
100
AcDb2dVertex
 10
347.5146484375
 20
381.6328125
 30
0.0
  0
VERTEX
  5
870
330
86E
100
AcDbEntity
  8
Ebene 1
370
     0
100
AcDbVertex
100
AcDb2dVertex
 10
352.279296875
 20
381.6328125
 30
0.0
  0
VERTEX
  5
871
330
86E
100
AcDbEntity
  8
Ebene 1
370
     0
100
AcDbVertex
100
AcDb2dVertex
 10
349.896484375
 20
367.294921875
 30
0.0
  0
VERTEX
  5
872
330
86E
100
AcDbEntity
  8
Ebene 1
370
     0
100
AcDbVertex
100
AcDb2dVertex
 10
347.5146484375
 20
381.6328125
 30
0.0
  0
SEQEND
  5
873
330
86E
100
AcDbEntity
  8
Ebene 1
370
     0
  0
HATCH
  5
874
330
3C
100
AcDbEntity
  8
Ebene 1
 62
   251
420
  6710886
100
AcDbHatch
 10
0.0
 20
0.0
 30
0.0
210
0.0
220
0.0
230
1.0
  2
SOLID
 70
     1
 71
     0
 91
        1
 92
        1
 93
        3
 72
     1
 10
347.5146484375
 20
381.6328125
 11
352.279296875
 21
381.6328125
 72
     1
 10
352.279296875
 20
381.6328125
 11
349.896484375
 21
367.294921875
 72
     1
 10
349.896484375
 20
367.294921875
 11
347.5146484375
 21
381.6328125
 97
        0
 75
     0
 76
     1
 98
        0
  0
POLYLINE
  5
875
330
3C
100
AcDbEntity
  8
Ebene 1
370
     0
100
AcDb2dPolyline
 66
     1
 10
0.0
 20
0.0
 30
0.0
  0
VERTEX
  5
876
330
875
100
AcDbEntity
  8
Ebene 1
370
     0
100
AcDbVertex
100
AcDb2dVertex
 10
347.5146484375
 20
473.39697265625
 30
0.0
  0
VERTEX
  5
877
330
875
100
AcDbEntity
  8
Ebene 1
370
     0
100
AcDbVertex
100
AcDb2dVertex
 10
352.279296875
 20
473.39697265625
 30
0.0
  0
VERTEX
  5
878
330
875
100
AcDbEntity
  8
Ebene 1
370
     0
100
AcDbVertex
100
AcDb2dVertex
 10
349.896484375
 20
487.7353515625
 30
0.0
  0
VERTEX
  5
879
330
875
100
AcDbEntity
  8
Ebene 1
370
     0
100
AcDbVertex
100
AcDb2dVertex
 10
347.5146484375
 20
473.39697265625
 30
0.0
  0
SEQEND
  5
87A
330
875
100
AcDbEntity
  8
Ebene 1
370
     0
  0
HATCH
  5
87B
330
3C
100
AcDbEntity
  8
Ebene 1
 62
   251
420
  6710886
100
AcDbHatch
 10
0.0
 20
0.0
 30
0.0
210
0.0
220
0.0
230
1.0
  2
SOLID
 70
     1
 71
     0
 91
        1
 92
        1
 93
        3
 72
     1
 10
347.5146484375
 20
473.39697265625
 11
352.279296875
 21
473.39697265625
 72
     1
 10
352.279296875
 20
473.39697265625
 11
349.896484375
 21
487.7353515625
 72
     1
 10
349.896484375
 20
487.7353515625
 11
347.5146484375
 21
473.39697265625
 97
        0
 75
     0
 76
     1
 98
        0
  0
POLYLINE
  5
87C
330
3C
100
AcDbEntity
  8
Ebene 1
370
     0
100
AcDb2dPolyline
 66
     1
 10
0.0
 20
0.0
 30
0.0
  0
VERTEX
  5
87D
330
87C
100
AcDbEntity
  8
Ebene 1
370
     0
100
AcDbVertex
100
AcDb2dVertex
 10
-96.0
 20
322.8671875
 30
0.0
  0
VERTEX
  5
87E
330
87C
100
AcDbEntity
  8
Ebene 1
370
     0
100
AcDbVertex
100
AcDb2dVertex
 10
-96.0
 20
322.8671875
 30
0.0
  0
SEQEND
  5
87F
330
87C
100
AcDbEntity
  8
Ebene 1
370
     0
  0
POLYLINE
  5
880
330
3C
100
AcDbEntity
  8
Ebene 1
370
     0
100
AcDb2dPolyline
 66
     1
 10
0.0
 20
0.0
 30
0.0
  0
VERTEX
  5
881
330
880
100
AcDbEntity
  8
Ebene 1
370
     0
100
AcDbVertex
100
AcDb2dVertex
 10
-96.0
 20
322.8671875
 30
0.0
  0
VERTEX
  5
882
330
880
100
AcDbEntity
  8
Ebene 1
370
     0
100
AcDbVertex
100
AcDb2dVertex
 10
-96.0
 20
322.8671875
 30
0.0
  0
SEQEND
  5
883
330
880
100
AcDbEntity
  8
Ebene 1
370
     0
  0
POLYLINE
  5
884
330
3C
100
AcDbEntity
  8
Ebene 1
370
     0
100
AcDb2dPolyline
 66
     1
 10
0.0
 20
0.0
 30
0.0
  0
VERTEX
  5
885
330
884
100
AcDbEntity
  8
Ebene 1
370
     0
100
AcDbVertex
100
AcDb2dVertex
 10
-96.0
 20
322.8671875
 30
0.0
  0
VERTEX
  5
886
330
884
100
AcDbEntity
  8
Ebene 1
370
     0
100
AcDbVertex
100
AcDb2dVertex
 10
-96.0
 20
322.8671875
 30
0.0
  0
SEQEND
  5
887
330
884
100
AcDbEntity
  8
Ebene 1
370
     0
  0
POLYLINE
  5
888
330
3C
100
AcDbEntity
  8
Ebene 1
370
     0
100
AcDb2dPolyline
 66
     1
 10
0.0
 20
0.0
 30
0.0
  0
VERTEX
  5
889
330
888
100
AcDbEntity
  8
Ebene 1
370
     0
100
AcDbVertex
100
AcDb2dVertex
 10
326.9560546875
 20
422.92626953125
 30
0.0
  0
VERTEX
  5
88A
330
888
100
AcDbEntity
  8
Ebene 1
370
     0
100
AcDbVertex
100
AcDb2dVertex
 10
338.42578125
 20
416.39697265625
 30
0.0
  0
VERTEX
  5
88B
330
888
100
AcDbEntity
  8
Ebene 1
370
     0
100
AcDbVertex
100
AcDb2dVertex
 10
338.42578125
 20
426.19091796875
 30
0.0
  0
SEQEND
  5
88C
330
888
100
AcDbEntity
  8
Ebene 1
370
     0
  0
POLYLINE
  5
88D
330
3C
100
AcDbEntity
  8
Ebene 1
370
     0
100
AcDb2dPolyline
 66
     1
 10
0.0
 20
0.0
 30
0.0
  0
VERTEX
  5
88E
330
88D
100
AcDbEntity
  8
Ebene 1
370
     0
100
AcDbVertex
100
AcDb2dVertex
 10
326.9560546875
 20
422.92626953125
 30
0.0
  0
VERTEX
  5
88F
330
88D
100
AcDbEntity
  8
Ebene 1
370
     0
100
AcDbVertex
100
AcDb2dVertex
 10
344.162109375
 20
422.92626953125
 30
0.0
  0
SEQEND
  5
890
330
88D
100
AcDbEntity
  8
Ebene 1
370
     0
  0
POLYLINE
  5
891
330
3C
100
AcDbEntity
  8
Ebene 1
370
     0
100
AcDb2dPolyline
 66
     1
 10
0.0
 20
0.0
 30
0.0
  0
VERTEX
  5
892
330
891
100
AcDbEntity
  8
Ebene 1
370
     0
100
AcDbVertex
100
AcDb2dVertex
 10
331.05859375
 20
430.16162109375
 30
0.0
  0
VERTEX
  5
893
330
891
100
AcDbEntity
  8
Ebene 1
370
     0
100
AcDbVertex
100
AcDb2dVertex
 10
330.220703125
 20
430.16162109375
 30
0.0
  0
VERTEX
  5
894
330
891
100
AcDbEntity
  8
Ebene 1
370
     0
100
AcDbVertex
100
AcDb2dVertex
 10
328.587890625
 20
430.77978515625
 30
0.0
  0
VERTEX
  5
895
330
891
100
AcDbEntity
  8
Ebene 1
370
     0
100
AcDbVertex
100
AcDb2dVertex
 10
327.7939453125
 20
431.44091796875
 30
0.0
  0
VERTEX
  5
896
330
891
100
AcDbEntity
  8
Ebene 1
370
     0
100
AcDbVertex
100
AcDb2dVertex
 10
326.9560546875
 20
432.76513671875
 30
0.0
  0
VERTEX
  5
897
330
891
100
AcDbEntity
  8
Ebene 1
370
     0
100
AcDbVertex
100
AcDb2dVertex
 10
326.9560546875
 20
435.36767578125
 30
0.0
  0
VERTEX
  5
898
330
891
100
AcDbEntity
  8
Ebene 1
370
     0
100
AcDbVertex
100
AcDb2dVertex
 10
327.7939453125
 20
436.69091796875
 30
0.0
  0
VERTEX
  5
899
330
891
100
AcDbEntity
  8
Ebene 1
370
     0
100
AcDbVertex
100
AcDb2dVertex
 10
328.587890625
 20
437.35302734375
 30
0.0
  0
VERTEX
  5
89A
330
891
100
AcDbEntity
  8
Ebene 1
370
     0
100
AcDbVertex
100
AcDb2dVertex
 10
330.220703125
 20
438.01513671875
 30
0.0
  0
VERTEX
  5
89B
330
891
100
AcDbEntity
  8
Ebene 1
370
     0
100
AcDbVertex
100
AcDb2dVertex
 10
331.896484375
 20
438.01513671875
 30
0.0
  0
VERTEX
  5
89C
330
891
100
AcDbEntity
  8
Ebene 1
370
     0
100
AcDbVertex
100
AcDb2dVertex
 10
333.529296875
 20
437.35302734375
 30
0.0
  0
VERTEX
  5
89D
330
891
100
AcDbEntity
  8
Ebene 1
370
     0
100
AcDbVertex
100
AcDb2dVertex
 10
335.9560546875
 20
436.02978515625
 30
0.0
  0
VERTEX
  5
89E
330
891
100
AcDbEntity
  8
Ebene 1
370
     0
100
AcDbVertex
100
AcDb2dVertex
 10
344.162109375
 20
429.50048828125
 30
0.0
  0
VERTEX
  5
89F
330
891
100
AcDbEntity
  8
Ebene 1
370
     0
100
AcDbVertex
100
AcDb2dVertex
 10
344.162109375
 20
438.67626953125
 30
0.0
  0
SEQEND
  5
8A0
330
891
100
AcDbEntity
  8
Ebene 1
370
     0
  0
POLYLINE
  5
8A1
330
3C
100
AcDbEntity
  8
Ebene 1
370
     0
100
AcDb2dPolyline
 66
     1
 10
0.0
 20
0.0
 30
0.0
  0
VERTEX
  5
8A2
330
8A1
100
AcDbEntity
  8
Ebene 1
370
     0
100
AcDbVertex
100
AcDb2dVertex
 10
548.3828125
 20
448.55908203125
 30
0.0
  0
VERTEX
  5
8A3
330
8A1
100
AcDbEntity
  8
Ebene 1
370
     0
100
AcDbVertex
100
AcDb2dVertex
 10
548.3828125
 20
464.35302734375
 30
0.0
  0
SEQEND
  5
8A4
330
8A1
100
AcDbEntity
  8
Ebene 1
370
     0
  0
POLYLINE
  5
8A5
330
3C
100
AcDbEntity
  8
Ebene 1
370
     0
100
AcDb2dPolyline
 66
     1
 10
0.0
 20
0.0
 30
0.0
  0
VERTEX
  5
8A6
330
8A5
100
AcDbEntity
  8
Ebene 1
370
     0
100
AcDbVertex
100
AcDb2dVertex
 10
545.779296875
 20
448.47119140625
 30
0.0
  0
VERTEX
  5
8A7
330
8A5
100
AcDbEntity
  8
Ebene 1
370
     0
100
AcDbVertex
100
AcDb2dVertex
 10
545.779296875
 20
448.55908203125
 30
0.0
  0
SEQEND
  5
8A8
330
8A5
100
AcDbEntity
  8
Ebene 1
370
     0
  0
POLYLINE
  5
8A9
330
3C
100
AcDbEntity
  8
Ebene 1
370
     0
100
AcDb2dPolyline
 66
     1
 10
0.0
 20
0.0
 30
0.0
  0
VERTEX
  5
8AA
330
8A9
100
AcDbEntity
  8
Ebene 1
370
     0
100
AcDbVertex
100
AcDb2dVertex
 10
545.779296875
 20
464.35302734375
 30
0.0
  0
VERTEX
  5
8AB
330
8A9
100
AcDbEntity
  8
Ebene 1
370
     0
100
AcDbVertex
100
AcDb2dVertex
 10
545.779296875
 20
464.44140625
 30
0.0
  0
SEQEND
  5
8AC
330
8A9
100
AcDbEntity
  8
Ebene 1
370
     0
  0
POLYLINE
  5
8AD
330
3C
100
AcDbEntity
  8
Ebene 1
370
     0
100
AcDb2dPolyline
 66
     1
 10
0.0
 20
0.0
 30
0.0
  0
VERTEX
  5
8AE
330
8AD
100
AcDbEntity
  8
Ebene 1
370
     0
100
AcDbVertex
100
AcDb2dVertex
 10
542.82421875
 20
434.04443359375
 30
0.0
  0
VERTEX
  5
8AF
330
8AD
100
AcDbEntity
  8
Ebene 1
370
     0
100
AcDbVertex
100
AcDb2dVertex
 10
542.82421875
 20
436.20556640625
 30
0.0
  0
SEQEND
  5
8B0
330
8AD
100
AcDbEntity
  8
Ebene 1
370
     0
  0
POLYLINE
  5
8B1
330
3C
100
AcDbEntity
  8
Ebene 1
370
     0
100
AcDb2dPolyline
 66
     1
 10
0.0
 20
0.0
 30
0.0
  0
VERTEX
  5
8B2
330
8B1
100
AcDbEntity
  8
Ebene 1
370
     0
100
AcDbVertex
100
AcDb2dVertex
 10
542.82421875
 20
441.94091796875
 30
0.0
  0
VERTEX
  5
8B3
330
8B1
100
AcDbEntity
  8
Ebene 1
370
     0
100
AcDbVertex
100
AcDb2dVertex
 10
542.82421875
 20
442.73583984375
 30
0.0
  0
SEQEND
  5
8B4
330
8B1
100
AcDbEntity
  8
Ebene 1
370
     0
  0
POLYLINE
  5
8B5
330
3C
100
AcDbEntity
  8
Ebene 1
370
     0
100
AcDb2dPolyline
 66
     1
 10
0.0
 20
0.0
 30
0.0
  0
VERTEX
  5
8B6
330
8B5
100
AcDbEntity
  8
Ebene 1
370
     0
100
AcDbVertex
100
AcDb2dVertex
 10
542.82421875
 20
470.1767578125
 30
0.0
  0
VERTEX
  5
8B7
330
8B5
100
AcDbEntity
  8
Ebene 1
370
     0
100
AcDbVertex
100
AcDb2dVertex
 10
542.82421875
 20
470.61767578125
 30
0.0
  0
SEQEND
  5
8B8
330
8B5
100
AcDbEntity
  8
Ebene 1
370
     0
  0
POLYLINE
  5
8B9
330
3C
100
AcDbEntity
  8
Ebene 1
370
     0
100
AcDb2dPolyline
 66
     1
 10
0.0
 20
0.0
 30
0.0
  0
VERTEX
  5
8BA
330
8B9
100
AcDbEntity
  8
Ebene 1
370
     0
100
AcDbVertex
100
AcDb2dVertex
 10
542.82421875
 20
476.35302734375
 30
0.0
  0
VERTEX
  5
8BB
330
8B9
100
AcDbEntity
  8
Ebene 1
370
     0
100
AcDbVertex
100
AcDb2dVertex
 10
542.82421875
 20
478.5146484375
 30
0.0
  0
SEQEND
  5
8BC
330
8B9
100
AcDbEntity
  8
Ebene 1
370
     0
  0
POLYLINE
  5
8BD
330
3C
100
AcDbEntity
  8
Ebene 1
370
     0
100
AcDb2dPolyline
 66
     1
 10
0.0
 20
0.0
 30
0.0
  0
VERTEX
  5
8BE
330
8BD
100
AcDbEntity
  8
Ebene 1
370
     0
100
AcDbVertex
100
AcDb2dVertex
 10
555.57421875
 20
464.44140625
 30
0.0
  0
VERTEX
  5
8BF
330
8BD
100
AcDbEntity
  8
Ebene 1
370
     0
100
AcDbVertex
100
AcDb2dVertex
 10
555.57421875
 20
470.1767578125
 30
0.0
  0
SEQEND
  5
8C0
330
8BD
100
AcDbEntity
  8
Ebene 1
370
     0
  0
POLYLINE
  5
8C1
330
3C
100
AcDbEntity
  8
Ebene 1
370
     0
100
AcDb2dPolyline
 66
     1
 10
0.0
 20
0.0
 30
0.0
  0
VERTEX
  5
8C2
330
8C1
100
AcDbEntity
  8
Ebene 1
370
     0
100
AcDbVertex
100
AcDb2dVertex
 10
555.57421875
 20
442.73583984375
 30
0.0
  0
VERTEX
  5
8C3
330
8C1
100
AcDbEntity
  8
Ebene 1
370
     0
100
AcDbVertex
100
AcDb2dVertex
 10
555.57421875
 20
448.47119140625
 30
0.0
  0
SEQEND
  5
8C4
330
8C1
100
AcDbEntity
  8
Ebene 1
370
     0
  0
POLYLINE
  5
8C5
330
3C
100
AcDbEntity
  8
Ebene 1
370
     0
100
AcDb2dPolyline
 66
     1
 10
0.0
 20
0.0
 30
0.0
  0
VERTEX
  5
8C6
330
8C5
100
AcDbEntity
  8
Ebene 1
370
     0
100
AcDbVertex
100
AcDb2dVertex
 10
535.7646484375
 20
448.55908203125
 30
0.0
  0
VERTEX
  5
8C7
330
8C5
100
AcDbEntity
  8
Ebene 1
370
     0
100
AcDbVertex
100
AcDb2dVertex
 10
548.3828125
 20
448.55908203125
 30
0.0
  0
SEQEND
  5
8C8
330
8C5
100
AcDbEntity
  8
Ebene 1
370
     0
  0
POLYLINE
  5
8C9
330
3C
100
AcDbEntity
  8
Ebene 1
370
     0
100
AcDb2dPolyline
 66
     1
 10
0.0
 20
0.0
 30
0.0
  0
VERTEX
  5
8CA
330
8C9
100
AcDbEntity
  8
Ebene 1
370
     0
100
AcDbVertex
100
AcDb2dVertex
 10
535.5439453125
 20
464.35302734375
 30
0.0
  0
VERTEX
  5
8CB
330
8C9
100
AcDbEntity
  8
Ebene 1
370
     0
100
AcDbVertex
100
AcDb2dVertex
 10
548.3828125
 20
464.35302734375
 30
0.0
  0
SEQEND
  5
8CC
330
8C9
100
AcDbEntity
  8
Ebene 1
370
     0
  0
POLYLINE
  5
8CD
330
3C
100
AcDbEntity
  8
Ebene 1
370
     0
100
AcDb2dPolyline
 66
     1
 10
0.0
 20
0.0
 30
0.0
  0
VERTEX
  5
8CE
330
8CD
100
AcDbEntity
  8
Ebene 1
370
     0
100
AcDbVertex
100
AcDb2dVertex
 10
535.9853515625
 20
434.04443359375
 30
0.0
  0
VERTEX
  5
8CF
330
8CD
100
AcDbEntity
  8
Ebene 1
370
     0
100
AcDbVertex
100
AcDb2dVertex
 10
542.82421875
 20
434.04443359375
 30
0.0
  0
SEQEND
  5
8D0
330
8CD
100
AcDbEntity
  8
Ebene 1
370
     0
  0
POLYLINE
  5
8D1
330
3C
100
AcDbEntity
  8
Ebene 1
370
     0
100
AcDb2dPolyline
 66
     1
 10
0.0
 20
0.0
 30
0.0
  0
VERTEX
  5
8D2
330
8D1
100
AcDbEntity
  8
Ebene 1
370
     0
100
AcDbVertex
100
AcDb2dVertex
 10
535.3671875
 20
478.5146484375
 30
0.0
  0
VERTEX
  5
8D3
330
8D1
100
AcDbEntity
  8
Ebene 1
370
     0
100
AcDbVertex
100
AcDb2dVertex
 10
542.82421875
 20
478.5146484375
 30
0.0
  0
SEQEND
  5
8D4
330
8D1
100
AcDbEntity
  8
Ebene 1
370
     0
  0
POLYLINE
  5
8D5
330
3C
100
AcDbEntity
  8
Ebene 1
370
     0
100
AcDb2dPolyline
 66
     1
 10
0.0
 20
0.0
 30
0.0
  0
VERTEX
  5
8D6
330
8D5
100
AcDbEntity
  8
Ebene 1
370
     0
100
AcDbVertex
100
AcDb2dVertex
 10
554.1171875
 20
464.44140625
 30
0.0
  0
VERTEX
  5
8D7
330
8D5
100
AcDbEntity
  8
Ebene 1
370
     0
100
AcDbVertex
100
AcDb2dVertex
 10
554.1171875
 20
470.1767578125
 30
0.0
  0
SEQEND
  5
8D8
330
8D5
100
AcDbEntity
  8
Ebene 1
370
     0
  0
POLYLINE
  5
8D9
330
3C
100
AcDbEntity
  8
Ebene 1
370
     0
100
AcDb2dPolyline
 66
     1
 10
0.0
 20
0.0
 30
0.0
  0
VERTEX
  5
8DA
330
8D9
100
AcDbEntity
  8
Ebene 1
370
     0
100
AcDbVertex
100
AcDb2dVertex
 10
535.5439453125
 20
464.44140625
 30
0.0
  0
VERTEX
  5
8DB
330
8D9
100
AcDbEntity
  8
Ebene 1
370
     0
100
AcDbVertex
100
AcDb2dVertex
 10
554.1171875
 20
464.44140625
 30
0.0
  0
SEQEND
  5
8DC
330
8D9
100
AcDbEntity
  8
Ebene 1
370
     0
  0
POLYLINE
  5
8DD
330
3C
100
AcDbEntity
  8
Ebene 1
370
     0
100
AcDb2dPolyline
 66
     1
 10
0.0
 20
0.0
 30
0.0
  0
VERTEX
  5
8DE
330
8DD
100
AcDbEntity
  8
Ebene 1
370
     0
100
AcDbVertex
100
AcDb2dVertex
 10
535.5
 20
470.1767578125
 30
0.0
  0
VERTEX
  5
8DF
330
8DD
100
AcDbEntity
  8
Ebene 1
370
     0
100
AcDbVertex
100
AcDb2dVertex
 10
554.1171875
 20
470.1767578125
 30
0.0
  0
SEQEND
  5
8E0
330
8DD
100
AcDbEntity
  8
Ebene 1
370
     0
  0
POLYLINE
  5
8E1
330
3C
100
AcDbEntity
  8
Ebene 1
370
     0
100
AcDb2dPolyline
 66
     1
 10
0.0
 20
0.0
 30
0.0
  0
VERTEX
  5
8E2
330
8E1
100
AcDbEntity
  8
Ebene 1
370
     0
100
AcDbVertex
100
AcDb2dVertex
 10
555.57421875
 20
464.44140625
 30
0.0
  0
VERTEX
  5
8E3
330
8E1
100
AcDbEntity
  8
Ebene 1
370
     0
100
AcDbVertex
100
AcDb2dVertex
 10
554.1171875
 20
464.44140625
 30
0.0
  0
SEQEND
  5
8E4
330
8E1
100
AcDbEntity
  8
Ebene 1
370
     0
  0
POLYLINE
  5
8E5
330
3C
100
AcDbEntity
  8
Ebene 1
370
     0
100
AcDb2dPolyline
 66
     1
 10
0.0
 20
0.0
 30
0.0
  0
VERTEX
  5
8E6
330
8E5
100
AcDbEntity
  8
Ebene 1
370
     0
100
AcDbVertex
100
AcDb2dVertex
 10
554.1171875
 20
470.1767578125
 30
0.0
  0
VERTEX
  5
8E7
330
8E5
100
AcDbEntity
  8
Ebene 1
370
     0
100
AcDbVertex
100
AcDb2dVertex
 10
555.57421875
 20
470.1767578125
 30
0.0
  0
SEQEND
  5
8E8
330
8E5
100
AcDbEntity
  8
Ebene 1
370
     0
  0
POLYLINE
  5
8E9
330
3C
100
AcDbEntity
  8
Ebene 1
370
     0
100
AcDb2dPolyline
 66
     1
 10
0.0
 20
0.0
 30
0.0
  0
VERTEX
  5
8EA
330
8E9
100
AcDbEntity
  8
Ebene 1
370
     0
100
AcDbVertex
100
AcDb2dVertex
 10
554.1171875
 20
442.73583984375
 30
0.0
  0
VERTEX
  5
8EB
330
8E9
100
AcDbEntity
  8
Ebene 1
370
     0
100
AcDbVertex
100
AcDb2dVertex
 10
554.1171875
 20
448.47119140625
 30
0.0
  0
SEQEND
  5
8EC
330
8E9
100
AcDbEntity
  8
Ebene 1
370
     0
  0
POLYLINE
  5
8ED
330
3C
100
AcDbEntity
  8
Ebene 1
370
     0
100
AcDb2dPolyline
 66
     1
 10
0.0
 20
0.0
 30
0.0
  0
VERTEX
  5
8EE
330
8ED
100
AcDbEntity
  8
Ebene 1
370
     0
100
AcDbVertex
100
AcDb2dVertex
 10
535.853515625
 20
442.73583984375
 30
0.0
  0
VERTEX
  5
8EF
330
8ED
100
AcDbEntity
  8
Ebene 1
370
     0
100
AcDbVertex
100
AcDb2dVertex
 10
554.1171875
 20
442.73583984375
 30
0.0
  0
SEQEND
  5
8F0
330
8ED
100
AcDbEntity
  8
Ebene 1
370
     0
  0
POLYLINE
  5
8F1
330
3C
100
AcDbEntity
  8
Ebene 1
370
     0
100
AcDb2dPolyline
 66
     1
 10
0.0
 20
0.0
 30
0.0
  0
VERTEX
  5
8F2
330
8F1
100
AcDbEntity
  8
Ebene 1
370
     0
100
AcDbVertex
100
AcDb2dVertex
 10
535.7646484375
 20
448.47119140625
 30
0.0
  0
VERTEX
  5
8F3
330
8F1
100
AcDbEntity
  8
Ebene 1
370
     0
100
AcDbVertex
100
AcDb2dVertex
 10
554.1171875
 20
448.47119140625
 30
0.0
  0
SEQEND
  5
8F4
330
8F1
100
AcDbEntity
  8
Ebene 1
370
     0
  0
POLYLINE
  5
8F5
330
3C
100
AcDbEntity
  8
Ebene 1
370
     0
100
AcDb2dPolyline
 66
     1
 10
0.0
 20
0.0
 30
0.0
  0
VERTEX
  5
8F6
330
8F5
100
AcDbEntity
  8
Ebene 1
370
     0
100
AcDbVertex
100
AcDb2dVertex
 10
555.57421875
 20
442.73583984375
 30
0.0
  0
VERTEX
  5
8F7
330
8F5
100
AcDbEntity
  8
Ebene 1
370
     0
100
AcDbVertex
100
AcDb2dVertex
 10
554.1171875
 20
442.73583984375
 30
0.0
  0
SEQEND
  5
8F8
330
8F5
100
AcDbEntity
  8
Ebene 1
370
     0
  0
POLYLINE
  5
8F9
330
3C
100
AcDbEntity
  8
Ebene 1
370
     0
100
AcDb2dPolyline
 66
     1
 10
0.0
 20
0.0
 30
0.0
  0
VERTEX
  5
8FA
330
8F9
100
AcDbEntity
  8
Ebene 1
370
     0
100
AcDbVertex
100
AcDb2dVertex
 10
554.1171875
 20
448.47119140625
 30
0.0
  0
VERTEX
  5
8FB
330
8F9
100
AcDbEntity
  8
Ebene 1
370
     0
100
AcDbVertex
100
AcDb2dVertex
 10
555.57421875
 20
448.47119140625
 30
0.0
  0
SEQEND
  5
8FC
330
8F9
100
AcDbEntity
  8
Ebene 1
370
     0
  0
POLYLINE
  5
8FD
330
3C
100
AcDbEntity
  8
Ebene 1
370
     0
100
AcDb2dPolyline
 66
     1
 10
0.0
 20
0.0
 30
0.0
  0
VERTEX
  5
8FE
330
8FD
100
AcDbEntity
  8
Ebene 1
370
     0
100
AcDbVertex
100
AcDb2dVertex
 10
571.94140625
 20
465.14697265625
 30
0.0
  0
VERTEX
  5
8FF
330
8FD
100
AcDbEntity
  8
Ebene 1
370
     0
100
AcDbVertex
100
AcDb2dVertex
 10
570.92578125
 20
465.10302734375
 30
0.0
  0
VERTEX
  5
900
330
8FD
100
AcDbEntity
  8
Ebene 1
370
     0
100
AcDbVertex
100
AcDb2dVertex
 10
569.9560546875
 20
464.9267578125
 30
0.0
  0
VERTEX
  5
901
330
8FD
100
AcDbEntity
  8
Ebene 1
370
     0
100
AcDbVertex
100
AcDb2dVertex
 10
569.029296875
 20
464.662109375
 30
0.0
  0
VERTEX
  5
902
330
8FD
100
AcDbEntity
  8
Ebene 1
370
     0
100
AcDbVertex
100
AcDb2dVertex
 10
568.103515625
 20
464.2646484375
 30
0.0
  0
VERTEX
  5
903
330
8FD
100
AcDbEntity
  8
Ebene 1
370
     0
100
AcDbVertex
100
AcDb2dVertex
 10
567.220703125
 20
463.77978515625
 30
0.0
  0
VERTEX
  5
904
330
8FD
100
AcDbEntity
  8
Ebene 1
370
     0
100
AcDbVertex
100
AcDb2dVertex
 10
566.42578125
 20
463.2060546875
 30
0.0
  0
VERTEX
  5
905
330
8FD
100
AcDbEntity
  8
Ebene 1
370
     0
100
AcDbVertex
100
AcDb2dVertex
 10
565.67578125
 20
462.54443359375
 30
0.0
  0
VERTEX
  5
906
330
8FD
100
AcDbEntity
  8
Ebene 1
370
     0
100
AcDbVertex
100
AcDb2dVertex
 10
565.0146484375
 20
461.79443359375
 30
0.0
  0
VERTEX
  5
907
330
8FD
100
AcDbEntity
  8
Ebene 1
370
     0
100
AcDbVertex
100
AcDb2dVertex
 10
564.44140625
 20
461.00048828125
 30
0.0
  0
VERTEX
  5
908
330
8FD
100
AcDbEntity
  8
Ebene 1
370
     0
100
AcDbVertex
100
AcDb2dVertex
 10
563.9560546875
 20
460.11767578125
 30
0.0
  0
VERTEX
  5
909
330
8FD
100
AcDbEntity
  8
Ebene 1
370
     0
100
AcDbVertex
100
AcDb2dVertex
 10
563.55859375
 20
459.19091796875
 30
0.0
  0
VERTEX
  5
90A
330
8FD
100
AcDbEntity
  8
Ebene 1
370
     0
100
AcDbVertex
100
AcDb2dVertex
 10
563.2939453125
 20
458.26513671875
 30
0.0
  0
VERTEX
  5
90B
330
8FD
100
AcDbEntity
  8
Ebene 1
370
     0
100
AcDbVertex
100
AcDb2dVertex
 10
563.1171875
 20
457.29443359375
 30
0.0
  0
VERTEX
  5
90C
330
8FD
100
AcDbEntity
  8
Ebene 1
370
     0
100
AcDbVertex
100
AcDb2dVertex
 10
563.07421875
 20
456.27978515625
 30
0.0
  0
VERTEX
  5
90D
330
8FD
100
AcDbEntity
  8
Ebene 1
370
     0
100
AcDbVertex
100
AcDb2dVertex
 10
563.1171875
 20
455.26513671875
 30
0.0
  0
VERTEX
  5
90E
330
8FD
100
AcDbEntity
  8
Ebene 1
370
     0
100
AcDbVertex
100
AcDb2dVertex
 10
563.2939453125
 20
454.29443359375
 30
0.0
  0
VERTEX
  5
90F
330
8FD
100
AcDbEntity
  8
Ebene 1
370
     0
100
AcDbVertex
100
AcDb2dVertex
 10
563.55859375
 20
453.36767578125
 30
0.0
  0
VERTEX
  5
910
330
8FD
100
AcDbEntity
  8
Ebene 1
370
     0
100
AcDbVertex
100
AcDb2dVertex
 10
563.9560546875
 20
452.44091796875
 30
0.0
  0
VERTEX
  5
911
330
8FD
100
AcDbEntity
  8
Ebene 1
370
     0
100
AcDbVertex
100
AcDb2dVertex
 10
564.44140625
 20
451.55908203125
 30
0.0
  0
VERTEX
  5
912
330
8FD
100
AcDbEntity
  8
Ebene 1
370
     0
100
AcDbVertex
100
AcDb2dVertex
 10
565.0146484375
 20
450.76513671875
 30
0.0
  0
VERTEX
  5
913
330
8FD
100
AcDbEntity
  8
Ebene 1
370
     0
100
AcDbVertex
100
AcDb2dVertex
 10
565.67578125
 20
450.01513671875
 30
0.0
  0
VERTEX
  5
914
330
8FD
100
AcDbEntity
  8
Ebene 1
370
     0
100
AcDbVertex
100
AcDb2dVertex
 10
566.42578125
 20
449.35302734375
 30
0.0
  0
VERTEX
  5
915
330
8FD
100
AcDbEntity
  8
Ebene 1
370
     0
100
AcDbVertex
100
AcDb2dVertex
 10
567.220703125
 20
448.77978515625
 30
0.0
  0
VERTEX
  5
916
330
8FD
100
AcDbEntity
  8
Ebene 1
370
     0
100
AcDbVertex
100
AcDb2dVertex
 10
568.103515625
 20
448.29443359375
 30
0.0
  0
VERTEX
  5
917
330
8FD
100
AcDbEntity
  8
Ebene 1
370
     0
100
AcDbVertex
100
AcDb2dVertex
 10
569.029296875
 20
447.89697265625
 30
0.0
  0
VERTEX
  5
918
330
8FD
100
AcDbEntity
  8
Ebene 1
370
     0
100
AcDbVertex
100
AcDb2dVertex
 10
569.9560546875
 20
447.63232421875
 30
0.0
  0
VERTEX
  5
919
330
8FD
100
AcDbEntity
  8
Ebene 1
370
     0
100
AcDbVertex
100
AcDb2dVertex
 10
570.92578125
 20
447.45556640625
 30
0.0
  0
VERTEX
  5
91A
330
8FD
100
AcDbEntity
  8
Ebene 1
370
     0
100
AcDbVertex
100
AcDb2dVertex
 10
571.94140625
 20
447.41162109375
 30
0.0
  0
VERTEX
  5
91B
330
8FD
100
AcDbEntity
  8
Ebene 1
370
     0
100
AcDbVertex
100
AcDb2dVertex
 10
572.9560546875
 20
447.45556640625
 30
0.0
  0
VERTEX
  5
91C
330
8FD
100
AcDbEntity
  8
Ebene 1
370
     0
100
AcDbVertex
100
AcDb2dVertex
 10
573.92578125
 20
447.63232421875
 30
0.0
  0
VERTEX
  5
91D
330
8FD
100
AcDbEntity
  8
Ebene 1
370
     0
100
AcDbVertex
100
AcDb2dVertex
 10
574.853515625
 20
447.89697265625
 30
0.0
  0
VERTEX
  5
91E
330
8FD
100
AcDbEntity
  8
Ebene 1
370
     0
100
AcDbVertex
100
AcDb2dVertex
 10
575.779296875
 20
448.29443359375
 30
0.0
  0
VERTEX
  5
91F
330
8FD
100
AcDbEntity
  8
Ebene 1
370
     0
100
AcDbVertex
100
AcDb2dVertex
 10
576.662109375
 20
448.77978515625
 30
0.0
  0
VERTEX
  5
920
330
8FD
100
AcDbEntity
  8
Ebene 1
370
     0
100
AcDbVertex
100
AcDb2dVertex
 10
577.4560546875
 20
449.35302734375
 30
0.0
  0
VERTEX
  5
921
330
8FD
100
AcDbEntity
  8
Ebene 1
370
     0
100
AcDbVertex
100
AcDb2dVertex
 10
578.2060546875
 20
450.01513671875
 30
0.0
  0
VERTEX
  5
922
330
8FD
100
AcDbEntity
  8
Ebene 1
370
     0
100
AcDbVertex
100
AcDb2dVertex
 10
578.8671875
 20
450.76513671875
 30
0.0
  0
VERTEX
  5
923
330
8FD
100
AcDbEntity
  8
Ebene 1
370
     0
100
AcDbVertex
100
AcDb2dVertex
 10
579.44140625
 20
451.55908203125
 30
0.0
  0
VERTEX
  5
924
330
8FD
100
AcDbEntity
  8
Ebene 1
370
     0
100
AcDbVertex
100
AcDb2dVertex
 10
579.92578125
 20
452.44091796875
 30
0.0
  0
VERTEX
  5
925
330
8FD
100
AcDbEntity
  8
Ebene 1
370
     0
100
AcDbVertex
100
AcDb2dVertex
 10
580.32421875
 20
453.36767578125
 30
0.0
  0
VERTEX
  5
926
330
8FD
100
AcDbEntity
  8
Ebene 1
370
     0
100
AcDbVertex
100
AcDb2dVertex
 10
580.587890625
 20
454.29443359375
 30
0.0
  0
VERTEX
  5
927
330
8FD
100
AcDbEntity
  8
Ebene 1
370
     0
100
AcDbVertex
100
AcDb2dVertex
 10
580.7646484375
 20
455.26513671875
 30
0.0
  0
VERTEX
  5
928
330
8FD
100
AcDbEntity
  8
Ebene 1
370
     0
100
AcDbVertex
100
AcDb2dVertex
 10
580.80859375
 20
456.27978515625
 30
0.0
  0
VERTEX
  5
929
330
8FD
100
AcDbEntity
  8
Ebene 1
370
     0
100
AcDbVertex
100
AcDb2dVertex
 10
580.7646484375
 20
457.29443359375
 30
0.0
  0
VERTEX
  5
92A
330
8FD
100
AcDbEntity
  8
Ebene 1
370
     0
100
AcDbVertex
100
AcDb2dVertex
 10
580.587890625
 20
458.26513671875
 30
0.0
  0
VERTEX
  5
92B
330
8FD
100
AcDbEntity
  8
Ebene 1
370
     0
100
AcDbVertex
100
AcDb2dVertex
 10
580.32421875
 20
459.19091796875
 30
0.0
  0
VERTEX
  5
92C
330
8FD
100
AcDbEntity
  8
Ebene 1
370
     0
100
AcDbVertex
100
AcDb2dVertex
 10
579.92578125
 20
460.11767578125
 30
0.0
  0
VERTEX
  5
92D
330
8FD
100
AcDbEntity
  8
Ebene 1
370
     0
100
AcDbVertex
100
AcDb2dVertex
 10
579.44140625
 20
461.00048828125
 30
0.0
  0
VERTEX
  5
92E
330
8FD
100
AcDbEntity
  8
Ebene 1
370
     0
100
AcDbVertex
100
AcDb2dVertex
 10
578.8671875
 20
461.79443359375
 30
0.0
  0
VERTEX
  5
92F
330
8FD
100
AcDbEntity
  8
Ebene 1
370
     0
100
AcDbVertex
100
AcDb2dVertex
 10
578.2060546875
 20
462.54443359375
 30
0.0
  0
VERTEX
  5
930
330
8FD
100
AcDbEntity
  8
Ebene 1
370
     0
100
AcDbVertex
100
AcDb2dVertex
 10
577.4560546875
 20
463.2060546875
 30
0.0
  0
VERTEX
  5
931
330
8FD
100
AcDbEntity
  8
Ebene 1
370
     0
100
AcDbVertex
100
AcDb2dVertex
 10
576.662109375
 20
463.77978515625
 30
0.0
  0
VERTEX
  5
932
330
8FD
100
AcDbEntity
  8
Ebene 1
370
     0
100
AcDbVertex
100
AcDb2dVertex
 10
575.779296875
 20
464.2646484375
 30
0.0
  0
VERTEX
  5
933
330
8FD
100
AcDbEntity
  8
Ebene 1
370
     0
100
AcDbVertex
100
AcDb2dVertex
 10
574.853515625
 20
464.662109375
 30
0.0
  0
VERTEX
  5
934
330
8FD
100
AcDbEntity
  8
Ebene 1
370
     0
100
AcDbVertex
100
AcDb2dVertex
 10
573.92578125
 20
464.9267578125
 30
0.0
  0
VERTEX
  5
935
330
8FD
100
AcDbEntity
  8
Ebene 1
370
     0
100
AcDbVertex
100
AcDb2dVertex
 10
572.9560546875
 20
465.10302734375
 30
0.0
  0
VERTEX
  5
936
330
8FD
100
AcDbEntity
  8
Ebene 1
370
     0
100
AcDbVertex
100
AcDb2dVertex
 10
571.94140625
 20
465.14697265625
 30
0.0
  0
VERTEX
  5
937
330
8FD
100
AcDbEntity
  8
Ebene 1
370
     0
100
AcDbVertex
100
AcDb2dVertex
 10
571.94140625
 20
465.14697265625
 30
0.0
  0
SEQEND
  5
938
330
8FD
100
AcDbEntity
  8
Ebene 1
370
     0
  0
POLYLINE
  5
939
330
3C
100
AcDbEntity
  8
Ebene 1
370
     0
100
AcDb2dPolyline
 66
     1
 10
0.0
 20
0.0
 30
0.0
  0
VERTEX
  5
93A
330
939
100
AcDbEntity
  8
Ebene 1
370
     0
100
AcDbVertex
100
AcDb2dVertex
 10
591.970703125
 20
456.27978515625
 30
0.0
  0
VERTEX
  5
93B
330
939
100
AcDbEntity
  8
Ebene 1
370
     0
100
AcDbVertex
100
AcDb2dVertex
 10
591.92578125
 20
457.77978515625
 30
0.0
  0
VERTEX
  5
93C
330
939
100
AcDbEntity
  8
Ebene 1
370
     0
100
AcDbVertex
100
AcDb2dVertex
 10
591.75
 20
459.27978515625
 30
0.0
  0
VERTEX
  5
93D
330
939
100
AcDbEntity
  8
Ebene 1
370
     0
100
AcDbVertex
100
AcDb2dVertex
 10
591.4853515625
 20
460.73583984375
 30
0.0
  0
VERTEX
  5
93E
330
939
100
AcDbEntity
  8
Ebene 1
370
     0
100
AcDbVertex
100
AcDb2dVertex
 10
591.087890625
 20
462.19140625
 30
0.0
  0
VERTEX
  5
93F
330
939
100
AcDbEntity
  8
Ebene 1
370
     0
100
AcDbVertex
100
AcDb2dVertex
 10
590.603515625
 20
463.60302734375
 30
0.0
  0
VERTEX
  5
940
330
939
100
AcDbEntity
  8
Ebene 1
370
     0
100
AcDbVertex
100
AcDb2dVertex
 10
589.9853515625
 20
464.970703125
 30
0.0
  0
VERTEX
  5
941
330
939
100
AcDbEntity
  8
Ebene 1
370
     0
100
AcDbVertex
100
AcDb2dVertex
 10
589.279296875
 20
466.29443359375
 30
0.0
  0
VERTEX
  5
942
330
939
100
AcDbEntity
  8
Ebene 1
370
     0
100
AcDbVertex
100
AcDb2dVertex
 10
588.4853515625
 20
467.57373046875
 30
0.0
  0
VERTEX
  5
943
330
939
100
AcDbEntity
  8
Ebene 1
370
     0
100
AcDbVertex
100
AcDb2dVertex
 10
587.603515625
 20
468.7646484375
 30
0.0
  0
VERTEX
  5
944
330
939
100
AcDbEntity
  8
Ebene 1
370
     0
100
AcDbVertex
100
AcDb2dVertex
 10
586.6328125
 20
469.912109375
 30
0.0
  0
VERTEX
  5
945
330
939
100
AcDbEntity
  8
Ebene 1
370
     0
100
AcDbVertex
100
AcDb2dVertex
 10
585.57421875
 20
470.970703125
 30
0.0
  0
VERTEX
  5
946
330
939
100
AcDbEntity
  8
Ebene 1
370
     0
100
AcDbVertex
100
AcDb2dVertex
 10
584.42578125
 20
471.94140625
 30
0.0
  0
VERTEX
  5
947
330
939
100
AcDbEntity
  8
Ebene 1
370
     0
100
AcDbVertex
100
AcDb2dVertex
 10
583.2353515625
 20
472.82373046875
 30
0.0
  0
VERTEX
  5
948
330
939
100
AcDbEntity
  8
Ebene 1
370
     0
100
AcDbVertex
100
AcDb2dVertex
 10
581.9560546875
 20
473.61767578125
 30
0.0
  0
VERTEX
  5
949
330
939
100
AcDbEntity
  8
Ebene 1
370
     0
100
AcDbVertex
100
AcDb2dVertex
 10
580.6328125
 20
474.32373046875
 30
0.0
  0
VERTEX
  5
94A
330
939
100
AcDbEntity
  8
Ebene 1
370
     0
100
AcDbVertex
100
AcDb2dVertex
 10
579.2646484375
 20
474.94140625
 30
0.0
  0
VERTEX
  5
94B
330
939
100
AcDbEntity
  8
Ebene 1
370
     0
100
AcDbVertex
100
AcDb2dVertex
 10
577.853515625
 20
475.4267578125
 30
0.0
  0
VERTEX
  5
94C
330
939
100
AcDbEntity
  8
Ebene 1
370
     0
100
AcDbVertex
100
AcDb2dVertex
 10
576.396484375
 20
475.82373046875
 30
0.0
  0
VERTEX
  5
94D
330
939
100
AcDbEntity
  8
Ebene 1
370
     0
100
AcDbVertex
100
AcDb2dVertex
 10
574.94140625
 20
476.08837890625
 30
0.0
  0
VERTEX
  5
94E
330
939
100
AcDbEntity
  8
Ebene 1
370
     0
100
AcDbVertex
100
AcDb2dVertex
 10
573.44140625
 20
476.2646484375
 30
0.0
  0
VERTEX
  5
94F
330
939
100
AcDbEntity
  8
Ebene 1
370
     0
100
AcDbVertex
100
AcDb2dVertex
 10
571.94140625
 20
476.30908203125
 30
0.0
  0
SEQEND
  5
950
330
939
100
AcDbEntity
  8
Ebene 1
370
     0
  0
POLYLINE
  5
951
330
3C
100
AcDbEntity
  8
Ebene 1
370
     0
100
AcDb2dPolyline
 66
     1
 10
0.0
 20
0.0
 30
0.0
  0
VERTEX
  5
952
330
951
100
AcDbEntity
  8
Ebene 1
370
     0
100
AcDbVertex
100
AcDb2dVertex
 10
571.94140625
 20
436.25048828125
 30
0.0
  0
VERTEX
  5
953
330
951
100
AcDbEntity
  8
Ebene 1
370
     0
100
AcDbVertex
100
AcDb2dVertex
 10
573.44140625
 20
436.29443359375
 30
0.0
  0
VERTEX
  5
954
330
951
100
AcDbEntity
  8
Ebene 1
370
     0
100
AcDbVertex
100
AcDb2dVertex
 10
574.94140625
 20
436.47119140625
 30
0.0
  0
VERTEX
  5
955
330
951
100
AcDbEntity
  8
Ebene 1
370
     0
100
AcDbVertex
100
AcDb2dVertex
 10
576.396484375
 20
436.73583984375
 30
0.0
  0
VERTEX
  5
956
330
951
100
AcDbEntity
  8
Ebene 1
370
     0
100
AcDbVertex
100
AcDb2dVertex
 10
577.853515625
 20
437.13232421875
 30
0.0
  0
VERTEX
  5
957
330
951
100
AcDbEntity
  8
Ebene 1
370
     0
100
AcDbVertex
100
AcDb2dVertex
 10
579.2646484375
 20
437.61767578125
 30
0.0
  0
VERTEX
  5
958
330
951
100
AcDbEntity
  8
Ebene 1
370
     0
100
AcDbVertex
100
AcDb2dVertex
 10
580.6328125
 20
438.23583984375
 30
0.0
  0
VERTEX
  5
959
330
951
100
AcDbEntity
  8
Ebene 1
370
     0
100
AcDbVertex
100
AcDb2dVertex
 10
581.9560546875
 20
438.94091796875
 30
0.0
  0
VERTEX
  5
95A
330
951
100
AcDbEntity
  8
Ebene 1
370
     0
100
AcDbVertex
100
AcDb2dVertex
 10
583.2353515625
 20
439.73583984375
 30
0.0
  0
VERTEX
  5
95B
330
951
100
AcDbEntity
  8
Ebene 1
370
     0
100
AcDbVertex
100
AcDb2dVertex
 10
584.42578125
 20
440.61767578125
 30
0.0
  0
VERTEX
  5
95C
330
951
100
AcDbEntity
  8
Ebene 1
370
     0
100
AcDbVertex
100
AcDb2dVertex
 10
585.57421875
 20
441.58837890625
 30
0.0
  0
VERTEX
  5
95D
330
951
100
AcDbEntity
  8
Ebene 1
370
     0
100
AcDbVertex
100
AcDb2dVertex
 10
586.6328125
 20
442.64697265625
 30
0.0
  0
VERTEX
  5
95E
330
951
100
AcDbEntity
  8
Ebene 1
370
     0
100
AcDbVertex
100
AcDb2dVertex
 10
587.603515625
 20
443.79443359375
 30
0.0
  0
VERTEX
  5
95F
330
951
100
AcDbEntity
  8
Ebene 1
370
     0
100
AcDbVertex
100
AcDb2dVertex
 10
588.4853515625
 20
444.98583984375
 30
0.0
  0
VERTEX
  5
960
330
951
100
AcDbEntity
  8
Ebene 1
370
     0
100
AcDbVertex
100
AcDb2dVertex
 10
589.279296875
 20
446.26513671875
 30
0.0
  0
VERTEX
  5
961
330
951
100
AcDbEntity
  8
Ebene 1
370
     0
100
AcDbVertex
100
AcDb2dVertex
 10
589.9853515625
 20
447.58837890625
 30
0.0
  0
VERTEX
  5
962
330
951
100
AcDbEntity
  8
Ebene 1
370
     0
100
AcDbVertex
100
AcDb2dVertex
 10
590.603515625
 20
448.95556640625
 30
0.0
  0
VERTEX
  5
963
330
951
100
AcDbEntity
  8
Ebene 1
370
     0
100
AcDbVertex
100
AcDb2dVertex
 10
591.087890625
 20
450.36767578125
 30
0.0
  0
VERTEX
  5
964
330
951
100
AcDbEntity
  8
Ebene 1
370
     0
100
AcDbVertex
100
AcDb2dVertex
 10
591.4853515625
 20
451.82373046875
 30
0.0
  0
VERTEX
  5
965
330
951
100
AcDbEntity
  8
Ebene 1
370
     0
100
AcDbVertex
100
AcDb2dVertex
 10
591.75
 20
453.27978515625
 30
0.0
  0
VERTEX
  5
966
330
951
100
AcDbEntity
  8
Ebene 1
370
     0
100
AcDbVertex
100
AcDb2dVertex
 10
591.92578125
 20
454.77978515625
 30
0.0
  0
VERTEX
  5
967
330
951
100
AcDbEntity
  8
Ebene 1
370
     0
100
AcDbVertex
100
AcDb2dVertex
 10
591.970703125
 20
456.27978515625
 30
0.0
  0
SEQEND
  5
968
330
951
100
AcDbEntity
  8
Ebene 1
370
     0
  0
POLYLINE
  5
969
330
3C
100
AcDbEntity
  8
Ebene 1
370
     0
100
AcDb2dPolyline
 66
     1
 10
0.0
 20
0.0
 30
0.0
  0
VERTEX
  5
96A
330
969
100
AcDbEntity
  8
Ebene 1
370
     0
100
AcDbVertex
100
AcDb2dVertex
 10
557.603515625
 20
441.94091796875
 30
0.0
  0
VERTEX
  5
96B
330
969
100
AcDbEntity
  8
Ebene 1
370
     0
100
AcDbVertex
100
AcDb2dVertex
 10
557.603515625
 20
470.61767578125
 30
0.0
  0
SEQEND
  5
96C
330
969
100
AcDbEntity
  8
Ebene 1
370
     0
  0
POLYLINE
  5
96D
330
3C
100
AcDbEntity
  8
Ebene 1
370
     0
100
AcDb2dPolyline
 66
     1
 10
0.0
 20
0.0
 30
0.0
  0
VERTEX
  5
96E
330
96D
100
AcDbEntity
  8
Ebene 1
370
     0
100
AcDbVertex
100
AcDb2dVertex
 10
535.94140625
 20
436.20556640625
 30
0.0
  0
VERTEX
  5
96F
330
96D
100
AcDbEntity
  8
Ebene 1
370
     0
100
AcDbVertex
100
AcDb2dVertex
 10
571.94140625
 20
436.20556640625
 30
0.0
  0
SEQEND
  5
970
330
96D
100
AcDbEntity
  8
Ebene 1
370
     0
  0
POLYLINE
  5
971
330
3C
100
AcDbEntity
  8
Ebene 1
370
     0
100
AcDb2dPolyline
 66
     1
 10
0.0
 20
0.0
 30
0.0
  0
VERTEX
  5
972
330
971
100
AcDbEntity
  8
Ebene 1
370
     0
100
AcDbVertex
100
AcDb2dVertex
 10
535.853515625
 20
441.94091796875
 30
0.0
  0
VERTEX
  5
973
330
971
100
AcDbEntity
  8
Ebene 1
370
     0
100
AcDbVertex
100
AcDb2dVertex
 10
557.603515625
 20
441.94091796875
 30
0.0
  0
SEQEND
  5
974
330
971
100
AcDbEntity
  8
Ebene 1
370
     0
  0
POLYLINE
  5
975
330
3C
100
AcDbEntity
  8
Ebene 1
370
     0
100
AcDb2dPolyline
 66
     1
 10
0.0
 20
0.0
 30
0.0
  0
VERTEX
  5
976
330
975
100
AcDbEntity
  8
Ebene 1
370
     0
100
AcDbVertex
100
AcDb2dVertex
 10
557.603515625
 20
470.61767578125
 30
0.0
  0
VERTEX
  5
977
330
975
100
AcDbEntity
  8
Ebene 1
370
     0
100
AcDbVertex
100
AcDb2dVertex
 10
535.5
 20
470.61767578125
 30
0.0
  0
SEQEND
  5
978
330
975
100
AcDbEntity
  8
Ebene 1
370
     0
  0
POLYLINE
  5
979
330
3C
100
AcDbEntity
  8
Ebene 1
370
     0
100
AcDb2dPolyline
 66
     1
 10
0.0
 20
0.0
 30
0.0
  0
VERTEX
  5
97A
330
979
100
AcDbEntity
  8
Ebene 1
370
     0
100
AcDbVertex
100
AcDb2dVertex
 10
571.94140625
 20
476.35302734375
 30
0.0
  0
VERTEX
  5
97B
330
979
100
AcDbEntity
  8
Ebene 1
370
     0
100
AcDbVertex
100
AcDb2dVertex
 10
535.412109375
 20
476.35302734375
 30
0.0
  0
SEQEND
  5
97C
330
979
100
AcDbEntity
  8
Ebene 1
370
     0
  0
POLYLINE
  5
97D
330
3C
100
AcDbEntity
  8
Ebene 1
370
     0
100
AcDb2dPolyline
 66
     1
 10
0.0
 20
0.0
 30
0.0
  0
VERTEX
  5
97E
330
97D
100
AcDbEntity
  8
Ebene 1
370
     0
100
AcDbVertex
100
AcDb2dVertex
 10
555.92578125
 20
470.61767578125
 30
0.0
  0
VERTEX
  5
97F
330
97D
100
AcDbEntity
  8
Ebene 1
370
     0
100
AcDbVertex
100
AcDb2dVertex
 10
555.92578125
 20
441.94091796875
 30
0.0
  0
SEQEND
  5
980
330
97D
100
AcDbEntity
  8
Ebene 1
370
     0
  0
POLYLINE
  5
981
330
3C
100
AcDbEntity
  8
Ebene 1
370
     0
100
AcDb2dPolyline
 66
     1
 10
0.0
 20
0.0
 30
0.0
  0
VERTEX
  5
982
330
981
100
AcDbEntity
  8
Ebene 1
370
     0
100
AcDbVertex
100
AcDb2dVertex
 10
571.05859375
 20
447.45556640625
 30
0.0
  0
VERTEX
  5
983
330
981
100
AcDbEntity
  8
Ebene 1
370
     0
100
AcDbVertex
100
AcDb2dVertex
 10
572.07421875
 20
447.58837890625
 30
0.0
  0
VERTEX
  5
984
330
981
100
AcDbEntity
  8
Ebene 1
370
     0
100
AcDbVertex
100
AcDb2dVertex
 10
573.0439453125
 20
447.85302734375
 30
0.0
  0
VERTEX
  5
985
330
981
100
AcDbEntity
  8
Ebene 1
370
     0
100
AcDbVertex
100
AcDb2dVertex
 10
573.970703125
 20
448.25048828125
 30
0.0
  0
VERTEX
  5
986
330
981
100
AcDbEntity
  8
Ebene 1
370
     0
100
AcDbVertex
100
AcDb2dVertex
 10
574.853515625
 20
448.73583984375
 30
0.0
  0
VERTEX
  5
987
330
981
100
AcDbEntity
  8
Ebene 1
370
     0
100
AcDbVertex
100
AcDb2dVertex
 10
575.69140625
 20
449.30908203125
 30
0.0
  0
VERTEX
  5
988
330
981
100
AcDbEntity
  8
Ebene 1
370
     0
100
AcDbVertex
100
AcDb2dVertex
 10
576.44140625
 20
449.97119140625
 30
0.0
  0
VERTEX
  5
989
330
981
100
AcDbEntity
  8
Ebene 1
370
     0
100
AcDbVertex
100
AcDb2dVertex
 10
577.103515625
 20
450.72119140625
 30
0.0
  0
VERTEX
  5
98A
330
981
100
AcDbEntity
  8
Ebene 1
370
     0
100
AcDbVertex
100
AcDb2dVertex
 10
577.720703125
 20
451.51513671875
 30
0.0
  0
VERTEX
  5
98B
330
981
100
AcDbEntity
  8
Ebene 1
370
     0
100
AcDbVertex
100
AcDb2dVertex
 10
578.2060546875
 20
452.39697265625
 30
0.0
  0
VERTEX
  5
98C
330
981
100
AcDbEntity
  8
Ebene 1
370
     0
100
AcDbVertex
100
AcDb2dVertex
 10
578.55859375
 20
453.32373046875
 30
0.0
  0
VERTEX
  5
98D
330
981
100
AcDbEntity
  8
Ebene 1
370
     0
100
AcDbVertex
100
AcDb2dVertex
 10
578.8671875
 20
454.29443359375
 30
0.0
  0
VERTEX
  5
98E
330
981
100
AcDbEntity
  8
Ebene 1
370
     0
100
AcDbVertex
100
AcDb2dVertex
 10
579.0439453125
 20
455.26513671875
 30
0.0
  0
VERTEX
  5
98F
330
981
100
AcDbEntity
  8
Ebene 1
370
     0
100
AcDbVertex
100
AcDb2dVertex
 10
579.087890625
 20
456.27978515625
 30
0.0
  0
VERTEX
  5
990
330
981
100
AcDbEntity
  8
Ebene 1
370
     0
100
AcDbVertex
100
AcDb2dVertex
 10
579.0439453125
 20
457.29443359375
 30
0.0
  0
VERTEX
  5
991
330
981
100
AcDbEntity
  8
Ebene 1
370
     0
100
AcDbVertex
100
AcDb2dVertex
 10
578.8671875
 20
458.26513671875
 30
0.0
  0
VERTEX
  5
992
330
981
100
AcDbEntity
  8
Ebene 1
370
     0
100
AcDbVertex
100
AcDb2dVertex
 10
578.55859375
 20
459.23583984375
 30
0.0
  0
VERTEX
  5
993
330
981
100
AcDbEntity
  8
Ebene 1
370
     0
100
AcDbVertex
100
AcDb2dVertex
 10
578.2060546875
 20
460.16162109375
 30
0.0
  0
VERTEX
  5
994
330
981
100
AcDbEntity
  8
Ebene 1
370
     0
100
AcDbVertex
100
AcDb2dVertex
 10
577.720703125
 20
461.04443359375
 30
0.0
  0
VERTEX
  5
995
330
981
100
AcDbEntity
  8
Ebene 1
370
     0
100
AcDbVertex
100
AcDb2dVertex
 10
577.103515625
 20
461.83837890625
 30
0.0
  0
VERTEX
  5
996
330
981
100
AcDbEntity
  8
Ebene 1
370
     0
100
AcDbVertex
100
AcDb2dVertex
 10
576.44140625
 20
462.58837890625
 30
0.0
  0
VERTEX
  5
997
330
981
100
AcDbEntity
  8
Ebene 1
370
     0
100
AcDbVertex
100
AcDb2dVertex
 10
575.69140625
 20
463.25
 30
0.0
  0
VERTEX
  5
998
330
981
100
AcDbEntity
  8
Ebene 1
370
     0
100
AcDbVertex
100
AcDb2dVertex
 10
574.853515625
 20
463.82373046875
 30
0.0
  0
VERTEX
  5
999
330
981
100
AcDbEntity
  8
Ebene 1
370
     0
100
AcDbVertex
100
AcDb2dVertex
 10
573.970703125
 20
464.30908203125
 30
0.0
  0
VERTEX
  5
99A
330
981
100
AcDbEntity
  8
Ebene 1
370
     0
100
AcDbVertex
100
AcDb2dVertex
 10
573.0439453125
 20
464.7060546875
 30
0.0
  0
VERTEX
  5
99B
330
981
100
AcDbEntity
  8
Ebene 1
370
     0
100
AcDbVertex
100
AcDb2dVertex
 10
572.07421875
 20
464.970703125
 30
0.0
  0
VERTEX
  5
99C
330
981
100
AcDbEntity
  8
Ebene 1
370
     0
100
AcDbVertex
100
AcDb2dVertex
 10
571.05859375
 20
465.10302734375
 30
0.0
  0
SEQEND
  5
99D
330
981
100
AcDbEntity
  8
Ebene 1
370
     0
  0
ENDBLK
  5
3F
330
3C
100
AcDbEntity
  8
0
100
AcDbBlockEnd
  0
ENDSEC
  0
SECTION
  2
ENTITIES
  0
INSERT
  5
3D
330
1F
100
AcDbEntity
  8
Ebene 1
100
AcDbBlockReference
  2
block 2
 10
0.0
 20
0.0
 30
0.0
  0
ENDSEC
  0
SECTION
  2
OBJECTS
  0
DICTIONARY
  5
C
330
0
100
AcDbDictionary
281
     1
  3
ACAD_GROUP
350
D
  3
ACAD_LAYOUT
350
1A
  3
ACAD_MLINESTYLE
350
17
  3
ACAD_PLOTSETTINGS
350
19
  3
ACAD_PLOTSTYLENAME
350
E
  3
ACAD_TABLESTYLE
350
99E
  3
ACAD_VISUALSTYLE
350
2A
  0
DICTIONARY
  5
D
102
{ACAD_REACTORS
330
C
102
}
330
C
100
AcDbDictionary
281
     1
  0
DICTIONARY
  5
1A
102
{ACAD_REACTORS
330
C
102
}
330
C
100
AcDbDictionary
281
     1
  3
Layout1
350
1E
  3
Layout2
350
26
  3
Model
350
22
  0
DICTIONARY
  5
17
102
{ACAD_REACTORS
330
C
102
}
330
C
100
AcDbDictionary
281
     1
  3
Standard
350
18
  0
DICTIONARY
  5
19
102
{ACAD_REACTORS
330
C
102
}
330
C
100
AcDbDictionary
281
     1
  0
ACDBDICTIONARYWDFLT
  5
E
102
{ACAD_REACTORS
330
C
102
}
330
C
100
AcDbDictionary
281
     1
  3
Normal
350
F
100
AcDbDictionaryWithDefault
340
F
  0
DICTIONARY
  5
99E
102
{ACAD_REACTORS
330
C
102
}
330
C
100
AcDbDictionary
281
     1
  0
DICTIONARY
  5
2A
102
{ACAD_REACTORS
330
C
102
}
330
C
100
AcDbDictionary
281
     1
  3
2dWireframe
350
2F
  3
3D Hidden
350
31
  3
3dWireframe
350
30
  3
Basic
350
32
  3
Brighten
350
36
  3
ColorChange
350
3A
  3
Conceptual
350
34
  3
Dim
350
35
  3
Facepattern
350
39
  3
Flat
350
2B
  3
FlatWithEdges
350
2C
  3
Gouraud
350
2D
  3
GouraudWithEdges
350
2E
  3
Linepattern
350
38
  3
Realistic
350
33
  3
Thicken
350
37
  0
LAYOUT
  5
1E
102
{ACAD_REACTORS
330
1A
102
}
330
1A
100
AcDbPlotSettings
  1

  2
none_device
  4

  6

 40
0.0
 41
0.0
 42
0.0
 43
0.0
 44
0.0
 45
0.0
 46
0.0
 47
0.0
 48
0.0
 49
0.0
140
0.0
141
0.0
142
1.0
143
1.0
 70
   688
 72
     0
 73
     0
 74
     5
  7

 75
    16
 76
     0
 77
     2
 78
   300
147
1.0
148
0.0
149
0.0
100
AcDbLayout
  1
Layout1
 70
     1
 71
     1
 10
0.0
 20
0.0
 11
12.0
 21
9.0
 12
0.0
 22
0.0
 32
0.0
 14
1.000000000000000E+20
 24
1.000000000000000E+20
 34
1.000000000000000E+20
 15
-1.000000000000000E+20
 25
-1.000000000000000E+20
 35
-1.000000000000000E+20
146
0.0
 13
0.0
 23
0.0
 33
0.0
 16
1.0
 26
0.0
 36
0.0
 17
0.0
 27
1.0
 37
0.0
 76
     0
330
1B
  0
LAYOUT
  5
26
102
{ACAD_REACTORS
330
1A
102
}
330
1A
100
AcDbPlotSettings
  1

  2
none_device
  4

  6

 40
0.0
 41
0.0
 42
0.0
 43
0.0
 44
0.0
 45
0.0
 46
0.0
 47
0.0
 48
0.0
 49
0.0
140
0.0
141
0.0
142
1.0
143
1.0
 70
   688
 72
     0
 73
     0
 74
     5
  7

 75
    16
 76
     0
 77
     2
 78
   300
147
1.0
148
0.0
149
0.0
100
AcDbLayout
  1
Layout2
 70
     1
 71
     2
 10
0.0
 20
0.0
 11
0.0
 21
0.0
 12
0.0
 22
0.0
 32
0.0
 14
0.0
 24
0.0
 34
0.0
 15
0.0
 25
0.0
 35
0.0
146
0.0
 13
0.0
 23
0.0
 33
0.0
 16
1.0
 26
0.0
 36
0.0
 17
0.0
 27
1.0
 37
0.0
 76
     0
330
23
  0
LAYOUT
  5
22
102
{ACAD_REACTORS
330
1A
102
}
330
1A
100
AcDbPlotSettings
  1

  2
none_device
  4

  6

 40
0.0
 41
0.0
 42
0.0
 43
0.0
 44
0.0
 45
0.0
 46
0.0
 47
0.0
 48
0.0
 49
0.0
140
0.0
141
0.0
142
1.0
143
1.0
 70
  1712
 72
     0
 73
     0
 74
     0
  7

 75
     0
 76
     0
 77
     2
 78
   300
147
1.0
148
0.0
149
0.0
100
AcDbLayout
  1
Model
 70
     1
 71
     0
 10
0.0
 20
0.0
 11
12.0
 21
9.0
 12
0.0
 22
0.0
 32
0.0
 14
1.000000000000000E+20
 24
1.000000000000000E+20
 34
1.000000000000000E+20
 15
-1.000000000000000E+20
 25
-1.000000000000000E+20
 35
-1.000000000000000E+20
146
0.0
 13
0.0
 23
0.0
 33
0.0
 16
1.0
 26
0.0
 36
0.0
 17
0.0
 27
1.0
 37
0.0
 76
     0
330
1F
331
29
  0
MLINESTYLE
  5
18
102
{ACAD_REACTORS
330
17
102
}
330
17
100
AcDbMlineStyle
  2
Standard
 70
     0
  3

 62
   256
 51
90.0
 52
90.0
 71
     2
 49
0.5
 62
   256
  6
BYLAYER
 49
-0.5
 62
   256
  6
BYLAYER
  0
ACDBPLACEHOLDER
  5
F
102
{ACAD_REACTORS
330
E
102
}
330
E
  0
VISUALSTYLE
  5
2F
102
{ACAD_REACTORS
330
2A
102
}
330
2A
100
AcDbVisualStyle
  2
2dWireframe
 70
     4
 71
     0
 72
     2
 73
     0
 90
        0
 40
-0.6
 41
-30.0
 62
     5
 63
     7
421
 16777215
 74
     1
 91
        4
 64
     7
 65
   257
 75
     1
175
     1
 42
1.0
 92
        0
 66
   257
 43
1.0
 76
     1
 77
     6
 78
     2
 67
     7
 79
     5
170
     0
171
     0
290
     0
174
     0
 93
        1
 44
0.0
173
     0
291
     0
 45
0.0
1001
ACAD
1000
AcDbSavedByObjectVersion
1070
     0
  0
VISUALSTYLE
  5
31
102
{ACAD_REACTORS
330
2A
102
}
330
2A
100
AcDbVisualStyle
  2
3D Hidden
 70
     6
 71
     1
 72
     2
 73
     2
 90
        0
 40
-0.6
 41
-30.0
 62
     5
 63
     7
421
 16777215
 74
     2
 91
        2
 64
     7
 65
   257
 75
     2
175
     1
 42
40.0
 92
        0
 66
   257
 43
1.0
 76
     1
 77
     6
 78
     2
 67
     7
 79
     3
170
     0
171
     0
290
     0
174
     0
 93
        1
 44
0.0
173
     0
291
     0
 45
0.0
1001
ACAD
1000
AcDbSavedByObjectVersion
1070
     0
  0
VISUALSTYLE
  5
30
102
{ACAD_REACTORS
330
2A
102
}
330
2A
100
AcDbVisualStyle
  2
3dWireframe
 70
     5
 71
     0
 72
     2
 73
     0
 90
        0
 40
-0.6
 41
-30.0
 62
     5
 63
     7
421
 16777215
 74
     1
 91
        4
 64
     7
 65
   257
 75
     1
175
     1
 42
1.0
 92
        0
 66
   257
 43
1.0
 76
     1
 77
     6
 78
     2
 67
     7
 79
     5
170
     0
171
     0
290
     0
174
     0
 93
        1
 44
0.0
173
     0
291
     0
 45
0.0
1001
ACAD
1000
AcDbSavedByObjectVersion
1070
     0
  0
VISUALSTYLE
  5
32
102
{ACAD_REACTORS
330
2A
102
}
330
2A
100
AcDbVisualStyle
  2
Basic
 70
     7
 71
     1
 72
     0
 73
     1
 90
        0
 40
-0.6
 41
-30.0
 62
     5
 63
     7
421
 16777215
 74
     0
 91
        4
 64
     7
 65
   257
 75
     1
175
     1
 42
1.0
 92
        8
 66
     7
 43
1.0
 76
     1
 77
     6
 78
     2
 67
     7
 79
     5
170
     0
171
     0
290
     0
174
     0
 93
        1
 44
0.0
173
     0
291
     1
 45
0.0
1001
ACAD
1000
AcDbSavedByObjectVersion
1070
     0
  0
VISUALSTYLE
  5
36
102
{ACAD_REACTORS
330
2A
102
}
330
2A
100
AcDbVisualStyle
  2
Brighten
 70
    12
 71
     2
 72
     2
 73
     0
 90
        0
 40
-0.6
 41
-30.0
 62
     5
 63
     7
421
 16777215
 74
     1
 91
        4
 64
     7
 65
   257
 75
     1
175
     1
 42
1.0
 92
        8
 66
     7
 43
1.0
 76
     1
 77
     6
 78
     2
 67
     7
 79
     5
170
     0
171
     0
290
     0
174
     0
 93
        1
 44
50.0
173
     0
291
     1
 45
0.0
1001
ACAD
1000
AcDbSavedByObjectVersion
1070
     0
  0
VISUALSTYLE
  5
3A
102
{ACAD_REACTORS
330
2A
102
}
330
2A
100
AcDbVisualStyle
  2
ColorChange
 70
    16
 71
     2
 72
     2
 73
     3
 90
        0
 40
-0.6
 41
-30.0
 62
     5
 63
     8
421
  8421504
 74
     1
 91
        4
 64
     7
 65
   257
 75
     1
175
     1
 42
1.0
 92
        8
 66
     8
424
  8421504
 43
1.0
 76
     1
 77
     6
 78
     2
 67
     7
 79
     5
170
     0
171
     0
290
     0
174
     0
 93
        1
 44
0.0
173
     0
291
     1
 45
0.0
1001
ACAD
1000
AcDbSavedByObjectVersion
1070
     0
  0
VISUALSTYLE
  5
34
102
{ACAD_REACTORS
330
2A
102
}
330
2A
100
AcDbVisualStyle
  2
Conceptual
 70
     9
 71
     3
 72
     2
 73
     0
 90
        0
 40
-0.6
 41
-30.0
 62
     5
 63
     7
421
 16777215
 74
     2
 91
        2
 64
     7
 65
   257
 75
     1
175
     1
 42
40.0
 92
        8
 66
     7
 43
1.0
 76
     1
 77
     6
 78
     2
 67
     7
 79
     3
170
     0
171
     0
290
     0
174
     0
 93
        1
 44
0.0
173
     0
291
     0
 45
0.0
1001
ACAD
1000
AcDbSavedByObjectVersion
1070
     0
  0
VISUALSTYLE
  5
35
102
{ACAD_REACTORS
330
2A
102
}
330
2A
100
AcDbVisualStyle
  2
Dim
 70
    11
 71
     2
 72
     2
 73
     0
 90
        0
 40
-0.6
 41
-30.0
 62
     5
 63
     7
421
 16777215
 74
     1
 91
        4
 64
     7
 65
   257
 75
     1
175
     1
 42
1.0
 92
        8
 66
     7
 43
1.0
 76
     1
 77
     6
 78
     2
 67
     7
 79
     5
170
     0
171
     0
290
     0
174
     0
 93
        1
 44
-50.0
173
     0
291
     1
 45
0.0
1001
ACAD
1000
AcDbSavedByObjectVersion
1070
     0
  0
VISUALSTYLE
  5
39
102
{ACAD_REACTORS
330
2A
102
}
330
2A
100
AcDbVisualStyle
  2
Facepattern
 70
    15
 71
     2
 72
     2
 73
     0
 90
        0
 40
-0.6
 41
-30.0
 62
     5
 63
     7
421
 16777215
 74
     1
 91
        4
 64
     7
 65
   257
 75
     1
175
     1
 42
1.0
 92
        8
 66
     7
 43
1.0
 76
     1
 77
     6
 78
     2
 67
     7
 79
     5
170
     0
171
     0
290
     0
174
     0
 93
        1
 44
0.0
173
     0
291
     1
 45
0.0
1001
ACAD
1000
AcDbSavedByObjectVersion
1070
     0
  0
VISUALSTYLE
  5
2B
102
{ACAD_REACTORS
330
2A
102
}
330
2A
100
AcDbVisualStyle
  2
Flat
 70
     0
 71
     2
 72
     1
 73
     1
 90
        2
 40
-0.6
 41
30.0
 62
     5
 63
     7
421
 16777215
 74
     0
 91
        4
 64
     7
 65
   257
 75
     1
175
     1
 42
1.0
 92
        8
 66
     7
 43
1.0
 76
     1
 77
     6
 78
     2
 67
     7
 79
     5
170
     0
171
     0
290
     0
174
     0
 93
       13
 44
0.0
173
     0
291
     1
 45
0.0
1001
ACAD
1000
AcDbSavedByObjectVersion
1070
     0
  0
VISUALSTYLE
  5
2C
102
{ACAD_REACTORS
330
2A
102
}
330
2A
100
AcDbVisualStyle
  2
FlatWithEdges
 70
     1
 71
     2
 72
     1
 73
     1
 90
        2
 40
-0.6
 41
30.0
 62
     5
 63
     7
421
 16777215
 74
     1
 91
        4
 64
     7
 65
   257
 75
     1
175
     1
 42
1.0
 92
        0
 66
   257
 43
1.0
 76
     1
 77
     6
 78
     2
 67
     7
 79
     5
170
     0
171
     0
290
     0
174
     0
 93
       13
 44
0.0
173
     0
291
     1
 45
0.0
1001
ACAD
1000
AcDbSavedByObjectVersion
1070
     0
  0
VISUALSTYLE
  5
2D
102
{ACAD_REACTORS
330
2A
102
}
330
2A
100
AcDbVisualStyle
  2
Gouraud
 70
     2
 71
     2
 72
     2
 73
     1
 90
        2
 40
-0.6
 41
30.0
 62
     5
 63
     7
421
 16777215
 74
     0
 91
        4
 64
     7
 65
   257
 75
     1
175
     1
 42
1.0
 92
        0
 66
     7
 43
1.0
 76
     1
 77
     6
 78
     2
 67
     7
 79
     5
170
     0
171
     0
290
     0
174
     0
 93
       13
 44
0.0
173
     0
291
     1
 45
0.0
1001
ACAD
1000
AcDbSavedByObjectVersion
1070
     0
  0
VISUALSTYLE
  5
2E
102
{ACAD_REACTORS
330
2A
102
}
330
2A
100
AcDbVisualStyle
  2
GouraudWithEdges
 70
     3
 71
     2
 72
     2
 73
     1
 90
        2
 40
-0.6
 41
30.0
 62
     5
 63
     7
421
 16777215
 74
     1
 91
        4
 64
     7
 65
   257
 75
     1
175
     1
 42
1.0
 92
        0
 66
   257
 43
1.0
 76
     1
 77
     6
 78
     2
 67
     7
 79
     5
170
     0
171
     0
290
     0
174
     0
 93
       13
 44
0.0
173
     0
291
     1
 45
0.0
1001
ACAD
1000
AcDbSavedByObjectVersion
1070
     0
  0
VISUALSTYLE
  5
38
102
{ACAD_REACTORS
330
2A
102
}
330
2A
100
AcDbVisualStyle
  2
Linepattern
 70
    14
 71
     2
 72
     2
 73
     0
 90
        0
 40
-0.6
 41
-30.0
 62
     5
 63
     7
421
 16777215
 74
     1
 91
        4
 64
     7
 65
   257
 75
     7
175
     7
 42
1.0
 92
        8
 66
     7
 43
1.0
 76
     1
 77
     6
 78
     2
 67
     7
 79
     5
170
     0
171
     0
290
     0
174
     0
 93
        1
 44
0.0
173
     0
291
     1
 45
0.0
1001
ACAD
1000
AcDbSavedByObjectVersion
1070
     0
  0
VISUALSTYLE
  5
33
102
{ACAD_REACTORS
330
2A
102
}
330
2A
100
AcDbVisualStyle
  2
Realistic
 70
     8
 71
     2
 72
     2
 73
     0
 90
        0
 40
-0.6
 41
-30.0
 62
     5
 63
     7
421
 16777215
 74
     1
 91
        0
 64
     7
 65
   257
 75
     1
175
     1
 42
1.0
 92
        8
 66
     8
424
  7895160
 43
1.0
 76
     1
 77
     6
 78
     2
 67
     7
 79
     5
170
     0
171
     0
290
     0
174
     0
 93
       13
 44
0.0
173
     0
291
     0
 45
0.0
1001
ACAD
1000
AcDbSavedByObjectVersion
1070
     0
  0
VISUALSTYLE
  5
37
102
{ACAD_REACTORS
330
2A
102
}
330
2A
100
AcDbVisualStyle
  2
Thicken
 70
    13
 71
     2
 72
     2
 73
     0
 90
        0
 40
-0.6
 41
-30.0
 62
     5
 63
     7
421
 16777215
 74
     1
 91
        4
 64
     7
 65
   257
 75
     1
175
     1
 42
1.0
 92
       12
 66
     7
 43
1.0
 76
     1
 77
     6
 78
     2
 67
     7
 79
     5
170
     0
171
     0
290
     0
174
     0
 93
        1
 44
0.0
173
     0
291
     1
 45
0.0
1001
ACAD
1000
AcDbSavedByObjectVersion
1070
     0
  0
ENDSEC
  0
EOF
