  0
SECTION
  2
HEADER
  9
$ACADVER
  1
AC1012
  9
$DWGCODEPAGE
  3
ansi_1252
  9
$INSBASE
 10
0.0
 20
0.0
 30
0.0
  9
$EXTMIN
 10
0.0
 20
0.0
 30
0.0
  9
$EXTMAX
 10
210.0
 20
297.0
 30
0.0
  9
$LIMMIN
 10
0.0
 20
0.0
  9
$LIMMAX
 10
210.0
 20
297.0
  9
$ORTHOMODE
 70
     0
  9
$REGENMODE
 70
     1
  9
$FILLMODE
 70
     1
  9
$QTEXTMODE
 70
     0
  9
$MIRRTEXT
 70
     1
  9
$DRAGMODE
 70
     2
  9
$LTSCALE
 40
1.0
  9
$OSMODE
 70
    37
  9
$ATTMODE
 70
     1
  9
$TEXTSIZE
 40
0.2
  9
$TRACEWID
 40
0.05
  9
$TEXTSTYLE
  7
STANDARD
  9
$CLAYER
  8
0
  9
$CELTYPE
  6
BYLAYER
  9
$CECOLOR
 62
   256
  9
$CELTSCALE
 40
25.4
  9
$DELOBJ
 70
     1
  9
$DISPSILH
 70
     0
  9
$DIMSCALE
 40
1.0
  9
$DIMASZ
 40
0.18
  9
$DIMEXO
 40
0.0625
  9
$DIMDLI
 40
0.38
  9
$DIMRND
 40
0.0
  9
$DIMDLE
 40
0.0
  9
$DIMEXE
 40
0.18
  9
$DIMTP
 40
0.0
  9
$DIMTM
 40
0.0
  9
$DIMTXT
 40
0.18
  9
$DIMCEN
 40
0.09
  9
$DIMTSZ
 40
0.0
  9
$DIMTOL
 70
     0
  9
$DIMLIM
 70
     0
  9
$DIMTIH
 70
     1
  9
$DIMTOH
 70
     1
  9
$DIMSE1
 70
     0
  9
$DIMSE2
 70
     0
  9
$DIMTAD
 70
     0
  9
$DIMZIN
 70
     0
  9
$DIMBLK
  1

  9
$DIMASO
 70
     1
  9
$DIMSHO
 70
     1
  9
$DIMPOST
  1

  9
$DIMAPOST
  1

  9
$DIMALT
 70
     0
  9
$DIMALTD
 70
     2
  9
$DIMALTF
 40
25.4
  9
$DIMLFAC
 40
1.0
  9
$DIMTOFL
 70
     0
  9
$DIMTVP
 40
0.0
  9
$DIMTIX
 70
     0
  9
$DIMSOXD
 70
     0
  9
$DIMSAH
 70
     0
  9
$DIMBLK1
  1

  9
$DIMBLK2
  1

  9
$DIMSTYLE
  2
STANDARD
  9
$DIMCLRD
 70
     0
  9
$DIMCLRE
 70
     0
  9
$DIMCLRT
 70
     0
  9
$DIMTFAC
 40
1.0
  9
$DIMGAP
 40
0.09
  9
$DIMJUST
 70
     0
  9
$DIMSD1
 70
     0
  9
$DIMSD2
 70
     0
  9
$DIMTOLJ
 70
     1
  9
$DIMTZIN
 70
     0
  9
$DIMALTZ
 70
     0
  9
$DIMALTTZ
 70
     0
  9
$DIMFIT
 70
     3
  9
$DIMUPT
 70
     0
  9
$DIMUNIT
 70
     2
  9
$DIMDEC
 70
     4
  9
$DIMTDEC
 70
     4
  9
$DIMALTU
 70
     2
  9
$DIMALTTD
 70
     2
  9
$DIMTXSTY
  7
STANDARD
  9
$DIMAUNIT
 70
     0
  9
$LUNITS
 70
     2
  9
$LUPREC
 70
     4
  9
$SKETCHINC
 40
0.1
  9
$FILLETRAD
 40
0.5
  9
$AUNITS
 70
     0
  9
$AUPREC
 70
     0
  9
$MENU
  1
.
  9
$ELEVATION
 40
0.0
  9
$PELEVATION
 40
0.0
  9
$THICKNESS
 40
0.0
  9
$LIMCHECK
 70
     0
  9
$CHAMFERA
 40
0.5
  9
$CHAMFERB
 40
0.5
  9
$CHAMFERC
 40
1.0
  9
$CHAMFERD
 40
0.0
  9
$SKPOLY
 70
     0
  9
$TDCREATE
 40
2453762.545409178
  9
$TDUPDATE
 40
2453762.54540919
  9
$TDINDWG
 40
0.0000000116
  9
$TDUSRTIMER
 40
0.0000000116
  9
$USRTIMER
 70
     1
  9
$ANGBASE
 50
0.0
  9
$ANGDIR
 70
     0
  9
$PDMODE
 70
     0
  9
$PDSIZE
 40
0.0
  9
$PLINEWID
 40
0.0
  9
$COORDS
 70
     1
  9
$SPLFRAME
 70
     0
  9
$SPLINETYPE
 70
     6
  9
$SPLINESEGS
 70
     8
  9
$ATTDIA
 70
     0
  9
$ATTREQ
 70
     1
  9
$HANDLING
 70
     1
  9
$HANDSEED
  5
212
  9
$SURFTAB1
 70
     6
  9
$SURFTAB2
 70
     6
  9
$SURFTYPE
 70
     6
  9
$SURFU
 70
     6
  9
$SURFV
 70
     6
  9
$UCSNAME
  2

  9
$UCSORG
 10
0.0
 20
0.0
 30
0.0
  9
$UCSXDIR
 10
1.0
 20
0.0
 30
0.0
  9
$UCSYDIR
 10
0.0
 20
1.0
 30
0.0
  9
$PUCSNAME
  2

  9
$PUCSORG
 10
0.0
 20
0.0
 30
0.0
  9
$PUCSXDIR
 10
1.0
 20
0.0
 30
0.0
  9
$PUCSYDIR
 10
0.0
 20
1.0
 30
0.0
  9
$USERI1
 70
     0
  9
$USERI2
 70
     0
  9
$USERI3
 70
     0
  9
$USERI4
 70
     0
  9
$USERI5
 70
     0
  9
$USERR1
 40
0.0
  9
$USERR2
 40
0.0
  9
$USERR3
 40
0.0
  9
$USERR4
 40
0.0
  9
$USERR5
 40
0.0
  9
$WORLDVIEW
 70
     1
  9
$SHADEDGE
 70
     3
  9
$SHADEDIF
 70
    70
  9
$TILEMODE
 70
     1
  9
$MAXACTVP
 70
    64
  9
$PINSBASE
 10
0.0
 20
0.0
 30
0.0
  9
$PLIMCHECK
 70
     0
  9
$PEXTMIN
 10
0.0
 20
0.0
 30
0.0
  9
$PEXTMAX
 10
210.0
 20
297.0
 30
0.0
  9
$PLIMMIN
 10
0.0
 20
0.0
  9
$PLIMMAX
 10
12.0
 20
9.0
  9
$UNITMODE
 70
     0
  9
$VISRETAIN
 70
     1
  9
$PLINEGEN
 70
     0
  9
$PSLTSCALE
 70
     1
  9
$TREEDEPTH
 70
  3020
  9
$PICKSTYLE
 70
     1
  9
$CMLSTYLE
  2
STANDARD
  9
$CMLJUST
 70
     0
  9
$CMLSCALE
 40
1.0
  9
$SAVEIMAGES
 70
     1
  0
ENDSEC
  0
SECTION
  2
CLASSES
  0
CLASS
  1
ACDBDICTIONARYWDFLT
  2
AcDbDictionaryWithDefault
  3
ObjectDBX Classes
 90
        0
280
     0
281
     0
  0
CLASS
  1
TABLESTYLE
  2
AcDbTableStyle
  3
ObjectDBX Classes
 90
     2047
280
     0
281
     0
  0
CLASS
  1
DICTIONARYVAR
  2
AcDbDictionaryVar
  3
ObjectDBX Classes
 90
        0
280
     0
281
     0
  0
CLASS
  1
XRECORD
  2
AcDbXrecord
  3
AutoCAD 2000
 90
    32768
280
     0
281
     0
  0
CLASS
  1
LWPOLYLINE
  2
AcDbPolyline
  3
AutoCAD 2000
 90
    32768
280
     0
281
     1
  0
CLASS
  1
HATCH
  2
AcDbHatch
  3
AutoCAD 2000
 90
    32768
280
     0
281
     1
  0
CLASS
  1
ACDBPLACEHOLDER
  2
AcDbPlaceHolder
  3
ObjectDBX Classes
 90
        0
280
     0
281
     0
  0
CLASS
  1
LAYOUT
  2
AcDbLayout
  3
ObjectDBX Classes
 90
        0
280
     0
281
     0
  0
ENDSEC
  0
SECTION
  2
TABLES
  0
TABLE
  2
VPORT
  5
8
330
0
100
AcDbSymbolTable
 70
     2
  0
VPORT
  5
29
102
{ACAD_XDICTIONARY
360
210
102
}
330
8
100
AcDbSymbolTableRecord
100
AcDbViewportTableRecord
  2
*ACTIVE
 70
     0
 10
0.0
 20
0.0
 11
1.0
 21
1.0
 12
10.4299065421
 22
4.5
 13
0.0
 23
0.0
 14
0.5
 24
0.5
 15
0.5
 25
0.5
 16
0.0
 26
0.0
 36
1.0
 17
0.0
 27
0.0
 37
0.0
 40
9.0
 41
1.9729729729
 42
50.0
 43
0.0
 44
0.0
 50
0.0
 51
0.0
 71
     0
 72
   100
 73
     1
 74
     3
 75
     0
 76
     0
 77
     0
 78
     0
  0
ENDTAB
  0
TABLE
  2
LTYPE
  5
5
330
0
100
AcDbSymbolTable
 70
     2
  0
LTYPE
  5
14
330
5
100
AcDbSymbolTableRecord
100
AcDbLinetypeTableRecord
  2
BYBLOCK
 70
     0
  3

 72
    65
 73
     0
 40
0.0
  0
LTYPE
  5
15
330
5
100
AcDbSymbolTableRecord
100
AcDbLinetypeTableRecord
  2
BYLAYER
 70
     0
  3

 72
    65
 73
     0
 40
0.0
  0
LTYPE
  5
16
330
5
100
AcDbSymbolTableRecord
100
AcDbLinetypeTableRecord
  2
CONTINUOUS
 70
     0
  3
Solid line
 72
    65
 73
     0
 40
0.0
  0
LTYPE
  5
31
330
5
100
AcDbSymbolTableRecord
100
AcDbLinetypeTableRecord
  2
CENTER2
 70
     0
  3
___ _ ___ _ ___ _ ___ _ ___ _ ___ _ ___ _ ___ _
 72
    65
 73
     4
 40
1.125
 49
0.75
 74
     4
 75
     0
340
0
 46
0.0
 50
0.0
 44
0.0
 45
0.0
 49
-0.125
 74
     4
 75
     0
340
0
 46
0.0
 50
0.0
 44
0.0
 45
0.0
 49
0.125
 74
     4
 75
     0
340
0
 46
0.0
 50
0.0
 44
0.0
 45
0.0
 49
-0.125
 74
     4
 75
     0
340
0
 46
0.0
 50
0.0
 44
0.0
 45
0.0
  0
ENDTAB
  0
TABLE
  2
LAYER
  5
2
330
0
100
AcDbSymbolTable
 70
     5
  0
LAYER
  5
10
330
2
100
AcDbSymbolTableRecord
100
AcDbLayerTableRecord
  2
0
 70
     0
 62
     7
  6
CONTINUOUS
  0
LAYER
  5
30
330
2
100
AcDbSymbolTableRecord
100
AcDbLayerTableRecord
  2
DEFAULT
 70
     0
 62
     7
  6
CONTINUOUS
  0
LAYER
  5
73
330
2
100
AcDbSymbolTableRecord
100
AcDbLayerTableRecord
  2
MEGA_002201
 70
     0
 62
     7
  6
CONTINUOUS
  0
LAYER
  5
A3
330
2
100
AcDbSymbolTableRecord
100
AcDbLayerTableRecord
  2
MEGA_002304
 70
     0
 62
     7
  6
CONTINUOUS
  0
LAYER
  5
C9
330
2
100
AcDbSymbolTableRecord
100
AcDbLayerTableRecord
  2
MEGA_002634
 70
     0
 62
     7
  6
CONTINUOUS
  0
ENDTAB
  0
TABLE
  2
STYLE
  5
3
330
0
100
AcDbSymbolTable
 70
     3
  0
STYLE
  5
11
330
3
100
AcDbSymbolTableRecord
100
AcDbTextStyleTableRecord
  2
STANDARD
 70
     0
 40
0.0
 41
1.0
 50
0.0
 71
     0
 42
0.2
  3
txt
  4

  0
STYLE
  5
178
330
3
100
AcDbSymbolTableRecord
100
AcDbTextStyleTableRecord
  2
SEACAD_SEISO_TTF
 70
     0
 40
0.2
 41
1.0
 50
0.0
 71
     0
 42
0.2
  3
seiso.ttf
  4

  0
STYLE
  5
184
330
3
100
AcDbSymbolTableRecord
100
AcDbTextStyleTableRecord
  2
SEACAD_SEMECI1_TTF
 70
     0
 40
0.2
 41
1.0
 50
0.0
 71
     0
 42
0.2
  3
semeci1.ttf
  4

  0
ENDTAB
  0
TABLE
  2
VIEW
  5
6
330
0
100
AcDbSymbolTable
 70
     0
  0
ENDTAB
  0
TABLE
  2
UCS
  5
7
330
0
100
AcDbSymbolTable
 70
     0
  0
ENDTAB
  0
TABLE
  2
APPID
  5
9
330
0
100
AcDbSymbolTable
 70
     1
  0
APPID
  5
12
330
9
100
AcDbSymbolTableRecord
100
AcDbRegAppTableRecord
  2
ACAD
 70
     0
  0
ENDTAB
  0
TABLE
  2
DIMSTYLE
  5
A
330
0
100
AcDbSymbolTable
 70
     1
  0
DIMSTYLE
105
27
330
A
100
AcDbSymbolTableRecord
100
AcDbDimStyleTableRecord
  2
STANDARD
 70
     0
  3

  4

  5

  6

  7

 40
1.0
 41
0.18
 42
0.0625
 43
0.38
 44
0.18
 45
0.0
 46
0.0
 47
0.0
 48
0.0
140
0.18
141
0.09
142
0.0
143
25.4
144
1.0
145
0.0
146
1.0
147
0.09
 71
     0
 72
     0
 73
     1
 74
     1
 75
     0
 76
     0
 77
     0
 78
     0
170
     0
171
     2
172
     0
173
     0
174
     0
175
     0
176
     0
177
     0
178
     0
270
     2
271
     4
272
     4
273
     2
274
     2
340
11
275
     0
280
     0
281
     0
282
     0
283
     1
284
     0
285
     0
286
     0
287
     3
288
     0
  0
ENDTAB
  0
TABLE
  2
BLOCK_RECORD
  5
1
330
0
100
AcDbSymbolTable
 70
    22
  0
BLOCK_RECORD
  5
1F
330
1
100
AcDbSymbolTableRecord
100
AcDbBlockTableRecord
  2
*MODEL_SPACE
  0
BLOCK_RECORD
  5
1B
330
1
100
AcDbSymbolTableRecord
100
AcDbBlockTableRecord
  2
*PAPER_SPACE
  0
BLOCK_RECORD
  5
2E
330
1
100
AcDbSymbolTableRecord
100
AcDbBlockTableRecord
  2
SE
  0
BLOCK_RECORD
  5
35
330
1
100
AcDbSymbolTableRecord
100
AcDbBlockTableRecord
  2
SE1
  0
BLOCK_RECORD
  5
3A
330
1
100
AcDbSymbolTableRecord
100
AcDbBlockTableRecord
  2
SE2
  0
BLOCK_RECORD
  5
3F
330
1
100
AcDbSymbolTableRecord
100
AcDbBlockTableRecord
  2
SE3
  0
BLOCK_RECORD
  5
49
330
1
100
AcDbSymbolTableRecord
100
AcDbBlockTableRecord
  2
SE4
  0
BLOCK_RECORD
  5
53
330
1
100
AcDbSymbolTableRecord
100
AcDbBlockTableRecord
  2
SE5
  0
BLOCK_RECORD
  5
5D
330
1
100
AcDbSymbolTableRecord
100
AcDbBlockTableRecord
  2
SE6
  0
BLOCK_RECORD
  5
62
330
1
100
AcDbSymbolTableRecord
100
AcDbBlockTableRecord
  2
SE7
  0
BLOCK_RECORD
  5
67
330
1
100
AcDbSymbolTableRecord
100
AcDbBlockTableRecord
  2
SE8
  0
BLOCK_RECORD
  5
6C
330
1
100
AcDbSymbolTableRecord
100
AcDbBlockTableRecord
  2
SE9
  0
BLOCK_RECORD
  5
71
330
1
100
AcDbSymbolTableRecord
100
AcDbBlockTableRecord
  2
SE10
  0
BLOCK_RECORD
  5
D4
330
1
100
AcDbSymbolTableRecord
100
AcDbBlockTableRecord
  2
SE11
  0
BLOCK_RECORD
  5
134
330
1
100
AcDbSymbolTableRecord
100
AcDbBlockTableRecord
  2
SE12
  0
BLOCK_RECORD
  5
172
330
1
100
AcDbSymbolTableRecord
100
AcDbBlockTableRecord
  2
SE13
  0
BLOCK_RECORD
  5
17C
330
1
100
AcDbSymbolTableRecord
100
AcDbBlockTableRecord
  2
SE14
  0
BLOCK_RECORD
  5
188
330
1
100
AcDbSymbolTableRecord
100
AcDbBlockTableRecord
  2
SE15
  0
BLOCK_RECORD
  5
193
330
1
100
AcDbSymbolTableRecord
100
AcDbBlockTableRecord
  2
SE16
  0
BLOCK_RECORD
  5
19D
330
1
100
AcDbSymbolTableRecord
100
AcDbBlockTableRecord
  2
SE17
  0
BLOCK_RECORD
  5
1A7
330
1
100
AcDbSymbolTableRecord
100
AcDbBlockTableRecord
  2
SE18
  0
BLOCK_RECORD
  5
1B1
330
1
100
AcDbSymbolTableRecord
100
AcDbBlockTableRecord
  2
SE19
  0
BLOCK_RECORD
  5
1BB
330
1
100
AcDbSymbolTableRecord
100
AcDbBlockTableRecord
  2
SE20
  0
ENDTAB
  0
ENDSEC
  0
SECTION
  2
BLOCKS
  0
BLOCK
  5
20
330
1F
100
AcDbEntity
  8
0
100
AcDbBlockBegin
  2
*MODEL_SPACE
 70
     0
 71
     0
 10
0.0
 20
0.0
 30
0.0
  3
*MODEL_SPACE
  1

  0
ENDBLK
  5
21
330
1F
100
AcDbEntity
  8
0
100
AcDbBlockEnd
  0
BLOCK
  5
1C
330
1B
100
AcDbEntity
 67
     1
  8
0
100
AcDbBlockBegin
  2
*PAPER_SPACE
 70
     0
 71
     0
 10
0.0
 20
0.0
 30
0.0
  3
*PAPER_SPACE
  1

  0
ENDBLK
  5
1D
330
1B
100
AcDbEntity
 67
     1
  8
0
100
AcDbBlockEnd
  0
BLOCK
  5
33
330
2E
100
AcDbEntity
  8
0
100
AcDbBlockBegin
  2
SE
 70
     0
 71
     0
 10
0.0
 20
0.0
 30
0.0
  3
SE
  1

  0
LINE
  5
32
330
2E
100
AcDbEntity
  8
DEFAULT
  6
CENTER2
 62
     7
 48
25.4
100
AcDbLine
 10
73.9468684028
 20
216.3363291847
 30
0.0
 11
58.2717186623
 21
216.3363291847
 31
0.0
  0
ENDBLK
  5
34
330
2E
100
AcDbEntity
  8
0
100
AcDbBlockEnd
  0
BLOCK
  5
38
330
35
100
AcDbEntity
  8
0
100
AcDbBlockBegin
  2
SE1
 70
     0
 71
     0
 10
0.0
 20
0.0
 30
0.0
  3
SE1
  1

  0
LINE
  5
37
330
35
100
AcDbEntity
  8
DEFAULT
  6
CENTER2
 62
     7
 48
25.4
100
AcDbLine
 10
72.7351606181
 20
173.3363291847
 30
0.0
 11
58.1513247041
 21
173.3363291847
 31
0.0
  0
ENDBLK
  5
39
330
35
100
AcDbEntity
  8
0
100
AcDbBlockEnd
  0
BLOCK
  5
3D
330
3A
100
AcDbEntity
  8
0
100
AcDbBlockBegin
  2
SE2
 70
     0
 71
     0
 10
0.0
 20
0.0
 30
0.0
  3
SE2
  1

  0
LINE
  5
3C
330
3A
100
AcDbEntity
  8
DEFAULT
  6
CENTER2
 62
     7
 48
25.4
100
AcDbLine
 10
22.3399448211
 20
194.8363291847
 30
0.0
 11
107.2026061559
 21
194.8363291847
 31
0.0
  0
ENDBLK
  5
3E
330
3A
100
AcDbEntity
  8
0
100
AcDbBlockEnd
  0
BLOCK
  5
47
330
3F
100
AcDbEntity
  8
0
100
AcDbBlockBegin
  2
SE3
 70
     0
 71
     0
 10
0.0
 20
0.0
 30
0.0
  3
SE3
  1

  0
LINE
  5
41
330
3F
100
AcDbEntity
  8
DEFAULT
  6
CENTER2
 62
     7
 48
25.4
100
AcDbLine
 10
34.3928236793
 20
194.8363291847
 30
0.0
 11
22.392823575
 21
194.8363291847
 31
0.0
  0
LINE
  5
42
330
3F
100
AcDbEntity
  8
DEFAULT
  6
CENTER2
 62
     7
 48
25.4
100
AcDbLine
 10
28.3928236272
 20
200.8363292368
 30
0.0
 11
28.3928236272
 21
188.8363291325
 31
0.0
  0
LINE
  5
43
330
3F
100
AcDbEntity
  8
DEFAULT
  6
CENTER2
 62
     7
 48
25.4
100
AcDbLine
 10
35.8928236272
 20
194.8363291847
 30
0.0
 11
36.6428236272
 21
194.8363291847
 31
0.0
  0
LINE
  5
44
330
3F
100
AcDbEntity
  8
DEFAULT
  6
CENTER2
 62
     7
 48
25.4
100
AcDbLine
 10
28.3928236272
 20
202.3363291847
 30
0.0
 11
28.3928236272
 21
203.0863291847
 31
0.0
  0
LINE
  5
45
330
3F
100
AcDbEntity
  8
DEFAULT
  6
CENTER2
 62
     7
 48
25.4
100
AcDbLine
 10
20.8928236272
 20
194.8363291847
 30
0.0
 11
20.1428236272
 21
194.8363291847
 31
0.0
  0
LINE
  5
46
330
3F
100
AcDbEntity
  8
DEFAULT
  6
CENTER2
 62
     7
 48
25.4
100
AcDbLine
 10
28.3928236272
 20
187.3363291847
 30
0.0
 11
28.3928236272
 21
186.5863291847
 31
0.0
  0
ENDBLK
  5
48
330
3F
100
AcDbEntity
  8
0
100
AcDbBlockEnd
  0
BLOCK
  5
51
330
49
100
AcDbEntity
  8
0
100
AcDbBlockBegin
  2
SE4
 70
     0
 71
     0
 10
0.0
 20
0.0
 30
0.0
  3
SE4
  1

  0
LINE
  5
4B
330
49
100
AcDbEntity
  8
DEFAULT
  6
CENTER2
 62
     7
 48
25.4
100
AcDbLine
 10
161.6888708013
 20
216.3363291847
 30
0.0
 11
149.688870697
 21
216.3363291847
 31
0.0
  0
LINE
  5
4C
330
49
100
AcDbEntity
  8
DEFAULT
  6
CENTER2
 62
     7
 48
25.4
100
AcDbLine
 10
155.6888707492
 20
222.3363292368
 30
0.0
 11
155.6888707492
 21
210.3363291325
 31
0.0
  0
LINE
  5
4D
330
49
100
AcDbEntity
  8
DEFAULT
  6
CENTER2
 62
     7
 48
25.4
100
AcDbLine
 10
163.1888707492
 20
216.3363291847
 30
0.0
 11
162.4388707492
 21
216.3363291847
 31
0.0
  0
LINE
  5
4E
330
49
100
AcDbEntity
  8
DEFAULT
  6
CENTER2
 62
     7
 48
25.4
100
AcDbLine
 10
155.6888707492
 20
223.8363291847
 30
0.0
 11
155.6888707492
 21
223.0863291847
 31
0.0
  0
LINE
  5
4F
330
49
100
AcDbEntity
  8
DEFAULT
  6
CENTER2
 62
     7
 48
25.4
100
AcDbLine
 10
148.1888707492
 20
216.3363291847
 30
0.0
 11
148.9388707492
 21
216.3363291847
 31
0.0
  0
LINE
  5
50
330
49
100
AcDbEntity
  8
DEFAULT
  6
CENTER2
 62
     7
 48
25.4
100
AcDbLine
 10
155.6888707492
 20
208.8363291847
 30
0.0
 11
155.6888707492
 21
209.5863291847
 31
0.0
  0
ENDBLK
  5
52
330
49
100
AcDbEntity
  8
0
100
AcDbBlockEnd
  0
BLOCK
  5
5B
330
53
100
AcDbEntity
  8
0
100
AcDbBlockBegin
  2
SE5
 70
     0
 71
     0
 10
0.0
 20
0.0
 30
0.0
  3
SE5
  1

  0
LINE
  5
55
330
53
100
AcDbEntity
  8
DEFAULT
  6
CENTER2
 62
     7
 48
25.4
100
AcDbLine
 10
161.6888708013
 20
173.3363291847
 30
0.0
 11
149.688870697
 21
173.3363291847
 31
0.0
  0
LINE
  5
56
330
53
100
AcDbEntity
  8
DEFAULT
  6
CENTER2
 62
     7
 48
25.4
100
AcDbLine
 10
155.6888707492
 20
179.3363292368
 30
0.0
 11
155.6888707492
 21
167.3363291325
 31
0.0
  0
LINE
  5
57
330
53
100
AcDbEntity
  8
DEFAULT
  6
CENTER2
 62
     7
 48
25.4
100
AcDbLine
 10
163.1888707492
 20
173.3363291847
 30
0.0
 11
162.4388707492
 21
173.3363291847
 31
0.0
  0
LINE
  5
58
330
53
100
AcDbEntity
  8
DEFAULT
  6
CENTER2
 62
     7
 48
25.4
100
AcDbLine
 10
155.6888707492
 20
180.8363291847
 30
0.0
 11
155.6888707492
 21
180.0863291847
 31
0.0
  0
LINE
  5
59
330
53
100
AcDbEntity
  8
DEFAULT
  6
CENTER2
 62
     7
 48
25.4
100
AcDbLine
 10
148.1888707492
 20
173.3363291847
 30
0.0
 11
148.9388707492
 21
173.3363291847
 31
0.0
  0
LINE
  5
5A
330
53
100
AcDbEntity
  8
DEFAULT
  6
CENTER2
 62
     7
 48
25.4
100
AcDbLine
 10
155.6888707492
 20
165.8363291847
 30
0.0
 11
155.6888707492
 21
166.5863291847
 31
0.0
  0
ENDBLK
  5
5C
330
53
100
AcDbEntity
  8
0
100
AcDbBlockEnd
  0
BLOCK
  5
60
330
5D
100
AcDbEntity
  8
0
100
AcDbBlockBegin
  2
SE6
 70
     0
 71
     0
 10
0.0
 20
0.0
 30
0.0
  3
SE6
  1

  0
LINE
  5
5F
330
5D
100
AcDbEntity
  8
DEFAULT
  6
CENTER2
 62
     7
 48
25.4
100
AcDbLine
 10
187.9412773338
 20
194.8363291847
 30
0.0
 11
121.3823272673
 21
194.8363291847
 31
0.0
  0
ENDBLK
  5
61
330
5D
100
AcDbEntity
  8
0
100
AcDbBlockEnd
  0
BLOCK
  5
65
330
62
100
AcDbEntity
  8
0
100
AcDbBlockBegin
  2
SE7
 70
     0
 71
     0
 10
0.0
 20
0.0
 30
0.0
  3
SE7
  1

  0
LINE
  5
64
330
62
100
AcDbEntity
  8
DEFAULT
  6
CENTER2
 62
     7
 48
25.4
100
AcDbLine
 10
155.6888707492
 20
157.6991681875
 30
0.0
 11
155.6888707492
 21
232.1619935745
 31
0.0
  0
ENDBLK
  5
66
330
62
100
AcDbEntity
  8
0
100
AcDbBlockEnd
  0
BLOCK
  5
6A
330
67
100
AcDbEntity
  8
0
100
AcDbBlockBegin
  2
SE8
 70
     0
 71
     0
 10
0.0
 20
0.0
 30
0.0
  3
SE8
  1

  0
LINE
  5
69
330
67
100
AcDbEntity
  8
DEFAULT
  6
CENTER2
 62
     7
 48
25.4
100
AcDbLine
 10
28.3928236272
 20
72.2125166959
 30
0.0
 11
28.3928236272
 21
140.0194470761
 31
0.0
  0
ENDBLK
  5
6B
330
67
100
AcDbEntity
  8
0
100
AcDbBlockEnd
  0
BLOCK
  5
6F
330
6C
100
AcDbEntity
  8
0
100
AcDbBlockBegin
  2
SE9
 70
     0
 71
     0
 10
0.0
 20
0.0
 30
0.0
  3
SE9
  1

  0
LINE
  5
6E
330
6C
100
AcDbEntity
  8
DEFAULT
  6
CENTER2
 62
     7
 48
25.4
100
AcDbLine
 10
18.087475934
 20
105.0402820626
 30
0.0
 11
107.8265963128
 21
105.0402820626
 31
0.0
  0
ENDBLK
  5
70
330
6C
100
AcDbEntity
  8
0
100
AcDbBlockEnd
  0
BLOCK
  5
D2
330
71
100
AcDbEntity
  8
0
100
AcDbBlockBegin
  2
SE10
 70
     0
 71
     0
 10
0.0
 20
0.0
 30
0.0
  3
SE10
  1

  0
CIRCLE
  5
74
330
71
100
AcDbEntity
  8
MEGA_002201
  6
CONTINUOUS
 62
     7
 48
25.4
100
AcDbCircle
 10
28.3928236272
 20
194.8363291847
 30
0.0
 40
6.500000000000001
  0
CIRCLE
  5
75
330
71
100
AcDbEntity
  8
MEGA_002201
  6
CONTINUOUS
 62
     7
 48
25.4
100
AcDbCircle
 10
28.3928236272
 20
194.8363291847
 30
0.0
 40
5.000000000000018
  0
LINE
  5
76
330
71
100
AcDbEntity
  8
MEGA_002201
  6
CONTINUOUS
 62
     7
 48
25.4
100
AcDbLine
 10
69.3928236272
 20
187.5363291847
 30
0.0
 11
69.3928236272
 21
202.1363291847
 31
0.0
  0
LINE
  5
77
330
71
100
AcDbEntity
  8
MEGA_002201
  6
CONTINUOUS
 62
     7
 48
25.4
100
AcDbLine
 10
69.1928236272
 20
202.3363291847
 30
0.0
 11
69.1928236272
 21
187.3363291847
 31
0.0
  0
LINE
  5
78
330
71
100
AcDbEntity
  8
MEGA_002201
  6
CONTINUOUS
 62
     7
 48
25.4
100
AcDbLine
 10
68.8928236272
 20
187.3363291847
 30
0.0
 11
69.1928236272
 21
187.3363291847
 31
0.0
  0
LINE
  5
79
330
71
100
AcDbEntity
  8
MEGA_002201
  6
CONTINUOUS
 62
     7
 48
25.4
100
AcDbLine
 10
69.1928236272
 20
202.3363291847
 30
0.0
 11
68.8928236272
 21
202.3363291847
 31
0.0
  0
LINE
  5
7A
330
71
100
AcDbEntity
  8
MEGA_002201
  6
CONTINUOUS
 62
     7
 48
25.4
100
AcDbLine
 10
28.3928236272
 20
201.3363291847
 30
0.0
 11
27.9619944803
 21
201.3363291847
 31
0.0
  0
ARC
  5
7B
330
71
100
AcDbEntity
  8
MEGA_002201
  6
CONTINUOUS
 62
     7
 48
25.4
100
AcDbCircle
 10
34.6991892442
 20
185.3363291847
 30
0.0
 40
3.0
100
AcDbArc
 50
82.6139568487
 51
90.0
  0
LINE
  5
7C
330
71
100
AcDbEntity
  8
MEGA_002201
  6
CONTINUOUS
 62
     7
 48
25.4
100
AcDbLine
 10
69.3928236272
 20
202.1363291847
 30
0.0
 11
69.1928236272
 21
202.3363291847
 31
0.0
  0
LINE
  5
7D
330
71
100
AcDbEntity
  8
MEGA_002201
  6
CONTINUOUS
 62
     7
 48
25.4
100
AcDbLine
 10
69.1928236272
 20
187.3363291847
 30
0.0
 11
69.3928236272
 21
187.5363291847
 31
0.0
  0
LINE
  5
7E
330
71
100
AcDbEntity
  8
MEGA_002201
  6
CONTINUOUS
 62
     7
 48
25.4
100
AcDbLine
 10
35.0848513301
 20
188.3114367046
 30
0.0
 11
61.8928236272
 21
184.8363291847
 31
0.0
  0
LINE
  5
7F
330
71
100
AcDbEntity
  8
MEGA_002201
  6
CONTINUOUS
 62
     7
 48
25.4
100
AcDbLine
 10
61.8928236272
 20
204.8363291847
 30
0.0
 11
35.0848513301
 21
201.3612216647
 31
0.0
  0
SPLINE
  5
80
330
71
100
AcDbEntity
  8
MEGA_002201
  6
CONTINUOUS
 62
     7
 48
25.4
100
AcDbSpline
210
0.0
220
0.0
230
1.0
 70
     8
 71
     3
 72
    14
 73
    10
 74
     0
 42
0.0000000001
 43
0.0000000001
 40
0.0
 40
0.0
 40
0.0
 40
0.0
 40
0.2500000000000003
 40
0.2500000000000003
 40
0.2500000000000003
 40
0.5000000000000004
 40
0.5000000000000004
 40
0.5000000000000004
 40
1.0
 40
1.0
 40
1.0
 40
1.0
 10
35.10649871871908
 20
201.1986859323634
 30
0.0
 10
35.29444537168181
 20
201.0659697252887
 30
0.0
 10
35.57678905557219
 20
200.8511478715427
 30
0.0
 10
35.87791222650768
 20
200.5535202618869
 30
0.0
 10
36.17903539744317
 20
200.2558926522311
 30
0.0
 10
36.49017013394784
 20
199.8849761354467
 30
0.0
 10
36.78221628901356
 20
199.4292715341835
 30
0.0
 10
37.36630859914502
 20
198.5178623316571
 30
0.0
 10
37.83035221015663
 20
197.2931688634423
 30
0.0
 10
38.15437790512302
 20
195.906841278933
 30
0.0
  0
ARC
  5
81
330
71
100
AcDbEntity
  8
MEGA_002201
  6
CONTINUOUS
 62
     7
 48
25.4
100
AcDbCircle
 10
33.5976337469
 20
194.8363291847
 30
0.0
 40
4.680802651999997
100
AcDbArc
 50
346.7792950824
 51
13.2207049176
  0
LINE
  5
82
330
71
100
AcDbEntity
  8
MEGA_002201
  6
CONTINUOUS
 62
     7
 48
25.4
100
AcDbLine
 10
34.6991892442
 20
188.4679241198
 30
0.0
 11
34.6973838608
 21
188.5142171976
 31
0.0
  0
SPLINE
  5
83
330
71
100
AcDbEntity
  8
MEGA_002201
  6
CONTINUOUS
 62
     7
 48
25.4
100
AcDbSpline
210
0.0
220
0.0
230
1.0
 70
     8
 71
     3
 72
    17
 73
    13
 74
     0
 42
0.0000000001
 43
0.0000000001
 40
0.0
 40
0.0
 40
0.0
 40
0.0
 40
0.2515904312245312
 40
0.2515904312245312
 40
0.2515904312245312
 40
0.5031808624490622
 40
0.5031808624490622
 40
0.5031808624490622
 40
0.7547712936735933
 40
0.7547712936735933
 40
0.7547712936735933
 40
1.0
 40
1.0
 40
1.0
 40
1.0
 10
34.69738386083557
 20
188.5142171976201
 30
0.0
 10
34.54030430907869
 20
188.6817861396408
 30
0.0
 10
34.39103351450377
 20
188.9073844422118
 30
0.0
 10
34.29608747309758
 20
189.1619892907887
 30
0.0
 10
34.20114143169138
 20
189.4165941393657
 30
0.0
 10
34.15116243021149
 20
189.7010170662918
 30
0.0
 10
34.1698939052279
 20
190.0848073173374
 30
0.0
 10
34.18862538024433
 20
190.468597568383
 30
0.0
 10
34.28052764676969
 20
190.9614594989712
 30
0.0
 10
34.40480530434963
 20
191.5942148747165
 30
0.0
 10
34.52594047250873
 20
192.2109703747563
 30
0.0
 10
34.6670253583141
 20
192.9334529904837
 30
0.0
 10
34.79775502456491
 20
193.7271809120137
 30
0.0
  0
SPLINE
  5
84
330
71
100
AcDbEntity
  8
MEGA_002201
  6
CONTINUOUS
 62
     7
 48
25.4
100
AcDbSpline
210
0.0
220
0.0
230
1.0
 70
     8
 71
     3
 72
     8
 73
     4
 74
     0
 42
0.0000000001
 43
0.0000000001
 40
0.0
 40
0.0
 40
0.0
 40
0.0
 40
1.0
 40
1.0
 40
1.0
 40
1.0
 10
34.79775502456491
 20
193.7271809120137
 30
0.0
 10
34.80114641452561
 20
193.7477718075756
 30
0.0
 10
34.80453083555047
 20
193.7684106503551
 30
0.0
 10
34.80790775855608
 20
193.7890968383463
 30
0.0
  0
LINE
  5
85
330
71
100
AcDbEntity
  8
MEGA_002201
  6
CONTINUOUS
 62
     7
 48
25.4
100
AcDbLine
 10
27.9619944803
 20
188.3363291847
 30
0.0
 11
28.3928236272
 21
188.3363291847
 31
0.0
  0
LINE
  5
86
330
71
100
AcDbEntity
  8
MEGA_002201
  6
CONTINUOUS
 62
     7
 48
25.4
100
AcDbLine
 10
34.6991892442
 20
201.3363291847
 30
0.0
 11
28.3928236272
 21
201.3363291847
 31
0.0
  0
LINE
  5
87
330
71
100
AcDbEntity
  8
MEGA_002201
  6
CONTINUOUS
 62
     7
 48
25.4
100
AcDbLine
 10
28.3928236272
 20
188.3363291847
 30
0.0
 11
34.6991892442
 21
188.3363291847
 31
0.0
  0
LINE
  5
88
330
71
100
AcDbEntity
  8
MEGA_002201
  6
CONTINUOUS
 62
     7
 48
25.4
100
AcDbLine
 10
35.0848513301
 20
201.229122772
 30
0.0
 11
35.1064987187
 21
201.1986859324
 31
0.0
  0
ELLIPSE
  5
89
330
71
100
AcDbEntity
  8
MEGA_002201
  6
CONTINUOUS
 62
     7
 48
25.4
100
AcDbEllipse
 10
34.8928236272
 20
225.6583991995
 30
0.0
 11
5.158730158734452
 21
24.46196032923254
 31
0.0
210
0.0
220
0.0
230
1.0
 40
0.699373605
 41
3.141592653589793
 42
3.423522389563624
  0
ARC
  5
8A
330
71
100
AcDbEntity
  8
MEGA_002201
  6
CONTINUOUS
 62
     7
 48
25.4
100
AcDbCircle
 10
34.6991892442
 20
204.3363291847
 30
0.0
 40
3.0
100
AcDbArc
 50
270.0
 51
277.3860431513
  0
LINE
  5
8B
330
71
100
AcDbEntity
  8
MEGA_002201
  6
CONTINUOUS
 62
     7
 48
25.4
100
AcDbLine
 10
34.6973838608
 20
201.1584411717
 30
0.0
 11
34.6991892442
 21
201.2047342495
 31
0.0
  0
SPLINE
  5
8C
330
71
100
AcDbEntity
  8
MEGA_002201
  6
CONTINUOUS
 62
     7
 48
25.4
100
AcDbSpline
210
0.0
220
0.0
230
1.0
 70
     8
 71
     3
 72
     8
 73
     4
 74
     0
 42
0.0000000001
 43
0.0000000001
 40
0.0
 40
0.0
 40
0.0
 40
0.0
 40
1.0
 40
1.0
 40
1.0
 40
1.0
 10
34.80790775855608
 20
195.8835615309679
 30
0.0
 10
34.80180593517208
 20
195.9209397789767
 30
0.0
 10
34.79567861223495
 20
195.9581692373376
 30
0.0
 10
34.78952906151968
 20
195.9952455056308
 30
0.0
  0
SPLINE
  5
8D
330
71
100
AcDbEntity
  8
MEGA_002201
  6
CONTINUOUS
 62
     7
 48
25.4
100
AcDbSpline
210
0.0
220
0.0
230
1.0
 70
     8
 71
     3
 72
    17
 73
    13
 74
     0
 42
0.0000000001
 43
0.0000000001
 40
0.0
 40
0.0
 40
0.0
 40
0.0
 40
0.2412719969014811
 40
0.2412719969014811
 40
0.2412719969014811
 40
0.494181331267654
 40
0.494181331267654
 40
0.494181331267654
 40
0.747090665633827
 40
0.747090665633827
 40
0.747090665633827
 40
0.9999999999999999
 40
0.9999999999999999
 40
0.9999999999999999
 40
0.9999999999999999
 10
34.78952906151968
 20
195.9952455056308
 30
0.0
 10
34.66203302682778
 20
196.7639320987543
 30
0.0
 10
34.52498260941476
 20
197.466771510626
 30
0.0
 10
34.40753484046665
 20
198.0645485821697
 30
0.0
 10
34.28442218152184
 20
198.6911583968395
 30
0.0
 10
34.19134702593953
 20
199.1861067723336
 30
0.0
 10
34.17075773209452
 20
199.5709667804582
 30
0.0
 10
34.15016843824952
 20
199.9558267885828
 30
0.0
 10
34.19830143249016
 20
200.2458583064425
 30
0.0
 10
34.29385270690949
 20
200.5046465749368
 30
0.0
 10
34.38940398132884
 20
200.7634348434312
 30
0.0
 10
34.53997401121371
 20
200.9905198753207
 30
0.0
 10
34.69738386083572
 20
201.1584411716942
 30
0.0
  0
LINE
  5
8E
330
71
100
AcDbEntity
  8
MEGA_002201
  6
CONTINUOUS
 62
     7
 48
25.4
100
AcDbLine
 10
35.0848513301
 20
201.229122772
 30
0.0
 11
35.0848513301
 21
201.3612216647
 31
0.0
  0
ELLIPSE
  5
8F
330
71
100
AcDbEntity
  8
MEGA_002201
  6
CONTINUOUS
 62
     7
 48
25.4
100
AcDbEllipse
 10
34.8928236272
 20
164.0142591699
 30
0.0
 11
5.158730158729518
 21
-24.46196032919959
 31
0.0
210
0.0
220
0.0
230
1.0
 40
0.699373605
 41
2.859662917615735
 42
3.141592653589793
  0
LINE
  5
90
330
71
100
AcDbEntity
  8
MEGA_002201
  6
CONTINUOUS
 62
     7
 48
25.4
100
AcDbLine
 10
34.6991892442
 20
201.3363291847
 30
0.0
 11
34.6991892442
 21
201.2047342495
 31
0.0
  0
ELLIPSE
  5
91
330
71
100
AcDbEntity
  8
MEGA_002201
  6
CONTINUOUS
 62
     7
 48
25.4
100
AcDbEllipse
 10
34.6991892442
 20
204.1439981255
 30
0.0
 11
2.999999999933251
 21
8.178250000000000E-10
 31
0.0
210
0.0
220
0.0
230
1.0
 40
0.9797546253
 41
4.712388980114832
 42
4.841299751801623
  0
ELLIPSE
  5
92
330
71
100
AcDbEntity
  8
MEGA_002201
  6
CONTINUOUS
 62
     7
 48
25.4
100
AcDbEllipse
 10
34.7208366328
 20
204.098436135
 30
0.0
 11
-2.206487686796134
 21
-2.032587535157076
 31
0.0
210
0.0
220
0.0
230
1.0
 40
0.963481281
 41
0.8369548695328334
 42
0.9760031079464642
  0
LINE
  5
93
330
71
100
AcDbEntity
  8
MEGA_002201
  6
CONTINUOUS
 62
     7
 48
25.4
100
AcDbLine
 10
35.1064987187
 20
188.473972437
 30
0.0
 11
35.0848513301
 21
188.4435355973
 31
0.0
  0
LINE
  5
94
330
71
100
AcDbEntity
  8
MEGA_002201
  6
CONTINUOUS
 62
     7
 48
25.4
100
AcDbLine
 10
35.0848513301
 20
188.4435355973
 30
0.0
 11
35.0848513301
 21
188.3114367046
 31
0.0
  0
ARC
  5
95
330
71
100
AcDbEntity
  8
MEGA_002201
  6
CONTINUOUS
 62
     7
 48
25.4
100
AcDbCircle
 10
29.8701382564
 20
195.0135422878
 30
0.0
 40
8.377675377200003
100
AcDbArc
 50
308.6849327989
 51
351.4348135655
  0
ELLIPSE
  5
96
330
71
100
AcDbEntity
  8
MEGA_002201
  6
CONTINUOUS
 62
     7
 48
25.4
100
AcDbEllipse
 10
34.6991892442
 20
185.5286602437
 30
0.0
 11
2.999999999989741
 21
-1.712467000000001E-10
 31
0.0
210
0.0
220
0.0
230
1.0
 40
0.9797546254
 41
1.441885555167075
 42
1.570796326851491
  0
ELLIPSE
  5
97
330
71
100
AcDbEntity
  8
MEGA_002201
  6
CONTINUOUS
 62
     7
 48
25.4
100
AcDbEllipse
 10
37.7687158192
 20
196.366899537
 30
0.0
 11
2.960808060644041
 21
0.4833380059898444
 31
0.0
210
0.0
220
0.0
230
1.0
 40
0.172966134
 41
3.141592653589804
 42
4.814735091596079
  0
ELLIPSE
  5
98
330
71
100
AcDbEntity
  8
MEGA_002201
  6
CONTINUOUS
 62
     7
 48
25.4
100
AcDbEllipse
 10
34.7208366328
 20
185.5742222343
 30
0.0
 11
-2.206487686988509
 21
2.032587534899781
 31
0.0
210
0.0
220
0.0
230
1.0
 40
0.963481281
 41
5.307182199126123
 42
5.446230437540833
  0
ELLIPSE
  5
99
330
71
100
AcDbEntity
  8
MEGA_002201
  6
CONTINUOUS
 62
     7
 48
25.4
100
AcDbEllipse
 10
37.7687158192
 20
193.3057588324
 30
0.0
 11
2.960808060644044
 21
-0.4833380059898423
 31
0.0
210
0.0
220
0.0
230
1.0
 40
0.172966134
 41
1.468450215583512
 42
3.141592653589833
  0
SPLINE
  5
9A
330
71
100
AcDbEntity
  8
MEGA_002201
  6
CONTINUOUS
 62
     7
 48
25.4
100
AcDbSpline
210
0.0
220
0.0
230
1.0
 70
    12
 71
     3
 72
     8
 73
     4
 74
     0
 42
0.0000000001
 43
0.0000000001
 40
0.0
 40
0.0
 40
0.0
 40
0.0
 40
1.0
 40
1.0
 40
1.0
 40
1.0
 10
28.39282362716387
 20
188.3363291846571
 30
0.0
 41
1.0
 10
28.24920719489045
 20
188.3363291846571
 30
0.0
 41
1.0
 10
28.10559747927906
 20
188.3365318462557
 30
0.0
 41
1.0
 10
27.96199448032968
 20
188.3369371694529
 30
0.0
 41
1.0
  0
LINE
  5
9B
330
71
100
AcDbEntity
  8
MEGA_002201
  6
CONTINUOUS
 62
     7
 48
25.4
100
AcDbLine
 10
27.9619944803
 20
188.3369371695
 30
0.0
 11
27.9619944803
 21
188.3506228819
 31
0.0
  0
SPLINE
  5
9C
330
71
100
AcDbEntity
  8
MEGA_002201
  6
CONTINUOUS
 62
     7
 48
25.4
100
AcDbSpline
210
0.0
220
0.0
230
1.0
 70
    12
 71
     3
 72
     8
 73
     4
 74
     0
 42
0.0000000001
 43
0.0000000001
 40
0.0
 40
0.0
 40
0.0
 40
0.0
 40
1.0
 40
1.0
 40
1.0
 40
1.0
 10
27.96199448032965
 20
201.3357211998613
 30
0.0
 41
1.0
 10
28.10559747927902
 20
201.3361265230585
 30
0.0
 41
1.0
 10
28.24920719489043
 20
201.3363291846571
 30
0.0
 41
1.0
 10
28.39282362716386
 20
201.3363291846571
 30
0.0
 41
1.0
  0
ELLIPSE
  5
9D
330
71
100
AcDbEntity
  8
MEGA_002201
  6
CONTINUOUS
 62
     7
 48
25.4
100
AcDbEllipse
 10
28.3928236272
 20
194.8363291847
 30
0.0
 11
-31.49999999992619
 21
3.583000000000001E-12
 31
0.0
210
0.0
220
0.0
230
0.9999999999999999
 40
0.2063492063
 41
4.510824805070688
 42
4.712388980385153
  0
ELLIPSE
  5
9E
330
71
100
AcDbEntity
  8
MEGA_002201
  6
CONTINUOUS
 62
     7
 48
25.4
100
AcDbEllipse
 10
28.3928236272
 20
194.8363291846
 30
0.0
 11
31.4999999999647
 21
1.610700000000001E-12
 31
0.0
210
0.0
220
0.0
230
1.0
 40
0.2063492063
 41
4.712388980384482
 42
4.913953155698708
  0
LINE
  5
9F
330
71
100
AcDbEntity
  8
MEGA_002201
  6
CONTINUOUS
 62
     7
 48
25.4
100
AcDbLine
 10
27.9619944803
 20
201.3220354875
 30
0.0
 11
27.9619944803
 21
201.3357211999
 31
0.0
  0
LINE
  5
A0
330
71
100
AcDbEntity
  8
MEGA_002201
  6
CONTINUOUS
 62
     7
 48
25.4
100
AcDbLine
 10
34.6991892442
 20
188.3363291847
 30
0.0
 11
34.6991892442
 21
188.4679241198
 31
0.0
  0
LINE
  5
A1
330
71
100
AcDbEntity
  8
MEGA_002201
  6
CONTINUOUS
 62
     7
 48
25.4
100
AcDbLine
 10
27.9619944803
 20
188.3369371695
 30
0.0
 11
27.9619944803
 21
188.3363291847
 31
0.0
  0
LINE
  5
A2
330
71
100
AcDbEntity
  8
MEGA_002201
  6
CONTINUOUS
 62
     7
 48
25.4
100
AcDbLine
 10
27.9619944803
 20
201.3357211999
 30
0.0
 11
27.9619944803
 21
201.3363291847
 31
0.0
  0
LINE
  5
A4
330
71
100
AcDbEntity
  8
MEGA_002304
  6
CONTINUOUS
 62
     7
 48
25.4
100
AcDbLine
 10
68.8928236272
 20
229.3363291847
 30
0.0
 11
68.8928236272
 21
216.3363291847
 31
0.0
  0
LINE
  5
A5
330
71
100
AcDbEntity
  8
MEGA_002304
  6
CONTINUOUS
 62
     7
 48
25.4
100
AcDbLine
 10
61.8928236272
 20
198.9190203739
 30
0.0
 11
61.8928236272
 21
190.7536379954
 31
0.0
  0
LINE
  5
A6
330
71
100
AcDbEntity
  8
MEGA_002304
  6
CONTINUOUS
 62
     7
 48
25.4
100
AcDbLine
 10
61.8928236272
 20
205.8363291847
 30
0.0
 11
61.8928236272
 21
198.9190203739
 31
0.0
  0
LINE
  5
A7
330
71
100
AcDbEntity
  8
MEGA_002304
  6
CONTINUOUS
 62
     7
 48
25.4
100
AcDbLine
 10
61.8928236272
 20
190.7536379954
 30
0.0
 11
61.8928236272
 21
183.8363291847
 31
0.0
  0
LINE
  5
A8
330
71
100
AcDbEntity
  8
MEGA_002304
  6
CONTINUOUS
 62
     7
 48
25.4
100
AcDbLine
 10
68.8928236272
 20
160.3363291847
 30
0.0
 11
68.8928236272
 21
173.3363291847
 31
0.0
  0
LINE
  5
A9
330
71
100
AcDbEntity
  8
MEGA_002304
  6
CONTINUOUS
 62
     7
 48
25.4
100
AcDbLine
 10
68.8928236272
 20
173.3363291847
 30
0.0
 11
68.8928236272
 21
216.3363291847
 31
0.0
  0
LINE
  5
AA
330
71
100
AcDbEntity
  8
MEGA_002304
  6
CONTINUOUS
 62
     7
 48
25.4
100
AcDbLine
 10
65.8928236272
 20
216.3363291847
 30
0.0
 11
68.8928236272
 21
216.3363291847
 31
0.0
  0
LINE
  5
AB
330
71
100
AcDbEntity
  8
MEGA_002304
  6
CONTINUOUS
 62
     7
 48
25.4
100
AcDbLine
 10
65.8928236272
 20
173.3363291847
 30
0.0
 11
68.8928236272
 21
173.3363291847
 31
0.0
  0
ARC
  5
AC
330
71
100
AcDbEntity
  8
MEGA_002304
  6
CONTINUOUS
 62
     7
 48
25.4
100
AcDbCircle
 10
10.0646667175
 20
194.8363291847
 30
0.0
 40
51.9887123903
100
AcDbArc
 50
355.4959054484
 51
4.5040945516
  0
ARC
  5
AD
330
71
100
AcDbEntity
  8
MEGA_002304
  6
CONTINUOUS
 62
     7
 48
25.4
100
AcDbCircle
 10
35.9513269289
 20
187.4002259197
 30
0.0
 40
28.9423712999
100
AcDbArc
 50
0.4454272604
 51
5.0342505021
  0
ARC
  5
AE
330
71
100
AcDbEntity
  8
MEGA_002304
  6
CONTINUOUS
 62
     7
 48
25.4
100
AcDbCircle
 10
42.7447288233
 20
187.4211706106
 30
0.0
 40
23.14899418789999
100
AcDbArc
 50
0.5050629946
 51
6.495440426
  0
LINE
  5
AF
330
71
100
AcDbEntity
  8
MEGA_002304
  6
CONTINUOUS
 62
     7
 48
25.4
100
AcDbLine
 10
65.8928236272
 20
187.6252266337
 30
0.0
 11
65.8928236272
 21
173.3363291847
 31
0.0
  0
ARC
  5
B0
330
71
100
AcDbEntity
  8
MEGA_002304
  6
CONTINUOUS
 62
     7
 48
25.4
100
AcDbCircle
 10
42.7447288233
 20
202.2514877587
 30
0.0
 40
23.14899418789999
100
AcDbArc
 50
353.504559574
 51
359.4949370054
  0
LINE
  5
B1
330
71
100
AcDbEntity
  8
MEGA_002304
  6
CONTINUOUS
 62
     7
 48
25.4
100
AcDbLine
 10
65.8928236272
 20
216.3363291847
 30
0.0
 11
65.8928236272
 21
202.0474317356
 31
0.0
  0
ARC
  5
B2
330
71
100
AcDbEntity
  8
MEGA_002304
  6
CONTINUOUS
 62
     7
 48
25.4
100
AcDbCircle
 10
159.4949759253
 20
194.8363291847
 30
0.0
 40
94.83940470650002
100
AcDbArc
 50
177.040614425
 51
182.959385575
  0
ARC
  5
B3
330
71
100
AcDbEntity
  8
MEGA_002304
  6
CONTINUOUS
 62
     7
 48
25.4
100
AcDbCircle
 10
118.0995678167
 20
194.8363291847
 30
0.0
 40
52.5736954452
100
AcDbArc
 50
174.765463642
 51
185.234536358
  0
ARC
  5
B4
330
71
100
AcDbEntity
  8
MEGA_002304
  6
CONTINUOUS
 62
     7
 48
25.4
100
AcDbCircle
 10
35.9470151863
 20
202.272638791
 30
0.0
 40
28.9466845168
100
AcDbArc
 50
354.9660915608
 51
359.5542306767
  0
LINE
  5
B5
330
71
100
AcDbEntity
  8
MEGA_002304
  6
CONTINUOUS
 62
     7
 48
25.4
100
AcDbLine
 10
64.8928236272
 20
202.0474317356
 30
0.0
 11
64.8928236272
 21
216.3363291847
 31
0.0
  0
LINE
  5
B6
330
71
100
AcDbEntity
  8
MEGA_002304
  6
CONTINUOUS
 62
     7
 48
25.4
100
AcDbLine
 10
65.8928236272
 20
216.3363291847
 30
0.0
 11
65.8928236272
 21
229.3363291847
 31
0.0
  0
LINE
  5
B7
330
71
100
AcDbEntity
  8
MEGA_002304
  6
CONTINUOUS
 62
     7
 48
25.4
100
AcDbLine
 10
64.8928236272
 20
228.3363291847
 30
0.0
 11
64.8928236272
 21
216.3363291847
 31
0.0
  0
LINE
  5
B8
330
71
100
AcDbEntity
  8
MEGA_002304
  6
CONTINUOUS
 62
     7
 48
25.4
100
AcDbLine
 10
64.8928236272
 20
173.3363291847
 30
0.0
 11
64.8928236272
 21
187.6252266337
 31
0.0
  0
LINE
  5
B9
330
71
100
AcDbEntity
  8
MEGA_002304
  6
CONTINUOUS
 62
     7
 48
25.4
100
AcDbLine
 10
65.8928236272
 20
160.3363291847
 30
0.0
 11
65.8928236272
 21
173.3363291847
 31
0.0
  0
LINE
  5
BA
330
71
100
AcDbEntity
  8
MEGA_002304
  6
CONTINUOUS
 62
     7
 48
25.4
100
AcDbLine
 10
64.8928236272
 20
161.3363291847
 30
0.0
 11
64.8928236272
 21
173.3363291847
 31
0.0
  0
LINE
  5
BB
330
71
100
AcDbEntity
  8
MEGA_002304
  6
CONTINUOUS
 62
     7
 48
25.4
100
AcDbLine
 10
65.8928236272
 20
173.3363291847
 30
0.0
 11
64.8928236272
 21
173.3363291847
 31
0.0
  0
LINE
  5
BC
330
71
100
AcDbEntity
  8
MEGA_002304
  6
CONTINUOUS
 62
     7
 48
25.4
100
AcDbLine
 10
65.7451264043
 20
190.0398807945
 30
0.0
 11
64.78205071
 21
189.9399547863
 31
0.0
  0
LINE
  5
BD
330
71
100
AcDbEntity
  8
MEGA_002304
  6
CONTINUOUS
 62
     7
 48
25.4
100
AcDbLine
 10
65.7451264043
 20
199.6327775748
 30
0.0
 11
64.78205071
 21
199.732703583
 31
0.0
  0
ARC
  5
BE
330
71
100
AcDbEntity
  8
MEGA_002304
  6
CONTINUOUS
 62
     7
 48
25.4
100
AcDbCircle
 10
65.8928236272
 20
161.3363291847
 30
0.0
 40
1.0
100
AcDbArc
 50
180.0
 51
270.0
  0
ARC
  5
BF
330
71
100
AcDbEntity
  8
MEGA_002304
  6
CONTINUOUS
 62
     7
 48
25.4
100
AcDbCircle
 10
61.8928236272
 20
180.8363291847
 30
0.0
 40
3.0
100
AcDbArc
 50
0.0
 51
90.0
  0
LINE
  5
C0
330
71
100
AcDbEntity
  8
MEGA_002304
  6
CONTINUOUS
 62
     7
 48
25.4
100
AcDbLine
 10
65.8928236272
 20
202.0474317356
 30
0.0
 11
64.8928236272
 21
202.0474317356
 31
0.0
  0
LINE
  5
C1
330
71
100
AcDbEntity
  8
MEGA_002304
  6
CONTINUOUS
 62
     7
 48
25.4
100
AcDbLine
 10
65.8928236272
 20
216.3363291847
 30
0.0
 11
64.8928236272
 21
216.3363291847
 31
0.0
  0
ARC
  5
C2
330
71
100
AcDbEntity
  8
MEGA_002304
  6
CONTINUOUS
 62
     7
 48
25.4
100
AcDbCircle
 10
61.8928236272
 20
208.8363291847
 30
0.0
 40
3.0
100
AcDbArc
 50
270.0
 51
360.0
  0
ARC
  5
C3
330
71
100
AcDbEntity
  8
MEGA_002304
  6
CONTINUOUS
 62
     7
 48
25.4
100
AcDbCircle
 10
65.8928236272
 20
228.3363291847
 30
0.0
 40
1.0
100
AcDbArc
 50
90.0
 51
180.0
  0
LINE
  5
C4
330
71
100
AcDbEntity
  8
MEGA_002304
  6
CONTINUOUS
 62
     7
 48
25.4
100
AcDbLine
 10
65.8928236272
 20
160.3363291847
 30
0.0
 11
68.8928236272
 21
160.3363291847
 31
0.0
  0
ELLIPSE
  5
C5
330
71
100
AcDbEntity
  8
MEGA_002304
  6
CONTINUOUS
 62
     7
 48
25.4
100
AcDbEllipse
 10
61.8928236272
 20
200.0324816074
 30
0.0
 11
2.999999999999997
 21
0.0
 31
0.0
210
0.0
220
0.0
230
0.9999999999999999
 40
0.3711537445
 41
4.71238898038469
 42
6.010591088052452
  0
ELLIPSE
  5
C6
330
71
100
AcDbEntity
  8
MEGA_002304
  6
CONTINUOUS
 62
     7
 48
25.4
100
AcDbEllipse
 10
61.8928236272
 20
189.640176762
 30
0.0
 11
2.999999999999998
 21
-9.000000000000000E-16
 31
0.0
210
0.0
220
0.0
230
1.0
 40
0.3711537445
 41
0.2725942191271355
 42
1.570796326794901
  0
LINE
  5
C7
330
71
100
AcDbEntity
  8
MEGA_002304
  6
CONTINUOUS
 62
     7
 48
25.4
100
AcDbLine
 10
65.8928236272
 20
187.6252266337
 30
0.0
 11
64.8928236272
 21
187.6252266337
 31
0.0
  0
LINE
  5
C8
330
71
100
AcDbEntity
  8
MEGA_002304
  6
CONTINUOUS
 62
     7
 48
25.4
100
AcDbLine
 10
68.8928236272
 20
229.3363291847
 30
0.0
 11
65.8928236272
 21
229.3363291847
 31
0.0
  0
LINE
  5
CA
330
71
100
AcDbEntity
  8
MEGA_002634
  6
CONTINUOUS
 62
     7
 48
25.4
100
AcDbLine
 10
102.1030761589
 20
198.3363291847
 30
0.0
 11
69.3928236272
 21
198.3363291847
 31
0.0
  0
LINE
  5
CB
330
71
100
AcDbEntity
  8
MEGA_002634
  6
CONTINUOUS
 62
     7
 48
25.4
100
AcDbLine
 10
102.1030761589
 20
191.3363291847
 30
0.0
 11
69.3928236272
 21
191.3363291847
 31
0.0
  0
LINE
  5
CC
330
71
100
AcDbEntity
  8
MEGA_002634
  6
CONTINUOUS
 62
     7
 48
25.4
100
AcDbLine
 10
103.8928236272
 20
197.9963291847
 30
0.0
 11
103.5528236272
 21
198.3363291847
 31
0.0
  0
SPLINE
  5
CD
330
71
100
AcDbEntity
  8
MEGA_002634
  6
CONTINUOUS
 62
     7
 48
25.4
100
AcDbSpline
210
0.0
220
0.0
230
1.0
 70
     8
 71
     3
 72
    17
 73
    13
 74
     0
 42
0.0000000001
 43
0.0000000001
 40
0.0
 40
0.0
 40
0.0
 40
0.0
 40
0.25
 40
0.25
 40
0.25
 40
0.5
 40
0.5
 40
0.5
 40
0.75
 40
0.75
 40
0.75
 40
1.0
 40
1.0
 40
1.0
 40
1.0
 10
102.103076158858
 20
191.3363291846571
 30
0.0
 10
102.4684618008626
 20
191.8530625150761
 30
0.0
 10
102.8177907427529
 20
192.3973030935343
 30
0.0
 10
103.0902153354465
 20
192.9783021467519
 30
0.0
 10
103.3626399281402
 20
193.5593011999695
 30
0.0
 10
103.5524001595782
 20
194.1933525187875
 30
0.0
 10
103.5528228653492
 20
194.8340199201032
 30
0.0
 10
103.5532455711203
 20
195.4746873214189
 30
0.0
 10
103.364992748387
 20
196.1076073493611
 30
0.0
 10
103.0916103898586
 20
196.6913791331496
 30
0.0
 10
102.8182280313303
 20
197.2751509169381
 30
0.0
 10
102.4710018768817
 20
197.8160036442822
 30
0.0
 10
102.103076158858
 20
198.3363291846571
 30
0.0
  0
LINE
  5
CE
330
71
100
AcDbEntity
  8
MEGA_002634
  6
CONTINUOUS
 62
     7
 48
25.4
100
AcDbLine
 10
103.5528236272
 20
191.3363291847
 30
0.0
 11
103.8928236272
 21
191.6763291847
 31
0.0
  0
LINE
  5
CF
330
71
100
AcDbEntity
  8
MEGA_002634
  6
CONTINUOUS
 62
     7
 48
25.4
100
AcDbLine
 10
103.5528228653
 20
198.3363291847
 30
0.0
 11
102.1030761589
 21
198.3363291847
 31
0.0
  0
LINE
  5
D0
330
71
100
AcDbEntity
  8
MEGA_002634
  6
CONTINUOUS
 62
     7
 48
25.4
100
AcDbLine
 10
103.8928236272
 20
191.6763291847
 30
0.0
 11
103.8928236272
 21
197.9963291847
 31
0.0
  0
LINE
  5
D1
330
71
100
AcDbEntity
  8
MEGA_002634
  6
CONTINUOUS
 62
     7
 48
25.4
100
AcDbLine
 10
102.1030761589
 20
191.3363291847
 30
0.0
 11
103.5528228653
 21
191.3363291847
 31
0.0
  0
ENDBLK
  5
D3
330
71
100
AcDbEntity
  8
0
100
AcDbBlockEnd
  0
BLOCK
  5
132
330
D4
100
AcDbEntity
  8
0
100
AcDbBlockBegin
  2
SE11
 70
     0
 71
     0
 10
0.0
 20
0.0
 30
0.0
  3
SE11
  1

  0
LINE
  5
D6
330
D4
100
AcDbEntity
  8
MEGA_002201
  6
CONTINUOUS
 62
     7
 48
25.4
100
AcDbLine
 10
33.3928236272
 20
135.0402820626
 30
0.0
 11
23.3928236272
 21
135.0402820626
 31
0.0
  0
LINE
  5
D7
330
D4
100
AcDbEntity
  8
MEGA_002201
  6
CONTINUOUS
 62
     7
 48
25.4
100
AcDbLine
 10
33.3928236272
 20
75.0402820626
 30
0.0
 11
23.3928236272
 21
75.0402820626
 31
0.0
  0
LINE
  5
D8
330
D4
100
AcDbEntity
  8
MEGA_002201
  6
CONTINUOUS
 62
     7
 48
25.4
100
AcDbLine
 10
21.8928236272
 20
133.5402820626
 30
0.0
 11
21.8928236272
 21
76.5402820626
 31
0.0
  0
LINE
  5
D9
330
D4
100
AcDbEntity
  8
MEGA_002201
  6
CONTINUOUS
 62
     7
 48
25.4
100
AcDbLine
 10
34.8928236272
 20
76.5402820626
 30
0.0
 11
34.8928236272
 21
95.1343232612
 31
0.0
  0
LINE
  5
DA
330
D4
100
AcDbEntity
  8
MEGA_002201
  6
CONTINUOUS
 62
     7
 48
25.4
100
AcDbLine
 10
34.8928236272
 20
114.946240864
 30
0.0
 11
34.8928236272
 21
133.5402820626
 31
0.0
  0
LINE
  5
DB
330
D4
100
AcDbEntity
  8
MEGA_002201
  6
CONTINUOUS
 62
     7
 48
25.4
100
AcDbLine
 10
34.8928236272
 20
133.5402820626
 30
0.0
 11
21.8928236272
 21
133.5402820626
 31
0.0
  0
LINE
  5
DC
330
D4
100
AcDbEntity
  8
MEGA_002201
  6
CONTINUOUS
 62
     7
 48
25.4
100
AcDbLine
 10
34.8928236272
 20
76.5402820626
 30
0.0
 11
21.8928236272
 21
76.5402820626
 31
0.0
  0
LINE
  5
DD
330
D4
100
AcDbEntity
  8
MEGA_002201
  6
CONTINUOUS
 62
     7
 48
25.4
100
AcDbLine
 10
69.3928236272
 20
112.3402820626
 30
0.0
 11
69.3928236272
 21
97.7402820626
 31
0.0
  0
LINE
  5
DE
330
D4
100
AcDbEntity
  8
MEGA_002201
  6
CONTINUOUS
 62
     7
 48
25.4
100
AcDbLine
 10
69.1928236272
 20
112.5402820626
 30
0.0
 11
69.1928236272
 21
97.5402820626
 31
0.0
  0
LINE
  5
DF
330
D4
100
AcDbEntity
  8
MEGA_002201
  6
CONTINUOUS
 62
     7
 48
25.4
100
AcDbLine
 10
68.8928236272
 20
97.5402820626
 30
0.0
 11
69.1928236272
 21
97.5402820626
 31
0.0
  0
LINE
  5
E0
330
D4
100
AcDbEntity
  8
MEGA_002201
  6
CONTINUOUS
 62
     7
 48
25.4
100
AcDbLine
 10
69.1928236272
 20
112.5402820626
 30
0.0
 11
68.8928236272
 21
112.5402820626
 31
0.0
  0
ARC
  5
E1
330
D4
100
AcDbEntity
  8
MEGA_002201
  6
CONTINUOUS
 62
     7
 48
25.4
100
AcDbCircle
 10
23.3928236272
 20
76.5402820626
 30
0.0
 40
1.5
100
AcDbArc
 50
180.0
 51
270.0
  0
ARC
  5
E2
330
D4
100
AcDbEntity
  8
MEGA_002201
  6
CONTINUOUS
 62
     7
 48
25.4
100
AcDbCircle
 10
33.3928236272
 20
76.5402820626
 30
0.0
 40
1.5
100
AcDbArc
 50
270.0
 51
360.0
  0
LINE
  5
E3
330
D4
100
AcDbEntity
  8
MEGA_002201
  6
CONTINUOUS
 62
     7
 48
25.4
100
AcDbLine
 10
34.6991892442
 20
106.3415956026
 30
0.0
 11
34.6973838608
 21
106.5689784174
 31
0.0
  0
ARC
  5
E4
330
D4
100
AcDbEntity
  8
MEGA_002201
  6
CONTINUOUS
 62
     7
 48
25.4
100
AcDbCircle
 10
37.8921792209
 20
114.9525995994
 30
0.0
 40
2.998399899200003
100
AcDbArc
 50
180.1211334184
 51
277.2254829389
  0
ELLIPSE
  5
E5
330
D4
100
AcDbEntity
  8
MEGA_002201
  6
CONTINUOUS
 62
     7
 48
25.4
100
AcDbEllipse
 10
37.7687158192
 20
114.819127104
 30
0.0
 11
2.210621557060196
 21
-2.02809080947321
 31
0.0
210
0.0
220
0.0
230
1.0
 40
0.9720606957
 41
3.898086015874012
 42
5.571228453880293
  0
LINE
  5
E6
330
D4
100
AcDbEntity
  8
MEGA_002201
  6
CONTINUOUS
 62
     7
 48
25.4
100
AcDbLine
 10
69.3928236272
 20
112.3402820626
 30
0.0
 11
69.1928236272
 21
112.5402820626
 31
0.0
  0
LINE
  5
E7
330
D4
100
AcDbEntity
  8
MEGA_002201
  6
CONTINUOUS
 62
     7
 48
25.4
100
AcDbLine
 10
69.1928236272
 20
97.5402820626
 30
0.0
 11
69.3928236272
 21
97.7402820626
 31
0.0
  0
LINE
  5
E8
330
D4
100
AcDbEntity
  8
MEGA_002201
  6
CONTINUOUS
 62
     7
 48
25.4
100
AcDbLine
 10
38.278484561
 20
111.9791632628
 30
0.0
 11
38.1543779051
 21
111.8798055573
 31
0.0
  0
LINE
  5
E9
330
D4
100
AcDbEntity
  8
MEGA_002201
  6
CONTINUOUS
 62
     7
 48
25.4
100
AcDbLine
 10
38.2691316147
 20
98.1026125087
 30
0.0
 11
61.8928236272
 21
95.0402820626
 31
0.0
  0
LINE
  5
EA
330
D4
100
AcDbEntity
  8
MEGA_002201
  6
CONTINUOUS
 62
     7
 48
25.4
100
AcDbLine
 10
61.8928236272
 20
115.0402820626
 30
0.0
 11
38.2691316147
 21
111.9779516166
 31
0.0
  0
ARC
  5
EB
330
D4
100
AcDbEntity
  8
MEGA_002201
  6
CONTINUOUS
 62
     7
 48
25.4
100
AcDbCircle
 10
37.8918357898
 20
95.1300020536
 30
0.0
 40
2.997456311800001
100
AcDbArc
 50
82.7729177032
 51
179.9298053689
  0
LINE
  5
EC
330
D4
100
AcDbEntity
  8
MEGA_002201
  6
CONTINUOUS
 62
     7
 48
25.4
100
AcDbLine
 10
34.8079077586
 20
95.2614370213
 30
0.0
 11
34.8928229793
 21
95.1262934504
 31
0.0
  0
ARC
  5
ED
330
D4
100
AcDbEntity
  8
MEGA_002201
  6
CONTINUOUS
 62
     7
 48
25.4
100
AcDbCircle
 10
51.0900928865
 20
109.0828166608
 30
0.0
 40
16.9041980116
100
AcDbArc
 50
198.9962419273
 51
220.0719335097
  0
LINE
  5
EE
330
D4
100
AcDbEntity
  8
MEGA_002201
  6
CONTINUOUS
 62
     7
 48
25.4
100
AcDbLine
 10
38.278484561
 20
98.1014008624
 30
0.0
 11
38.1543779051
 21
98.200758568
 31
0.0
  0
LINE
  5
EF
330
D4
100
AcDbEntity
  8
MEGA_002201
  6
CONTINUOUS
 62
     7
 48
25.4
100
AcDbLine
 10
34.8928229793
 20
114.9542706748
 30
0.0
 11
34.8079077586
 21
114.819127104
 31
0.0
  0
ARC
  5
F0
330
D4
100
AcDbEntity
  8
MEGA_002201
  6
CONTINUOUS
 62
     7
 48
25.4
100
AcDbCircle
 10
23.3928236272
 20
133.5402820626
 30
0.0
 40
1.5
100
AcDbArc
 50
90.0
 51
180.0
  0
ARC
  5
F1
330
D4
100
AcDbEntity
  8
MEGA_002201
  6
CONTINUOUS
 62
     7
 48
25.4
100
AcDbCircle
 10
33.3928236272
 20
133.5402820626
 30
0.0
 40
1.5
100
AcDbArc
 50
0.0
 51
90.0
  0
ELLIPSE
  5
F2
330
D4
100
AcDbEntity
  8
MEGA_002201
  6
CONTINUOUS
 62
     7
 48
25.4
100
AcDbEllipse
 10
34.8928236272
 20
111.5402820626
 30
0.0
 11
17.67766952966374
 21
-17.67766952966385
 31
0.0
210
0.0
220
0.0
230
0.9999999999999999
 40
0.1474893941
 41
4.565955292755087
 42
4.847885028728673
  0
ARC
  5
F3
330
D4
100
AcDbEntity
  8
MEGA_002201
  6
CONTINUOUS
 62
     7
 48
25.4
100
AcDbCircle
 10
48.7051749398
 20
110.5071363836
 30
0.0
 40
14.5508521771
100
AcDbArc
 50
162.7621292967
 51
195.7028258637
  0
ARC
  5
F4
330
D4
100
AcDbEntity
  8
MEGA_002201
  6
CONTINUOUS
 62
     7
 48
25.4
100
AcDbCircle
 10
51.0918341545
 20
100.9967609344
 30
0.0
 40
16.90616557550001
100
AcDbArc
 50
139.9293069156
 51
161.0025176474
  0
LINE
  5
F5
330
D4
100
AcDbEntity
  8
MEGA_002201
  6
CONTINUOUS
 62
     7
 48
25.4
100
AcDbLine
 10
35.1064987187
 20
106.5001676497
 30
0.0
 11
35.0848513301
 21
106.346579129
 31
0.0
  0
ELLIPSE
  5
F6
330
D4
100
AcDbEntity
  8
MEGA_002201
  6
CONTINUOUS
 62
     7
 48
25.4
100
AcDbEllipse
 10
34.8928236272
 20
98.5402820626
 30
0.0
 11
17.67766952966992
 21
17.67766952965151
 31
0.0
210
0.0
220
0.0
230
1.0
 40
0.1474893941
 41
1.435300278450901
 42
1.717230014424468
  0
LINE
  5
F7
330
D4
100
AcDbEntity
  8
MEGA_002201
  6
CONTINUOUS
 62
     7
 48
25.4
100
AcDbLine
 10
35.0848513301
 20
103.7339849963
 30
0.0
 11
35.1064987187
 21
103.5803964755
 31
0.0
  0
LINE
  5
F8
330
D4
100
AcDbEntity
  8
MEGA_002201
  6
CONTINUOUS
 62
     7
 48
25.4
100
AcDbLine
 10
34.6973838608
 20
103.5115857079
 30
0.0
 11
34.6991892442
 21
103.7389685226
 31
0.0
  0
ARC
  5
F9
330
D4
100
AcDbEntity
  8
MEGA_002201
  6
CONTINUOUS
 62
     7
 48
25.4
100
AcDbCircle
 10
48.6993057325
 20
99.5733491142
 30
0.0
 40
14.5452233935
100
AcDbArc
 50
164.2906186793
 51
197.2444261603
  0
LINE
  5
FA
330
D4
100
AcDbEntity
  8
MEGA_002201
  6
CONTINUOUS
 62
     7
 48
25.4
100
AcDbLine
 10
35.0848513301
 20
106.346579129
 30
0.0
 11
35.0848513301
 21
103.7339849963
 31
0.0
  0
ELLIPSE
  5
FB
330
D4
100
AcDbEntity
  8
MEGA_002201
  6
CONTINUOUS
 62
     7
 48
25.4
100
AcDbEllipse
 10
34.7208366328
 20
107.1655348548
 30
0.0
 11
2.948187180736987
 21
-0.5551507428225008
 31
0.0
210
0.0
220
0.0
230
0.9999999999999999
 40
0.1969479223
 41
4.741508160668157
 42
4.880556399082701
  0
ELLIPSE
  5
FC
330
D4
100
AcDbEntity
  8
MEGA_002201
  6
CONTINUOUS
 62
     7
 48
25.4
100
AcDbEllipse
 10
34.6991892442
 20
103.1383622734
 30
0.0
 11
2.999999999934867
 21
-1.762300000000000E-12
 31
0.0
210
0.0
220
0.0
230
1.0
 40
0.2002020831
 41
1.441885555111001
 42
1.570796326797781
  0
ELLIPSE
  5
FD
330
D4
100
AcDbEntity
  8
MEGA_002201
  6
CONTINUOUS
 62
     7
 48
25.4
100
AcDbEllipse
 10
34.6991892442
 20
106.9422018519
 30
0.0
 11
3.000000000038666
 21
-1.213000000000000E-12
 31
0.0
210
0.0
220
0.0
230
1.0
 40
0.2002020831
 41
4.712388980386457
 42
4.841299752068779
  0
LINE
  5
FE
330
D4
100
AcDbEntity
  8
MEGA_002201
  6
CONTINUOUS
 62
     7
 48
25.4
100
AcDbLine
 10
34.6991892442
 20
103.7389685226
 30
0.0
 11
34.6991892442
 21
106.3415956026
 31
0.0
  0
ELLIPSE
  5
FF
330
D4
100
AcDbEntity
  8
MEGA_002201
  6
CONTINUOUS
 62
     7
 48
25.4
100
AcDbEllipse
 10
34.7208366328
 20
102.9150292705
 30
0.0
 11
2.948187180756755
 21
0.5551507428262258
 31
0.0
210
0.0
220
0.0
230
1.0
 40
0.1969479223
 41
1.402628908096868
 42
1.541677146510437
  0
ELLIPSE
  5
100
330
D4
100
AcDbEntity
  8
MEGA_002201
  6
CONTINUOUS
 62
     7
 48
25.4
100
AcDbEllipse
 10
37.7687158192
 20
95.2614370213
 30
0.0
 11
2.210621557059964
 21
2.028090809473478
 31
0.0
210
0.0
220
0.0
230
0.9999999999999999
 40
0.9720606957
 41
0.7119568532991751
 42
2.385099291305458
  0
SPLINE
  5
101
330
D4
100
AcDbEntity
  8
MEGA_002201
  6
CONTINUOUS
 62
     7
 48
25.4
100
AcDbSpline
210
0.0
220
0.0
230
1.0
 70
     8
 71
     3
 72
    26
 73
    22
 74
     0
 42
0.0000000001
 43
0.0000000001
 40
0.0
 40
0.0
 40
0.0
 40
0.0
 40
0.25
 40
0.25
 40
0.25
 40
0.375
 40
0.375
 40
0.375
 40
0.5
 40
0.5
 40
0.5
 40
0.625
 40
0.625
 40
0.625
 40
0.75
 40
0.75
 40
0.75
 40
0.875
 40
0.875
 40
0.875
 40
1.0
 40
1.0
 40
1.0
 40
1.0
 10
29.73409346843369
 20
111.5402820626263
 30
0.0
 10
29.9655654769526
 20
112.6620310269872
 30
0.0
 10
30.26379123572949
 20
113.7613299877471
 30
0.0
 10
30.66702626153501
 20
114.8211824876862
 30
0.0
 10
30.86864377443776
 20
115.3511087376557
 30
0.0
 10
31.09823476910559
 20
115.8729988464721
 30
0.0
 10
31.36141386858724
 20
116.361828843023
 30
0.0
 10
31.62459296806888
 20
116.8506588395739
 30
0.0
 10
31.92650107708822
 20
117.3198014578365
 30
0.0
 10
32.27557622237411
 20
117.6967484075248
 30
0.0
 10
32.62465136765999
 20
118.073695357213
 30
0.0
 10
33.03391495366632
 20
118.3495796863252
 30
0.0
 10
33.40329670487549
 20
118.3392079256298
 30
0.0
 10
33.77267845608467
 20
118.3288361649343
 30
0.0
 10
34.05215667943955
 20
118.0381685923052
 30
0.0
 10
34.24199763321136
 20
117.6604027635938
 30
0.0
 10
34.43183858698317
 20
117.2826369348825
 30
0.0
 10
34.54856992311286
 20
116.8211581857511
 30
0.0
 10
34.63390614666101
 20
116.336619960308
 30
0.0
 10
34.71924237020913
 20
115.8520817348649
 30
0.0
 10
34.77129109224943
 20
115.3431983561639
 30
0.0
 10
34.80790775855608
 20
114.8191271039641
 30
0.0
  0
LINE
  5
102
330
D4
100
AcDbEntity
  8
MEGA_002201
  6
CONTINUOUS
 62
     7
 48
25.4
100
AcDbLine
 10
28.3928236272
 20
105.0402820626
 30
0.0
 11
29.7340934684
 21
111.5402820626
 31
0.0
  0
LINE
  5
103
330
D4
100
AcDbEntity
  8
MEGA_002201
  6
CONTINUOUS
 62
     7
 48
25.4
100
AcDbLine
 10
28.3928236272
 20
105.0402820626
 30
0.0
 11
27.9619944803
 21
102.9524177357
 31
0.0
  0
SPLINE
  5
104
330
D4
100
AcDbEntity
  8
MEGA_002201
  6
CONTINUOUS
 62
     7
 48
25.4
100
AcDbSpline
210
0.0
220
0.0
230
1.0
 70
     8
 71
     3
 72
    26
 73
    22
 74
     0
 42
0.0000000001
 43
0.0000000001
 40
0.0
 40
0.0
 40
0.0
 40
0.0
 40
0.1249999999999999
 40
0.1249999999999999
 40
0.1249999999999999
 40
0.2499999999999999
 40
0.2499999999999999
 40
0.2499999999999999
 40
0.3749999999999998
 40
0.3749999999999998
 40
0.3749999999999998
 40
0.4999999999999998
 40
0.4999999999999998
 40
0.4999999999999998
 40
0.6249999999999998
 40
0.6249999999999998
 40
0.6249999999999998
 40
0.7499999999999996
 40
0.7499999999999996
 40
0.7499999999999996
 40
1.0
 40
1.0
 40
1.0
 40
1.0
 10
34.80790775855608
 20
95.26143702128859
 30
0.0
 10
34.77129109224941
 20
94.73736576908856
 30
0.0
 10
34.7192423702091
 20
94.22848239038741
 30
0.0
 10
34.63390614666091
 20
93.74394416494417
 30
0.0
 10
34.54856992311272
 20
93.25940593950091
 30
0.0
 10
34.43183858698294
 20
92.79792719036939
 30
0.0
 10
34.24199763321095
 20
92.42016136165805
 30
0.0
 10
34.05215667943897
 20
92.0423955329467
 30
0.0
 10
33.77267845608375
 20
91.75172796031775
 30
0.0
 10
33.40329670487434
 20
91.74135619962286
 30
0.0
 10
33.03391495366493
 20
91.73098443892798
 30
0.0
 10
32.62465136765854
 20
92.00686876804082
 30
0.0
 10
32.27557622237266
 20
92.38381571772945
 30
0.0
 10
31.92650107708679
 20
92.76076266741809
 30
0.0
 10
31.62459296806749
 20
93.229905285681
 30
0.0
 10
31.36141386858587
 20
93.71873528223215
 30
0.0
 10
31.09823476910426
 20
94.20756527878332
 30
0.0
 10
30.86864377443648
 20
94.72945538760001
 30
0.0
 10
30.66702626153376
 20
95.25938163756977
 30
0.0
 10
30.26379123572832
 20
96.3192341375093
 30
0.0
 10
29.96556547695153
 20
97.41853309826965
 30
0.0
 10
29.73409346843274
 20
98.54028206263097
 30
0.0
  0
LINE
  5
105
330
D4
100
AcDbEntity
  8
MEGA_002201
  6
CONTINUOUS
 62
     7
 48
25.4
100
AcDbLine
 10
29.7340934684
 20
98.5402820626
 30
0.0
 11
28.3928236272
 21
105.0402820626
 31
0.0
  0
LINE
  5
106
330
D4
100
AcDbEntity
  8
MEGA_002201
  6
CONTINUOUS
 62
     7
 48
25.4
100
AcDbLine
 10
27.9619944803
 20
107.1281463896
 30
0.0
 11
28.3928236272
 21
105.0402820626
 31
0.0
  0
LINE
  5
107
330
D4
100
AcDbEntity
  8
MEGA_002201
  6
CONTINUOUS
 62
     7
 48
25.4
100
AcDbLine
 10
28.3928236272
 20
105.0402820626
 30
0.0
 11
34.6991892442
 21
103.7389685226
 31
0.0
  0
LINE
  5
108
330
D4
100
AcDbEntity
  8
MEGA_002201
  6
CONTINUOUS
 62
     7
 48
25.4
100
AcDbLine
 10
34.6991892442
 20
106.3415956026
 30
0.0
 11
28.3928236272
 21
105.0402820626
 31
0.0
  0
LINE
  5
109
330
D4
100
AcDbEntity
  8
MEGA_002201
  6
CONTINUOUS
 62
     7
 48
25.4
100
AcDbLine
 10
27.9619944803
 20
104.9513808101
 30
0.0
 11
28.3928236272
 21
105.0402820626
 31
0.0
  0
LINE
  5
10A
330
D4
100
AcDbEntity
  8
MEGA_002201
  6
CONTINUOUS
 62
     7
 48
25.4
100
AcDbLine
 10
28.3928236272
 20
105.0402820626
 30
0.0
 11
27.9619944803
 21
105.1291833151
 31
0.0
  0
LINE
  5
10B
330
D4
100
AcDbEntity
  8
MEGA_002201
  6
CONTINUOUS
 62
     7
 48
25.4
100
AcDbLine
 10
27.9619944803
 20
102.9524177357
 30
0.0
 11
27.9619944803
 21
104.9513808101
 31
0.0
  0
LINE
  5
10C
330
D4
100
AcDbEntity
  8
MEGA_002201
  6
CONTINUOUS
 62
     7
 48
25.4
100
AcDbLine
 10
27.9619944803
 20
105.1291833151
 30
0.0
 11
27.9619944803
 21
107.1281463896
 31
0.0
  0
LINE
  5
10D
330
D4
100
AcDbEntity
  8
MEGA_002201
  6
CONTINUOUS
 62
     7
 48
25.4
100
AcDbLine
 10
27.9619944803
 20
105.1291833151
 30
0.0
 11
27.9619944803
 21
104.9513808101
 31
0.0
  0
LINE
  5
10E
330
D4
100
AcDbEntity
  8
MEGA_002304
  6
CONTINUOUS
 62
     7
 48
25.4
100
AcDbLine
 10
61.8928236272
 20
94.0402820626
 30
0.0
 11
61.8928236272
 21
94.8259963483
 31
0.0
  0
LINE
  5
10F
330
D4
100
AcDbEntity
  8
MEGA_002304
  6
CONTINUOUS
 62
     7
 48
25.4
100
AcDbLine
 10
61.8928236272
 20
115.2545677769
 30
0.0
 11
61.8928236272
 21
94.8259963483
 31
0.0
  0
LINE
  5
110
330
D4
100
AcDbEntity
  8
MEGA_002304
  6
CONTINUOUS
 62
     7
 48
25.4
100
AcDbLine
 10
68.8928236272
 20
92.0402820626
 30
0.0
 11
68.8928236272
 21
118.0402820626
 31
0.0
  0
LINE
  5
111
330
D4
100
AcDbEntity
  8
MEGA_002304
  6
CONTINUOUS
 62
     7
 48
25.4
100
AcDbLine
 10
65.8928236272
 20
118.0402820626
 30
0.0
 11
68.8928236272
 21
118.0402820626
 31
0.0
  0
LINE
  5
112
330
D4
100
AcDbEntity
  8
MEGA_002304
  6
CONTINUOUS
 62
     7
 48
25.4
100
AcDbLine
 10
65.8928236272
 20
92.0402820626
 30
0.0
 11
68.8928236272
 21
92.0402820626
 31
0.0
  0
ARC
  5
113
330
D4
100
AcDbEntity
  8
MEGA_002304
  6
CONTINUOUS
 62
     7
 48
25.4
100
AcDbCircle
 10
63.8191870894
 20
115.2455064379
 30
0.0
 40
1.926384773699994
100
AcDbArc
 50
155.6333928116
 51
179.7304908128
  0
LINE
  5
114
330
D4
100
AcDbEntity
  8
MEGA_002304
  6
CONTINUOUS
 62
     7
 48
25.4
100
AcDbLine
 10
65.5284981462
 20
118.0402820626
 30
0.0
 11
65.7451264043
 21
118.0402820626
 31
0.0
  0
ARC
  5
115
330
D4
100
AcDbEntity
  8
MEGA_002304
  6
CONTINUOUS
 62
     7
 48
25.4
100
AcDbCircle
 10
63.8191870894
 20
94.8350576873
 30
0.0
 40
1.926384773699994
100
AcDbArc
 50
180.2695091872
 51
204.3666071884
  0
ARC
  5
116
330
D4
100
AcDbEntity
  8
MEGA_002304
  6
CONTINUOUS
 62
     7
 48
25.4
100
AcDbCircle
 10
65.4676586709
 20
117.7718143635
 30
0.0
 40
0.8378136026999954
100
AcDbArc
 50
196.0426664529
 51
215.0820372332
  0
LINE
  5
117
330
D4
100
AcDbEntity
  8
MEGA_002304
  6
CONTINUOUS
 62
     7
 48
25.4
100
AcDbLine
 10
65.7451264043
 20
92.0402820626
 30
0.0
 11
65.5284981462
 21
92.0402820626
 31
0.0
  0
ARC
  5
118
330
D4
100
AcDbEntity
  8
MEGA_002304
  6
CONTINUOUS
 62
     7
 48
25.4
100
AcDbCircle
 10
65.4676586709
 20
92.3087497617
 30
0.0
 40
0.8378136026999954
100
AcDbArc
 50
144.9179627668
 51
163.9573335471
  0
ARC
  5
119
330
D4
100
AcDbEntity
  8
MEGA_002304
  6
CONTINUOUS
 62
     7
 48
25.4
100
AcDbCircle
 10
64.4923502693
 20
93.0681871927
 30
0.0
 40
0.4014444003999955
100
AcDbArc
 50
316.1904820761
 51
356.0140518598
  0
ARC
  5
11A
330
D4
100
AcDbEntity
  8
MEGA_002304
  6
CONTINUOUS
 62
     7
 48
25.4
100
AcDbCircle
 10
64.4924042991
 20
117.0124008727
 30
0.0
 40
0.4013888376999972
100
AcDbArc
 50
3.9830752052
 51
43.8123908588
  0
LINE
  5
11B
330
D4
100
AcDbEntity
  8
MEGA_002304
  6
CONTINUOUS
 62
     7
 48
25.4
100
AcDbLine
 10
64.8928236272
 20
93.0402820626
 30
0.0
 11
64.8928236272
 21
117.0402820626
 31
0.0
  0
LINE
  5
11C
330
D4
100
AcDbEntity
  8
MEGA_002304
  6
CONTINUOUS
 62
     7
 48
25.4
100
AcDbLine
 10
65.8928236272
 20
118.0402820626
 30
0.0
 11
65.8928236272
 21
92.0402820626
 31
0.0
  0
LINE
  5
11D
330
D4
100
AcDbEntity
  8
MEGA_002304
  6
CONTINUOUS
 62
     7
 48
25.4
100
AcDbLine
 10
61.8928236272
 20
116.0402820626
 30
0.0
 11
61.8928236272
 21
115.2545677769
 31
0.0
  0
ELLIPSE
  5
11E
330
D4
100
AcDbEntity
  8
MEGA_002304
  6
CONTINUOUS
 62
     7
 48
25.4
100
AcDbEllipse
 10
65.7451264043
 20
93.0402820626
 30
0.0
 11
1.847000000000000E-13
 21
-1.000000000000001
 31
0.0
210
0.0
220
0.0
230
1.0
 40
0.9946603
 41
4.96506923552657
 42
6.283185307179586
  0
ELLIPSE
  5
11F
330
D4
100
AcDbEntity
  8
MEGA_002304
  6
CONTINUOUS
 62
     7
 48
25.4
100
AcDbEllipse
 10
65.7451264043
 20
117.0402820626
 30
0.0
 11
5.770000000000000E-14
 21
-0.9999999999999991
 31
0.0
210
0.0
220
0.0
230
1.0
 40
0.9946603
 41
3.141592653589735
 42
4.459708725242553
  0
ARC
  5
120
330
D4
100
AcDbEntity
  8
MEGA_002304
  6
CONTINUOUS
 62
     7
 48
25.4
100
AcDbCircle
 10
65.5284981423
 20
93.0402820622
 30
0.0
 40
0.9999999996000071
100
AcDbArc
 50
209.6068934586
 51
269.9999973668
  0
ARC
  5
121
330
D4
100
AcDbEntity
  8
MEGA_002304
  6
CONTINUOUS
 62
     7
 48
25.4
100
AcDbCircle
 10
65.8928236272
 20
93.0402820626
 30
0.0
 40
1.0
100
AcDbArc
 50
180.0
 51
270.0
  0
ARC
  5
122
330
D4
100
AcDbEntity
  8
MEGA_002304
  6
CONTINUOUS
 62
     7
 48
25.4
100
AcDbCircle
 10
65.5284981423
 20
117.040282063
 30
0.0
 40
0.9999999995000052
100
AcDbArc
 50
90.0000026332
 51
150.3811631309
  0
ARC
  5
123
330
D4
100
AcDbEntity
  8
MEGA_002304
  6
CONTINUOUS
 62
     7
 48
25.4
100
AcDbCircle
 10
62.0734049423
 20
91.048275973
 30
0.0
 40
2.988142992099995
100
AcDbArc
 50
30.0845438444
 51
90.2429613425
  0
ARC
  5
124
330
D4
100
AcDbEntity
  8
MEGA_002304
  6
CONTINUOUS
 62
     7
 48
25.4
100
AcDbCircle
 10
62.0653911615
 20
119.0393281953
 30
0.0
 40
2.998537692400006
100
AcDbArc
 50
269.9153399574
 51
329.8769217284
  0
LINE
  5
125
330
D4
100
AcDbEntity
  8
MEGA_002304
  6
CONTINUOUS
 62
     7
 48
25.4
100
AcDbLine
 10
62.0604898669
 20
116.0402820626
 30
0.0
 11
61.8928236272
 21
116.0402820626
 31
0.0
  0
LINE
  5
126
330
D4
100
AcDbEntity
  8
MEGA_002304
  6
CONTINUOUS
 62
     7
 48
25.4
100
AcDbLine
 10
61.8928236272
 20
94.0402820626
 30
0.0
 11
62.0604898669
 21
94.0402820626
 31
0.0
  0
ELLIPSE
  5
127
330
D4
100
AcDbEntity
  8
MEGA_002304
  6
CONTINUOUS
 62
     7
 48
25.4
100
AcDbEllipse
 10
61.8928236272
 20
92.0402820626
 30
0.0
 11
2.999999999999999
 21
-2.260000000000000E-14
 31
0.0
210
0.0
220
0.0
230
1.0
 40
0.9285714286
 41
0.272594219127161
 42
1.570796326794904
  0
ELLIPSE
  5
128
330
D4
100
AcDbEntity
  8
MEGA_002304
  6
CONTINUOUS
 62
     7
 48
25.4
100
AcDbEllipse
 10
61.8928236272
 20
118.0402820626
 30
0.0
 11
3.000000000000004
 21
-2.600000000000000E-14
 31
0.0
210
0.0
220
0.0
230
1.0
 40
0.9285714286
 41
4.712388980384702
 42
6.010591088052469
  0
ARC
  5
129
330
D4
100
AcDbEntity
  8
MEGA_002304
  6
CONTINUOUS
 62
     7
 48
25.4
100
AcDbCircle
 10
65.8928236272
 20
117.0402820626
 30
0.0
 40
1.0
100
AcDbArc
 50
90.0
 51
180.0
  0
LINE
  5
12A
330
D4
100
AcDbEntity
  8
MEGA_002634
  6
CONTINUOUS
 62
     7
 48
25.4
100
AcDbLine
 10
102.1030761589
 20
101.5402820626
 30
0.0
 11
69.3928236272
 21
101.5402820626
 31
0.0
  0
LINE
  5
12B
330
D4
100
AcDbEntity
  8
MEGA_002634
  6
CONTINUOUS
 62
     7
 48
25.4
100
AcDbLine
 10
102.1030761589
 20
108.5402820626
 30
0.0
 11
69.3928236272
 21
108.5402820626
 31
0.0
  0
LINE
  5
12C
330
D4
100
AcDbEntity
  8
MEGA_002634
  6
CONTINUOUS
 62
     7
 48
25.4
100
AcDbLine
 10
103.5528228653
 20
101.5402820626
 30
0.0
 11
102.1030761589
 21
101.5402820626
 31
0.0
  0
LINE
  5
12D
330
D4
100
AcDbEntity
  8
MEGA_002634
  6
CONTINUOUS
 62
     7
 48
25.4
100
AcDbLine
 10
103.5528236272
 20
101.5402820626
 30
0.0
 11
103.8928236272
 21
101.8802820626
 31
0.0
  0
LINE
  5
12E
330
D4
100
AcDbEntity
  8
MEGA_002634
  6
CONTINUOUS
 62
     7
 48
25.4
100
AcDbLine
 10
103.8928236272
 20
108.2002820626
 30
0.0
 11
103.5528236272
 21
108.5402820626
 31
0.0
  0
SPLINE
  5
12F
330
D4
100
AcDbEntity
  8
MEGA_002634
  6
CONTINUOUS
 62
     7
 48
25.4
100
AcDbSpline
210
0.0
220
0.0
230
1.0
 70
     8
 71
     3
 72
    17
 73
    13
 74
     0
 42
0.0000000001
 43
0.0000000001
 40
0.0
 40
0.0
 40
0.0
 40
0.0
 40
0.2500000000000001
 40
0.2500000000000001
 40
0.2500000000000001
 40
0.5000000000000001
 40
0.5000000000000001
 40
0.5000000000000001
 40
0.7500000000000001
 40
0.7500000000000001
 40
0.7500000000000001
 40
1.0
 40
1.0
 40
1.0
 40
1.0
 10
102.103076158858
 20
101.5402820626263
 30
0.0
 10
102.4684618008626
 20
102.0570153930453
 30
0.0
 10
102.8177907427529
 20
102.6012559715035
 30
0.0
 10
103.0902153354465
 20
103.1822550247211
 30
0.0
 10
103.3626399281402
 20
103.7632540779387
 30
0.0
 10
103.5524001595782
 20
104.3973053967568
 30
0.0
 10
103.5528228653492
 20
105.0379727980724
 30
0.0
 10
103.5532455711203
 20
105.6786401993881
 30
0.0
 10
103.364992748387
 20
106.3115602273303
 30
0.0
 10
103.0916103898586
 20
106.8953320111188
 30
0.0
 10
102.8182280313303
 20
107.4791037949073
 30
0.0
 10
102.4710018768817
 20
108.0199565222514
 30
0.0
 10
102.103076158858
 20
108.5402820626263
 30
0.0
  0
LINE
  5
130
330
D4
100
AcDbEntity
  8
MEGA_002634
  6
CONTINUOUS
 62
     7
 48
25.4
100
AcDbLine
 10
103.8928236272
 20
108.2002820626
 30
0.0
 11
103.8928236272
 21
101.8802820626
 31
0.0
  0
LINE
  5
131
330
D4
100
AcDbEntity
  8
MEGA_002634
  6
CONTINUOUS
 62
     7
 48
25.4
100
AcDbLine
 10
103.5528228653
 20
108.5402820626
 30
0.0
 11
102.1030761589
 21
108.5402820626
 31
0.0
  0
ENDBLK
  5
133
330
D4
100
AcDbEntity
  8
0
100
AcDbBlockEnd
  0
BLOCK
  5
170
330
134
100
AcDbEntity
  8
0
100
AcDbBlockBegin
  2
SE12
 70
     0
 71
     0
 10
0.0
 20
0.0
 30
0.0
  3
SE12
  1

  0
LINE
  5
136
330
134
100
AcDbEntity
  8
MEGA_002201
  6
CONTINUOUS
 62
     7
 48
25.4
100
AcDbLine
 10
127.1888707492
 20
188.3363291847
 30
0.0
 11
155.6888707492
 21
188.3363291847
 31
0.0
  0
LINE
  5
137
330
134
100
AcDbEntity
  8
MEGA_002201
  6
CONTINUOUS
 62
     7
 48
25.4
100
AcDbLine
 10
155.6888707492
 20
201.3363291847
 30
0.0
 11
127.1888707492
 21
201.3363291847
 31
0.0
  0
LINE
  5
138
330
134
100
AcDbEntity
  8
MEGA_002201
  6
CONTINUOUS
 62
     7
 48
25.4
100
AcDbLine
 10
185.6888707492
 20
189.8363291847
 30
0.0
 11
185.6888707492
 21
199.8363291847
 31
0.0
  0
LINE
  5
139
330
134
100
AcDbEntity
  8
MEGA_002201
  6
CONTINUOUS
 62
     7
 48
25.4
100
AcDbLine
 10
125.6888707492
 20
199.8363291847
 30
0.0
 11
125.6888707492
 21
189.8363291847
 31
0.0
  0
LINE
  5
13A
330
134
100
AcDbEntity
  8
MEGA_002201
  6
CONTINUOUS
 62
     7
 48
25.4
100
AcDbLine
 10
127.1888707492
 20
188.3363291847
 30
0.0
 11
127.1888707492
 21
201.3363291847
 31
0.0
  0
LINE
  5
13B
330
134
100
AcDbEntity
  8
MEGA_002201
  6
CONTINUOUS
 62
     7
 48
25.4
100
AcDbLine
 10
157.7767350762
 20
201.3220354875
 30
0.0
 11
153.6010064222
 21
201.3220354875
 31
0.0
  0
LINE
  5
13C
330
134
100
AcDbEntity
  8
MEGA_002201
  6
CONTINUOUS
 62
     7
 48
25.4
100
AcDbLine
 10
184.1888707492
 20
201.3363291847
 30
0.0
 11
184.1888707492
 21
188.3363291847
 31
0.0
  0
ARC
  5
13D
330
134
100
AcDbEntity
  8
MEGA_002201
  6
CONTINUOUS
 62
     7
 48
25.4
100
AcDbCircle
 10
184.1888707492
 20
189.8363291847
 30
0.0
 40
1.5
100
AcDbArc
 50
270.0
 51
360.0
  0
ARC
  5
13E
330
134
100
AcDbEntity
  8
MEGA_002201
  6
CONTINUOUS
 62
     7
 48
25.4
100
AcDbCircle
 10
184.1888707492
 20
199.8363291847
 30
0.0
 40
1.5
100
AcDbArc
 50
0.0
 51
90.0
  0
LINE
  5
13F
330
134
100
AcDbEntity
  8
MEGA_002201
  6
CONTINUOUS
 62
     7
 48
25.4
100
AcDbLine
 10
155.6888707492
 20
188.3363291847
 30
0.0
 11
184.1888707492
 21
188.3363291847
 31
0.0
  0
LINE
  5
140
330
134
100
AcDbEntity
  8
MEGA_002201
  6
CONTINUOUS
 62
     7
 48
25.4
100
AcDbLine
 10
184.1888707492
 20
201.3363291847
 30
0.0
 11
155.6888707492
 21
201.3363291847
 31
0.0
  0
ARC
  5
141
330
134
100
AcDbEntity
  8
MEGA_002201
  6
CONTINUOUS
 62
     7
 48
25.4
100
AcDbCircle
 10
127.1888707492
 20
189.8363291847
 30
0.0
 40
1.500000000000014
100
AcDbArc
 50
180.0
 51
270.0
  0
ARC
  5
142
330
134
100
AcDbEntity
  8
MEGA_002201
  6
CONTINUOUS
 62
     7
 48
25.4
100
AcDbCircle
 10
127.1888707492
 20
199.8363291847
 30
0.0
 40
1.500000000000014
100
AcDbArc
 50
90.0
 51
180.0
  0
ELLIPSE
  5
143
330
134
100
AcDbEntity
  8
MEGA_002201
  6
CONTINUOUS
 62
     7
 48
25.4
100
AcDbEllipse
 10
155.6888707496
 20
194.8363291872
 30
0.0
 11
-31.4999999938943
 21
9.275430000000003E-11
 31
0.0
210
0.0
220
0.0
230
1.0
 40
0.2063492063
 41
4.646058945462116
 42
4.712388980398224
  0
ELLIPSE
  5
144
330
134
100
AcDbEntity
  8
MEGA_002201
  6
CONTINUOUS
 62
     7
 48
25.4
100
AcDbEllipse
 10
155.6888707486
 20
194.8363291886
 30
0.0
 11
-31.49999999050253
 21
-1.344406000000000E-10
 31
0.0
210
0.0
220
0.0
230
1.0
 40
0.2063492063
 41
4.712388980364861
 42
4.778719015308104
  0
ELLIPSE
  5
145
330
134
100
AcDbEntity
  8
MEGA_002201
  6
CONTINUOUS
 62
     7
 48
25.4
100
AcDbEllipse
 10
155.6888707487
 20
194.8363291815
 30
0.0
 11
31.49999999242943
 21
-9.707210000000000E-11
 31
0.0
210
0.0
220
0.0
230
1.0
 40
0.2063492063
 41
4.646058945461242
 42
4.712388980400434
  0
ELLIPSE
  5
146
330
134
100
AcDbEntity
  8
MEGA_002201
  6
CONTINUOUS
 62
     7
 48
25.4
100
AcDbEllipse
 10
155.6888707496
 20
194.8363291819
 30
0.0
 11
31.49999999320193
 21
1.009604000000000E-10
 31
0.0
210
0.0
220
0.0
230
1.0
 40
0.2063492063
 41
4.712388980369862
 42
4.778719015307395
  0
LINE
  5
147
330
134
100
AcDbEntity
  8
MEGA_002201
  6
CONTINUOUS
 62
     7
 48
25.4
100
AcDbLine
 10
155.7777720017
 20
188.3369371695
 30
0.0
 11
157.7767350762
 21
188.3506228819
 31
0.0
  0
LINE
  5
148
330
134
100
AcDbEntity
  8
MEGA_002201
  6
CONTINUOUS
 62
     7
 48
25.4
100
AcDbLine
 10
157.7767350762
 20
201.3220354875
 30
0.0
 11
155.7777720017
 21
201.3357211999
 31
0.0
  0
LINE
  5
149
330
134
100
AcDbEntity
  8
MEGA_002201
  6
CONTINUOUS
 62
     7
 48
25.4
100
AcDbLine
 10
155.5999694967
 20
201.3357211999
 30
0.0
 11
153.6010064222
 21
201.3220354875
 31
0.0
  0
LINE
  5
14A
330
134
100
AcDbEntity
  8
MEGA_002201
  6
CONTINUOUS
 62
     7
 48
25.4
100
AcDbLine
 10
153.6010064222
 20
188.3506228819
 30
0.0
 11
155.5999694967
 21
188.3369371695
 31
0.0
  0
ARC
  5
14B
330
134
100
AcDbEntity
  8
MEGA_002201
  6
CONTINUOUS
 62
     7
 48
25.4
100
AcDbCircle
 10
155.6888707492
 20
194.8363291847
 30
0.0
 40
10.0
100
AcDbArc
 50
40.5416018735
 51
139.4583981265
  0
ARC
  5
14C
330
134
100
AcDbEntity
  8
MEGA_002201
  6
CONTINUOUS
 62
     7
 48
25.4
100
AcDbCircle
 10
155.6888707492
 20
194.8363291847
 30
0.0
 40
10.0
100
AcDbArc
 50
220.5416018735
 51
319.4583981265
  0
ARC
  5
14D
330
134
100
AcDbEntity
  8
MEGA_002201
  6
CONTINUOUS
 62
     7
 48
25.4
100
AcDbCircle
 10
155.6888707492
 20
194.8363291847
 30
0.0
 40
6.500000000000001
100
AcDbArc
 50
89.2163345565
 51
90.7836654435
  0
ARC
  5
14E
330
134
100
AcDbEntity
  8
MEGA_002201
  6
CONTINUOUS
 62
     7
 48
25.4
100
AcDbCircle
 10
155.6888707492
 20
194.8363291847
 30
0.0
 40
6.500000000000001
100
AcDbArc
 50
269.2163345565
 51
270.7836654435
  0
LINE
  5
14F
330
134
100
AcDbEntity
  8
MEGA_002201
  6
CONTINUOUS
 62
     7
 48
25.4
100
AcDbLine
 10
153.6010064222
 20
188.3506228819
 30
0.0
 11
157.7767350762
 21
188.3506228819
 31
0.0
  0
LINE
  5
150
330
134
100
AcDbEntity
  8
MEGA_002304
  6
CONTINUOUS
 62
     7
 48
25.4
100
AcDbLine
 10
142.6888707492
 20
202.0474317356
 30
0.0
 11
142.6888707492
 21
216.3363291847
 31
0.0
  0
LINE
  5
151
330
134
100
AcDbEntity
  8
MEGA_002304
  6
CONTINUOUS
 62
     7
 48
25.4
100
AcDbLine
 10
168.6888707492
 20
216.3363291847
 30
0.0
 11
168.6888707492
 21
202.0474317356
 31
0.0
  0
CIRCLE
  5
152
330
134
100
AcDbEntity
  8
MEGA_002304
  6
CONTINUOUS
 62
     7
 48
25.4
100
AcDbCircle
 10
155.6888707492
 20
173.3363291847
 30
0.0
 40
2.399999999999977
  0
CIRCLE
  5
153
330
134
100
AcDbEntity
  8
MEGA_002304
  6
CONTINUOUS
 62
     7
 48
25.4
100
AcDbCircle
 10
155.6888707492
 20
216.3363291847
 30
0.0
 40
4.550000000000011
  0
CIRCLE
  5
154
330
134
100
AcDbEntity
  8
MEGA_002304
  6
CONTINUOUS
 62
     7
 48
25.4
100
AcDbCircle
 10
155.6888707492
 20
173.3363291847
 30
0.0
 40
4.550000000000011
  0
ARC
  5
155
330
134
100
AcDbEntity
  8
MEGA_002304
  6
CONTINUOUS
 62
     7
 48
25.4
100
AcDbCircle
 10
155.6888707492
 20
194.8363291847
 30
0.0
 40
14.0
100
AcDbArc
 50
31.0027191339
 51
148.9972808661
  0
ARC
  5
156
330
134
100
AcDbEntity
  8
MEGA_002304
  6
CONTINUOUS
 62
     7
 48
25.4
100
AcDbCircle
 10
155.6888707492
 20
194.8363291847
 30
0.0
 40
14.0
100
AcDbArc
 50
211.0027191339
 51
328.9972808661
  0
LINE
  5
157
330
134
100
AcDbEntity
  8
MEGA_002304
  6
CONTINUOUS
 62
     7
 48
25.4
100
AcDbLine
 10
142.6888707492
 20
173.3363291847
 30
0.0
 11
142.6888707492
 21
187.6252266337
 31
0.0
  0
LINE
  5
158
330
134
100
AcDbEntity
  8
MEGA_002304
  6
CONTINUOUS
 62
     7
 48
25.4
100
AcDbLine
 10
142.6888707492
 20
187.6252266337
 30
0.0
 11
142.6888707492
 21
188.3367302212
 31
0.0
  0
LINE
  5
159
330
134
100
AcDbEntity
  8
MEGA_002304
  6
CONTINUOUS
 62
     7
 48
25.4
100
AcDbLine
 10
142.6888707492
 20
201.3359257091
 30
0.0
 11
142.6888707492
 21
202.0474317356
 31
0.0
  0
LINE
  5
15A
330
134
100
AcDbEntity
  8
MEGA_002304
  6
CONTINUOUS
 62
     7
 48
25.4
100
AcDbLine
 10
168.6888707492
 20
187.6252266337
 30
0.0
 11
168.6888707492
 21
173.3363291847
 31
0.0
  0
LINE
  5
15B
330
134
100
AcDbEntity
  8
MEGA_002304
  6
CONTINUOUS
 62
     7
 48
25.4
100
AcDbLine
 10
168.6888707492
 20
202.0474317356
 30
0.0
 11
168.6888707492
 21
201.3359281481
 31
0.0
  0
LINE
  5
15C
330
134
100
AcDbEntity
  8
MEGA_002304
  6
CONTINUOUS
 62
     7
 48
25.4
100
AcDbLine
 10
168.6888707492
 20
188.3367326602
 30
0.0
 11
168.6888707492
 21
187.6252266337
 31
0.0
  0
ARC
  5
15D
330
134
100
AcDbEntity
  8
MEGA_002304
  6
CONTINUOUS
 62
     7
 48
25.4
100
AcDbCircle
 10
67.8830187719
 20
199.5755267903
 30
0.0
 40
100.5187433404
100
AcDbArc
 50
353.1721686007
 51
354.4992685092
  0
ARC
  5
15E
330
134
100
AcDbEntity
  8
MEGA_002304
  6
CONTINUOUS
 62
     7
 48
25.4
100
AcDbCircle
 10
155.6888707492
 20
216.3363291847
 30
0.0
 40
13.0
100
AcDbArc
 50
0.0
 51
180.0
  0
ARC
  5
15F
330
134
100
AcDbEntity
  8
MEGA_002304
  6
CONTINUOUS
 62
     7
 48
25.4
100
AcDbCircle
 10
155.6888707492
 20
216.3363291847
 30
0.0
 40
12.0
100
AcDbArc
 50
0.0
 51
180.0
  0
LINE
  5
160
330
134
100
AcDbEntity
  8
MEGA_002304
  6
CONTINUOUS
 62
     7
 48
25.4
100
AcDbLine
 10
143.6888707492
 20
216.3363291847
 30
0.0
 11
143.6888707492
 21
202.0474317356
 31
0.0
  0
LINE
  5
161
330
134
100
AcDbEntity
  8
MEGA_002304
  6
CONTINUOUS
 62
     7
 48
25.4
100
AcDbLine
 10
167.6888707492
 20
202.0474317356
 30
0.0
 11
167.6888707492
 21
216.3363291847
 31
0.0
  0
ARC
  5
162
330
134
100
AcDbEntity
  8
MEGA_002304
  6
CONTINUOUS
 62
     7
 48
25.4
100
AcDbCircle
 10
243.4947227265
 20
190.097131579
 30
0.0
 40
100.5187433404
100
AcDbArc
 50
173.1721686007
 51
174.4992685092
  0
ARC
  5
163
330
134
100
AcDbEntity
  8
MEGA_002304
  6
CONTINUOUS
 62
     7
 48
25.4
100
AcDbCircle
 10
155.6888707492
 20
173.3363291847
 30
0.0
 40
13.0
100
AcDbArc
 50
180.0
 51
360.0
  0
LINE
  5
164
330
134
100
AcDbEntity
  8
MEGA_002304
  6
CONTINUOUS
 62
     7
 48
25.4
100
AcDbLine
 10
143.6888707492
 20
187.6252266337
 30
0.0
 11
143.6888707492
 21
173.3363291847
 31
0.0
  0
ARC
  5
165
330
134
100
AcDbEntity
  8
MEGA_002304
  6
CONTINUOUS
 62
     7
 48
25.4
100
AcDbCircle
 10
155.6888707492
 20
173.3363291847
 30
0.0
 40
12.0
100
AcDbArc
 50
180.0
 51
360.0
  0
LINE
  5
166
330
134
100
AcDbEntity
  8
MEGA_002304
  6
CONTINUOUS
 62
     7
 48
25.4
100
AcDbLine
 10
167.6888707492
 20
173.3363291847
 30
0.0
 11
167.6888707492
 21
187.6252266337
 31
0.0
  0
CIRCLE
  5
167
330
134
100
AcDbEntity
  8
MEGA_002304
  6
CONTINUOUS
 62
     7
 48
25.4
100
AcDbCircle
 10
155.6888707492
 20
216.3363291847
 30
0.0
 40
2.399999999999977
  0
LINE
  5
168
330
134
100
AcDbEntity
  8
MEGA_002304
  6
CONTINUOUS
 62
     7
 48
25.4
100
AcDbLine
 10
168.6888707492
 20
173.3363291847
 30
0.0
 11
167.6888707492
 21
173.3363291847
 31
0.0
  0
LINE
  5
169
330
134
100
AcDbEntity
  8
MEGA_002304
  6
CONTINUOUS
 62
     7
 48
25.4
100
AcDbLine
 10
168.6888707492
 20
202.0474317356
 30
0.0
 11
167.6888707492
 21
202.0474317356
 31
0.0
  0
LINE
  5
16A
330
134
100
AcDbEntity
  8
MEGA_002304
  6
CONTINUOUS
 62
     7
 48
25.4
100
AcDbLine
 10
143.6888707492
 20
202.0474317356
 30
0.0
 11
142.6888707492
 21
202.0474317356
 31
0.0
  0
LINE
  5
16B
330
134
100
AcDbEntity
  8
MEGA_002304
  6
CONTINUOUS
 62
     7
 48
25.4
100
AcDbLine
 10
168.6888707492
 20
216.3363291847
 30
0.0
 11
167.6888707492
 21
216.3363291847
 31
0.0
  0
LINE
  5
16C
330
134
100
AcDbEntity
  8
MEGA_002304
  6
CONTINUOUS
 62
     7
 48
25.4
100
AcDbLine
 10
143.6888707492
 20
216.3363291847
 30
0.0
 11
142.6888707492
 21
216.3363291847
 31
0.0
  0
LINE
  5
16D
330
134
100
AcDbEntity
  8
MEGA_002304
  6
CONTINUOUS
 62
     7
 48
25.4
100
AcDbLine
 10
143.6888707492
 20
173.3363291847
 30
0.0
 11
142.6888707492
 21
173.3363291847
 31
0.0
  0
LINE
  5
16E
330
134
100
AcDbEntity
  8
MEGA_002304
  6
CONTINUOUS
 62
     7
 48
25.4
100
AcDbLine
 10
143.6888707492
 20
187.6252266337
 30
0.0
 11
142.6888707492
 21
187.6252266337
 31
0.0
  0
LINE
  5
16F
330
134
100
AcDbEntity
  8
MEGA_002304
  6
CONTINUOUS
 62
     7
 48
25.4
100
AcDbLine
 10
168.6888707492
 20
187.6252266337
 30
0.0
 11
167.6888707492
 21
187.6252266337
 31
0.0
  0
ENDBLK
  5
171
330
134
100
AcDbEntity
  8
0
100
AcDbBlockEnd
  0
BLOCK
  5
17A
330
172
100
AcDbEntity
  8
0
100
AcDbBlockBegin
  2
SE13
 70
     0
 71
     0
 10
0.0
 20
0.0
 30
0.0
  3
SE13
  1

  0
POLYLINE
  5
174
330
172
100
AcDbEntity
  8
DEFAULT
  6
CONTINUOUS
 62
     7
 48
25.4
100
AcDb2dPolyline
 66
     1
 10
0.0
 20
0.0
 30
0.0
 70
     1
  0
VERTEX
  5
1C6
330
174
100
AcDbEntity
  8
DEFAULT
  6
CONTINUOUS
 62
     7
100
AcDbVertex
100
AcDb2dVertex
 10
10.6440663275
 20
78.0402820887
 30
0.0
  0
VERTEX
  5
1C7
330
174
100
AcDbEntity
  8
DEFAULT
  6
CONTINUOUS
 62
     7
100
AcDbVertex
100
AcDb2dVertex
 10
11.1440663319
 20
75.0402820626
 30
0.0
  0
VERTEX
  5
1C8
330
174
100
AcDbEntity
  8
DEFAULT
  6
CONTINUOUS
 62
     7
100
AcDbVertex
100
AcDb2dVertex
 10
11.6440663362
 20
78.0402820887
 30
0.0
  0
VERTEX
  5
1C9
330
174
100
AcDbEntity
  8
DEFAULT
  6
CONTINUOUS
 62
     7
100
AcDbVertex
100
AcDb2dVertex
 10
10.6440663275
 20
78.0402820887
 30
0.0
  0
SEQEND
  5
1C5
330
174
100
AcDbEntity
  8
DEFAULT
  6
CONTINUOUS
 62
     7
 48
25.4
  0
LINE
  5
175
330
172
100
AcDbEntity
  8
DEFAULT
  6
CONTINUOUS
 62
     7
 48
25.4
100
AcDbLine
 10
23.3928236272
 20
135.0402820626
 30
0.0
 11
9.6440663188
 21
135.0402820626
 31
0.0
  0
LINE
  5
176
330
172
100
AcDbEntity
  8
DEFAULT
  6
CONTINUOUS
 62
     7
 48
25.4
100
AcDbLine
 10
23.3928236272
 20
75.0402820626
 30
0.0
 11
9.6440663188
 21
75.0402820626
 31
0.0
  0
LINE
  5
177
330
172
100
AcDbEntity
  8
DEFAULT
  6
CONTINUOUS
 62
     7
 48
25.4
100
AcDbLine
 10
11.1440663319
 20
135.0402820626
 30
0.0
 11
11.1440663319
 21
75.0402834037
 31
0.0
  0
TEXT
  5
179
330
172
100
AcDbEntity
  8
DEFAULT
  6
CONTINUOUS
 62
     7
 48
25.4
100
AcDbText
 10
10.3940663319
 20
103.2334645514
 30
0.0
 40
3.0
  1
60
 50
90.0
  7
SEACAD_SEISO_TTF
 11
7.3940663319
 21
103.2334645514
 31
0.0
100
AcDbText
 73
     3
  0
ENDBLK
  5
17B
330
172
100
AcDbEntity
  8
0
100
AcDbBlockEnd
  0
BLOCK
  5
186
330
17C
100
AcDbEntity
  8
0
100
AcDbBlockBegin
  2
SE14
 70
     0
 71
     0
 10
0.0
 20
0.0
 30
0.0
  3
SE14
  1

  0
POLYLINE
  5
17E
330
17C
100
AcDbEntity
  8
DEFAULT
  6
CONTINUOUS
 62
     7
 48
25.4
100
AcDb2dPolyline
 66
     1
 10
0.0
 20
0.0
 30
0.0
 70
     1
  0
VERTEX
  5
1CB
330
17E
100
AcDbEntity
  8
DEFAULT
  6
CONTINUOUS
 62
     7
100
AcDbVertex
100
AcDb2dVertex
 10
24.8928236532
 20
59.6487067218
 30
0.0
  0
VERTEX
  5
1CC
330
17E
100
AcDbEntity
  8
DEFAULT
  6
CONTINUOUS
 62
     7
100
AcDbVertex
100
AcDb2dVertex
 10
21.8928236272
 20
60.1487067262
 30
0.0
  0
VERTEX
  5
1CD
330
17E
100
AcDbEntity
  8
DEFAULT
  6
CONTINUOUS
 62
     7
100
AcDbVertex
100
AcDb2dVertex
 10
24.8928236532
 20
60.6487067305
 30
0.0
  0
VERTEX
  5
1CE
330
17E
100
AcDbEntity
  8
DEFAULT
  6
CONTINUOUS
 62
     7
100
AcDbVertex
100
AcDb2dVertex
 10
24.8928236532
 20
59.6487067218
 30
0.0
  0
SEQEND
  5
1CA
330
17E
100
AcDbEntity
  8
DEFAULT
  6
CONTINUOUS
 62
     7
 48
25.4
  0
POLYLINE
  5
17F
330
17C
100
AcDbEntity
  8
DEFAULT
  6
CONTINUOUS
 62
     7
 48
25.4
100
AcDb2dPolyline
 66
     1
 10
0.0
 20
0.0
 30
0.0
 70
     1
  0
VERTEX
  5
1D0
330
17F
100
AcDbEntity
  8
DEFAULT
  6
CONTINUOUS
 62
     7
100
AcDbVertex
100
AcDb2dVertex
 10
31.8928236011
 20
59.6487067218
 30
0.0
  0
VERTEX
  5
1D1
330
17F
100
AcDbEntity
  8
DEFAULT
  6
CONTINUOUS
 62
     7
100
AcDbVertex
100
AcDb2dVertex
 10
34.8928236272
 20
60.1487067262
 30
0.0
  0
VERTEX
  5
1D2
330
17F
100
AcDbEntity
  8
DEFAULT
  6
CONTINUOUS
 62
     7
100
AcDbVertex
100
AcDb2dVertex
 10
31.8928236011
 20
60.6487067305
 30
0.0
  0
VERTEX
  5
1D3
330
17F
100
AcDbEntity
  8
DEFAULT
  6
CONTINUOUS
 62
     7
100
AcDbVertex
100
AcDb2dVertex
 10
31.8928236011
 20
59.6487067218
 30
0.0
  0
SEQEND
  5
1CF
330
17F
100
AcDbEntity
  8
DEFAULT
  6
CONTINUOUS
 62
     7
 48
25.4
  0
LINE
  5
180
330
17C
100
AcDbEntity
  8
DEFAULT
  6
CONTINUOUS
 62
     7
 48
25.4
100
AcDbLine
 10
21.8928236272
 20
76.5402820626
 30
0.0
 11
21.8928236272
 21
58.6487067131
 31
0.0
  0
LINE
  5
181
330
17C
100
AcDbEntity
  8
DEFAULT
  6
CONTINUOUS
 62
     7
 48
25.4
100
AcDbLine
 10
34.8928236272
 20
76.5402820626
 30
0.0
 11
34.8928236272
 21
58.6487067131
 31
0.0
  0
LINE
  5
182
330
17C
100
AcDbEntity
  8
DEFAULT
  6
CONTINUOUS
 62
     7
 48
25.4
100
AcDbLine
 10
21.8928236272
 20
60.1487067262
 30
0.0
 11
34.8928238954
 21
60.1487067262
 31
0.0
  0
TEXT
  5
183
330
17C
100
AcDbEntity
  8
DEFAULT
  6
CONTINUOUS
 62
     7
 48
25.4
100
AcDbText
 10
28.8154021654
 20
60.8987067262
 30
0.0
 40
3.0
  1
13
  7
SEACAD_SEISO_TTF
 11
28.8154021654
 21
63.8987067262
 31
0.0
100
AcDbText
 73
     3
  0
TEXT
  5
185
330
17C
100
AcDbEntity
  8
DEFAULT
  6
CONTINUOUS
 62
     7
 48
25.4
100
AcDbText
 10
25.1747908117
 20
60.8987067262
 30
0.0
 40
3.0
  1
O
  7
SEACAD_SEMECI1_TTF
 11
25.1747908117
 21
63.8987067262
 31
0.0
100
AcDbText
 73
     3
  0
ENDBLK
  5
187
330
17C
100
AcDbEntity
  8
0
100
AcDbBlockEnd
  0
BLOCK
  5
191
330
188
100
AcDbEntity
  8
0
100
AcDbBlockBegin
  2
SE15
 70
     0
 71
     0
 10
0.0
 20
0.0
 30
0.0
  3
SE15
  1

  0
POLYLINE
  5
18A
330
188
100
AcDbEntity
  8
DEFAULT
  6
CONTINUOUS
 62
     7
 48
25.4
100
AcDb2dPolyline
 66
     1
 10
0.0
 20
0.0
 30
0.0
 70
     1
  0
VERTEX
  5
1D5
330
18A
100
AcDbEntity
  8
DEFAULT
  6
CONTINUOUS
 62
     7
100
AcDbVertex
100
AcDb2dVertex
 10
117.8944456833
 20
111.5402820887
 30
0.0
  0
VERTEX
  5
1D6
330
18A
100
AcDbEntity
  8
DEFAULT
  6
CONTINUOUS
 62
     7
100
AcDbVertex
100
AcDb2dVertex
 10
117.394445679
 20
108.5402820626
 30
0.0
  0
VERTEX
  5
1D7
330
18A
100
AcDbEntity
  8
DEFAULT
  6
CONTINUOUS
 62
     7
100
AcDbVertex
100
AcDb2dVertex
 10
116.8944456746
 20
111.5402820887
 30
0.0
  0
VERTEX
  5
1D8
330
18A
100
AcDbEntity
  8
DEFAULT
  6
CONTINUOUS
 62
     7
100
AcDbVertex
100
AcDb2dVertex
 10
117.8944456833
 20
111.5402820887
 30
0.0
  0
SEQEND
  5
1D4
330
18A
100
AcDbEntity
  8
DEFAULT
  6
CONTINUOUS
 62
     7
 48
25.4
  0
POLYLINE
  5
18B
330
188
100
AcDbEntity
  8
DEFAULT
  6
CONTINUOUS
 62
     7
 48
25.4
100
AcDb2dPolyline
 66
     1
 10
0.0
 20
0.0
 30
0.0
 70
     1
  0
VERTEX
  5
1DA
330
18B
100
AcDbEntity
  8
DEFAULT
  6
CONTINUOUS
 62
     7
100
AcDbVertex
100
AcDb2dVertex
 10
117.8944456833
 20
98.5402820365
 30
0.0
  0
VERTEX
  5
1DB
330
18B
100
AcDbEntity
  8
DEFAULT
  6
CONTINUOUS
 62
     7
100
AcDbVertex
100
AcDb2dVertex
 10
117.394445679
 20
101.5402820626
 30
0.0
  0
VERTEX
  5
1DC
330
18B
100
AcDbEntity
  8
DEFAULT
  6
CONTINUOUS
 62
     7
100
AcDbVertex
100
AcDb2dVertex
 10
116.8944456746
 20
98.5402820365
 30
0.0
  0
VERTEX
  5
1DD
330
18B
100
AcDbEntity
  8
DEFAULT
  6
CONTINUOUS
 62
     7
100
AcDbVertex
100
AcDb2dVertex
 10
117.8944456833
 20
98.5402820365
 30
0.0
  0
SEQEND
  5
1D9
330
18B
100
AcDbEntity
  8
DEFAULT
  6
CONTINUOUS
 62
     7
 48
25.4
  0
LINE
  5
18C
330
188
100
AcDbEntity
  8
DEFAULT
  6
CONTINUOUS
 62
     7
 48
25.4
100
AcDbLine
 10
102.1030761589
 20
108.5402820626
 30
0.0
 11
118.894445692
 21
108.5402820626
 31
0.0
  0
LINE
  5
18D
330
188
100
AcDbEntity
  8
DEFAULT
  6
CONTINUOUS
 62
     7
 48
25.4
100
AcDbLine
 10
102.1030761589
 20
101.5402820626
 30
0.0
 11
118.894445692
 21
101.5402820626
 31
0.0
  0
LINE
  5
18E
330
188
100
AcDbEntity
  8
DEFAULT
  6
CONTINUOUS
 62
     7
 48
25.4
100
AcDbLine
 10
117.394445679
 20
120.6950782234
 30
0.0
 11
117.394445679
 21
95.5402817944
 31
0.0
  0
TEXT
  5
18F
330
188
100
AcDbEntity
  8
DEFAULT
  6
CONTINUOUS
 62
     7
 48
25.4
100
AcDbText
 10
116.644445679
 20
117.7359870299
 30
0.0
 40
3.0
  1
7
 50
90.0
  7
SEACAD_SEISO_TTF
 11
113.644445679
 21
117.7359870299
 31
0.0
100
AcDbText
 73
     3
  0
TEXT
  5
190
330
188
100
AcDbEntity
  8
DEFAULT
  6
CONTINUOUS
 62
     7
 48
25.4
100
AcDbText
 10
116.644445679
 20
114.0298734928
 30
0.0
 40
3.0
  1
q
 50
90.0
  7
SEACAD_SEMECI1_TTF
 11
113.644445679
 21
114.0298734928
 31
0.0
100
AcDbText
 73
     3
  0
ENDBLK
  5
192
330
188
100
AcDbEntity
  8
0
100
AcDbBlockEnd
  0
BLOCK
  5
19B
330
193
100
AcDbEntity
  8
0
100
AcDbBlockBegin
  2
SE16
 70
     0
 71
     0
 10
0.0
 20
0.0
 30
0.0
  3
SE16
  1

  0
POLYLINE
  5
195
330
193
100
AcDbEntity
  8
DEFAULT
  6
CONTINUOUS
 62
     7
 48
25.4
100
AcDb2dPolyline
 66
     1
 10
0.0
 20
0.0
 30
0.0
 70
     1
  0
VERTEX
  5
1DF
330
195
100
AcDbEntity
  8
DEFAULT
  6
CONTINUOUS
 62
     7
100
AcDbVertex
100
AcDb2dVertex
 10
24.8928236532
 20
243.1224644155
 30
0.0
  0
VERTEX
  5
1E0
330
195
100
AcDbEntity
  8
DEFAULT
  6
CONTINUOUS
 62
     7
100
AcDbVertex
100
AcDb2dVertex
 10
21.8928236272
 20
242.6224644111
 30
0.0
  0
VERTEX
  5
1E1
330
195
100
AcDbEntity
  8
DEFAULT
  6
CONTINUOUS
 62
     7
100
AcDbVertex
100
AcDb2dVertex
 10
24.8928236532
 20
242.1224644068
 30
0.0
  0
VERTEX
  5
1E2
330
195
100
AcDbEntity
  8
DEFAULT
  6
CONTINUOUS
 62
     7
100
AcDbVertex
100
AcDb2dVertex
 10
24.8928236532
 20
243.1224644155
 30
0.0
  0
SEQEND
  5
1DE
330
195
100
AcDbEntity
  8
DEFAULT
  6
CONTINUOUS
 62
     7
 48
25.4
  0
POLYLINE
  5
196
330
193
100
AcDbEntity
  8
DEFAULT
  6
CONTINUOUS
 62
     7
 48
25.4
100
AcDb2dPolyline
 66
     1
 10
0.0
 20
0.0
 30
0.0
 70
     1
  0
VERTEX
  5
1E4
330
196
100
AcDbEntity
  8
DEFAULT
  6
CONTINUOUS
 62
     7
100
AcDbVertex
100
AcDb2dVertex
 10
65.8928236011
 20
243.1224644155
 30
0.0
  0
VERTEX
  5
1E5
330
196
100
AcDbEntity
  8
DEFAULT
  6
CONTINUOUS
 62
     7
100
AcDbVertex
100
AcDb2dVertex
 10
68.8928236272
 20
242.6224644111
 30
0.0
  0
VERTEX
  5
1E6
330
196
100
AcDbEntity
  8
DEFAULT
  6
CONTINUOUS
 62
     7
100
AcDbVertex
100
AcDb2dVertex
 10
65.8928236011
 20
242.1224644068
 30
0.0
  0
VERTEX
  5
1E7
330
196
100
AcDbEntity
  8
DEFAULT
  6
CONTINUOUS
 62
     7
100
AcDbVertex
100
AcDb2dVertex
 10
65.8928236011
 20
243.1224644155
 30
0.0
  0
SEQEND
  5
1E3
330
196
100
AcDbEntity
  8
DEFAULT
  6
CONTINUOUS
 62
     7
 48
25.4
  0
LINE
  5
197
330
193
100
AcDbEntity
  8
DEFAULT
  6
CONTINUOUS
 62
     7
 48
25.4
100
AcDbLine
 10
21.8928236272
 20
194.8363291847
 30
0.0
 11
21.8928236272
 21
244.1224644242
 31
0.0
  0
LINE
  5
198
330
193
100
AcDbEntity
  8
DEFAULT
  6
CONTINUOUS
 62
     7
 48
25.4
100
AcDbLine
 10
68.8928236272
 20
229.3363291847
 30
0.0
 11
68.8928236272
 21
244.1224644242
 31
0.0
  0
LINE
  5
199
330
193
100
AcDbEntity
  8
DEFAULT
  6
CONTINUOUS
 62
     7
 48
25.4
100
AcDbLine
 10
21.8928236272
 20
242.6224644111
 30
0.0
 11
68.8928220178
 21
242.6224644111
 31
0.0
  0
TEXT
  5
19A
330
193
100
AcDbEntity
  8
DEFAULT
  6
CONTINUOUS
 62
     7
 48
25.4
100
AcDbText
 10
43.5519137316
 20
243.3724644111
 30
0.0
 40
3.0
  1
47
  7
SEACAD_SEISO_TTF
 11
43.5519137316
 21
246.3724644111
 31
0.0
100
AcDbText
 73
     3
  0
ENDBLK
  5
19C
330
193
100
AcDbEntity
  8
0
100
AcDbBlockEnd
  0
BLOCK
  5
1A5
330
19D
100
AcDbEntity
  8
0
100
AcDbBlockBegin
  2
SE17
 70
     0
 71
     0
 10
0.0
 20
0.0
 30
0.0
  3
SE17
  1

  0
POLYLINE
  5
19F
330
19D
100
AcDbEntity
  8
DEFAULT
  6
CONTINUOUS
 62
     7
 48
25.4
100
AcDb2dPolyline
 66
     1
 10
0.0
 20
0.0
 30
0.0
 70
     1
  0
VERTEX
  5
1E9
330
19F
100
AcDbEntity
  8
DEFAULT
  6
CONTINUOUS
 62
     7
100
AcDbVertex
100
AcDb2dVertex
 10
71.8928236532
 20
243.1224652798
 30
0.0
  0
VERTEX
  5
1EA
330
19F
100
AcDbEntity
  8
DEFAULT
  6
CONTINUOUS
 62
     7
100
AcDbVertex
100
AcDb2dVertex
 10
68.8928236272
 20
242.6224652754
 30
0.0
  0
VERTEX
  5
1EB
330
19F
100
AcDbEntity
  8
DEFAULT
  6
CONTINUOUS
 62
     7
100
AcDbVertex
100
AcDb2dVertex
 10
71.8928236532
 20
242.1224652711
 30
0.0
  0
VERTEX
  5
1EC
330
19F
100
AcDbEntity
  8
DEFAULT
  6
CONTINUOUS
 62
     7
100
AcDbVertex
100
AcDb2dVertex
 10
71.8928236532
 20
243.1224652798
 30
0.0
  0
SEQEND
  5
1E8
330
19F
100
AcDbEntity
  8
DEFAULT
  6
CONTINUOUS
 62
     7
 48
25.4
  0
POLYLINE
  5
1A0
330
19D
100
AcDbEntity
  8
DEFAULT
  6
CONTINUOUS
 62
     7
 48
25.4
100
AcDb2dPolyline
 66
     1
 10
0.0
 20
0.0
 30
0.0
 70
     1
  0
VERTEX
  5
1EE
330
1A0
100
AcDbEntity
  8
DEFAULT
  6
CONTINUOUS
 62
     7
100
AcDbVertex
100
AcDb2dVertex
 10
100.8928236011
 20
243.1224652798
 30
0.0
  0
VERTEX
  5
1EF
330
1A0
100
AcDbEntity
  8
DEFAULT
  6
CONTINUOUS
 62
     7
100
AcDbVertex
100
AcDb2dVertex
 10
103.8928236272
 20
242.6224652754
 30
0.0
  0
VERTEX
  5
1F0
330
1A0
100
AcDbEntity
  8
DEFAULT
  6
CONTINUOUS
 62
     7
100
AcDbVertex
100
AcDb2dVertex
 10
100.8928236011
 20
242.1224652711
 30
0.0
  0
VERTEX
  5
1F1
330
1A0
100
AcDbEntity
  8
DEFAULT
  6
CONTINUOUS
 62
     7
100
AcDbVertex
100
AcDb2dVertex
 10
100.8928236011
 20
243.1224652798
 30
0.0
  0
SEQEND
  5
1ED
330
1A0
100
AcDbEntity
  8
DEFAULT
  6
CONTINUOUS
 62
     7
 48
25.4
  0
LINE
  5
1A1
330
19D
100
AcDbEntity
  8
DEFAULT
  6
CONTINUOUS
 62
     7
 48
25.4
100
AcDbLine
 10
68.8928236272
 20
229.3363291847
 30
0.0
 11
68.8928236272
 21
244.1224652885
 31
0.0
  0
LINE
  5
1A2
330
19D
100
AcDbEntity
  8
DEFAULT
  6
CONTINUOUS
 62
     7
 48
25.4
100
AcDbLine
 10
103.8928236272
 20
197.9963291847
 30
0.0
 11
103.8928236272
 21
244.1224652885
 31
0.0
  0
LINE
  5
1A3
330
19D
100
AcDbEntity
  8
DEFAULT
  6
CONTINUOUS
 62
     7
 48
25.4
100
AcDbLine
 10
68.8928236272
 20
242.6224652754
 30
0.0
 11
103.8928237762
 21
242.6224652754
 31
0.0
  0
TEXT
  5
1A4
330
19D
100
AcDbEntity
  8
DEFAULT
  6
CONTINUOUS
 62
     7
 48
25.4
100
AcDbText
 10
84.7564600653
 20
243.3724652754
 30
0.0
 40
3.0
  1
35
  7
SEACAD_SEISO_TTF
 11
84.7564600653
 21
246.3724652754
 31
0.0
100
AcDbText
 73
     3
  0
ENDBLK
  5
1A6
330
19D
100
AcDbEntity
  8
0
100
AcDbBlockEnd
  0
BLOCK
  5
1AF
330
1A7
100
AcDbEntity
  8
0
100
AcDbBlockBegin
  2
SE18
 70
     0
 71
     0
 10
0.0
 20
0.0
 30
0.0
  3
SE18
  1

  0
POLYLINE
  5
1A9
330
1A7
100
AcDbEntity
  8
DEFAULT
  6
CONTINUOUS
 62
     7
 48
25.4
100
AcDb2dPolyline
 66
     1
 10
0.0
 20
0.0
 30
0.0
 70
     1
  0
VERTEX
  5
1F3
330
1A9
100
AcDbEntity
  8
DEFAULT
  6
CONTINUOUS
 62
     7
100
AcDbVertex
100
AcDb2dVertex
 10
205.0652717905
 20
226.3363291586
 30
0.0
  0
VERTEX
  5
1F4
330
1A9
100
AcDbEntity
  8
DEFAULT
  6
CONTINUOUS
 62
     7
100
AcDbVertex
100
AcDb2dVertex
 10
204.5652717862
 20
229.3363291847
 30
0.0
  0
VERTEX
  5
1F5
330
1A9
100
AcDbEntity
  8
DEFAULT
  6
CONTINUOUS
 62
     7
100
AcDbVertex
100
AcDb2dVertex
 10
204.0652717818
 20
226.3363291586
 30
0.0
  0
VERTEX
  5
1F6
330
1A9
100
AcDbEntity
  8
DEFAULT
  6
CONTINUOUS
 62
     7
100
AcDbVertex
100
AcDb2dVertex
 10
205.0652717905
 20
226.3363291586
 30
0.0
  0
SEQEND
  5
1F2
330
1A9
100
AcDbEntity
  8
DEFAULT
  6
CONTINUOUS
 62
     7
 48
25.4
  0
POLYLINE
  5
1AA
330
1A7
100
AcDbEntity
  8
DEFAULT
  6
CONTINUOUS
 62
     7
 48
25.4
100
AcDb2dPolyline
 66
     1
 10
0.0
 20
0.0
 30
0.0
 70
     1
  0
VERTEX
  5
1F8
330
1AA
100
AcDbEntity
  8
DEFAULT
  6
CONTINUOUS
 62
     7
100
AcDbVertex
100
AcDb2dVertex
 10
205.0652717905
 20
163.3363292107
 30
0.0
  0
VERTEX
  5
1F9
330
1AA
100
AcDbEntity
  8
DEFAULT
  6
CONTINUOUS
 62
     7
100
AcDbVertex
100
AcDb2dVertex
 10
204.5652717862
 20
160.3363291847
 30
0.0
  0
VERTEX
  5
1FA
330
1AA
100
AcDbEntity
  8
DEFAULT
  6
CONTINUOUS
 62
     7
100
AcDbVertex
100
AcDb2dVertex
 10
204.0652717818
 20
163.3363292107
 30
0.0
  0
VERTEX
  5
1FB
330
1AA
100
AcDbEntity
  8
DEFAULT
  6
CONTINUOUS
 62
     7
100
AcDbVertex
100
AcDb2dVertex
 10
205.0652717905
 20
163.3363292107
 30
0.0
  0
SEQEND
  5
1F7
330
1AA
100
AcDbEntity
  8
DEFAULT
  6
CONTINUOUS
 62
     7
 48
25.4
  0
LINE
  5
1AB
330
1A7
100
AcDbEntity
  8
DEFAULT
  6
CONTINUOUS
 62
     7
 48
25.4
100
AcDbLine
 10
155.6888707492
 20
229.3363291847
 30
0.0
 11
206.0652717992
 21
229.3363291847
 31
0.0
  0
LINE
  5
1AC
330
1A7
100
AcDbEntity
  8
DEFAULT
  6
CONTINUOUS
 62
     7
 48
25.4
100
AcDbLine
 10
155.6888707492
 20
160.3363291847
 30
0.0
 11
206.0652717992
 21
160.3363291847
 31
0.0
  0
LINE
  5
1AD
330
1A7
100
AcDbEntity
  8
DEFAULT
  6
CONTINUOUS
 62
     7
 48
25.4
100
AcDbLine
 10
204.5652717862
 20
229.3363291847
 30
0.0
 11
204.5652717862
 21
160.3363309132
 31
0.0
  0
TEXT
  5
1AE
330
1A7
100
AcDbEntity
  8
DEFAULT
  6
CONTINUOUS
 62
     7
 48
25.4
100
AcDbText
 10
203.8152717862
 20
192.995420958
 30
0.0
 40
3.0
  1
69
 50
90.0
  7
SEACAD_SEISO_TTF
 11
200.8152717862
 21
192.995420958
 31
0.0
100
AcDbText
 73
     3
  0
ENDBLK
  5
1B0
330
1A7
100
AcDbEntity
  8
0
100
AcDbBlockEnd
  0
BLOCK
  5
1B9
330
1B1
100
AcDbEntity
  8
0
100
AcDbBlockBegin
  2
SE19
 70
     0
 71
     0
 10
0.0
 20
0.0
 30
0.0
  3
SE19
  1

  0
POLYLINE
  5
1B3
330
1B1
100
AcDbEntity
  8
DEFAULT
  6
CONTINUOUS
 62
     7
 48
25.4
100
AcDb2dPolyline
 66
     1
 10
0.0
 20
0.0
 30
0.0
 70
     1
  0
VERTEX
  5
1FD
330
1B3
100
AcDbEntity
  8
DEFAULT
  6
CONTINUOUS
 62
     7
100
AcDbVertex
100
AcDb2dVertex
 10
197.5524974721
 20
213.3363291586
 30
0.0
  0
VERTEX
  5
1FE
330
1B3
100
AcDbEntity
  8
DEFAULT
  6
CONTINUOUS
 62
     7
100
AcDbVertex
100
AcDb2dVertex
 10
197.0524974677
 20
216.3363291847
 30
0.0
  0
VERTEX
  5
1FF
330
1B3
100
AcDbEntity
  8
DEFAULT
  6
CONTINUOUS
 62
     7
100
AcDbVertex
100
AcDb2dVertex
 10
196.5524974634
 20
213.3363291586
 30
0.0
  0
VERTEX
  5
200
330
1B3
100
AcDbEntity
  8
DEFAULT
  6
CONTINUOUS
 62
     7
100
AcDbVertex
100
AcDb2dVertex
 10
197.5524974721
 20
213.3363291586
 30
0.0
  0
SEQEND
  5
1FC
330
1B3
100
AcDbEntity
  8
DEFAULT
  6
CONTINUOUS
 62
     7
 48
25.4
  0
POLYLINE
  5
1B4
330
1B1
100
AcDbEntity
  8
DEFAULT
  6
CONTINUOUS
 62
     7
 48
25.4
100
AcDb2dPolyline
 66
     1
 10
0.0
 20
0.0
 30
0.0
 70
     1
  0
VERTEX
  5
202
330
1B4
100
AcDbEntity
  8
DEFAULT
  6
CONTINUOUS
 62
     7
100
AcDbVertex
100
AcDb2dVertex
 10
197.5524974721
 20
176.3363292107
 30
0.0
  0
VERTEX
  5
203
330
1B4
100
AcDbEntity
  8
DEFAULT
  6
CONTINUOUS
 62
     7
100
AcDbVertex
100
AcDb2dVertex
 10
197.0524974677
 20
173.3363291847
 30
0.0
  0
VERTEX
  5
204
330
1B4
100
AcDbEntity
  8
DEFAULT
  6
CONTINUOUS
 62
     7
100
AcDbVertex
100
AcDb2dVertex
 10
196.5524974634
 20
176.3363292107
 30
0.0
  0
VERTEX
  5
205
330
1B4
100
AcDbEntity
  8
DEFAULT
  6
CONTINUOUS
 62
     7
100
AcDbVertex
100
AcDb2dVertex
 10
197.5524974721
 20
176.3363292107
 30
0.0
  0
SEQEND
  5
201
330
1B4
100
AcDbEntity
  8
DEFAULT
  6
CONTINUOUS
 62
     7
 48
25.4
  0
LINE
  5
1B5
330
1B1
100
AcDbEntity
  8
DEFAULT
  6
CONTINUOUS
 62
     7
 48
25.4
100
AcDbLine
 10
155.6888707492
 20
216.3363291847
 30
0.0
 11
198.5524974808
 21
216.3363291847
 31
0.0
  0
LINE
  5
1B6
330
1B1
100
AcDbEntity
  8
DEFAULT
  6
CONTINUOUS
 62
     7
 48
25.4
100
AcDbLine
 10
155.6888707492
 20
173.3363291847
 30
0.0
 11
198.5524974808
 21
173.3363291847
 31
0.0
  0
LINE
  5
1B7
330
1B1
100
AcDbEntity
  8
DEFAULT
  6
CONTINUOUS
 62
     7
 48
25.4
100
AcDbLine
 10
197.0524974677
 20
216.3363291847
 30
0.0
 11
197.0524974677
 21
173.3363277243
 31
0.0
  0
TEXT
  5
1B8
330
1B1
100
AcDbEntity
  8
DEFAULT
  6
CONTINUOUS
 62
     7
 48
25.4
100
AcDbText
 10
196.3024974677
 20
193.165873909
 30
0.0
 40
3.0
  1
43
 50
90.0
  7
SEACAD_SEISO_TTF
 11
193.3024974677
 21
193.165873909
 31
0.0
100
AcDbText
 73
     3
  0
ENDBLK
  5
1BA
330
1B1
100
AcDbEntity
  8
0
100
AcDbBlockEnd
  0
BLOCK
  5
1C3
330
1BB
100
AcDbEntity
  8
0
100
AcDbBlockBegin
  2
SE20
 70
     0
 71
     0
 10
0.0
 20
0.0
 30
0.0
  3
SE20
  1

  0
POLYLINE
  5
1BD
330
1BB
100
AcDbEntity
  8
DEFAULT
  6
CONTINUOUS
 62
     7
 48
25.4
100
AcDb2dPolyline
 66
     1
 10
0.0
 20
0.0
 30
0.0
 70
     1
  0
VERTEX
  5
207
330
1BD
100
AcDbEntity
  8
DEFAULT
  6
CONTINUOUS
 62
     7
100
AcDbVertex
100
AcDb2dVertex
 10
145.6888707753
 20
242.5858393431
 30
0.0
  0
VERTEX
  5
208
330
1BD
100
AcDbEntity
  8
DEFAULT
  6
CONTINUOUS
 62
     7
100
AcDbVertex
100
AcDb2dVertex
 10
142.6888707492
 20
242.0858393388
 30
0.0
  0
VERTEX
  5
209
330
1BD
100
AcDbEntity
  8
DEFAULT
  6
CONTINUOUS
 62
     7
100
AcDbVertex
100
AcDb2dVertex
 10
145.6888707753
 20
241.5858393344
 30
0.0
  0
VERTEX
  5
20A
330
1BD
100
AcDbEntity
  8
DEFAULT
  6
CONTINUOUS
 62
     7
100
AcDbVertex
100
AcDb2dVertex
 10
145.6888707753
 20
242.5858393431
 30
0.0
  0
SEQEND
  5
206
330
1BD
100
AcDbEntity
  8
DEFAULT
  6
CONTINUOUS
 62
     7
 48
25.4
  0
POLYLINE
  5
1BE
330
1BB
100
AcDbEntity
  8
DEFAULT
  6
CONTINUOUS
 62
     7
 48
25.4
100
AcDb2dPolyline
 66
     1
 10
0.0
 20
0.0
 30
0.0
 70
     1
  0
VERTEX
  5
20C
330
1BE
100
AcDbEntity
  8
DEFAULT
  6
CONTINUOUS
 62
     7
100
AcDbVertex
100
AcDb2dVertex
 10
165.6888707231
 20
242.5858393431
 30
0.0
  0
VERTEX
  5
20D
330
1BE
100
AcDbEntity
  8
DEFAULT
  6
CONTINUOUS
 62
     7
100
AcDbVertex
100
AcDb2dVertex
 10
168.6888707492
 20
242.0858393388
 30
0.0
  0
VERTEX
  5
20E
330
1BE
100
AcDbEntity
  8
DEFAULT
  6
CONTINUOUS
 62
     7
100
AcDbVertex
100
AcDb2dVertex
 10
165.6888707231
 20
241.5858393344
 30
0.0
  0
VERTEX
  5
20F
330
1BE
100
AcDbEntity
  8
DEFAULT
  6
CONTINUOUS
 62
     7
100
AcDbVertex
100
AcDb2dVertex
 10
165.6888707231
 20
242.5858393431
 30
0.0
  0
SEQEND
  5
20B
330
1BE
100
AcDbEntity
  8
DEFAULT
  6
CONTINUOUS
 62
     7
 48
25.4
  0
LINE
  5
1BF
330
1BB
100
AcDbEntity
  8
DEFAULT
  6
CONTINUOUS
 62
     7
 48
25.4
100
AcDbLine
 10
142.6888707492
 20
216.3363291847
 30
0.0
 11
142.6888707492
 21
243.5858393518
 31
0.0
  0
LINE
  5
1C0
330
1BB
100
AcDbEntity
  8
DEFAULT
  6
CONTINUOUS
 62
     7
 48
25.4
100
AcDbLine
 10
168.6888707492
 20
216.3363291847
 30
0.0
 11
168.6888707492
 21
243.5858393518
 31
0.0
  0
LINE
  5
1C1
330
1BB
100
AcDbEntity
  8
DEFAULT
  6
CONTINUOUS
 62
     7
 48
25.4
100
AcDbLine
 10
142.6888707492
 20
242.0858393388
 30
0.0
 11
168.6888712856
 21
242.0858393388
 31
0.0
  0
TEXT
  5
1C2
330
1BB
100
AcDbEntity
  8
DEFAULT
  6
CONTINUOUS
 62
     7
 48
25.4
100
AcDbText
 10
153.8479619265
 20
242.8358393388
 30
0.0
 40
3.0
  1
26
  7
SEACAD_SEISO_TTF
 11
153.8479619265
 21
245.8358393388
 31
0.0
100
AcDbText
 73
     3
  0
ENDBLK
  5
1C4
330
1BB
100
AcDbEntity
  8
0
100
AcDbBlockEnd
  0
ENDSEC
  0
SECTION
  2
ENTITIES
  0
INSERT
  5
2F
330
1F
100
AcDbEntity
  8
0
100
AcDbBlockReference
  2
SE
 10
0.0
 20
0.0
 30
0.0
  0
INSERT
  5
36
330
1F
100
AcDbEntity
  8
0
100
AcDbBlockReference
  2
SE1
 10
0.0
 20
0.0
 30
0.0
  0
INSERT
  5
3B
330
1F
100
AcDbEntity
  8
0
100
AcDbBlockReference
  2
SE2
 10
0.0
 20
0.0
 30
0.0
  0
INSERT
  5
40
330
1F
100
AcDbEntity
  8
0
100
AcDbBlockReference
  2
SE3
 10
0.0
 20
0.0
 30
0.0
  0
INSERT
  5
4A
330
1F
100
AcDbEntity
  8
0
100
AcDbBlockReference
  2
SE4
 10
0.0
 20
0.0
 30
0.0
  0
INSERT
  5
54
330
1F
100
AcDbEntity
  8
0
100
AcDbBlockReference
  2
SE5
 10
0.0
 20
0.0
 30
0.0
  0
INSERT
  5
5E
330
1F
100
AcDbEntity
  8
0
100
AcDbBlockReference
  2
SE6
 10
0.0
 20
0.0
 30
0.0
  0
INSERT
  5
63
330
1F
100
AcDbEntity
  8
0
100
AcDbBlockReference
  2
SE7
 10
0.0
 20
0.0
 30
0.0
  0
INSERT
  5
68
330
1F
100
AcDbEntity
  8
0
100
AcDbBlockReference
  2
SE8
 10
0.0
 20
0.0
 30
0.0
  0
INSERT
  5
6D
330
1F
100
AcDbEntity
  8
0
100
AcDbBlockReference
  2
SE9
 10
0.0
 20
0.0
 30
0.0
  0
INSERT
  5
72
330
1F
100
AcDbEntity
  8
0
100
AcDbBlockReference
  2
SE10
 10
0.0
 20
0.0
 30
0.0
  0
INSERT
  5
D5
330
1F
100
AcDbEntity
  8
0
100
AcDbBlockReference
  2
SE11
 10
0.0
 20
0.0
 30
0.0
  0
INSERT
  5
135
330
1F
100
AcDbEntity
  8
0
100
AcDbBlockReference
  2
SE12
 10
0.0
 20
0.0
 30
0.0
  0
INSERT
  5
173
330
1F
100
AcDbEntity
  8
0
100
AcDbBlockReference
  2
SE13
 10
0.0
 20
0.0
 30
0.0
  0
INSERT
  5
17D
330
1F
100
AcDbEntity
  8
0
100
AcDbBlockReference
  2
SE14
 10
0.0
 20
0.0
 30
0.0
  0
INSERT
  5
189
330
1F
100
AcDbEntity
  8
0
100
AcDbBlockReference
  2
SE15
 10
0.0
 20
0.0
 30
0.0
  0
INSERT
  5
194
330
1F
100
AcDbEntity
  8
0
100
AcDbBlockReference
  2
SE16
 10
0.0
 20
0.0
 30
0.0
  0
INSERT
  5
19E
330
1F
100
AcDbEntity
  8
0
100
AcDbBlockReference
  2
SE17
 10
0.0
 20
0.0
 30
0.0
  0
INSERT
  5
1A8
330
1F
100
AcDbEntity
  8
0
100
AcDbBlockReference
  2
SE18
 10
0.0
 20
0.0
 30
0.0
  0
INSERT
  5
1B2
330
1F
100
AcDbEntity
  8
0
100
AcDbBlockReference
  2
SE19
 10
0.0
 20
0.0
 30
0.0
  0
INSERT
  5
1BC
330
1F
100
AcDbEntity
  8
0
100
AcDbBlockReference
  2
SE20
 10
0.0
 20
0.0
 30
0.0
  0
ENDSEC
  0
SECTION
  2
OBJECTS
  0
DICTIONARY
  5
C
330
0
100
AcDbDictionary
  3
ACAD_GROUP
350
D
  3
ACAD_LAYOUT
350
1A
  3
ACAD_MLINESTYLE
350
17
  3
ACAD_PLOTSETTINGS
350
19
  3
ACAD_TABLESTYLE
350
2A
  3
ACDBVARIABLEDICTIONARY
350
2C
1001
ACAD
1000
TREAT_AS_HARD
1070
     0
  0
DICTIONARY
  5
210
330
29
100
AcDbDictionary
  3
ACAD_XREC_ROUNDTRIP
360
211
  0
DICTIONARY
  5
D
102
{ACAD_REACTORS
330
C
102
}
330
C
100
AcDbDictionary
1001
ACAD
1000
TREAT_AS_HARD
1070
     0
  0
DICTIONARY
  5
1A
102
{ACAD_REACTORS
330
C
102
}
330
C
100
AcDbDictionary
1001
ACAD
1000
TREAT_AS_HARD
1070
     0
  0
DICTIONARY
  5
17
102
{ACAD_REACTORS
330
C
102
}
330
C
100
AcDbDictionary
  3
STANDARD
350
18
1001
ACAD
1000
TREAT_AS_HARD
1070
     0
  0
DICTIONARY
  5
19
102
{ACAD_REACTORS
330
C
102
}
330
C
100
AcDbDictionary
1001
ACAD
1000
TREAT_AS_HARD
1070
     0
  0
DICTIONARY
  5
2A
102
{ACAD_REACTORS
330
C
102
}
330
C
100
AcDbDictionary
  3
STANDARD
350
2B
1001
ACAD
1000
TREAT_AS_HARD
1070
     0
  0
DICTIONARY
  5
2C
102
{ACAD_REACTORS
330
C
102
}
330
C
100
AcDbDictionary
  3
CTABLESTYLE
350
2D
1001
ACAD
1000
TREAT_AS_HARD
1070
     0
  0
XRECORD
  5
211
102
{ACAD_REACTORS
330
210
102
}
330
210
100
AcDbXrecord
102
UCS
 74
     0
 71
     1
 10
0.0
 20
0.0
 30
0.0
 10
1.0
 20
0.0
 30
0.0
 10
0.0
 20
1.0
 30
0.0
146
0.0
 79
     0
102
VIEW
281
     0
  0
MLINESTYLE
  5
18
102
{ACAD_REACTORS
330
17
102
}
330
17
100
AcDbMlineStyle
  2
Standard
 70
     0
  3

 62
   256
 51
90.0
 52
90.0
 71
     2
 49
0.5
 62
   256
  6
BYLAYER
 49
-0.5
 62
   256
  6
BYLAYER
  0
TABLESTYLE
  5
2B
102
{ACAD_REACTORS
330
2A
102
}
330
2A
100
AcDbTableStyle
  3
Standard
 70
     0
 71
     0
 40
0.06
 41
0.06
280
     0
281
     0
  7
STANDARD
140
0.18
170
     2
 62
     0
 63
     7
283
     0
274
    -2
284
     1
 64
     0
275
    -2
285
     1
 65
     0
276
    -2
286
     1
 66
     0
277
    -2
287
     1
 67
     0
278
    -2
288
     1
 68
     0
279
    -2
289
     1
 69
     0
  7
STANDARD
140
0.25
170
     5
 62
     0
 63
     7
283
     0
274
    -2
284
     1
 64
     0
275
    -2
285
     1
 65
     0
276
    -2
286
     1
 66
     0
277
    -2
287
     1
 67
     0
278
    -2
288
     1
 68
     0
279
    -2
289
     1
 69
     0
  7
STANDARD
140
0.18
170
     5
 62
     0
 63
     7
283
     0
274
    -2
284
     1
 64
     0
275
    -2
285
     1
 65
     0
276
    -2
286
     1
 66
     0
277
    -2
287
     1
 67
     0
278
    -2
288
     1
 68
     0
279
    -2
289
     1
 69
     0
  0
DICTIONARYVAR
  5
2D
102
{ACAD_REACTORS
330
2C
102
}
330
2C
100
DictionaryVariables
280
     0
  1
Standard
  0
ENDSEC
  0
EOF
