  0
SECTION
  2
HEADER
  9
$ACADVER
  1
AC1012
  9
$DWGCODEPAGE
  3
ansi_1252
  9
$INSBASE
 10
0.0
 20
0.0
 30
0.0
  9
$EXTMIN
 10
0.0
 20
0.0
 30
0.0
  9
$EXTMAX
 10
210.0
 20
297.0
 30
0.0
  9
$LIMMIN
 10
0.0
 20
0.0
  9
$LIMMAX
 10
210.0
 20
297.0
  9
$ORTHOMODE
 70
     0
  9
$REGENMODE
 70
     1
  9
$FILLMODE
 70
     1
  9
$QTEXTMODE
 70
     0
  9
$MIRRTEXT
 70
     1
  9
$DRAGMODE
 70
     2
  9
$LTSCALE
 40
1.0
  9
$OSMODE
 70
    37
  9
$ATTMODE
 70
     1
  9
$TEXTSIZE
 40
0.2
  9
$TRACEWID
 40
0.05
  9
$TEXTSTYLE
  7
STANDARD
  9
$CLAYER
  8
0
  9
$CELTYPE
  6
BYLAYER
  9
$CECOLOR
 62
   256
  9
$CELTSCALE
 40
25.4
  9
$DELOBJ
 70
     1
  9
$DISPSILH
 70
     0
  9
$DIMSCALE
 40
1.0
  9
$DIMASZ
 40
0.18
  9
$DIMEXO
 40
0.0625
  9
$DIMDLI
 40
0.38
  9
$DIMRND
 40
0.0
  9
$DIMDLE
 40
0.0
  9
$DIMEXE
 40
0.18
  9
$DIMTP
 40
0.0
  9
$DIMTM
 40
0.0
  9
$DIMTXT
 40
0.18
  9
$DIMCEN
 40
0.09
  9
$DIMTSZ
 40
0.0
  9
$DIMTOL
 70
     0
  9
$DIMLIM
 70
     0
  9
$DIMTIH
 70
     1
  9
$DIMTOH
 70
     1
  9
$DIMSE1
 70
     0
  9
$DIMSE2
 70
     0
  9
$DIMTAD
 70
     0
  9
$DIMZIN
 70
     0
  9
$DIMBLK
  1

  9
$DIMASO
 70
     1
  9
$DIMSHO
 70
     1
  9
$DIMPOST
  1

  9
$DIMAPOST
  1

  9
$DIMALT
 70
     0
  9
$DIMALTD
 70
     2
  9
$DIMALTF
 40
25.4
  9
$DIMLFAC
 40
1.0
  9
$DIMTOFL
 70
     0
  9
$DIMTVP
 40
0.0
  9
$DIMTIX
 70
     0
  9
$DIMSOXD
 70
     0
  9
$DIMSAH
 70
     0
  9
$DIMBLK1
  1

  9
$DIMBLK2
  1

  9
$DIMSTYLE
  2
STANDARD
  9
$DIMCLRD
 70
     0
  9
$DIMCLRE
 70
     0
  9
$DIMCLRT
 70
     0
  9
$DIMTFAC
 40
1.0
  9
$DIMGAP
 40
0.09
  9
$DIMJUST
 70
     0
  9
$DIMSD1
 70
     0
  9
$DIMSD2
 70
     0
  9
$DIMTOLJ
 70
     1
  9
$DIMTZIN
 70
     0
  9
$DIMALTZ
 70
     0
  9
$DIMALTTZ
 70
     0
  9
$DIMFIT
 70
     3
  9
$DIMUPT
 70
     0
  9
$DIMUNIT
 70
     2
  9
$DIMDEC
 70
     4
  9
$DIMTDEC
 70
     4
  9
$DIMALTU
 70
     2
  9
$DIMALTTD
 70
     2
  9
$DIMTXSTY
  7
STANDARD
  9
$DIMAUNIT
 70
     0
  9
$LUNITS
 70
     2
  9
$LUPREC
 70
     4
  9
$SKETCHINC
 40
0.1
  9
$FILLETRAD
 40
0.5
  9
$AUNITS
 70
     0
  9
$AUPREC
 70
     0
  9
$MENU
  1
.
  9
$ELEVATION
 40
0.0
  9
$PELEVATION
 40
0.0
  9
$THICKNESS
 40
0.0
  9
$LIMCHECK
 70
     0
  9
$CHAMFERA
 40
0.5
  9
$CHAMFERB
 40
0.5
  9
$CHAMFERC
 40
1.0
  9
$CHAMFERD
 40
0.0
  9
$SKPOLY
 70
     0
  9
$TDCREATE
 40
2453762.545480972
  9
$TDUPDATE
 40
2453762.545480984
  9
$TDINDWG
 40
0.0000000116
  9
$TDUSRTIMER
 40
0.0000000116
  9
$USRTIMER
 70
     1
  9
$ANGBASE
 50
0.0
  9
$ANGDIR
 70
     0
  9
$PDMODE
 70
     0
  9
$PDSIZE
 40
0.0
  9
$PLINEWID
 40
0.0
  9
$COORDS
 70
     1
  9
$SPLFRAME
 70
     0
  9
$SPLINETYPE
 70
     6
  9
$SPLINESEGS
 70
     8
  9
$ATTDIA
 70
     0
  9
$ATTREQ
 70
     1
  9
$HANDLING
 70
     1
  9
$HANDSEED
  5
1D0
  9
$SURFTAB1
 70
     6
  9
$SURFTAB2
 70
     6
  9
$SURFTYPE
 70
     6
  9
$SURFU
 70
     6
  9
$SURFV
 70
     6
  9
$UCSNAME
  2

  9
$UCSORG
 10
0.0
 20
0.0
 30
0.0
  9
$UCSXDIR
 10
1.0
 20
0.0
 30
0.0
  9
$UCSYDIR
 10
0.0
 20
1.0
 30
0.0
  9
$PUCSNAME
  2

  9
$PUCSORG
 10
0.0
 20
0.0
 30
0.0
  9
$PUCSXDIR
 10
1.0
 20
0.0
 30
0.0
  9
$PUCSYDIR
 10
0.0
 20
1.0
 30
0.0
  9
$USERI1
 70
     0
  9
$USERI2
 70
     0
  9
$USERI3
 70
     0
  9
$USERI4
 70
     0
  9
$USERI5
 70
     0
  9
$USERR1
 40
0.0
  9
$USERR2
 40
0.0
  9
$USERR3
 40
0.0
  9
$USERR4
 40
0.0
  9
$USERR5
 40
0.0
  9
$WORLDVIEW
 70
     1
  9
$SHADEDGE
 70
     3
  9
$SHADEDIF
 70
    70
  9
$TILEMODE
 70
     1
  9
$MAXACTVP
 70
    64
  9
$PINSBASE
 10
0.0
 20
0.0
 30
0.0
  9
$PLIMCHECK
 70
     0
  9
$PEXTMIN
 10
0.0
 20
0.0
 30
0.0
  9
$PEXTMAX
 10
210.0
 20
297.0
 30
0.0
  9
$PLIMMIN
 10
0.0
 20
0.0
  9
$PLIMMAX
 10
12.0
 20
9.0
  9
$UNITMODE
 70
     0
  9
$VISRETAIN
 70
     1
  9
$PLINEGEN
 70
     0
  9
$PSLTSCALE
 70
     1
  9
$TREEDEPTH
 70
  3020
  9
$PICKSTYLE
 70
     1
  9
$CMLSTYLE
  2
STANDARD
  9
$CMLJUST
 70
     0
  9
$CMLSCALE
 40
1.0
  9
$SAVEIMAGES
 70
     1
  0
ENDSEC
  0
SECTION
  2
CLASSES
  0
CLASS
  1
ACDBDICTIONARYWDFLT
  2
AcDbDictionaryWithDefault
  3
ObjectDBX Classes
 90
        0
280
     0
281
     0
  0
CLASS
  1
TABLESTYLE
  2
AcDbTableStyle
  3
ObjectDBX Classes
 90
     2047
280
     0
281
     0
  0
CLASS
  1
DICTIONARYVAR
  2
AcDbDictionaryVar
  3
ObjectDBX Classes
 90
        0
280
     0
281
     0
  0
CLASS
  1
XRECORD
  2
AcDbXrecord
  3
AutoCAD 2000
 90
    32768
280
     0
281
     0
  0
CLASS
  1
LWPOLYLINE
  2
AcDbPolyline
  3
AutoCAD 2000
 90
    32768
280
     0
281
     1
  0
CLASS
  1
HATCH
  2
AcDbHatch
  3
AutoCAD 2000
 90
    32768
280
     0
281
     1
  0
CLASS
  1
ACDBPLACEHOLDER
  2
AcDbPlaceHolder
  3
ObjectDBX Classes
 90
        0
280
     0
281
     0
  0
CLASS
  1
LAYOUT
  2
AcDbLayout
  3
ObjectDBX Classes
 90
        0
280
     0
281
     0
  0
ENDSEC
  0
SECTION
  2
TABLES
  0
TABLE
  2
VPORT
  5
8
330
0
100
AcDbSymbolTable
 70
     2
  0
VPORT
  5
29
102
{ACAD_XDICTIONARY
360
1CE
102
}
330
8
100
AcDbSymbolTableRecord
100
AcDbViewportTableRecord
  2
*ACTIVE
 70
     0
 10
0.0
 20
0.0
 11
1.0
 21
1.0
 12
10.4299065421
 22
4.5
 13
0.0
 23
0.0
 14
0.5
 24
0.5
 15
0.5
 25
0.5
 16
0.0
 26
0.0
 36
1.0
 17
0.0
 27
0.0
 37
0.0
 40
9.0
 41
1.9729729729
 42
50.0
 43
0.0
 44
0.0
 50
0.0
 51
0.0
 71
     0
 72
   100
 73
     1
 74
     3
 75
     0
 76
     0
 77
     0
 78
     0
  0
ENDTAB
  0
TABLE
  2
LTYPE
  5
5
330
0
100
AcDbSymbolTable
 70
     2
  0
LTYPE
  5
14
330
5
100
AcDbSymbolTableRecord
100
AcDbLinetypeTableRecord
  2
BYBLOCK
 70
     0
  3

 72
    65
 73
     0
 40
0.0
  0
LTYPE
  5
15
330
5
100
AcDbSymbolTableRecord
100
AcDbLinetypeTableRecord
  2
BYLAYER
 70
     0
  3

 72
    65
 73
     0
 40
0.0
  0
LTYPE
  5
16
330
5
100
AcDbSymbolTableRecord
100
AcDbLinetypeTableRecord
  2
CONTINUOUS
 70
     0
  3
Solid line
 72
    65
 73
     0
 40
0.0
  0
LTYPE
  5
31
330
5
100
AcDbSymbolTableRecord
100
AcDbLinetypeTableRecord
  2
CENTER2
 70
     0
  3
___ _ ___ _ ___ _ ___ _ ___ _ ___ _ ___ _ ___ _
 72
    65
 73
     4
 40
1.125
 49
0.75
 74
     4
 75
     0
340
0
 46
0.0
 50
0.0
 44
0.0
 45
0.0
 49
-0.125
 74
     4
 75
     0
340
0
 46
0.0
 50
0.0
 44
0.0
 45
0.0
 49
0.125
 74
     4
 75
     0
340
0
 46
0.0
 50
0.0
 44
0.0
 45
0.0
 49
-0.125
 74
     4
 75
     0
340
0
 46
0.0
 50
0.0
 44
0.0
 45
0.0
  0
ENDTAB
  0
TABLE
  2
LAYER
  5
2
330
0
100
AcDbSymbolTable
 70
     5
  0
LAYER
  5
10
330
2
100
AcDbSymbolTableRecord
100
AcDbLayerTableRecord
  2
0
 70
     0
 62
     7
  6
CONTINUOUS
  0
LAYER
  5
30
330
2
100
AcDbSymbolTableRecord
100
AcDbLayerTableRecord
  2
DEFAULT
 70
     0
 62
     7
  6
CONTINUOUS
  0
LAYER
  5
73
330
2
100
AcDbSymbolTableRecord
100
AcDbLayerTableRecord
  2
MEGA_002195
 70
     0
 62
     7
  6
CONTINUOUS
  0
LAYER
  5
90
330
2
100
AcDbSymbolTableRecord
100
AcDbLayerTableRecord
  2
MEGA_002304
 70
     0
 62
     7
  6
CONTINUOUS
  0
LAYER
  5
B6
330
2
100
AcDbSymbolTableRecord
100
AcDbLayerTableRecord
  2
MEGA_002634
 70
     0
 62
     7
  6
CONTINUOUS
  0
ENDTAB
  0
TABLE
  2
STYLE
  5
3
330
0
100
AcDbSymbolTable
 70
     3
  0
STYLE
  5
11
330
3
100
AcDbSymbolTableRecord
100
AcDbTextStyleTableRecord
  2
STANDARD
 70
     0
 40
0.0
 41
1.0
 50
0.0
 71
     0
 42
0.2
  3
txt
  4

  0
STYLE
  5
136
330
3
100
AcDbSymbolTableRecord
100
AcDbTextStyleTableRecord
  2
SEACAD_SEISO_TTF
 70
     0
 40
0.2
 41
1.0
 50
0.0
 71
     0
 42
0.2
  3
seiso.ttf
  4

  0
STYLE
  5
142
330
3
100
AcDbSymbolTableRecord
100
AcDbTextStyleTableRecord
  2
SEACAD_SEMECI1_TTF
 70
     0
 40
0.2
 41
1.0
 50
0.0
 71
     0
 42
0.2
  3
semeci1.ttf
  4

  0
ENDTAB
  0
TABLE
  2
VIEW
  5
6
330
0
100
AcDbSymbolTable
 70
     0
  0
ENDTAB
  0
TABLE
  2
UCS
  5
7
330
0
100
AcDbSymbolTable
 70
     0
  0
ENDTAB
  0
TABLE
  2
APPID
  5
9
330
0
100
AcDbSymbolTable
 70
     1
  0
APPID
  5
12
330
9
100
AcDbSymbolTableRecord
100
AcDbRegAppTableRecord
  2
ACAD
 70
     0
  0
ENDTAB
  0
TABLE
  2
DIMSTYLE
  5
A
330
0
100
AcDbSymbolTable
 70
     1
  0
DIMSTYLE
105
27
330
A
100
AcDbSymbolTableRecord
100
AcDbDimStyleTableRecord
  2
STANDARD
 70
     0
  3

  4

  5

  6

  7

 40
1.0
 41
0.18
 42
0.0625
 43
0.38
 44
0.18
 45
0.0
 46
0.0
 47
0.0
 48
0.0
140
0.18
141
0.09
142
0.0
143
25.4
144
1.0
145
0.0
146
1.0
147
0.09
 71
     0
 72
     0
 73
     1
 74
     1
 75
     0
 76
     0
 77
     0
 78
     0
170
     0
171
     2
172
     0
173
     0
174
     0
175
     0
176
     0
177
     0
178
     0
270
     2
271
     4
272
     4
273
     2
274
     2
340
11
275
     0
280
     0
281
     0
282
     0
283
     1
284
     0
285
     0
286
     0
287
     3
288
     0
  0
ENDTAB
  0
TABLE
  2
BLOCK_RECORD
  5
1
330
0
100
AcDbSymbolTable
 70
    22
  0
BLOCK_RECORD
  5
1F
330
1
100
AcDbSymbolTableRecord
100
AcDbBlockTableRecord
  2
*MODEL_SPACE
  0
BLOCK_RECORD
  5
1B
330
1
100
AcDbSymbolTableRecord
100
AcDbBlockTableRecord
  2
*PAPER_SPACE
  0
BLOCK_RECORD
  5
2E
330
1
100
AcDbSymbolTableRecord
100
AcDbBlockTableRecord
  2
SE
  0
BLOCK_RECORD
  5
3A
330
1
100
AcDbSymbolTableRecord
100
AcDbBlockTableRecord
  2
SE1
  0
BLOCK_RECORD
  5
3F
330
1
100
AcDbSymbolTableRecord
100
AcDbBlockTableRecord
  2
SE2
  0
BLOCK_RECORD
  5
44
330
1
100
AcDbSymbolTableRecord
100
AcDbBlockTableRecord
  2
SE3
  0
BLOCK_RECORD
  5
49
330
1
100
AcDbSymbolTableRecord
100
AcDbBlockTableRecord
  2
SE4
  0
BLOCK_RECORD
  5
4E
330
1
100
AcDbSymbolTableRecord
100
AcDbBlockTableRecord
  2
SE5
  0
BLOCK_RECORD
  5
53
330
1
100
AcDbSymbolTableRecord
100
AcDbBlockTableRecord
  2
SE6
  0
BLOCK_RECORD
  5
58
330
1
100
AcDbSymbolTableRecord
100
AcDbBlockTableRecord
  2
SE7
  0
BLOCK_RECORD
  5
5D
330
1
100
AcDbSymbolTableRecord
100
AcDbBlockTableRecord
  2
SE8
  0
BLOCK_RECORD
  5
67
330
1
100
AcDbSymbolTableRecord
100
AcDbBlockTableRecord
  2
SE9
  0
BLOCK_RECORD
  5
71
330
1
100
AcDbSymbolTableRecord
100
AcDbBlockTableRecord
  2
SE10
  0
BLOCK_RECORD
  5
C1
330
1
100
AcDbSymbolTableRecord
100
AcDbBlockTableRecord
  2
SE11
  0
BLOCK_RECORD
  5
10C
330
1
100
AcDbSymbolTableRecord
100
AcDbBlockTableRecord
  2
SE12
  0
BLOCK_RECORD
  5
130
330
1
100
AcDbSymbolTableRecord
100
AcDbBlockTableRecord
  2
SE13
  0
BLOCK_RECORD
  5
13A
330
1
100
AcDbSymbolTableRecord
100
AcDbBlockTableRecord
  2
SE14
  0
BLOCK_RECORD
  5
146
330
1
100
AcDbSymbolTableRecord
100
AcDbBlockTableRecord
  2
SE15
  0
BLOCK_RECORD
  5
151
330
1
100
AcDbSymbolTableRecord
100
AcDbBlockTableRecord
  2
SE16
  0
BLOCK_RECORD
  5
15B
330
1
100
AcDbSymbolTableRecord
100
AcDbBlockTableRecord
  2
SE17
  0
BLOCK_RECORD
  5
165
330
1
100
AcDbSymbolTableRecord
100
AcDbBlockTableRecord
  2
SE18
  0
BLOCK_RECORD
  5
16F
330
1
100
AcDbSymbolTableRecord
100
AcDbBlockTableRecord
  2
SE19
  0
BLOCK_RECORD
  5
179
330
1
100
AcDbSymbolTableRecord
100
AcDbBlockTableRecord
  2
SE20
  0
ENDTAB
  0
ENDSEC
  0
SECTION
  2
BLOCKS
  0
BLOCK
  5
20
330
1F
100
AcDbEntity
  8
0
100
AcDbBlockBegin
  2
*MODEL_SPACE
 70
     0
 71
     0
 10
0.0
 20
0.0
 30
0.0
  3
*MODEL_SPACE
  1

  0
ENDBLK
  5
21
330
1F
100
AcDbEntity
  8
0
100
AcDbBlockEnd
  0
BLOCK
  5
1C
330
1B
100
AcDbEntity
 67
     1
  8
0
100
AcDbBlockBegin
  2
*PAPER_SPACE
 70
     0
 71
     0
 10
0.0
 20
0.0
 30
0.0
  3
*PAPER_SPACE
  1

  0
ENDBLK
  5
1D
330
1B
100
AcDbEntity
 67
     1
  8
0
100
AcDbBlockEnd
  0
BLOCK
  5
38
330
2E
100
AcDbEntity
  8
0
100
AcDbBlockBegin
  2
SE
 70
     0
 71
     0
 10
0.0
 20
0.0
 30
0.0
  3
SE
  1

  0
LINE
  5
32
330
2E
100
AcDbEntity
  8
DEFAULT
  6
CENTER2
 62
     7
 48
25.4
100
AcDbLine
 10
58.7000958958
 20
70.5861037867
 30
0.0
 11
58.7000958958
 21
58.5861036824
 31
0.0
  0
LINE
  5
33
330
2E
100
AcDbEntity
  8
DEFAULT
  6
CENTER2
 62
     7
 48
25.4
100
AcDbLine
 10
52.7000958437
 20
64.5861037346
 30
0.0
 11
64.700095948
 21
64.5861037346
 31
0.0
  0
LINE
  5
34
330
2E
100
AcDbEntity
  8
DEFAULT
  6
CENTER2
 62
     7
 48
25.4
100
AcDbLine
 10
58.7000958958
 20
72.0861037346
 30
0.0
 11
58.7000958958
 21
73.8361037346
 31
0.0
  0
LINE
  5
35
330
2E
100
AcDbEntity
  8
DEFAULT
  6
CENTER2
 62
     7
 48
25.4
100
AcDbLine
 10
51.2000958958
 20
64.5861037346
 30
0.0
 11
49.4500958958
 21
64.5861037346
 31
0.0
  0
LINE
  5
36
330
2E
100
AcDbEntity
  8
DEFAULT
  6
CENTER2
 62
     7
 48
25.4
100
AcDbLine
 10
58.7000958958
 20
57.0861037346
 30
0.0
 11
58.7000958958
 21
55.3361037346
 31
0.0
  0
LINE
  5
37
330
2E
100
AcDbEntity
  8
DEFAULT
  6
CENTER2
 62
     7
 48
25.4
100
AcDbLine
 10
66.2000958958
 20
64.5861037346
 30
0.0
 11
67.9500958958
 21
64.5861037346
 31
0.0
  0
ENDBLK
  5
39
330
2E
100
AcDbEntity
  8
0
100
AcDbBlockEnd
  0
BLOCK
  5
3D
330
3A
100
AcDbEntity
  8
0
100
AcDbBlockBegin
  2
SE1
 70
     0
 71
     0
 10
0.0
 20
0.0
 30
0.0
  3
SE1
  1

  0
LINE
  5
3C
330
3A
100
AcDbEntity
  8
DEFAULT
  6
CENTER2
 62
     7
 48
25.4
100
AcDbLine
 10
95.8372568929
 20
200.8821508566
 30
0.0
 11
21.374431506
 21
200.8821508566
 31
0.0
  0
ENDBLK
  5
3E
330
3A
100
AcDbEntity
  8
0
100
AcDbBlockEnd
  0
BLOCK
  5
42
330
3F
100
AcDbEntity
  8
0
100
AcDbBlockBegin
  2
SE2
 70
     0
 71
     0
 10
0.0
 20
0.0
 30
0.0
  3
SE2
  1

  0
LINE
  5
41
330
3F
100
AcDbEntity
  8
DEFAULT
  6
CENTER2
 62
     7
 48
25.4
100
AcDbLine
 10
191.3238266511
 20
64.5861037346
 30
0.0
 11
103.5169780044
 21
64.5861037346
 31
0.0
  0
ENDBLK
  5
43
330
3F
100
AcDbEntity
  8
0
100
AcDbBlockEnd
  0
BLOCK
  5
47
330
44
100
AcDbEntity
  8
0
100
AcDbBlockBegin
  2
SE3
 70
     0
 71
     0
 10
0.0
 20
0.0
 30
0.0
  3
SE3
  1

  0
LINE
  5
46
330
44
100
AcDbEntity
  8
DEFAULT
  6
CENTER2
 62
     7
 48
25.4
100
AcDbLine
 10
148.4961430179
 20
63.2807560414
 30
0.0
 11
148.4961430179
 21
153.0198764202
 31
0.0
  0
ENDBLK
  5
48
330
44
100
AcDbEntity
  8
0
100
AcDbBlockEnd
  0
BLOCK
  5
4C
330
49
100
AcDbEntity
  8
0
100
AcDbBlockBegin
  2
SE4
 70
     0
 71
     0
 10
0.0
 20
0.0
 30
0.0
  3
SE4
  1

  0
LINE
  5
4B
330
49
100
AcDbEntity
  8
DEFAULT
  6
CENTER2
 62
     7
 48
25.4
100
AcDbLine
 10
37.2000958958
 20
117.5423695769
 30
0.0
 11
37.2000958958
 21
105.3973292841
 31
0.0
  0
ENDBLK
  5
4D
330
49
100
AcDbEntity
  8
0
100
AcDbBlockEnd
  0
BLOCK
  5
51
330
4E
100
AcDbEntity
  8
0
100
AcDbBlockBegin
  2
SE5
 70
     0
 71
     0
 10
0.0
 20
0.0
 30
0.0
  3
SE5
  1

  0
LINE
  5
50
330
4E
100
AcDbEntity
  8
DEFAULT
  6
CENTER2
 62
     7
 48
25.4
100
AcDbLine
 10
80.2000958958
 20
117.4578662052
 30
0.0
 11
80.2000958958
 21
105.661025067
 31
0.0
  0
ENDBLK
  5
52
330
4E
100
AcDbEntity
  8
0
100
AcDbBlockEnd
  0
BLOCK
  5
56
330
53
100
AcDbEntity
  8
0
100
AcDbBlockBegin
  2
SE6
 70
     0
 71
     0
 10
0.0
 20
0.0
 30
0.0
  3
SE6
  1

  0
LINE
  5
55
330
53
100
AcDbEntity
  8
DEFAULT
  6
CENTER2
 62
     7
 48
25.4
100
AcDbLine
 10
58.7000958958
 20
245.0933558776
 30
0.0
 11
58.7000958958
 21
157.6655415995
 31
0.0
  0
ENDBLK
  5
57
330
53
100
AcDbEntity
  8
0
100
AcDbBlockEnd
  0
BLOCK
  5
5B
330
58
100
AcDbEntity
  8
0
100
AcDbBlockBegin
  2
SE7
 70
     0
 71
     0
 10
0.0
 20
0.0
 30
0.0
  3
SE7
  1

  0
LINE
  5
5A
330
58
100
AcDbEntity
  8
DEFAULT
  6
CENTER2
 62
     7
 48
25.4
100
AcDbLine
 10
58.7000958958
 20
153.5719315665
 30
0.0
 11
58.7000958958
 21
70.4639710181
 31
0.0
  0
ENDBLK
  5
5C
330
58
100
AcDbEntity
  8
0
100
AcDbBlockEnd
  0
BLOCK
  5
65
330
5D
100
AcDbEntity
  8
0
100
AcDbBlockBegin
  2
SE8
 70
     0
 71
     0
 10
0.0
 20
0.0
 30
0.0
  3
SE8
  1

  0
LINE
  5
5F
330
5D
100
AcDbEntity
  8
DEFAULT
  6
CENTER2
 62
     7
 48
25.4
100
AcDbLine
 10
37.2000958958
 20
206.8821509088
 30
0.0
 11
37.2000958958
 21
194.8821508045
 31
0.0
  0
LINE
  5
60
330
5D
100
AcDbEntity
  8
DEFAULT
  6
CENTER2
 62
     7
 48
25.4
100
AcDbLine
 10
31.2000958437
 20
200.8821508566
 30
0.0
 11
43.200095948
 21
200.8821508566
 31
0.0
  0
LINE
  5
61
330
5D
100
AcDbEntity
  8
DEFAULT
  6
CENTER2
 62
     7
 48
25.4
100
AcDbLine
 10
37.2000958958
 20
208.3821508566
 30
0.0
 11
37.2000958958
 21
207.1821508566
 31
0.0
  0
LINE
  5
62
330
5D
100
AcDbEntity
  8
DEFAULT
  6
CENTER2
 62
     7
 48
25.4
100
AcDbLine
 10
29.7000958958
 20
200.8821508566
 30
0.0
 11
30.9000958958
 21
200.8821508566
 31
0.0
  0
LINE
  5
63
330
5D
100
AcDbEntity
  8
DEFAULT
  6
CENTER2
 62
     7
 48
25.4
100
AcDbLine
 10
37.2000958958
 20
193.3821508566
 30
0.0
 11
37.2000958958
 21
194.5821508566
 31
0.0
  0
LINE
  5
64
330
5D
100
AcDbEntity
  8
DEFAULT
  6
CENTER2
 62
     7
 48
25.4
100
AcDbLine
 10
44.7000958958
 20
200.8821508566
 30
0.0
 11
43.5000958958
 21
200.8821508566
 31
0.0
  0
ENDBLK
  5
66
330
5D
100
AcDbEntity
  8
0
100
AcDbBlockEnd
  0
BLOCK
  5
6F
330
67
100
AcDbEntity
  8
0
100
AcDbBlockBegin
  2
SE9
 70
     0
 71
     0
 10
0.0
 20
0.0
 30
0.0
  3
SE9
  1

  0
LINE
  5
69
330
67
100
AcDbEntity
  8
DEFAULT
  6
CENTER2
 62
     7
 48
25.4
100
AcDbLine
 10
80.2000958958
 20
206.8821509088
 30
0.0
 11
80.2000958958
 21
194.8821508045
 31
0.0
  0
LINE
  5
6A
330
67
100
AcDbEntity
  8
DEFAULT
  6
CENTER2
 62
     7
 48
25.4
100
AcDbLine
 10
74.2000958437
 20
200.8821508566
 30
0.0
 11
86.200095948
 21
200.8821508566
 31
0.0
  0
LINE
  5
6B
330
67
100
AcDbEntity
  8
DEFAULT
  6
CENTER2
 62
     7
 48
25.4
100
AcDbLine
 10
80.2000958958
 20
208.3821508566
 30
0.0
 11
80.2000958958
 21
207.1821508566
 31
0.0
  0
LINE
  5
6C
330
67
100
AcDbEntity
  8
DEFAULT
  6
CENTER2
 62
     7
 48
25.4
100
AcDbLine
 10
72.7000958958
 20
200.8821508566
 30
0.0
 11
73.9000958958
 21
200.8821508566
 31
0.0
  0
LINE
  5
6D
330
67
100
AcDbEntity
  8
DEFAULT
  6
CENTER2
 62
     7
 48
25.4
100
AcDbLine
 10
80.2000958958
 20
193.3821508566
 30
0.0
 11
80.2000958958
 21
194.5821508566
 31
0.0
  0
LINE
  5
6E
330
67
100
AcDbEntity
  8
DEFAULT
  6
CENTER2
 62
     7
 48
25.4
100
AcDbLine
 10
87.7000958958
 20
200.8821508566
 30
0.0
 11
86.5000958958
 21
200.8821508566
 31
0.0
  0
ENDBLK
  5
70
330
67
100
AcDbEntity
  8
0
100
AcDbBlockEnd
  0
BLOCK
  5
BF
330
71
100
AcDbEntity
  8
0
100
AcDbBlockBegin
  2
SE10
 70
     0
 71
     0
 10
0.0
 20
0.0
 30
0.0
  3
SE10
  1

  0
CIRCLE
  5
74
330
71
100
AcDbEntity
  8
MEGA_002195
  6
CONTINUOUS
 62
     7
 48
25.4
100
AcDbCircle
 10
58.7000958958
 20
64.5861037346
 30
0.0
 40
7.5
  0
LINE
  5
75
330
71
100
AcDbEntity
  8
MEGA_002195
  6
CONTINUOUS
 62
     7
 48
25.4
100
AcDbLine
 10
48.7000958958
 20
107.0861037346
 30
0.0
 11
51.6891358429
 21
72.2139710181
 31
0.0
  0
LINE
  5
76
330
71
100
AcDbEntity
  8
MEGA_002195
  6
CONTINUOUS
 62
     7
 48
25.4
100
AcDbLine
 10
65.7110559487
 20
72.2139710181
 30
0.0
 11
68.7000958958
 21
107.0861037346
 31
0.0
  0
ARC
  5
77
330
71
100
AcDbEntity
  8
MEGA_002195
  6
CONTINUOUS
 62
     7
 48
25.4
100
AcDbCircle
 10
48.814696384
 20
67.7632818711
 30
0.0
 40
2.883151902500003
100
AcDbArc
 50
343.4487599315
 51
0.5935957246
  0
LINE
  5
78
330
71
100
AcDbEntity
  8
MEGA_002195
  6
CONTINUOUS
 62
     7
 48
25.4
100
AcDbLine
 10
66.1000958958
 20
114.3861037346
 30
0.0
 11
65.9000958958
 21
114.5861037346
 31
0.0
  0
ARC
  5
79
330
71
100
AcDbEntity
  8
MEGA_002195
  6
CONTINUOUS
 62
     7
 48
25.4
100
AcDbCircle
 10
68.7000958958
 20
71.9577675941
 30
0.0
 40
3.0
100
AcDbArc
 50
175.1009075462
 51
180.0
  0
ARC
  5
7A
330
71
100
AcDbEntity
  8
MEGA_002195
  6
CONTINUOUS
 62
     7
 48
25.4
100
AcDbCircle
 10
68.5503481702
 20
67.758530827
 30
0.0
 40
2.847971470800019
100
AcDbArc
 50
179.3011321597
 51
196.6603052772
  0
LINE
  5
7B
330
71
100
AcDbEntity
  8
MEGA_002195
  6
CONTINUOUS
 62
     7
 48
25.4
100
AcDbLine
 10
51.7000958958
 20
71.9577675941
 30
0.0
 11
51.7000958958
 21
67.7931660242
 31
0.0
  0
ARC
  5
7C
330
71
100
AcDbEntity
  8
MEGA_002195
  6
CONTINUOUS
 62
     7
 48
25.4
100
AcDbCircle
 10
48.7000958958
 20
71.9577675941
 30
0.0
 40
3.0
100
AcDbArc
 50
0.0
 51
4.8990924538
  0
LINE
  5
7D
330
71
100
AcDbEntity
  8
MEGA_002195
  6
CONTINUOUS
 62
     7
 48
25.4
100
AcDbLine
 10
65.7000958958
 20
67.7931660242
 30
0.0
 11
65.7000958958
 21
71.9577675941
 31
0.0
  0
LINE
  5
7E
330
71
100
AcDbEntity
  8
MEGA_002195
  6
CONTINUOUS
 62
     7
 48
25.4
100
AcDbLine
 10
51.3000958958
 20
114.3861037346
 30
0.0
 11
51.3000958958
 21
114.0861037346
 31
0.0
  0
ELLIPSE
  5
7F
330
71
100
AcDbEntity
  8
MEGA_002195
  6
CONTINUOUS
 62
     7
 48
25.4
100
AcDbEllipse
 10
66.17729938
 20
71.9577675941
 30
0.0
 11
2.247836909530765E-13
 21
3.000000000049623
 31
0.0
210
0.0
220
0.0
230
1.0
 40
0.7477203484
 41
1.485291033120784
 42
1.570796326788719
  0
LINE
  5
80
330
71
100
AcDbEntity
  8
MEGA_002195
  6
CONTINUOUS
 62
     7
 48
25.4
100
AcDbLine
 10
51.5000958958
 20
114.5861037346
 30
0.0
 11
51.3000958958
 21
114.3861037346
 31
0.0
  0
LINE
  5
81
330
71
100
AcDbEntity
  8
MEGA_002195
  6
CONTINUOUS
 62
     7
 48
25.4
100
AcDbLine
 10
53.4578584024
 20
72.2139710181
 30
0.0
 11
51.6891358429
 21
72.2139710181
 31
0.0
  0
LINE
  5
82
330
71
100
AcDbEntity
  8
MEGA_002195
  6
CONTINUOUS
 62
     7
 48
25.4
100
AcDbLine
 10
65.7110559487
 20
72.2139710181
 30
0.0
 11
63.9423333893
 21
72.2139710181
 31
0.0
  0
SPLINE
  5
83
330
71
100
AcDbEntity
  8
MEGA_002195
  6
CONTINUOUS
 62
     7
 48
25.4
100
AcDbSpline
210
0.0
220
0.0
230
1.0
 70
     8
 71
     3
 72
    14
 73
    10
 74
     0
 42
0.0000000001
 43
0.0000000001
 40
0.0
 40
0.0
 40
0.0
 40
0.0
 40
0.25
 40
0.25
 40
0.5
 40
0.5
 40
0.75
 40
0.75
 40
1.0
 40
1.0
 40
1.0
 40
1.0
 10
53.45785840238221
 20
72.21397101811783
 30
0.0
 10
53.98289798957124
 20
72.99522960247623
 30
0.0
 10
54.64048370526442
 20
73.73329846404131
 30
0.0
 10
56.40189131363521
 20
74.92494866476906
 30
0.0
 10
57.51325755388084
 20
75.33891848958807
 30
0.0
 10
59.85660853220837
 20
75.34565225631779
 30
0.0
 10
60.98557465556154
 20
74.92950310449193
 30
0.0
 10
62.7381552086411
 20
73.75185609568203
 30
0.0
 10
63.41537971245495
 20
72.99807776662543
 30
0.0
 10
63.94233338924602
 20
72.21397101811056
 30
0.0
  0
LINE
  5
84
330
71
100
AcDbEntity
  8
MEGA_002195
  6
CONTINUOUS
 62
     7
 48
25.4
100
AcDbLine
 10
65.7000958958
 20
71.9577675941
 30
0.0
 11
63.9341383347
 21
71.9577675941
 31
0.0
  0
ELLIPSE
  5
85
330
71
100
AcDbEntity
  8
MEGA_002195
  6
CONTINUOUS
 62
     7
 48
25.4
100
AcDbEllipse
 10
66.1772993799
 20
71.9577675941
 30
0.0
 11
2.136343852611506
 21
2.106189674129309
 31
0.0
210
0.0
220
0.0
230
1.0
 40
0.620172208
 41
2.132303542065952
 42
3.1415926535898
  0
ELLIPSE
  5
86
330
71
100
AcDbEntity
  8
MEGA_002195
  6
CONTINUOUS
 62
     7
 48
25.4
100
AcDbEllipse
 10
51.2228924117
 20
71.9577675941
 30
0.0
 11
-8.828716309046928E-12
 21
2.999999999984147
 31
0.0
210
0.0
220
0.0
230
1.0
 40
0.7477203484
 41
4.712388980382726
 42
4.797894274063245
  0
ELLIPSE
  5
87
330
71
100
AcDbEntity
  8
MEGA_002195
  6
CONTINUOUS
 62
     7
 48
25.4
100
AcDbEllipse
 10
66.1772993799
 20
71.9577675941
 30
0.0
 11
2.136343852593922
 21
2.106189674148398
 31
0.0
210
0.0
220
0.0
230
0.9999999999999999
 40
0.6616793183
 41
2.060722012047666
 42
3.141592653589797
  0
ELLIPSE
  5
88
330
71
100
AcDbEntity
  8
MEGA_002195
  6
CONTINUOUS
 62
     7
 48
25.4
100
AcDbEllipse
 10
51.2228924117
 20
71.9577675941
 30
0.0
 11
-2.13634385260356
 21
2.106189674139239
 31
0.0
210
0.0
220
0.0
230
0.9999999999999999
 40
0.6616793183
 41
3.141592653589791
 42
4.222463295129773
  0
LINE
  5
89
330
71
100
AcDbEntity
  8
MEGA_002195
  6
CONTINUOUS
 62
     7
 48
25.4
100
AcDbLine
 10
51.7000958958
 20
71.9577675941
 30
0.0
 11
53.466053457
 21
71.9577675941
 31
0.0
  0
ARC
  5
8A
330
71
100
AcDbEntity
  8
MEGA_002195
  6
CONTINUOUS
 62
     7
 48
25.4
100
AcDbCircle
 10
63.5334248207
 20
65.2354525917
 30
0.0
 40
12.10543205210002
100
AcDbArc
 50
146.2676600342
 51
167.8288519278
  0
LINE
  5
8B
330
71
100
AcDbEntity
  8
MEGA_002195
  6
CONTINUOUS
 62
     7
 48
25.4
100
AcDbLine
 10
51.3000958958
 20
114.3861037346
 30
0.0
 11
66.1000958958
 21
114.3861037346
 31
0.0
  0
LINE
  5
8C
330
71
100
AcDbEntity
  8
MEGA_002195
  6
CONTINUOUS
 62
     7
 48
25.4
100
AcDbLine
 10
65.9000958958
 20
114.5861037346
 30
0.0
 11
51.5000958958
 21
114.5861037346
 31
0.0
  0
ELLIPSE
  5
8D
330
71
100
AcDbEntity
  8
MEGA_002195
  6
CONTINUOUS
 62
     7
 48
25.4
100
AcDbEllipse
 10
51.2228924117
 20
71.9577675941
 30
0.0
 11
2.136343852602574
 21
-2.106189674138385
 31
0.0
210
0.0
220
0.0
230
1.0
 40
0.620172208
 41
0.0
 42
1.009289111524382
  0
LINE
  5
8E
330
71
100
AcDbEntity
  8
MEGA_002195
  6
CONTINUOUS
 62
     7
 48
25.4
100
AcDbLine
 10
66.1000958958
 20
114.0861037346
 30
0.0
 11
66.1000958958
 21
114.3861037346
 31
0.0
  0
CIRCLE
  5
8F
330
71
100
AcDbEntity
  8
MEGA_002195
  6
CONTINUOUS
 62
     7
 48
25.4
100
AcDbCircle
 10
58.7000958958
 20
64.5861037346
 30
0.0
 40
6.0
  0
LINE
  5
91
330
71
100
AcDbEntity
  8
MEGA_002304
  6
CONTINUOUS
 62
     7
 48
25.4
100
AcDbLine
 10
24.2000958958
 20
114.0861037346
 30
0.0
 11
37.2000958958
 21
114.0861037346
 31
0.0
  0
LINE
  5
92
330
71
100
AcDbEntity
  8
MEGA_002304
  6
CONTINUOUS
 62
     7
 48
25.4
100
AcDbLine
 10
80.2000958958
 20
111.0861037346
 30
0.0
 11
80.2000958958
 21
110.0861037346
 31
0.0
  0
LINE
  5
93
330
71
100
AcDbEntity
  8
MEGA_002304
  6
CONTINUOUS
 62
     7
 48
25.4
100
AcDbLine
 10
63.496544286
 20
110.9384065117
 30
0.0
 11
63.5964702941
 21
109.9753308174
 31
0.0
  0
LINE
  5
94
330
71
100
AcDbEntity
  8
MEGA_002304
  6
CONTINUOUS
 62
     7
 48
25.4
100
AcDbLine
 10
53.9036475056
 20
110.9384065117
 30
0.0
 11
53.8037214975
 21
109.9753308174
 31
0.0
  0
ARC
  5
95
330
71
100
AcDbEntity
  8
MEGA_002304
  6
CONTINUOUS
 62
     7
 48
25.4
100
AcDbCircle
 10
92.2000958958
 20
111.0861037346
 30
0.0
 40
1.0
100
AcDbArc
 50
270.0
 51
360.0
  0
ARC
  5
96
330
71
100
AcDbEntity
  8
MEGA_002304
  6
CONTINUOUS
 62
     7
 48
25.4
100
AcDbCircle
 10
72.7000958958
 20
107.0861037346
 30
0.0
 40
3.0
100
AcDbArc
 50
90.0
 51
180.0
  0
LINE
  5
97
330
71
100
AcDbEntity
  8
MEGA_002304
  6
CONTINUOUS
 62
     7
 48
25.4
100
AcDbLine
 10
51.4889933449
 20
111.0861037346
 30
0.0
 11
51.4889933449
 21
110.0861037346
 31
0.0
  0
LINE
  5
98
330
71
100
AcDbEntity
  8
MEGA_002304
  6
CONTINUOUS
 62
     7
 48
25.4
100
AcDbLine
 10
37.2000958958
 20
111.0861037346
 30
0.0
 11
37.2000958958
 21
110.0861037346
 31
0.0
  0
ARC
  5
99
330
71
100
AcDbEntity
  8
MEGA_002304
  6
CONTINUOUS
 62
     7
 48
25.4
100
AcDbCircle
 10
44.7000958958
 20
107.0861037346
 30
0.0
 40
3.0
100
AcDbArc
 50
0.0
 51
90.0
  0
ARC
  5
9A
330
71
100
AcDbEntity
  8
MEGA_002304
  6
CONTINUOUS
 62
     7
 48
25.4
100
AcDbCircle
 10
25.2000958958
 20
111.0861037346
 30
0.0
 40
1.0
100
AcDbArc
 50
180.0
 51
270.0
  0
LINE
  5
9B
330
71
100
AcDbEntity
  8
MEGA_002304
  6
CONTINUOUS
 62
     7
 48
25.4
100
AcDbLine
 10
93.2000958958
 20
111.0861037346
 30
0.0
 11
93.2000958958
 21
114.0861037346
 31
0.0
  0
ELLIPSE
  5
9C
330
71
100
AcDbEntity
  8
MEGA_002304
  6
CONTINUOUS
 62
     7
 48
25.4
100
AcDbEllipse
 10
53.5039434731
 20
107.0861037346
 30
0.0
 11
1.836909530733563E-16
 21
2.999999999999996
 31
0.0
210
0.0
220
0.0
230
1.0
 40
0.3711537445
 41
4.71238898038469
 42
6.010591088052516
  0
ELLIPSE
  5
9D
330
71
100
AcDbEntity
  8
MEGA_002304
  6
CONTINUOUS
 62
     7
 48
25.4
100
AcDbEllipse
 10
63.8962483185
 20
107.0861037346
 30
0.0
 11
1.083690953073357E-15
 21
3.000000000000002
 31
0.0
210
0.0
220
0.0
230
1.0
 40
0.3711537445
 41
0.2725942191270778
 42
1.570796326794897
  0
LINE
  5
9E
330
71
100
AcDbEntity
  8
MEGA_002304
  6
CONTINUOUS
 62
     7
 48
25.4
100
AcDbLine
 10
65.9111984467
 20
111.0861037346
 30
0.0
 11
65.9111984467
 21
110.0861037346
 31
0.0
  0
LINE
  5
9F
330
71
100
AcDbEntity
  8
MEGA_002304
  6
CONTINUOUS
 62
     7
 48
25.4
100
AcDbLine
 10
24.2000958958
 20
114.0861037346
 30
0.0
 11
24.2000958958
 21
111.0861037346
 31
0.0
  0
LINE
  5
A0
330
71
100
AcDbEntity
  8
MEGA_002304
  6
CONTINUOUS
 62
     7
 48
25.4
100
AcDbLine
 10
54.6174047066
 20
107.0861037346
 30
0.0
 11
62.7827870851
 21
107.0861037346
 31
0.0
  0
LINE
  5
A1
330
71
100
AcDbEntity
  8
MEGA_002304
  6
CONTINUOUS
 62
     7
 48
25.4
100
AcDbLine
 10
47.7000958958
 20
107.0861037346
 30
0.0
 11
54.6174047066
 21
107.0861037346
 31
0.0
  0
LINE
  5
A2
330
71
100
AcDbEntity
  8
MEGA_002304
  6
CONTINUOUS
 62
     7
 48
25.4
100
AcDbLine
 10
62.7827870851
 20
107.0861037346
 30
0.0
 11
69.7000958958
 21
107.0861037346
 31
0.0
  0
LINE
  5
A3
330
71
100
AcDbEntity
  8
MEGA_002304
  6
CONTINUOUS
 62
     7
 48
25.4
100
AcDbLine
 10
93.2000958958
 20
114.0861037346
 30
0.0
 11
80.2000958958
 21
114.0861037346
 31
0.0
  0
LINE
  5
A4
330
71
100
AcDbEntity
  8
MEGA_002304
  6
CONTINUOUS
 62
     7
 48
25.4
100
AcDbLine
 10
80.2000958958
 20
114.0861037346
 30
0.0
 11
37.2000958958
 21
114.0861037346
 31
0.0
  0
LINE
  5
A5
330
71
100
AcDbEntity
  8
MEGA_002304
  6
CONTINUOUS
 62
     7
 48
25.4
100
AcDbLine
 10
37.2000958958
 20
111.0861037346
 30
0.0
 11
37.2000958958
 21
114.0861037346
 31
0.0
  0
LINE
  5
A6
330
71
100
AcDbEntity
  8
MEGA_002304
  6
CONTINUOUS
 62
     7
 48
25.4
100
AcDbLine
 10
80.2000958958
 20
111.0861037346
 30
0.0
 11
80.2000958958
 21
114.0861037346
 31
0.0
  0
ARC
  5
A7
330
71
100
AcDbEntity
  8
MEGA_002304
  6
CONTINUOUS
 62
     7
 48
25.4
100
AcDbCircle
 10
58.7000958958
 20
55.2579468249
 30
0.0
 40
51.98871239030001
100
AcDbArc
 50
85.4959054484
 51
94.5040945516
  0
ARC
  5
A8
330
71
100
AcDbEntity
  8
MEGA_002304
  6
CONTINUOUS
 62
     7
 48
25.4
100
AcDbCircle
 10
66.1361991607
 20
81.1446070363
 30
0.0
 40
28.9423712999
100
AcDbArc
 50
90.4454272604
 51
95.0342505021
  0
ARC
  5
A9
330
71
100
AcDbEntity
  8
MEGA_002304
  6
CONTINUOUS
 62
     7
 48
25.4
100
AcDbCircle
 10
66.1152544699
 20
87.9380089307
 30
0.0
 40
23.14899418789997
100
AcDbArc
 50
90.5050629946
 51
96.495440426
  0
LINE
  5
AA
330
71
100
AcDbEntity
  8
MEGA_002304
  6
CONTINUOUS
 62
     7
 48
25.4
100
AcDbLine
 10
65.9111984467
 20
111.0861037346
 30
0.0
 11
80.2000958958
 21
111.0861037346
 31
0.0
  0
ARC
  5
AB
330
71
100
AcDbEntity
  8
MEGA_002304
  6
CONTINUOUS
 62
     7
 48
25.4
100
AcDbCircle
 10
51.2849373217
 20
87.9380089307
 30
0.0
 40
23.14899418789997
100
AcDbArc
 50
83.504559574
 51
89.4949370054
  0
LINE
  5
AC
330
71
100
AcDbEntity
  8
MEGA_002304
  6
CONTINUOUS
 62
     7
 48
25.4
100
AcDbLine
 10
37.2000958958
 20
111.0861037346
 30
0.0
 11
51.4889933449
 21
111.0861037346
 31
0.0
  0
ARC
  5
AD
330
71
100
AcDbEntity
  8
MEGA_002304
  6
CONTINUOUS
 62
     7
 48
25.4
100
AcDbCircle
 10
58.7000958958
 20
204.6882560327
 30
0.0
 40
94.83940470650005
100
AcDbArc
 50
267.040614425
 51
272.959385575
  0
ARC
  5
AE
330
71
100
AcDbEntity
  8
MEGA_002304
  6
CONTINUOUS
 62
     7
 48
25.4
100
AcDbCircle
 10
58.7000958958
 20
163.2928479241
 30
0.0
 40
52.57369544520003
100
AcDbArc
 50
264.765463642
 51
275.234536358
  0
ARC
  5
AF
330
71
100
AcDbEntity
  8
MEGA_002304
  6
CONTINUOUS
 62
     7
 48
25.4
100
AcDbCircle
 10
51.2637862895
 20
81.1402952937
 30
0.0
 40
28.94668451680002
100
AcDbArc
 50
84.9660915608
 51
89.5542306767
  0
LINE
  5
B0
330
71
100
AcDbEntity
  8
MEGA_002304
  6
CONTINUOUS
 62
     7
 48
25.4
100
AcDbLine
 10
51.4889933449
 20
110.0861037346
 30
0.0
 11
37.2000958958
 21
110.0861037346
 31
0.0
  0
LINE
  5
B1
330
71
100
AcDbEntity
  8
MEGA_002304
  6
CONTINUOUS
 62
     7
 48
25.4
100
AcDbLine
 10
37.2000958958
 20
111.0861037346
 30
0.0
 11
24.2000958958
 21
111.0861037346
 31
0.0
  0
LINE
  5
B2
330
71
100
AcDbEntity
  8
MEGA_002304
  6
CONTINUOUS
 62
     7
 48
25.4
100
AcDbLine
 10
25.2000958958
 20
110.0861037346
 30
0.0
 11
37.2000958958
 21
110.0861037346
 31
0.0
  0
LINE
  5
B3
330
71
100
AcDbEntity
  8
MEGA_002304
  6
CONTINUOUS
 62
     7
 48
25.4
100
AcDbLine
 10
80.2000958958
 20
110.0861037346
 30
0.0
 11
65.9111984467
 21
110.0861037346
 31
0.0
  0
LINE
  5
B4
330
71
100
AcDbEntity
  8
MEGA_002304
  6
CONTINUOUS
 62
     7
 48
25.4
100
AcDbLine
 10
92.2000958958
 20
110.0861037346
 30
0.0
 11
80.2000958958
 21
110.0861037346
 31
0.0
  0
LINE
  5
B5
330
71
100
AcDbEntity
  8
MEGA_002304
  6
CONTINUOUS
 62
     7
 48
25.4
100
AcDbLine
 10
93.2000958958
 20
111.0861037346
 30
0.0
 11
80.2000958958
 21
111.0861037346
 31
0.0
  0
LINE
  5
B7
330
71
100
AcDbEntity
  8
MEGA_002634
  6
CONTINUOUS
 62
     7
 48
25.4
100
AcDbLine
 10
55.3000958958
 20
147.2963562663
 30
0.0
 11
55.3000958958
 21
114.5861037346
 31
0.0
  0
LINE
  5
B8
330
71
100
AcDbEntity
  8
MEGA_002634
  6
CONTINUOUS
 62
     7
 48
25.4
100
AcDbLine
 10
62.3000958958
 20
147.2963562663
 30
0.0
 11
62.3000958958
 21
114.5861037346
 31
0.0
  0
LINE
  5
B9
330
71
100
AcDbEntity
  8
MEGA_002634
  6
CONTINUOUS
 62
     7
 48
25.4
100
AcDbLine
 10
55.6400958958
 20
149.0861037346
 30
0.0
 11
55.3000958958
 21
148.7461037346
 31
0.0
  0
LINE
  5
BA
330
71
100
AcDbEntity
  8
MEGA_002634
  6
CONTINUOUS
 62
     7
 48
25.4
100
AcDbLine
 10
62.3000958958
 20
148.7461037346
 30
0.0
 11
61.9600958958
 21
149.0861037346
 31
0.0
  0
LINE
  5
BB
330
71
100
AcDbEntity
  8
MEGA_002634
  6
CONTINUOUS
 62
     7
 48
25.4
100
AcDbLine
 10
55.3000958958
 20
148.7461029728
 30
0.0
 11
55.3000958958
 21
147.2963562663
 31
0.0
  0
LINE
  5
BC
330
71
100
AcDbEntity
  8
MEGA_002634
  6
CONTINUOUS
 62
     7
 48
25.4
100
AcDbLine
 10
55.6400958958
 20
149.0861037346
 30
0.0
 11
61.9600958958
 21
149.0861037346
 31
0.0
  0
LINE
  5
BD
330
71
100
AcDbEntity
  8
MEGA_002634
  6
CONTINUOUS
 62
     7
 48
25.4
100
AcDbLine
 10
62.3000958958
 20
147.2963562663
 30
0.0
 11
62.3000958958
 21
148.7461029728
 31
0.0
  0
SPLINE
  5
BE
330
71
100
AcDbEntity
  8
MEGA_002634
  6
CONTINUOUS
 62
     7
 48
25.4
100
AcDbSpline
210
0.0
220
0.0
230
1.0
 70
     8
 71
     3
 72
    14
 73
    10
 74
     0
 42
0.0000000001
 43
0.0000000001
 40
0.0
 40
0.0
 40
0.0
 40
0.0
 40
0.2500000000000001
 40
0.2500000000000001
 40
0.5000000000000001
 40
0.5000000000000001
 40
0.7500000000000001
 40
0.7500000000000001
 40
1.0
 40
1.0
 40
1.0
 40
1.0
 10
62.30009589581184
 20
147.2963562662884
 30
0.0
 10
61.78336256539285
 20
147.661741908293
 30
0.0
 10
61.2391219869346
 20
148.0110708501833
 30
0.0
 10
60.07712388049938
 20
148.5559200355706
 30
0.0
 10
59.44307256168136
 20
148.7456802670086
 30
0.0
 10
58.16173775905006
 20
148.7465256785506
 30
0.0
 10
57.52881773110785
 20
148.5582728558174
 30
0.0
 10
56.36127416353084
 20
148.0115081387607
 30
0.0
 10
55.82042143618673
 20
147.664281984312
 30
0.0
 10
55.30009589581184
 20
147.2963562662884
 30
0.0
  0
ENDBLK
  5
C0
330
71
100
AcDbEntity
  8
0
100
AcDbBlockEnd
  0
BLOCK
  5
10A
330
C1
100
AcDbEntity
  8
0
100
AcDbBlockBegin
  2
SE11
 70
     0
 71
     0
 10
0.0
 20
0.0
 30
0.0
  3
SE11
  1

  0
LINE
  5
C3
330
C1
100
AcDbEntity
  8
MEGA_002195
  6
CONTINUOUS
 62
     7
 48
25.4
100
AcDbLine
 10
108.4961430179
 20
70.5861037346
 30
0.0
 11
108.4961430179
 21
58.5861037346
 31
0.0
  0
LINE
  5
C4
330
C1
100
AcDbEntity
  8
MEGA_002195
  6
CONTINUOUS
 62
     7
 48
25.4
100
AcDbLine
 10
188.4961430179
 20
70.5861037346
 30
0.0
 11
188.4961430179
 21
58.5861037346
 31
0.0
  0
LINE
  5
C5
330
C1
100
AcDbEntity
  8
MEGA_002195
  6
CONTINUOUS
 62
     7
 48
25.4
100
AcDbLine
 10
109.9961430179
 20
57.0861037346
 30
0.0
 11
186.9961430179
 21
57.0861037346
 31
0.0
  0
LINE
  5
C6
330
C1
100
AcDbEntity
  8
MEGA_002195
  6
CONTINUOUS
 62
     7
 48
25.4
100
AcDbLine
 10
186.9961430179
 20
72.0861037346
 30
0.0
 11
158.7603028813
 21
72.0861037346
 31
0.0
  0
LINE
  5
C7
330
C1
100
AcDbEntity
  8
MEGA_002195
  6
CONTINUOUS
 62
     7
 48
25.4
100
AcDbLine
 10
138.2319831544
 20
72.0861037346
 30
0.0
 11
109.9961430179
 21
72.0861037346
 31
0.0
  0
ARC
  5
C8
330
C1
100
AcDbEntity
  8
MEGA_002195
  6
CONTINUOUS
 62
     7
 48
25.4
100
AcDbCircle
 10
109.9961430179
 20
58.5861037346
 30
0.0
 40
1.5
100
AcDbArc
 50
180.0
 51
270.0
  0
ARC
  5
C9
330
C1
100
AcDbEntity
  8
MEGA_002195
  6
CONTINUOUS
 62
     7
 48
25.4
100
AcDbCircle
 10
186.9961430179
 20
58.5861037346
 30
0.0
 40
1.5
100
AcDbArc
 50
270.0
 51
360.0
  0
ARC
  5
CA
330
C1
100
AcDbEntity
  8
MEGA_002195
  6
CONTINUOUS
 62
     7
 48
25.4
100
AcDbCircle
 10
138.2322770617
 20
75.0840966777
 30
0.0
 40
2.995250749700006
100
AcDbArc
 50
269.9649373391
 51
4.7122166949
  0
LINE
  5
CB
330
C1
100
AcDbEntity
  8
MEGA_002195
  6
CONTINUOUS
 62
     7
 48
25.4
100
AcDbLine
 10
155.8961430179
 20
114.3861037346
 30
0.0
 11
155.6961430179
 21
114.5861037346
 31
0.0
  0
LINE
  5
CC
330
C1
100
AcDbEntity
  8
MEGA_002195
  6
CONTINUOUS
 62
     7
 48
25.4
100
AcDbLine
 10
138.4961430179
 20
107.0861037346
 30
0.0
 11
141.2180784176
 21
75.3301907372
 31
0.0
  0
ARC
  5
CD
330
C1
100
AcDbEntity
  8
MEGA_002195
  6
CONTINUOUS
 62
     7
 48
25.4
100
AcDbCircle
 10
158.7582709105
 20
75.0787053415
 30
0.0
 40
2.993697902999998
100
AcDbArc
 50
175.1623352678
 51
270.0780060422
  0
LINE
  5
CE
330
C1
100
AcDbEntity
  8
MEGA_002195
  6
CONTINUOUS
 62
     7
 48
25.4
100
AcDbLine
 10
141.0961430179
 20
114.3861037346
 30
0.0
 11
141.0961430179
 21
114.0861037346
 31
0.0
  0
ARC
  5
CF
330
C1
100
AcDbEntity
  8
MEGA_002195
  6
CONTINUOUS
 62
     7
 48
25.4
100
AcDbCircle
 10
109.9961430179
 20
70.5861037346
 30
0.0
 40
1.5
100
AcDbArc
 50
90.0
 51
180.0
  0
ARC
  5
D0
330
C1
100
AcDbEntity
  8
MEGA_002195
  6
CONTINUOUS
 62
     7
 48
25.4
100
AcDbCircle
 10
186.9961430179
 20
70.5861037346
 30
0.0
 40
1.5
100
AcDbArc
 50
0.0
 51
90.0
  0
ELLIPSE
  5
D1
330
C1
100
AcDbEntity
  8
MEGA_002195
  6
CONTINUOUS
 62
     7
 48
25.4
100
AcDbEllipse
 10
141.8560053644
 20
71.9577675941
 30
0.0
 11
1.883945479030766
 21
2.334684011176806
 31
0.0
210
0.0
220
0.0
230
1.0
 40
0.5263978484
 41
4.134370658779028
 42
5.215241300319888
  0
LINE
  5
D2
330
C1
100
AcDbEntity
  8
MEGA_002195
  6
CONTINUOUS
 62
     7
 48
25.4
100
AcDbLine
 10
141.2961430179
 20
114.5861037346
 30
0.0
 11
141.0961430179
 21
114.3861037346
 31
0.0
  0
ARC
  5
D3
330
C1
100
AcDbEntity
  8
MEGA_002195
  6
CONTINUOUS
 62
     7
 48
25.4
100
AcDbCircle
 10
224.152128846
 20
142.2353735512
 30
0.0
 40
106.5500414242
100
AcDbArc
 50
218.8886540033
 51
221.0843334579
  0
LINE
  5
D4
330
C1
100
AcDbEntity
  8
MEGA_002195
  6
CONTINUOUS
 62
     7
 48
25.4
100
AcDbLine
 10
143.8407690344
 20
72.2139710181
 30
0.0
 11
153.1515170013
 21
72.2139710181
 31
0.0
  0
ARC
  5
D5
330
C1
100
AcDbEntity
  8
MEGA_002195
  6
CONTINUOUS
 62
     7
 48
25.4
100
AcDbCircle
 10
72.8401571896
 20
142.2353735513
 30
0.0
 40
106.5500414243001
100
AcDbArc
 50
318.9156665421
 51
321.1113459967
  0
ARC
  5
D6
330
C1
100
AcDbEntity
  8
MEGA_002195
  6
CONTINUOUS
 62
     7
 48
25.4
100
AcDbCircle
 10
107.9984481295
 20
150.4476831214
 30
0.0
 40
93.36866407090002
100
AcDbArc
 50
300.3218664961
 51
302.9368179264
  0
ARC
  5
D7
330
C1
100
AcDbEntity
  8
MEGA_002195
  6
CONTINUOUS
 62
     7
 48
25.4
100
AcDbCircle
 10
188.9938379063
 20
150.4476831216
 30
0.0
 40
93.3686640711
100
AcDbArc
 50
237.0631820736
 51
239.6781335039
  0
LINE
  5
D8
330
C1
100
AcDbEntity
  8
MEGA_002195
  6
CONTINUOUS
 62
     7
 48
25.4
100
AcDbLine
 10
155.7742076181
 20
75.3301907372
 30
0.0
 11
158.4961430179
 21
107.0861037346
 31
0.0
  0
ELLIPSE
  5
D9
330
C1
100
AcDbEntity
  8
MEGA_002195
  6
CONTINUOUS
 62
     7
 48
25.4
100
AcDbEllipse
 10
155.1362806713
 20
71.9577675941
 30
0.0
 11
-1.88394547903078
 21
2.334684011177382
 31
0.0
210
0.0
220
0.0
230
1.0
 40
0.5263978484
 41
1.067944006860172
 42
2.1488146484001
  0
ELLIPSE
  5
DA
330
C1
100
AcDbEntity
  8
MEGA_002195
  6
CONTINUOUS
 62
     7
 48
25.4
100
AcDbEllipse
 10
155.1362806713
 20
71.9577675941
 30
0.0
 11
-1.345116309046928E-12
 21
2.99999999998446
 31
0.0
210
0.0
220
0.0
230
1.0
 40
0.6640137653
 41
1.485291033113795
 42
1.570796326794362
  0
ELLIPSE
  5
DB
330
C1
100
AcDbEntity
  8
MEGA_002195
  6
CONTINUOUS
 62
     7
 48
25.4
100
AcDbEllipse
 10
141.8560053644
 20
71.9577675941
 30
0.0
 11
-1.660816309046928E-12
 21
2.999999999992467
 31
0.0
210
0.0
220
0.0
230
1.0
 40
0.6640137653
 41
4.712388980388979
 42
4.797894274062706
  0
LINE
  5
DC
330
C1
100
AcDbEntity
  8
MEGA_002195
  6
CONTINUOUS
 62
     7
 48
25.4
100
AcDbLine
 10
153.1442393753
 20
71.9577675941
 30
0.0
 11
143.8480466604
 21
71.9577675941
 31
0.0
  0
LINE
  5
DD
330
C1
100
AcDbEntity
  8
MEGA_002195
  6
CONTINUOUS
 62
     7
 48
25.4
100
AcDbLine
 10
141.0961430179
 20
114.3861037346
 30
0.0
 11
155.8961430179
 21
114.3861037346
 31
0.0
  0
SPLINE
  5
DE
330
C1
100
AcDbEntity
  8
MEGA_002195
  6
CONTINUOUS
 62
     7
 48
25.4
100
AcDbSpline
210
0.0
220
0.0
230
1.0
 70
     8
 71
     3
 72
    20
 73
    16
 74
     0
 42
0.0000000001
 43
0.0000000001
 40
0.0
 40
0.0
 40
0.0
 40
0.0
 40
0.2499999999999988
 40
0.2499999999999988
 40
0.3749999999999982
 40
0.3749999999999982
 40
0.4374999999999985
 40
0.4374999999999985
 40
0.4999999999999987
 40
0.4999999999999987
 40
0.624999999999999
 40
0.624999999999999
 40
0.7499999999999992
 40
0.7499999999999992
 40
1.0
 40
1.0
 40
1.0
 40
1.0
 10
143.8480466603882
 20
71.95776759409789
 30
0.0
 10
144.4492250996142
 20
71.18416678451467
 30
0.0
 10
145.0879790649657
 20
70.37623042568548
 30
0.0
 10
146.1635510030712
 20
69.19551006552294
 30
0.0
 10
146.5454068811222
 20
68.80055139375784
 30
0.0
 10
147.1859398431568
 20
68.28606421465871
 30
0.0
 10
147.4102213218055
 20
68.12801676660708
 30
0.0
 10
147.9090631241313
 20
67.87881657791029
 30
0.0
 10
148.1852247374146
 20
67.79275300593218
 30
0.0
 10
149.0374991349325
 20
67.77817965495558
 30
0.0
 10
149.5517833084317
 20
68.08717117760627
 30
0.0
 10
150.4200628418499
 20
68.77385383774315
 30
0.0
 10
150.7987799845725
 20
69.16422652632754
 30
0.0
 10
151.8883949720209
 20
70.3557239567632
 30
0.0
 10
152.5401120118349
 20
71.18037208725475
 30
0.0
 10
153.1442393752776
 20
71.95776759407285
 30
0.0
  0
SPLINE
  5
DF
330
C1
100
AcDbEntity
  8
MEGA_002195
  6
CONTINUOUS
 62
     7
 48
25.4
100
AcDbSpline
210
0.0
220
0.0
230
1.0
 70
     8
 71
     3
 72
    18
 73
    14
 74
     0
 42
0.0000000001
 43
0.0000000001
 40
0.0
 40
0.0
 40
0.0
 40
0.0
 40
0.2499999999999996
 40
0.2499999999999996
 40
0.3749999999999996
 40
0.3749999999999996
 40
0.4999999999999997
 40
0.4999999999999997
 40
0.6249999999999998
 40
0.6249999999999998
 40
0.7499999999999999
 40
0.7499999999999999
 40
1.0
 40
1.0
 40
1.0
 40
1.0
 10
155.1362806713272
 20
69.85157791994007
 30
0.0
 10
154.1847000444311
 20
69.23932746706474
 30
0.0
 10
153.1744569152302
 20
68.60179835273451
 30
0.0
 10
151.5348828112211
 20
67.72826501321222
 30
0.0
 10
150.9635988383887
 20
67.44983501968582
 30
0.0
 10
149.7722017162797
 20
67.02032647093232
 30
0.0
 10
149.1364805193266
 20
66.87333503025877
 30
0.0
 10
147.8614346218313
 20
66.87253437589963
 30
0.0
 10
147.2264111378156
 20
67.01859359762163
 30
0.0
 10
146.0350941111064
 20
67.44698310064467
 30
0.0
 10
145.4649879533587
 20
67.72455909755526
 30
0.0
 10
143.8303491728667
 20
68.59446618561604
 30
0.0
 10
142.8062635423038
 20
69.24017833555207
 30
0.0
 10
141.856005364352
 20
69.85157791994395
 30
0.0
  0
LINE
  5
E0
330
C1
100
AcDbEntity
  8
MEGA_002195
  6
CONTINUOUS
 62
     7
 48
25.4
100
AcDbLine
 10
141.2961430179
 20
114.5861037346
 30
0.0
 11
155.6961430179
 21
114.5861037346
 31
0.0
  0
ELLIPSE
  5
E1
330
C1
100
AcDbEntity
  8
MEGA_002195
  6
CONTINUOUS
 62
     7
 48
25.4
100
AcDbEllipse
 10
141.8560053644
 20
71.9577675941
 30
0.0
 11
2.007836264496503
 21
2.229034215747411
 31
0.0
210
0.0
220
0.0
230
1.0
 40
0.5507445181
 41
4.163615751796202
 42
5.172904863323065
  0
ELLIPSE
  5
E2
330
C1
100
AcDbEntity
  8
MEGA_002195
  6
CONTINUOUS
 62
     7
 48
25.4
100
AcDbEllipse
 10
155.1362806713
 20
71.9577675941
 30
0.0
 11
2.007836264509689
 21
-2.229034215735539
 31
0.0
210
0.0
220
0.0
230
1.0
 40
0.5507445181
 41
4.251873097445122
 42
5.26116220896947
  0
LINE
  5
E3
330
C1
100
AcDbEntity
  8
MEGA_002195
  6
CONTINUOUS
 62
     7
 48
25.4
100
AcDbLine
 10
109.9961430179
 20
72.0861037346
 30
0.0
 11
109.9961430179
 21
57.0861037346
 31
0.0
  0
LINE
  5
E4
330
C1
100
AcDbEntity
  8
MEGA_002195
  6
CONTINUOUS
 62
     7
 48
25.4
100
AcDbLine
 10
155.8961430179
 20
114.0861037346
 30
0.0
 11
155.8961430179
 21
114.3861037346
 31
0.0
  0
LINE
  5
E5
330
C1
100
AcDbEntity
  8
MEGA_002195
  6
CONTINUOUS
 62
     7
 48
25.4
100
AcDbLine
 10
186.9961430179
 20
72.0861037346
 30
0.0
 11
186.9961430179
 21
57.0861037346
 31
0.0
  0
ELLIPSE
  5
E6
330
C1
100
AcDbEntity
  8
MEGA_002304
  6
CONTINUOUS
 62
     7
 48
25.4
100
AcDbEllipse
 10
160.4961430179
 20
110.9384065117
 30
0.0
 11
1.000000000000001
 21
1.846387696823089E-13
 31
0.0
210
0.0
220
0.0
230
1.0
 40
0.9946603
 41
4.965069235526555
 42
6.283185307179586
  0
ELLIPSE
  5
E7
330
C1
100
AcDbEntity
  8
MEGA_002304
  6
CONTINUOUS
 62
     7
 48
25.4
100
AcDbEllipse
 10
136.4961430179
 20
110.9384065117
 30
0.0
 11
1.000000000000022
 21
2.073876968230888E-14
 31
0.0
210
0.0
220
0.0
230
0.9999999999999999
 40
0.9946603
 41
3.141592653589758
 42
4.459708725242596
  0
ARC
  5
E8
330
C1
100
AcDbEntity
  8
MEGA_002304
  6
CONTINUOUS
 62
     7
 48
25.4
100
AcDbCircle
 10
160.4961430183
 20
110.7217782497
 30
0.0
 40
0.999999999599993
100
AcDbArc
 50
299.6068934586
 51
359.9999973668
  0
ARC
  5
E9
330
C1
100
AcDbEntity
  8
MEGA_002304
  6
CONTINUOUS
 62
     7
 48
25.4
100
AcDbCircle
 10
160.4961430179
 20
111.0861037346
 30
0.0
 40
1.0
100
AcDbArc
 50
270.0
 51
360.0
  0
ARC
  5
EA
330
C1
100
AcDbEntity
  8
MEGA_002304
  6
CONTINUOUS
 62
     7
 48
25.4
100
AcDbCircle
 10
136.4961430174
 20
110.7217782497
 30
0.0
 40
0.9999999995000052
100
AcDbArc
 50
180.0000026332
 51
240.3811631309
  0
ARC
  5
EB
330
C1
100
AcDbEntity
  8
MEGA_002304
  6
CONTINUOUS
 62
     7
 48
25.4
100
AcDbCircle
 10
162.4935322527
 20
107.2609035018
 30
0.0
 40
2.995861985100021
100
AcDbArc
 50
120.1184098293
 51
180.126251929
  0
ARC
  5
EC
330
C1
100
AcDbEntity
  8
MEGA_002304
  6
CONTINUOUS
 62
     7
 48
25.4
100
AcDbCircle
 10
134.5009950149
 20
107.263403087
 30
0.0
 40
2.992586297999992
100
AcDbArc
 50
359.8260377389
 51
59.8946553577
  0
LINE
  5
ED
330
C1
100
AcDbEntity
  8
MEGA_002304
  6
CONTINUOUS
 62
     7
 48
25.4
100
AcDbLine
 10
137.4961430179
 20
107.2537699743
 30
0.0
 11
137.4961430179
 21
107.0861037346
 31
0.0
  0
LINE
  5
EE
330
C1
100
AcDbEntity
  8
MEGA_002304
  6
CONTINUOUS
 62
     7
 48
25.4
100
AcDbLine
 10
159.4961430179
 20
107.0861037346
 30
0.0
 11
159.4961430179
 21
107.2537699743
 31
0.0
  0
ELLIPSE
  5
EF
330
C1
100
AcDbEntity
  8
MEGA_002304
  6
CONTINUOUS
 62
     7
 48
25.4
100
AcDbEllipse
 10
161.4961430179
 20
107.0861037346
 30
0.0
 11
4.358369095307337E-14
 21
2.999999999999997
 31
0.0
210
0.0
220
0.0
230
1.0
 40
0.9285714286
 41
0.2725942191270856
 42
1.57079632679491
  0
ELLIPSE
  5
F0
330
C1
100
AcDbEntity
  8
MEGA_002304
  6
CONTINUOUS
 62
     7
 48
25.4
100
AcDbEllipse
 10
135.4961430179
 20
107.0861037346
 30
0.0
 11
1.371630904692664E-14
 21
-2.999999999999997
 31
0.0
210
0.0
220
0.0
230
1.0
 40
0.9285714286
 41
1.570796326794892
 42
2.868998434462716
  0
ARC
  5
F1
330
C1
100
AcDbEntity
  8
MEGA_002304
  6
CONTINUOUS
 62
     7
 48
25.4
100
AcDbCircle
 10
136.4961430179
 20
111.0861037346
 30
0.0
 40
1.0
100
AcDbArc
 50
180.0
 51
270.0
  0
LINE
  5
F2
330
C1
100
AcDbEntity
  8
MEGA_002304
  6
CONTINUOUS
 62
     7
 48
25.4
100
AcDbLine
 10
159.4961430179
 20
107.0861037346
 30
0.0
 11
158.7104287321
 21
107.0861037346
 31
0.0
  0
LINE
  5
F3
330
C1
100
AcDbEntity
  8
MEGA_002304
  6
CONTINUOUS
 62
     7
 48
25.4
100
AcDbLine
 10
138.2818573036
 20
107.0861037346
 30
0.0
 11
158.7104287321
 21
107.0861037346
 31
0.0
  0
LINE
  5
F4
330
C1
100
AcDbEntity
  8
MEGA_002304
  6
CONTINUOUS
 62
     7
 48
25.4
100
AcDbLine
 10
161.4961430179
 20
114.0861037346
 30
0.0
 11
135.4961430179
 21
114.0861037346
 31
0.0
  0
LINE
  5
F5
330
C1
100
AcDbEntity
  8
MEGA_002304
  6
CONTINUOUS
 62
     7
 48
25.4
100
AcDbLine
 10
135.4961430179
 20
111.0861037346
 30
0.0
 11
135.4961430179
 21
114.0861037346
 31
0.0
  0
LINE
  5
F6
330
C1
100
AcDbEntity
  8
MEGA_002304
  6
CONTINUOUS
 62
     7
 48
25.4
100
AcDbLine
 10
161.4961430179
 20
111.0861037346
 30
0.0
 11
161.4961430179
 21
114.0861037346
 31
0.0
  0
ARC
  5
F7
330
C1
100
AcDbEntity
  8
MEGA_002304
  6
CONTINUOUS
 62
     7
 48
25.4
100
AcDbCircle
 10
138.2909186425
 20
109.0124671968
 30
0.0
 40
1.926384773700022
100
AcDbArc
 50
245.6333928116
 51
269.7304908128
  0
LINE
  5
F8
330
C1
100
AcDbEntity
  8
MEGA_002304
  6
CONTINUOUS
 62
     7
 48
25.4
100
AcDbLine
 10
135.4961430179
 20
110.7217782536
 30
0.0
 11
135.4961430179
 21
110.9384065117
 31
0.0
  0
ARC
  5
F9
330
C1
100
AcDbEntity
  8
MEGA_002304
  6
CONTINUOUS
 62
     7
 48
25.4
100
AcDbCircle
 10
158.7013673932
 20
109.0124671968
 30
0.0
 40
1.926384773700022
100
AcDbArc
 50
270.2695091872
 51
294.3666071884
  0
ARC
  5
FA
330
C1
100
AcDbEntity
  8
MEGA_002304
  6
CONTINUOUS
 62
     7
 48
25.4
100
AcDbCircle
 10
135.7646107169
 20
110.6609387783
 30
0.0
 40
0.8378136027000097
100
AcDbArc
 50
286.0426664529
 51
305.0820372332
  0
LINE
  5
FB
330
C1
100
AcDbEntity
  8
MEGA_002304
  6
CONTINUOUS
 62
     7
 48
25.4
100
AcDbLine
 10
161.4961430179
 20
110.9384065117
 30
0.0
 11
161.4961430179
 21
110.7217782536
 31
0.0
  0
ARC
  5
FC
330
C1
100
AcDbEntity
  8
MEGA_002304
  6
CONTINUOUS
 62
     7
 48
25.4
100
AcDbCircle
 10
161.2276753188
 20
110.6609387783
 30
0.0
 40
0.8378136027000097
100
AcDbArc
 50
234.9179627668
 51
253.9573335471
  0
ARC
  5
FD
330
C1
100
AcDbEntity
  8
MEGA_002304
  6
CONTINUOUS
 62
     7
 48
25.4
100
AcDbCircle
 10
160.4682378878
 20
109.6856303768
 30
0.0
 40
0.4014444004000097
100
AcDbArc
 50
46.1904820761
 51
86.0140518598
  0
ARC
  5
FE
330
C1
100
AcDbEntity
  8
MEGA_002304
  6
CONTINUOUS
 62
     7
 48
25.4
100
AcDbCircle
 10
136.5240242078
 20
109.6856844065
 30
0.0
 40
0.401388837699983
100
AcDbArc
 50
93.9830752052
 51
133.8123908588
  0
LINE
  5
FF
330
C1
100
AcDbEntity
  8
MEGA_002304
  6
CONTINUOUS
 62
     7
 48
25.4
100
AcDbLine
 10
135.4961430179
 20
111.0861037346
 30
0.0
 11
161.4961430179
 21
111.0861037346
 31
0.0
  0
LINE
  5
100
330
C1
100
AcDbEntity
  8
MEGA_002304
  6
CONTINUOUS
 62
     7
 48
25.4
100
AcDbLine
 10
160.4961430179
 20
110.0861037346
 30
0.0
 11
136.4961430179
 21
110.0861037346
 31
0.0
  0
LINE
  5
101
330
C1
100
AcDbEntity
  8
MEGA_002304
  6
CONTINUOUS
 62
     7
 48
25.4
100
AcDbLine
 10
137.4961430179
 20
107.0861037346
 30
0.0
 11
138.2818573036
 21
107.0861037346
 31
0.0
  0
LINE
  5
102
330
C1
100
AcDbEntity
  8
MEGA_002634
  6
CONTINUOUS
 62
     7
 48
25.4
100
AcDbLine
 10
151.9961430179
 20
147.2963562663
 30
0.0
 11
151.9961430179
 21
114.5861037346
 31
0.0
  0
LINE
  5
103
330
C1
100
AcDbEntity
  8
MEGA_002634
  6
CONTINUOUS
 62
     7
 48
25.4
100
AcDbLine
 10
144.9961430179
 20
147.2963562663
 30
0.0
 11
144.9961430179
 21
114.5861037346
 31
0.0
  0
LINE
  5
104
330
C1
100
AcDbEntity
  8
MEGA_002634
  6
CONTINUOUS
 62
     7
 48
25.4
100
AcDbLine
 10
151.9961430179
 20
148.7461037346
 30
0.0
 11
151.6561430179
 21
149.0861037346
 31
0.0
  0
LINE
  5
105
330
C1
100
AcDbEntity
  8
MEGA_002634
  6
CONTINUOUS
 62
     7
 48
25.4
100
AcDbLine
 10
145.3361430179
 20
149.0861037346
 30
0.0
 11
144.9961430179
 21
148.7461037346
 31
0.0
  0
SPLINE
  5
106
330
C1
100
AcDbEntity
  8
MEGA_002634
  6
CONTINUOUS
 62
     7
 48
25.4
100
AcDbSpline
210
0.0
220
0.0
230
1.0
 70
     8
 71
     3
 72
    14
 73
    10
 74
     0
 42
0.0000000001
 43
0.0000000001
 40
0.0
 40
0.0
 40
0.0
 40
0.0
 40
0.2500000000000001
 40
0.2500000000000001
 40
0.5000000000000001
 40
0.5000000000000001
 40
0.7500000000000001
 40
0.7500000000000001
 40
1.0
 40
1.0
 40
1.0
 40
1.0
 10
151.9961430178426
 20
147.2963562662884
 30
0.0
 10
151.4794096874236
 20
147.661741908293
 30
0.0
 10
150.9351691089654
 20
148.0110708501833
 30
0.0
 10
149.7731710025302
 20
148.5559200355706
 30
0.0
 10
149.1391196837122
 20
148.7456802670086
 30
0.0
 10
147.8577848810809
 20
148.7465256785507
 30
0.0
 10
147.2248648531386
 20
148.5582728558174
 30
0.0
 10
146.0573212855616
 20
148.0115081387607
 30
0.0
 10
145.5164685582175
 20
147.664281984312
 30
0.0
 10
144.9961430178426
 20
147.2963562662884
 30
0.0
  0
LINE
  5
107
330
C1
100
AcDbEntity
  8
MEGA_002634
  6
CONTINUOUS
 62
     7
 48
25.4
100
AcDbLine
 10
151.6561430179
 20
149.0861037346
 30
0.0
 11
145.3361430179
 21
149.0861037346
 31
0.0
  0
LINE
  5
108
330
C1
100
AcDbEntity
  8
MEGA_002634
  6
CONTINUOUS
 62
     7
 48
25.4
100
AcDbLine
 10
144.9961430179
 20
148.7461029728
 30
0.0
 11
144.9961430179
 21
147.2963562663
 31
0.0
  0
LINE
  5
109
330
C1
100
AcDbEntity
  8
MEGA_002634
  6
CONTINUOUS
 62
     7
 48
25.4
100
AcDbLine
 10
151.9961430179
 20
148.7461029728
 30
0.0
 11
151.9961430179
 21
147.2963562663
 31
0.0
  0
ENDBLK
  5
10B
330
C1
100
AcDbEntity
  8
0
100
AcDbBlockEnd
  0
BLOCK
  5
12E
330
10C
100
AcDbEntity
  8
0
100
AcDbBlockBegin
  2
SE12
 70
     0
 71
     0
 10
0.0
 20
0.0
 30
0.0
  3
SE12
  1

  0
LINE
  5
10E
330
10C
100
AcDbEntity
  8
MEGA_002195
  6
CONTINUOUS
 62
     7
 48
25.4
100
AcDbLine
 10
51.2000958958
 20
239.3821508566
 30
0.0
 11
51.2000958958
 21
162.3821508566
 31
0.0
  0
LINE
  5
10F
330
10C
100
AcDbEntity
  8
MEGA_002195
  6
CONTINUOUS
 62
     7
 48
25.4
100
AcDbLine
 10
66.2000958958
 20
162.3821508566
 30
0.0
 11
66.2000958958
 21
239.3821508566
 31
0.0
  0
ARC
  5
110
330
10C
100
AcDbEntity
  8
MEGA_002195
  6
CONTINUOUS
 62
     7
 48
25.4
100
AcDbCircle
 10
64.7000958958
 20
162.3821508566
 30
0.0
 40
1.5
100
AcDbArc
 50
270.0
 51
360.0
  0
ARC
  5
111
330
10C
100
AcDbEntity
  8
MEGA_002195
  6
CONTINUOUS
 62
     7
 48
25.4
100
AcDbCircle
 10
64.7000958958
 20
239.3821508566
 30
0.0
 40
1.5
100
AcDbArc
 50
0.0
 51
90.0
  0
ARC
  5
112
330
10C
100
AcDbEntity
  8
MEGA_002195
  6
CONTINUOUS
 62
     7
 48
25.4
100
AcDbCircle
 10
52.7000958958
 20
162.3821508566
 30
0.0
 40
1.5
100
AcDbArc
 50
180.0
 51
270.0
  0
ARC
  5
113
330
10C
100
AcDbEntity
  8
MEGA_002195
  6
CONTINUOUS
 62
     7
 48
25.4
100
AcDbCircle
 10
52.7000958958
 20
239.3821508566
 30
0.0
 40
1.5
100
AcDbArc
 50
90.0
 51
180.0
  0
ARC
  5
114
330
10C
100
AcDbEntity
  8
MEGA_002195
  6
CONTINUOUS
 62
     7
 48
25.4
100
AcDbCircle
 10
58.7000958958
 20
200.8821508566
 30
0.0
 40
10.0
100
AcDbArc
 50
138.5903778907
 51
221.4096221093
  0
ARC
  5
115
330
10C
100
AcDbEntity
  8
MEGA_002195
  6
CONTINUOUS
 62
     7
 48
25.4
100
AcDbCircle
 10
58.7000958958
 20
200.8821508566
 30
0.0
 40
10.0
100
AcDbArc
 50
318.5903778907
 51
41.4096221093
  0
LINE
  5
116
330
10C
100
AcDbEntity
  8
MEGA_002195
  6
CONTINUOUS
 62
     7
 48
25.4
100
AcDbLine
 10
66.2000958958
 20
162.3821508566
 30
0.0
 11
51.2000958958
 21
162.3821508566
 31
0.0
  0
LINE
  5
117
330
10C
100
AcDbEntity
  8
MEGA_002195
  6
CONTINUOUS
 62
     7
 48
25.4
100
AcDbLine
 10
52.7000958958
 20
160.8821508566
 30
0.0
 11
64.7000958958
 21
160.8821508566
 31
0.0
  0
LINE
  5
118
330
10C
100
AcDbEntity
  8
MEGA_002195
  6
CONTINUOUS
 62
     7
 48
25.4
100
AcDbLine
 10
51.2000958958
 20
239.3821508566
 30
0.0
 11
66.2000958958
 21
239.3821508566
 31
0.0
  0
LINE
  5
119
330
10C
100
AcDbEntity
  8
MEGA_002195
  6
CONTINUOUS
 62
     7
 48
25.4
100
AcDbLine
 10
64.7000958958
 20
240.8821508566
 30
0.0
 11
52.7000958958
 21
240.8821508566
 31
0.0
  0
LINE
  5
11A
330
10C
100
AcDbEntity
  8
MEGA_002304
  6
CONTINUOUS
 62
     7
 48
25.4
100
AcDbLine
 10
51.2000958958
 20
187.8821508566
 30
0.0
 11
37.2000958958
 21
187.8821508566
 31
0.0
  0
LINE
  5
11B
330
10C
100
AcDbEntity
  8
MEGA_002304
  6
CONTINUOUS
 62
     7
 48
25.4
100
AcDbLine
 10
37.2000958958
 20
213.8821508566
 30
0.0
 11
51.2000958958
 21
213.8821508566
 31
0.0
  0
CIRCLE
  5
11C
330
10C
100
AcDbEntity
  8
MEGA_002304
  6
CONTINUOUS
 62
     7
 48
25.4
100
AcDbCircle
 10
80.2000958958
 20
200.8821508566
 30
0.0
 40
2.399999999999977
  0
ARC
  5
11D
330
10C
100
AcDbEntity
  8
MEGA_002304
  6
CONTINUOUS
 62
     7
 48
25.4
100
AcDbCircle
 10
37.2000958958
 20
200.8821508566
 30
0.0
 40
13.0
100
AcDbArc
 50
90.0
 51
270.0
  0
ARC
  5
11E
330
10C
100
AcDbEntity
  8
MEGA_002304
  6
CONTINUOUS
 62
     7
 48
25.4
100
AcDbCircle
 10
80.2000958958
 20
200.8821508566
 30
0.0
 40
13.0
100
AcDbArc
 50
270.0
 51
90.0
  0
CIRCLE
  5
11F
330
10C
100
AcDbEntity
  8
MEGA_002304
  6
CONTINUOUS
 62
     7
 48
25.4
100
AcDbCircle
 10
37.2000958958
 20
200.8821508566
 30
0.0
 40
2.399999999999977
  0
CIRCLE
  5
120
330
10C
100
AcDbEntity
  8
MEGA_002304
  6
CONTINUOUS
 62
     7
 48
25.4
100
AcDbCircle
 10
37.2000958958
 20
200.8821508566
 30
0.0
 40
4.550000000000068
  0
CIRCLE
  5
121
330
10C
100
AcDbEntity
  8
MEGA_002304
  6
CONTINUOUS
 62
     7
 48
25.4
100
AcDbCircle
 10
80.2000958958
 20
200.8821508566
 30
0.0
 40
4.550000000000068
  0
LINE
  5
122
330
10C
100
AcDbEntity
  8
MEGA_002304
  6
CONTINUOUS
 62
     7
 48
25.4
100
AcDbLine
 10
80.2000958958
 20
213.8821508566
 30
0.0
 11
80.2000958958
 21
212.8821508566
 31
0.0
  0
LINE
  5
123
330
10C
100
AcDbEntity
  8
MEGA_002304
  6
CONTINUOUS
 62
     7
 48
25.4
100
AcDbLine
 10
37.2000958958
 20
213.8821508566
 30
0.0
 11
37.2000958958
 21
212.8821508566
 31
0.0
  0
LINE
  5
124
330
10C
100
AcDbEntity
  8
MEGA_002304
  6
CONTINUOUS
 62
     7
 48
25.4
100
AcDbLine
 10
37.2000958958
 20
188.8821508566
 30
0.0
 11
37.2000958958
 21
187.8821508566
 31
0.0
  0
LINE
  5
125
330
10C
100
AcDbEntity
  8
MEGA_002304
  6
CONTINUOUS
 62
     7
 48
25.4
100
AcDbLine
 10
80.2000958958
 20
188.8821508566
 30
0.0
 11
80.2000958958
 21
187.8821508566
 31
0.0
  0
LINE
  5
126
330
10C
100
AcDbEntity
  8
MEGA_002304
  6
CONTINUOUS
 62
     7
 48
25.4
100
AcDbLine
 10
80.2000958958
 20
187.8821508566
 30
0.0
 11
66.2000958958
 21
187.8821508566
 31
0.0
  0
LINE
  5
127
330
10C
100
AcDbEntity
  8
MEGA_002304
  6
CONTINUOUS
 62
     7
 48
25.4
100
AcDbLine
 10
66.2000958958
 20
213.8821508566
 30
0.0
 11
80.2000958958
 21
213.8821508566
 31
0.0
  0
ARC
  5
128
330
10C
100
AcDbEntity
  8
MEGA_002304
  6
CONTINUOUS
 62
     7
 48
25.4
100
AcDbCircle
 10
37.2000958958
 20
200.8821508566
 30
0.0
 40
12.0
100
AcDbArc
 50
90.0
 51
270.0
  0
LINE
  5
129
330
10C
100
AcDbEntity
  8
MEGA_002304
  6
CONTINUOUS
 62
     7
 48
25.4
100
AcDbLine
 10
37.2000958958
 20
188.8821508566
 30
0.0
 11
51.2000958958
 21
188.8821508566
 31
0.0
  0
LINE
  5
12A
330
10C
100
AcDbEntity
  8
MEGA_002304
  6
CONTINUOUS
 62
     7
 48
25.4
100
AcDbLine
 10
51.2000958958
 20
212.8821508566
 30
0.0
 11
37.2000958958
 21
212.8821508566
 31
0.0
  0
LINE
  5
12B
330
10C
100
AcDbEntity
  8
MEGA_002304
  6
CONTINUOUS
 62
     7
 48
25.4
100
AcDbLine
 10
66.2000958958
 20
188.8821508566
 30
0.0
 11
80.2000958958
 21
188.8821508566
 31
0.0
  0
ARC
  5
12C
330
10C
100
AcDbEntity
  8
MEGA_002304
  6
CONTINUOUS
 62
     7
 48
25.4
100
AcDbCircle
 10
80.2000958958
 20
200.8821508566
 30
0.0
 40
12.0
100
AcDbArc
 50
270.0
 51
90.0
  0
LINE
  5
12D
330
10C
100
AcDbEntity
  8
MEGA_002304
  6
CONTINUOUS
 62
     7
 48
25.4
100
AcDbLine
 10
80.2000958958
 20
212.8821508566
 30
0.0
 11
66.2000958958
 21
212.8821508566
 31
0.0
  0
ENDBLK
  5
12F
330
10C
100
AcDbEntity
  8
0
100
AcDbBlockEnd
  0
BLOCK
  5
138
330
130
100
AcDbEntity
  8
0
100
AcDbBlockBegin
  2
SE13
 70
     0
 71
     0
 10
0.0
 20
0.0
 30
0.0
  3
SE13
  1

  0
POLYLINE
  5
132
330
130
100
AcDbEntity
  8
DEFAULT
  6
CONTINUOUS
 62
     7
 48
25.4
100
AcDb2dPolyline
 66
     1
 10
0.0
 20
0.0
 30
0.0
 70
     1
  0
VERTEX
  5
184
330
132
100
AcDbEntity
  8
DEFAULT
  6
CONTINUOUS
 62
     7
100
AcDbVertex
100
AcDb2dVertex
 10
185.4961429918
 20
45.8373464349
 30
0.0
  0
VERTEX
  5
185
330
132
100
AcDbEntity
  8
DEFAULT
  6
CONTINUOUS
 62
     7
100
AcDbVertex
100
AcDb2dVertex
 10
188.4961430178
 20
46.3373464393
 30
0.0
  0
VERTEX
  5
186
330
132
100
AcDbEntity
  8
DEFAULT
  6
CONTINUOUS
 62
     7
100
AcDbVertex
100
AcDb2dVertex
 10
185.4961429918
 20
46.8373464436
 30
0.0
  0
VERTEX
  5
187
330
132
100
AcDbEntity
  8
DEFAULT
  6
CONTINUOUS
 62
     7
100
AcDbVertex
100
AcDb2dVertex
 10
185.4961429918
 20
45.8373464349
 30
0.0
  0
SEQEND
  5
183
330
132
100
AcDbEntity
  8
DEFAULT
  6
CONTINUOUS
 62
     7
 48
25.4
  0
LINE
  5
133
330
130
100
AcDbEntity
  8
DEFAULT
  6
CONTINUOUS
 62
     7
 48
25.4
100
AcDbLine
 10
108.4961430179
 20
58.5861037346
 30
0.0
 11
108.4961430179
 21
44.8373464262
 31
0.0
  0
LINE
  5
134
330
130
100
AcDbEntity
  8
DEFAULT
  6
CONTINUOUS
 62
     7
 48
25.4
100
AcDbLine
 10
188.4961430179
 20
58.5861037346
 30
0.0
 11
188.4961430179
 21
44.8373464262
 31
0.0
  0
LINE
  5
135
330
130
100
AcDbEntity
  8
DEFAULT
  6
CONTINUOUS
 62
     7
 48
25.4
100
AcDbLine
 10
108.4961430179
 20
46.3373464393
 30
0.0
 11
188.4961412297
 21
46.3373464393
 31
0.0
  0
TEXT
  5
137
330
130
100
AcDbEntity
  8
DEFAULT
  6
CONTINUOUS
 62
     7
 48
25.4
100
AcDbText
 10
150.3370512147
 20
45.5873464393
 30
0.0
 40
3.0
  1
80
 50
180.0
  7
SEACAD_SEISO_TTF
 11
150.3370512147
 21
42.5873464393
 31
0.0
100
AcDbText
 73
     3
  0
ENDBLK
  5
139
330
130
100
AcDbEntity
  8
0
100
AcDbBlockEnd
  0
BLOCK
  5
144
330
13A
100
AcDbEntity
  8
0
100
AcDbBlockBegin
  2
SE14
 70
     0
 71
     0
 10
0.0
 20
0.0
 30
0.0
  3
SE14
  1

  0
POLYLINE
  5
13C
330
13A
100
AcDbEntity
  8
DEFAULT
  6
CONTINUOUS
 62
     7
 48
25.4
100
AcDb2dPolyline
 66
     1
 10
0.0
 20
0.0
 30
0.0
 70
     1
  0
VERTEX
  5
189
330
13C
100
AcDbEntity
  8
DEFAULT
  6
CONTINUOUS
 62
     7
100
AcDbVertex
100
AcDb2dVertex
 10
203.8877183586
 20
60.0861037607
 30
0.0
  0
VERTEX
  5
18A
330
13C
100
AcDbEntity
  8
DEFAULT
  6
CONTINUOUS
 62
     7
100
AcDbVertex
100
AcDb2dVertex
 10
203.3877183543
 20
57.0861037346
 30
0.0
  0
VERTEX
  5
18B
330
13C
100
AcDbEntity
  8
DEFAULT
  6
CONTINUOUS
 62
     7
100
AcDbVertex
100
AcDb2dVertex
 10
202.88771835
 20
60.0861037607
 30
0.0
  0
VERTEX
  5
18C
330
13C
100
AcDbEntity
  8
DEFAULT
  6
CONTINUOUS
 62
     7
100
AcDbVertex
100
AcDb2dVertex
 10
203.8877183586
 20
60.0861037607
 30
0.0
  0
SEQEND
  5
188
330
13C
100
AcDbEntity
  8
DEFAULT
  6
CONTINUOUS
 62
     7
 48
25.4
  0
POLYLINE
  5
13D
330
13A
100
AcDbEntity
  8
DEFAULT
  6
CONTINUOUS
 62
     7
 48
25.4
100
AcDb2dPolyline
 66
     1
 10
0.0
 20
0.0
 30
0.0
 70
     1
  0
VERTEX
  5
18E
330
13D
100
AcDbEntity
  8
DEFAULT
  6
CONTINUOUS
 62
     7
100
AcDbVertex
100
AcDb2dVertex
 10
203.8877183586
 20
69.0861037085
 30
0.0
  0
VERTEX
  5
18F
330
13D
100
AcDbEntity
  8
DEFAULT
  6
CONTINUOUS
 62
     7
100
AcDbVertex
100
AcDb2dVertex
 10
203.3877183543
 20
72.0861037346
 30
0.0
  0
VERTEX
  5
190
330
13D
100
AcDbEntity
  8
DEFAULT
  6
CONTINUOUS
 62
     7
100
AcDbVertex
100
AcDb2dVertex
 10
202.88771835
 20
69.0861037085
 30
0.0
  0
VERTEX
  5
191
330
13D
100
AcDbEntity
  8
DEFAULT
  6
CONTINUOUS
 62
     7
100
AcDbVertex
100
AcDb2dVertex
 10
203.8877183586
 20
69.0861037085
 30
0.0
  0
SEQEND
  5
18D
330
13D
100
AcDbEntity
  8
DEFAULT
  6
CONTINUOUS
 62
     7
 48
25.4
  0
LINE
  5
13E
330
13A
100
AcDbEntity
  8
DEFAULT
  6
CONTINUOUS
 62
     7
 48
25.4
100
AcDbLine
 10
186.9961430179
 20
57.0861037346
 30
0.0
 11
204.8877183673
 21
57.0861037346
 31
0.0
  0
LINE
  5
13F
330
13A
100
AcDbEntity
  8
DEFAULT
  6
CONTINUOUS
 62
     7
 48
25.4
100
AcDbLine
 10
186.9961430179
 20
72.0861037346
 30
0.0
 11
204.8877183673
 21
72.0861037346
 31
0.0
  0
LINE
  5
140
330
13A
100
AcDbEntity
  8
DEFAULT
  6
CONTINUOUS
 62
     7
 48
25.4
100
AcDbLine
 10
203.3877183543
 20
57.0861037346
 30
0.0
 11
203.3877183543
 21
72.0861033993
 31
0.0
  0
TEXT
  5
141
330
13A
100
AcDbEntity
  8
DEFAULT
  6
CONTINUOUS
 62
     7
 48
25.4
100
AcDbText
 10
202.6377183543
 20
64.9405001529
 30
0.0
 40
3.0
  1
15
 50
90.0
  7
SEACAD_SEISO_TTF
 11
199.6377183543
 21
64.9405001529
 31
0.0
100
AcDbText
 73
     3
  0
TEXT
  5
143
330
13A
100
AcDbEntity
  8
DEFAULT
  6
CONTINUOUS
 62
     7
 48
25.4
100
AcDbText
 10
202.6377183543
 20
61.2998887992
 30
0.0
 40
3.0
  1
O
 50
90.0
  7
SEACAD_SEMECI1_TTF
 11
199.6377183543
 21
61.2998887992
 31
0.0
100
AcDbText
 73
     3
  0
ENDBLK
  5
145
330
13A
100
AcDbEntity
  8
0
100
AcDbBlockEnd
  0
BLOCK
  5
14F
330
146
100
AcDbEntity
  8
0
100
AcDbBlockBegin
  2
SE15
 70
     0
 71
     0
 10
0.0
 20
0.0
 30
0.0
  3
SE15
  1

  0
POLYLINE
  5
148
330
146
100
AcDbEntity
  8
DEFAULT
  6
CONTINUOUS
 62
     7
 48
25.4
100
AcDb2dPolyline
 66
     1
 10
0.0
 20
0.0
 30
0.0
 70
     1
  0
VERTEX
  5
193
330
148
100
AcDbEntity
  8
DEFAULT
  6
CONTINUOUS
 62
     7
100
AcDbVertex
100
AcDb2dVertex
 10
141.9961429918
 20
163.0877257908
 30
0.0
  0
VERTEX
  5
194
330
148
100
AcDbEntity
  8
DEFAULT
  6
CONTINUOUS
 62
     7
100
AcDbVertex
100
AcDb2dVertex
 10
144.9961430178
 20
162.5877257864
 30
0.0
  0
VERTEX
  5
195
330
148
100
AcDbEntity
  8
DEFAULT
  6
CONTINUOUS
 62
     7
100
AcDbVertex
100
AcDb2dVertex
 10
141.9961429918
 20
162.0877257821
 30
0.0
  0
VERTEX
  5
196
330
148
100
AcDbEntity
  8
DEFAULT
  6
CONTINUOUS
 62
     7
100
AcDbVertex
100
AcDb2dVertex
 10
141.9961429918
 20
163.0877257908
 30
0.0
  0
SEQEND
  5
192
330
148
100
AcDbEntity
  8
DEFAULT
  6
CONTINUOUS
 62
     7
 48
25.4
  0
POLYLINE
  5
149
330
146
100
AcDbEntity
  8
DEFAULT
  6
CONTINUOUS
 62
     7
 48
25.4
100
AcDb2dPolyline
 66
     1
 10
0.0
 20
0.0
 30
0.0
 70
     1
  0
VERTEX
  5
198
330
149
100
AcDbEntity
  8
DEFAULT
  6
CONTINUOUS
 62
     7
100
AcDbVertex
100
AcDb2dVertex
 10
154.9961430439
 20
163.0877257908
 30
0.0
  0
VERTEX
  5
199
330
149
100
AcDbEntity
  8
DEFAULT
  6
CONTINUOUS
 62
     7
100
AcDbVertex
100
AcDb2dVertex
 10
151.9961430178
 20
162.5877257864
 30
0.0
  0
VERTEX
  5
19A
330
149
100
AcDbEntity
  8
DEFAULT
  6
CONTINUOUS
 62
     7
100
AcDbVertex
100
AcDb2dVertex
 10
154.9961430439
 20
162.0877257821
 30
0.0
  0
VERTEX
  5
19B
330
149
100
AcDbEntity
  8
DEFAULT
  6
CONTINUOUS
 62
     7
100
AcDbVertex
100
AcDb2dVertex
 10
154.9961430439
 20
163.0877257908
 30
0.0
  0
SEQEND
  5
197
330
149
100
AcDbEntity
  8
DEFAULT
  6
CONTINUOUS
 62
     7
 48
25.4
  0
LINE
  5
14A
330
146
100
AcDbEntity
  8
DEFAULT
  6
CONTINUOUS
 62
     7
 48
25.4
100
AcDbLine
 10
144.9961430179
 20
147.2963562663
 30
0.0
 11
144.9961430179
 21
164.0877257994
 31
0.0
  0
LINE
  5
14B
330
146
100
AcDbEntity
  8
DEFAULT
  6
CONTINUOUS
 62
     7
 48
25.4
100
AcDbLine
 10
151.9961430179
 20
147.2963562663
 30
0.0
 11
151.9961430179
 21
164.0877257994
 31
0.0
  0
LINE
  5
14C
330
146
100
AcDbEntity
  8
DEFAULT
  6
CONTINUOUS
 62
     7
 48
25.4
100
AcDbLine
 10
132.8413468571
 20
162.5877257864
 30
0.0
 11
157.9961432861
 21
162.5877257864
 31
0.0
  0
TEXT
  5
14D
330
146
100
AcDbEntity
  8
DEFAULT
  6
CONTINUOUS
 62
     7
 48
25.4
100
AcDbText
 10
135.8004380506
 20
161.8377257864
 30
0.0
 40
3.0
  1
7
 50
180.0
  7
SEACAD_SEISO_TTF
 11
135.8004380506
 21
158.8377257864
 31
0.0
100
AcDbText
 73
     3
  0
TEXT
  5
14E
330
146
100
AcDbEntity
  8
DEFAULT
  6
CONTINUOUS
 62
     7
 48
25.4
100
AcDbText
 10
139.5065515877
 20
161.8377257864
 30
0.0
 40
3.0
  1
q
 50
180.0
  7
SEACAD_SEMECI1_TTF
 11
139.5065515877
 21
158.8377257864
 31
0.0
100
AcDbText
 73
     3
  0
ENDBLK
  5
150
330
146
100
AcDbEntity
  8
0
100
AcDbBlockEnd
  0
BLOCK
  5
159
330
151
100
AcDbEntity
  8
0
100
AcDbBlockBegin
  2
SE16
 70
     0
 71
     0
 10
0.0
 20
0.0
 30
0.0
  3
SE16
  1

  0
POLYLINE
  5
153
330
151
100
AcDbEntity
  8
DEFAULT
  6
CONTINUOUS
 62
     7
 48
25.4
100
AcDb2dPolyline
 66
     1
 10
0.0
 20
0.0
 30
0.0
 70
     1
  0
VERTEX
  5
19D
330
153
100
AcDbEntity
  8
DEFAULT
  6
CONTINUOUS
 62
     7
100
AcDbVertex
100
AcDb2dVertex
 10
10.413960665
 20
60.0861037607
 30
0.0
  0
VERTEX
  5
19E
330
153
100
AcDbEntity
  8
DEFAULT
  6
CONTINUOUS
 62
     7
100
AcDbVertex
100
AcDb2dVertex
 10
10.9139606693
 20
57.0861037346
 30
0.0
  0
VERTEX
  5
19F
330
153
100
AcDbEntity
  8
DEFAULT
  6
CONTINUOUS
 62
     7
100
AcDbVertex
100
AcDb2dVertex
 10
11.4139606737
 20
60.0861037607
 30
0.0
  0
VERTEX
  5
1A0
330
153
100
AcDbEntity
  8
DEFAULT
  6
CONTINUOUS
 62
     7
100
AcDbVertex
100
AcDb2dVertex
 10
10.413960665
 20
60.0861037607
 30
0.0
  0
SEQEND
  5
19C
330
153
100
AcDbEntity
  8
DEFAULT
  6
CONTINUOUS
 62
     7
 48
25.4
  0
POLYLINE
  5
154
330
151
100
AcDbEntity
  8
DEFAULT
  6
CONTINUOUS
 62
     7
 48
25.4
100
AcDb2dPolyline
 66
     1
 10
0.0
 20
0.0
 30
0.0
 70
     1
  0
VERTEX
  5
1A2
330
154
100
AcDbEntity
  8
DEFAULT
  6
CONTINUOUS
 62
     7
100
AcDbVertex
100
AcDb2dVertex
 10
10.413960665
 20
111.0861037085
 30
0.0
  0
VERTEX
  5
1A3
330
154
100
AcDbEntity
  8
DEFAULT
  6
CONTINUOUS
 62
     7
100
AcDbVertex
100
AcDb2dVertex
 10
10.9139606693
 20
114.0861037346
 30
0.0
  0
VERTEX
  5
1A4
330
154
100
AcDbEntity
  8
DEFAULT
  6
CONTINUOUS
 62
     7
100
AcDbVertex
100
AcDb2dVertex
 10
11.4139606737
 20
111.0861037085
 30
0.0
  0
VERTEX
  5
1A5
330
154
100
AcDbEntity
  8
DEFAULT
  6
CONTINUOUS
 62
     7
100
AcDbVertex
100
AcDb2dVertex
 10
10.413960665
 20
111.0861037085
 30
0.0
  0
SEQEND
  5
1A1
330
154
100
AcDbEntity
  8
DEFAULT
  6
CONTINUOUS
 62
     7
 48
25.4
  0
LINE
  5
155
330
151
100
AcDbEntity
  8
DEFAULT
  6
CONTINUOUS
 62
     7
 48
25.4
100
AcDbLine
 10
58.7000958958
 20
57.0861037346
 30
0.0
 11
9.4139606563
 21
57.0861037346
 31
0.0
  0
LINE
  5
156
330
151
100
AcDbEntity
  8
DEFAULT
  6
CONTINUOUS
 62
     7
 48
25.4
100
AcDbLine
 10
24.2000958958
 20
114.0861037346
 30
0.0
 11
9.4139606563
 21
114.0861037346
 31
0.0
  0
LINE
  5
157
330
151
100
AcDbEntity
  8
DEFAULT
  6
CONTINUOUS
 62
     7
 48
25.4
100
AcDbLine
 10
10.9139606693
 20
57.0861037346
 30
0.0
 11
10.9139606693
 21
114.0861037644
 31
0.0
  0
TEXT
  5
158
330
151
100
AcDbEntity
  8
DEFAULT
  6
CONTINUOUS
 62
     7
 48
25.4
100
AcDbText
 10
10.1639606693
 20
83.7792855677
 30
0.0
 40
3.0
  1
57
 50
90.0
  7
SEACAD_SEISO_TTF
 11
7.1639606693
 21
83.7792855677
 31
0.0
100
AcDbText
 73
     3
  0
ENDBLK
  5
15A
330
151
100
AcDbEntity
  8
0
100
AcDbBlockEnd
  0
BLOCK
  5
163
330
15B
100
AcDbEntity
  8
0
100
AcDbBlockBegin
  2
SE17
 70
     0
 71
     0
 10
0.0
 20
0.0
 30
0.0
  3
SE17
  1

  0
POLYLINE
  5
15D
330
15B
100
AcDbEntity
  8
DEFAULT
  6
CONTINUOUS
 62
     7
 48
25.4
100
AcDb2dPolyline
 66
     1
 10
0.0
 20
0.0
 30
0.0
 70
     1
  0
VERTEX
  5
1A7
330
15D
100
AcDbEntity
  8
DEFAULT
  6
CONTINUOUS
 62
     7
100
AcDbVertex
100
AcDb2dVertex
 10
10.4139598007
 20
117.0861037607
 30
0.0
  0
VERTEX
  5
1A8
330
15D
100
AcDbEntity
  8
DEFAULT
  6
CONTINUOUS
 62
     7
100
AcDbVertex
100
AcDb2dVertex
 10
10.9139598051
 20
114.0861037346
 30
0.0
  0
VERTEX
  5
1A9
330
15D
100
AcDbEntity
  8
DEFAULT
  6
CONTINUOUS
 62
     7
100
AcDbVertex
100
AcDb2dVertex
 10
11.4139598094
 20
117.0861037607
 30
0.0
  0
VERTEX
  5
1AA
330
15D
100
AcDbEntity
  8
DEFAULT
  6
CONTINUOUS
 62
     7
100
AcDbVertex
100
AcDb2dVertex
 10
10.4139598007
 20
117.0861037607
 30
0.0
  0
SEQEND
  5
1A6
330
15D
100
AcDbEntity
  8
DEFAULT
  6
CONTINUOUS
 62
     7
 48
25.4
  0
POLYLINE
  5
15E
330
15B
100
AcDbEntity
  8
DEFAULT
  6
CONTINUOUS
 62
     7
 48
25.4
100
AcDb2dPolyline
 66
     1
 10
0.0
 20
0.0
 30
0.0
 70
     1
  0
VERTEX
  5
1AC
330
15E
100
AcDbEntity
  8
DEFAULT
  6
CONTINUOUS
 62
     7
100
AcDbVertex
100
AcDb2dVertex
 10
10.4139598007
 20
146.0861037085
 30
0.0
  0
VERTEX
  5
1AD
330
15E
100
AcDbEntity
  8
DEFAULT
  6
CONTINUOUS
 62
     7
100
AcDbVertex
100
AcDb2dVertex
 10
10.9139598051
 20
149.0861037346
 30
0.0
  0
VERTEX
  5
1AE
330
15E
100
AcDbEntity
  8
DEFAULT
  6
CONTINUOUS
 62
     7
100
AcDbVertex
100
AcDb2dVertex
 10
11.4139598094
 20
146.0861037085
 30
0.0
  0
VERTEX
  5
1AF
330
15E
100
AcDbEntity
  8
DEFAULT
  6
CONTINUOUS
 62
     7
100
AcDbVertex
100
AcDb2dVertex
 10
10.4139598007
 20
146.0861037085
 30
0.0
  0
SEQEND
  5
1AB
330
15E
100
AcDbEntity
  8
DEFAULT
  6
CONTINUOUS
 62
     7
 48
25.4
  0
LINE
  5
15F
330
15B
100
AcDbEntity
  8
DEFAULT
  6
CONTINUOUS
 62
     7
 48
25.4
100
AcDbLine
 10
24.2000958958
 20
114.0861037346
 30
0.0
 11
9.413959792
 21
114.0861037346
 31
0.0
  0
LINE
  5
160
330
15B
100
AcDbEntity
  8
DEFAULT
  6
CONTINUOUS
 62
     7
 48
25.4
100
AcDbLine
 10
55.6400958958
 20
149.0861037346
 30
0.0
 11
9.413959792
 21
149.0861037346
 31
0.0
  0
LINE
  5
161
330
15B
100
AcDbEntity
  8
DEFAULT
  6
CONTINUOUS
 62
     7
 48
25.4
100
AcDbLine
 10
10.9139598051
 20
114.0861037346
 30
0.0
 11
10.9139598051
 21
149.0861038836
 31
0.0
  0
TEXT
  5
162
330
15B
100
AcDbEntity
  8
DEFAULT
  6
CONTINUOUS
 62
     7
 48
25.4
100
AcDbText
 10
10.1639598051
 20
129.9497401727
 30
0.0
 40
3.0
  1
35
 50
90.0
  7
SEACAD_SEISO_TTF
 11
7.1639598051
 21
129.9497401727
 31
0.0
100
AcDbText
 73
     3
  0
ENDBLK
  5
164
330
15B
100
AcDbEntity
  8
0
100
AcDbBlockEnd
  0
BLOCK
  5
16D
330
165
100
AcDbEntity
  8
0
100
AcDbBlockBegin
  2
SE18
 70
     0
 71
     0
 10
0.0
 20
0.0
 30
0.0
  3
SE18
  1

  0
POLYLINE
  5
167
330
165
100
AcDbEntity
  8
DEFAULT
  6
CONTINUOUS
 62
     7
 48
25.4
100
AcDb2dPolyline
 66
     1
 10
0.0
 20
0.0
 30
0.0
 70
     1
  0
VERTEX
  5
1B1
330
167
100
AcDbEntity
  8
DEFAULT
  6
CONTINUOUS
 62
     7
100
AcDbVertex
100
AcDb2dVertex
 10
27.2000959219
 20
262.5043187165
 30
0.0
  0
VERTEX
  5
1B2
330
167
100
AcDbEntity
  8
DEFAULT
  6
CONTINUOUS
 62
     7
100
AcDbVertex
100
AcDb2dVertex
 10
24.2000958958
 20
262.0043187121
 30
0.0
  0
VERTEX
  5
1B3
330
167
100
AcDbEntity
  8
DEFAULT
  6
CONTINUOUS
 62
     7
100
AcDbVertex
100
AcDb2dVertex
 10
27.2000959219
 20
261.5043187078
 30
0.0
  0
VERTEX
  5
1B4
330
167
100
AcDbEntity
  8
DEFAULT
  6
CONTINUOUS
 62
     7
100
AcDbVertex
100
AcDb2dVertex
 10
27.2000959219
 20
262.5043187165
 30
0.0
  0
SEQEND
  5
1B0
330
167
100
AcDbEntity
  8
DEFAULT
  6
CONTINUOUS
 62
     7
 48
25.4
  0
POLYLINE
  5
168
330
165
100
AcDbEntity
  8
DEFAULT
  6
CONTINUOUS
 62
     7
 48
25.4
100
AcDb2dPolyline
 66
     1
 10
0.0
 20
0.0
 30
0.0
 70
     1
  0
VERTEX
  5
1B6
330
168
100
AcDbEntity
  8
DEFAULT
  6
CONTINUOUS
 62
     7
100
AcDbVertex
100
AcDb2dVertex
 10
90.2000958697
 20
262.5043187165
 30
0.0
  0
VERTEX
  5
1B7
330
168
100
AcDbEntity
  8
DEFAULT
  6
CONTINUOUS
 62
     7
100
AcDbVertex
100
AcDb2dVertex
 10
93.2000958958
 20
262.0043187121
 30
0.0
  0
VERTEX
  5
1B8
330
168
100
AcDbEntity
  8
DEFAULT
  6
CONTINUOUS
 62
     7
100
AcDbVertex
100
AcDb2dVertex
 10
90.2000958697
 20
261.5043187078
 30
0.0
  0
VERTEX
  5
1B9
330
168
100
AcDbEntity
  8
DEFAULT
  6
CONTINUOUS
 62
     7
100
AcDbVertex
100
AcDb2dVertex
 10
90.2000958697
 20
262.5043187165
 30
0.0
  0
SEQEND
  5
1B5
330
168
100
AcDbEntity
  8
DEFAULT
  6
CONTINUOUS
 62
     7
 48
25.4
  0
LINE
  5
169
330
165
100
AcDbEntity
  8
DEFAULT
  6
CONTINUOUS
 62
     7
 48
25.4
100
AcDbLine
 10
24.2000958958
 20
200.8821508566
 30
0.0
 11
24.2000958958
 21
263.5043187252
 31
0.0
  0
LINE
  5
16A
330
165
100
AcDbEntity
  8
DEFAULT
  6
CONTINUOUS
 62
     7
 48
25.4
100
AcDbLine
 10
93.2000958958
 20
200.8821508566
 30
0.0
 11
93.2000958958
 21
263.5043187252
 31
0.0
  0
LINE
  5
16B
330
165
100
AcDbEntity
  8
DEFAULT
  6
CONTINUOUS
 62
     7
 48
25.4
100
AcDbLine
 10
24.2000958958
 20
262.0043187121
 30
0.0
 11
93.2000941673
 21
262.0043187121
 31
0.0
  0
TEXT
  5
16C
330
165
100
AcDbEntity
  8
DEFAULT
  6
CONTINUOUS
 62
     7
 48
25.4
100
AcDbText
 10
60.5410041225
 20
261.2543187121
 30
0.0
 40
3.0
  1
69
 50
180.0
  7
SEACAD_SEISO_TTF
 11
60.5410041225
 21
258.2543187121
 31
0.0
100
AcDbText
 73
     3
  0
ENDBLK
  5
16E
330
165
100
AcDbEntity
  8
0
100
AcDbBlockEnd
  0
BLOCK
  5
177
330
16F
100
AcDbEntity
  8
0
100
AcDbBlockBegin
  2
SE19
 70
     0
 71
     0
 10
0.0
 20
0.0
 30
0.0
  3
SE19
  1

  0
POLYLINE
  5
171
330
16F
100
AcDbEntity
  8
DEFAULT
  6
CONTINUOUS
 62
     7
 48
25.4
100
AcDb2dPolyline
 66
     1
 10
0.0
 20
0.0
 30
0.0
 70
     1
  0
VERTEX
  5
1BB
330
171
100
AcDbEntity
  8
DEFAULT
  6
CONTINUOUS
 62
     7
100
AcDbVertex
100
AcDb2dVertex
 10
40.2000959219
 20
253.1957756602
 30
0.0
  0
VERTEX
  5
1BC
330
171
100
AcDbEntity
  8
DEFAULT
  6
CONTINUOUS
 62
     7
100
AcDbVertex
100
AcDb2dVertex
 10
37.2000958958
 20
252.6957756559
 30
0.0
  0
VERTEX
  5
1BD
330
171
100
AcDbEntity
  8
DEFAULT
  6
CONTINUOUS
 62
     7
100
AcDbVertex
100
AcDb2dVertex
 10
40.2000959219
 20
252.1957756515
 30
0.0
  0
VERTEX
  5
1BE
330
171
100
AcDbEntity
  8
DEFAULT
  6
CONTINUOUS
 62
     7
100
AcDbVertex
100
AcDb2dVertex
 10
40.2000959219
 20
253.1957756602
 30
0.0
  0
SEQEND
  5
1BA
330
171
100
AcDbEntity
  8
DEFAULT
  6
CONTINUOUS
 62
     7
 48
25.4
  0
POLYLINE
  5
172
330
16F
100
AcDbEntity
  8
DEFAULT
  6
CONTINUOUS
 62
     7
 48
25.4
100
AcDb2dPolyline
 66
     1
 10
0.0
 20
0.0
 30
0.0
 70
     1
  0
VERTEX
  5
1C0
330
172
100
AcDbEntity
  8
DEFAULT
  6
CONTINUOUS
 62
     7
100
AcDbVertex
100
AcDb2dVertex
 10
77.2000958697
 20
253.1957756602
 30
0.0
  0
VERTEX
  5
1C1
330
172
100
AcDbEntity
  8
DEFAULT
  6
CONTINUOUS
 62
     7
100
AcDbVertex
100
AcDb2dVertex
 10
80.2000958958
 20
252.6957756559
 30
0.0
  0
VERTEX
  5
1C2
330
172
100
AcDbEntity
  8
DEFAULT
  6
CONTINUOUS
 62
     7
100
AcDbVertex
100
AcDb2dVertex
 10
77.2000958697
 20
252.1957756515
 30
0.0
  0
VERTEX
  5
1C3
330
172
100
AcDbEntity
  8
DEFAULT
  6
CONTINUOUS
 62
     7
100
AcDbVertex
100
AcDb2dVertex
 10
77.2000958697
 20
253.1957756602
 30
0.0
  0
SEQEND
  5
1BF
330
172
100
AcDbEntity
  8
DEFAULT
  6
CONTINUOUS
 62
     7
 48
25.4
  0
LINE
  5
173
330
16F
100
AcDbEntity
  8
DEFAULT
  6
CONTINUOUS
 62
     7
 48
25.4
100
AcDbLine
 10
37.2000958958
 20
200.8821508566
 30
0.0
 11
37.2000958958
 21
254.1957756689
 31
0.0
  0
LINE
  5
174
330
16F
100
AcDbEntity
  8
DEFAULT
  6
CONTINUOUS
 62
     7
 48
25.4
100
AcDbLine
 10
80.2000958958
 20
200.8821508566
 30
0.0
 11
80.2000958958
 21
254.1957756689
 31
0.0
  0
LINE
  5
175
330
16F
100
AcDbEntity
  8
DEFAULT
  6
CONTINUOUS
 62
     7
 48
25.4
100
AcDbLine
 10
37.2000958958
 20
252.6957756559
 30
0.0
 11
80.2000973561
 21
252.6957756559
 31
0.0
  0
TEXT
  5
176
330
16F
100
AcDbEntity
  8
DEFAULT
  6
CONTINUOUS
 62
     7
 48
25.4
100
AcDbText
 10
60.3705511714
 20
251.9457756559
 30
0.0
 40
3.0
  1
43
 50
180.0
  7
SEACAD_SEISO_TTF
 11
60.3705511714
 21
248.9457756559
 31
0.0
100
AcDbText
 73
     3
  0
ENDBLK
  5
178
330
16F
100
AcDbEntity
  8
0
100
AcDbBlockEnd
  0
BLOCK
  5
181
330
179
100
AcDbEntity
  8
0
100
AcDbBlockBegin
  2
SE20
 70
     0
 71
     0
 10
0.0
 20
0.0
 30
0.0
  3
SE20
  1

  0
POLYLINE
  5
17B
330
179
100
AcDbEntity
  8
DEFAULT
  6
CONTINUOUS
 62
     7
 48
25.4
100
AcDb2dPolyline
 66
     1
 10
0.0
 20
0.0
 30
0.0
 70
     1
  0
VERTEX
  5
1C5
330
17B
100
AcDbEntity
  8
DEFAULT
  6
CONTINUOUS
 62
     7
100
AcDbVertex
100
AcDb2dVertex
 10
10.9505857373
 20
190.8821508827
 30
0.0
  0
VERTEX
  5
1C6
330
17B
100
AcDbEntity
  8
DEFAULT
  6
CONTINUOUS
 62
     7
100
AcDbVertex
100
AcDb2dVertex
 10
11.4505857417
 20
187.8821508566
 30
0.0
  0
VERTEX
  5
1C7
330
17B
100
AcDbEntity
  8
DEFAULT
  6
CONTINUOUS
 62
     7
100
AcDbVertex
100
AcDb2dVertex
 10
11.950585746
 20
190.8821508827
 30
0.0
  0
VERTEX
  5
1C8
330
17B
100
AcDbEntity
  8
DEFAULT
  6
CONTINUOUS
 62
     7
100
AcDbVertex
100
AcDb2dVertex
 10
10.9505857373
 20
190.8821508827
 30
0.0
  0
SEQEND
  5
1C4
330
17B
100
AcDbEntity
  8
DEFAULT
  6
CONTINUOUS
 62
     7
 48
25.4
  0
POLYLINE
  5
17C
330
179
100
AcDbEntity
  8
DEFAULT
  6
CONTINUOUS
 62
     7
 48
25.4
100
AcDb2dPolyline
 66
     1
 10
0.0
 20
0.0
 30
0.0
 70
     1
  0
VERTEX
  5
1CA
330
17C
100
AcDbEntity
  8
DEFAULT
  6
CONTINUOUS
 62
     7
100
AcDbVertex
100
AcDb2dVertex
 10
10.9505857373
 20
210.8821508305
 30
0.0
  0
VERTEX
  5
1CB
330
17C
100
AcDbEntity
  8
DEFAULT
  6
CONTINUOUS
 62
     7
100
AcDbVertex
100
AcDb2dVertex
 10
11.4505857417
 20
213.8821508566
 30
0.0
  0
VERTEX
  5
1CC
330
17C
100
AcDbEntity
  8
DEFAULT
  6
CONTINUOUS
 62
     7
100
AcDbVertex
100
AcDb2dVertex
 10
11.950585746
 20
210.8821508305
 30
0.0
  0
VERTEX
  5
1CD
330
17C
100
AcDbEntity
  8
DEFAULT
  6
CONTINUOUS
 62
     7
100
AcDbVertex
100
AcDb2dVertex
 10
10.9505857373
 20
210.8821508305
 30
0.0
  0
SEQEND
  5
1C9
330
17C
100
AcDbEntity
  8
DEFAULT
  6
CONTINUOUS
 62
     7
 48
25.4
  0
LINE
  5
17D
330
179
100
AcDbEntity
  8
DEFAULT
  6
CONTINUOUS
 62
     7
 48
25.4
100
AcDbLine
 10
37.2000958958
 20
187.8821508566
 30
0.0
 11
9.9505857287
 21
187.8821508566
 31
0.0
  0
LINE
  5
17E
330
179
100
AcDbEntity
  8
DEFAULT
  6
CONTINUOUS
 62
     7
 48
25.4
100
AcDbLine
 10
37.2000958958
 20
213.8821508566
 30
0.0
 11
9.9505857287
 21
213.8821508566
 31
0.0
  0
LINE
  5
17F
330
179
100
AcDbEntity
  8
DEFAULT
  6
CONTINUOUS
 62
     7
 48
25.4
100
AcDbLine
 10
11.4505857417
 20
187.8821508566
 30
0.0
 11
11.4505857417
 21
213.8821513931
 31
0.0
  0
TEXT
  5
180
330
179
100
AcDbEntity
  8
DEFAULT
  6
CONTINUOUS
 62
     7
 48
25.4
100
AcDbText
 10
10.7005857417
 20
199.0412420339
 30
0.0
 40
3.0
  1
26
 50
90.0
  7
SEACAD_SEISO_TTF
 11
7.7005857417
 21
199.0412420339
 31
0.0
100
AcDbText
 73
     3
  0
ENDBLK
  5
182
330
179
100
AcDbEntity
  8
0
100
AcDbBlockEnd
  0
ENDSEC
  0
SECTION
  2
ENTITIES
  0
INSERT
  5
2F
330
1F
100
AcDbEntity
  8
0
100
AcDbBlockReference
  2
SE
 10
0.0
 20
0.0
 30
0.0
  0
INSERT
  5
3B
330
1F
100
AcDbEntity
  8
0
100
AcDbBlockReference
  2
SE1
 10
0.0
 20
0.0
 30
0.0
  0
INSERT
  5
40
330
1F
100
AcDbEntity
  8
0
100
AcDbBlockReference
  2
SE2
 10
0.0
 20
0.0
 30
0.0
  0
INSERT
  5
45
330
1F
100
AcDbEntity
  8
0
100
AcDbBlockReference
  2
SE3
 10
0.0
 20
0.0
 30
0.0
  0
INSERT
  5
4A
330
1F
100
AcDbEntity
  8
0
100
AcDbBlockReference
  2
SE4
 10
0.0
 20
0.0
 30
0.0
  0
INSERT
  5
4F
330
1F
100
AcDbEntity
  8
0
100
AcDbBlockReference
  2
SE5
 10
0.0
 20
0.0
 30
0.0
  0
INSERT
  5
54
330
1F
100
AcDbEntity
  8
0
100
AcDbBlockReference
  2
SE6
 10
0.0
 20
0.0
 30
0.0
  0
INSERT
  5
59
330
1F
100
AcDbEntity
  8
0
100
AcDbBlockReference
  2
SE7
 10
0.0
 20
0.0
 30
0.0
  0
INSERT
  5
5E
330
1F
100
AcDbEntity
  8
0
100
AcDbBlockReference
  2
SE8
 10
0.0
 20
0.0
 30
0.0
  0
INSERT
  5
68
330
1F
100
AcDbEntity
  8
0
100
AcDbBlockReference
  2
SE9
 10
0.0
 20
0.0
 30
0.0
  0
INSERT
  5
72
330
1F
100
AcDbEntity
  8
0
100
AcDbBlockReference
  2
SE10
 10
0.0
 20
0.0
 30
0.0
  0
INSERT
  5
C2
330
1F
100
AcDbEntity
  8
0
100
AcDbBlockReference
  2
SE11
 10
0.0
 20
0.0
 30
0.0
  0
INSERT
  5
10D
330
1F
100
AcDbEntity
  8
0
100
AcDbBlockReference
  2
SE12
 10
0.0
 20
0.0
 30
0.0
  0
INSERT
  5
131
330
1F
100
AcDbEntity
  8
0
100
AcDbBlockReference
  2
SE13
 10
0.0
 20
0.0
 30
0.0
  0
INSERT
  5
13B
330
1F
100
AcDbEntity
  8
0
100
AcDbBlockReference
  2
SE14
 10
0.0
 20
0.0
 30
0.0
  0
INSERT
  5
147
330
1F
100
AcDbEntity
  8
0
100
AcDbBlockReference
  2
SE15
 10
0.0
 20
0.0
 30
0.0
  0
INSERT
  5
152
330
1F
100
AcDbEntity
  8
0
100
AcDbBlockReference
  2
SE16
 10
0.0
 20
0.0
 30
0.0
  0
INSERT
  5
15C
330
1F
100
AcDbEntity
  8
0
100
AcDbBlockReference
  2
SE17
 10
0.0
 20
0.0
 30
0.0
  0
INSERT
  5
166
330
1F
100
AcDbEntity
  8
0
100
AcDbBlockReference
  2
SE18
 10
0.0
 20
0.0
 30
0.0
  0
INSERT
  5
170
330
1F
100
AcDbEntity
  8
0
100
AcDbBlockReference
  2
SE19
 10
0.0
 20
0.0
 30
0.0
  0
INSERT
  5
17A
330
1F
100
AcDbEntity
  8
0
100
AcDbBlockReference
  2
SE20
 10
0.0
 20
0.0
 30
0.0
  0
ENDSEC
  0
SECTION
  2
OBJECTS
  0
DICTIONARY
  5
C
330
0
100
AcDbDictionary
  3
ACAD_GROUP
350
D
  3
ACAD_LAYOUT
350
1A
  3
ACAD_MLINESTYLE
350
17
  3
ACAD_PLOTSETTINGS
350
19
  3
ACAD_TABLESTYLE
350
2A
  3
ACDBVARIABLEDICTIONARY
350
2C
1001
ACAD
1000
TREAT_AS_HARD
1070
     0
  0
DICTIONARY
  5
1CE
330
29
100
AcDbDictionary
  3
ACAD_XREC_ROUNDTRIP
360
1CF
  0
DICTIONARY
  5
D
102
{ACAD_REACTORS
330
C
102
}
330
C
100
AcDbDictionary
1001
ACAD
1000
TREAT_AS_HARD
1070
     0
  0
DICTIONARY
  5
1A
102
{ACAD_REACTORS
330
C
102
}
330
C
100
AcDbDictionary
1001
ACAD
1000
TREAT_AS_HARD
1070
     0
  0
DICTIONARY
  5
17
102
{ACAD_REACTORS
330
C
102
}
330
C
100
AcDbDictionary
  3
STANDARD
350
18
1001
ACAD
1000
TREAT_AS_HARD
1070
     0
  0
DICTIONARY
  5
19
102
{ACAD_REACTORS
330
C
102
}
330
C
100
AcDbDictionary
1001
ACAD
1000
TREAT_AS_HARD
1070
     0
  0
DICTIONARY
  5
2A
102
{ACAD_REACTORS
330
C
102
}
330
C
100
AcDbDictionary
  3
STANDARD
350
2B
1001
ACAD
1000
TREAT_AS_HARD
1070
     0
  0
DICTIONARY
  5
2C
102
{ACAD_REACTORS
330
C
102
}
330
C
100
AcDbDictionary
  3
CTABLESTYLE
350
2D
1001
ACAD
1000
TREAT_AS_HARD
1070
     0
  0
XRECORD
  5
1CF
102
{ACAD_REACTORS
330
1CE
102
}
330
1CE
100
AcDbXrecord
102
UCS
 74
     0
 71
     1
 10
0.0
 20
0.0
 30
0.0
 10
1.0
 20
0.0
 30
0.0
 10
0.0
 20
1.0
 30
0.0
146
0.0
 79
     0
102
VIEW
281
     0
  0
MLINESTYLE
  5
18
102
{ACAD_REACTORS
330
17
102
}
330
17
100
AcDbMlineStyle
  2
Standard
 70
     0
  3

 62
   256
 51
90.0
 52
90.0
 71
     2
 49
0.5
 62
   256
  6
BYLAYER
 49
-0.5
 62
   256
  6
BYLAYER
  0
TABLESTYLE
  5
2B
102
{ACAD_REACTORS
330
2A
102
}
330
2A
100
AcDbTableStyle
  3
Standard
 70
     0
 71
     0
 40
0.06
 41
0.06
280
     0
281
     0
  7
STANDARD
140
0.18
170
     2
 62
     0
 63
     7
283
     0
274
    -2
284
     1
 64
     0
275
    -2
285
     1
 65
     0
276
    -2
286
     1
 66
     0
277
    -2
287
     1
 67
     0
278
    -2
288
     1
 68
     0
279
    -2
289
     1
 69
     0
  7
STANDARD
140
0.25
170
     5
 62
     0
 63
     7
283
     0
274
    -2
284
     1
 64
     0
275
    -2
285
     1
 65
     0
276
    -2
286
     1
 66
     0
277
    -2
287
     1
 67
     0
278
    -2
288
     1
 68
     0
279
    -2
289
     1
 69
     0
  7
STANDARD
140
0.18
170
     5
 62
     0
 63
     7
283
     0
274
    -2
284
     1
 64
     0
275
    -2
285
     1
 65
     0
276
    -2
286
     1
 66
     0
277
    -2
287
     1
 67
     0
278
    -2
288
     1
 68
     0
279
    -2
289
     1
 69
     0
  0
DICTIONARYVAR
  5
2D
102
{ACAD_REACTORS
330
2C
102
}
330
2C
100
DictionaryVariables
280
     0
  1
Standard
  0
ENDSEC
  0
EOF
