  0
SECTION
  2
HEADER
  9
$ACADVER
  1
AC1015
  9
$ACADMAINTVER
 70
     6
  9
$DWGCODEPAGE
  3
ANSI_1252
  9
$INSBASE
 10
0.0
 20
0.0
 30
0.0
  9
$EXTMIN
 10
0.0
 20
0.0
 30
0.0
  9
$EXTMAX
 10
210.0
 20
297.0
 30
0.0
  9
$LIMMIN
 10
0.0
 20
0.0
  9
$LIMMAX
 10
210.0
 20
297.0
  9
$ORTHOMODE
 70
     0
  9
$REGENMODE
 70
     1
  9
$FILLMODE
 70
     1
  9
$QTEXTMODE
 70
     0
  9
$MIRRTEXT
 70
     1
  9
$LTSCALE
 40
1.0
  9
$ATTMODE
 70
     1
  9
$TEXTSIZE
 40
0.2
  9
$TRACEWID
 40
0.05
  9
$TEXTSTYLE
  7
Standard
  9
$CLAYER
  8
0
  9
$CELTYPE
  6
ByLayer
  9
$CECOLOR
 62
   256
  9
$CELTSCALE
 40
25.4
  9
$DISPSILH
 70
     0
  9
$DIMSCALE
 40
1.0
  9
$DIMASZ
 40
0.18
  9
$DIMEXO
 40
0.0625
  9
$DIMDLI
 40
0.38
  9
$DIMRND
 40
0.0
  9
$DIMDLE
 40
0.0
  9
$DIMEXE
 40
0.18
  9
$DIMTP
 40
0.0
  9
$DIMTM
 40
0.0
  9
$DIMTXT
 40
0.18
  9
$DIMCEN
 40
0.09
  9
$DIMTSZ
 40
0.0
  9
$DIMTOL
 70
     0
  9
$DIMLIM
 70
     0
  9
$DIMTIH
 70
     1
  9
$DIMTOH
 70
     1
  9
$DIMSE1
 70
     0
  9
$DIMSE2
 70
     0
  9
$DIMTAD
 70
     0
  9
$DIMZIN
 70
     0
  9
$DIMBLK
  1

  9
$DIMASO
 70
     1
  9
$DIMSHO
 70
     1
  9
$DIMPOST
  1

  9
$DIMAPOST
  1

  9
$DIMALT
 70
     0
  9
$DIMALTD
 70
     2
  9
$DIMALTF
 40
25.4
  9
$DIMLFAC
 40
1.0
  9
$DIMTOFL
 70
     0
  9
$DIMTVP
 40
0.0
  9
$DIMTIX
 70
     0
  9
$DIMSOXD
 70
     0
  9
$DIMSAH
 70
     0
  9
$DIMBLK1
  1

  9
$DIMBLK2
  1

  9
$DIMSTYLE
  2
Standard
  9
$DIMCLRD
 70
     0
  9
$DIMCLRE
 70
     0
  9
$DIMCLRT
 70
     0
  9
$DIMTFAC
 40
1.0
  9
$DIMGAP
 40
0.09
  9
$DIMJUST
 70
     0
  9
$DIMSD1
 70
     0
  9
$DIMSD2
 70
     0
  9
$DIMTOLJ
 70
     1
  9
$DIMTZIN
 70
     0
  9
$DIMALTZ
 70
     0
  9
$DIMALTTZ
 70
     0
  9
$DIMUPT
 70
     0
  9
$DIMDEC
 70
     4
  9
$DIMTDEC
 70
     4
  9
$DIMALTU
 70
     2
  9
$DIMALTTD
 70
     2
  9
$DIMTXSTY
  7
Standard
  9
$DIMAUNIT
 70
     0
  9
$DIMADEC
 70
     0
  9
$DIMALTRND
 40
0.0
  9
$DIMAZIN
 70
     0
  9
$DIMDSEP
 70
    46
  9
$DIMATFIT
 70
     3
  9
$DIMFRAC
 70
     0
  9
$DIMLDRBLK
  1

  9
$DIMLUNIT
 70
     2
  9
$DIMLWD
 70
    -2
  9
$DIMLWE
 70
    -2
  9
$DIMTMOVE
 70
     0
  9
$LUNITS
 70
     2
  9
$LUPREC
 70
     4
  9
$SKETCHINC
 40
0.1
  9
$FILLETRAD
 40
0.5
  9
$AUNITS
 70
     0
  9
$AUPREC
 70
     0
  9
$MENU
  1
.
  9
$ELEVATION
 40
0.0
  9
$PELEVATION
 40
0.0
  9
$THICKNESS
 40
0.0
  9
$LIMCHECK
 70
     0
  9
$CHAMFERA
 40
0.5
  9
$CHAMFERB
 40
0.5
  9
$CHAMFERC
 40
1.0
  9
$CHAMFERD
 40
0.0
  9
$SKPOLY
 70
     0
  9
$TDCREATE
 40
2454286.398904224
  9
$TDUCREATE
 40
2454286.315570891
  9
$TDUPDATE
 40
2454286.398904236
  9
$TDUUPDATE
 40
2454286.315570903
  9
$TDINDWG
 40
0.0000000116
  9
$TDUSRTIMER
 40
0.0000000116
  9
$USRTIMER
 70
     1
  9
$ANGBASE
 50
0.0
  9
$ANGDIR
 70
     0
  9
$PDMODE
 70
     0
  9
$PDSIZE
 40
0.0
  9
$PLINEWID
 40
0.0
  9
$SPLFRAME
 70
     0
  9
$SPLINETYPE
 70
     6
  9
$SPLINESEGS
 70
     8
  9
$HANDSEED
  5
147
  9
$SURFTAB1
 70
     6
  9
$SURFTAB2
 70
     6
  9
$SURFTYPE
 70
     6
  9
$SURFU
 70
     6
  9
$SURFV
 70
     6
  9
$UCSBASE
  2

  9
$UCSNAME
  2

  9
$UCSORG
 10
0.0
 20
0.0
 30
0.0
  9
$UCSXDIR
 10
1.0
 20
0.0
 30
0.0
  9
$UCSYDIR
 10
0.0
 20
1.0
 30
0.0
  9
$UCSORTHOREF
  2

  9
$UCSORTHOVIEW
 70
     0
  9
$UCSORGTOP
 10
0.0
 20
0.0
 30
0.0
  9
$UCSORGBOTTOM
 10
0.0
 20
0.0
 30
0.0
  9
$UCSORGLEFT
 10
0.0
 20
0.0
 30
0.0
  9
$UCSORGRIGHT
 10
0.0
 20
0.0
 30
0.0
  9
$UCSORGFRONT
 10
0.0
 20
0.0
 30
0.0
  9
$UCSORGBACK
 10
0.0
 20
0.0
 30
0.0
  9
$PUCSBASE
  2

  9
$PUCSNAME
  2

  9
$PUCSORG
 10
0.0
 20
0.0
 30
0.0
  9
$PUCSXDIR
 10
1.0
 20
0.0
 30
0.0
  9
$PUCSYDIR
 10
0.0
 20
1.0
 30
0.0
  9
$PUCSORTHOREF
  2

  9
$PUCSORTHOVIEW
 70
     0
  9
$PUCSORGTOP
 10
0.0
 20
0.0
 30
0.0
  9
$PUCSORGBOTTOM
 10
0.0
 20
0.0
 30
0.0
  9
$PUCSORGLEFT
 10
0.0
 20
0.0
 30
0.0
  9
$PUCSORGRIGHT
 10
0.0
 20
0.0
 30
0.0
  9
$PUCSORGFRONT
 10
0.0
 20
0.0
 30
0.0
  9
$PUCSORGBACK
 10
0.0
 20
0.0
 30
0.0
  9
$USERI1
 70
     0
  9
$USERI2
 70
     0
  9
$USERI3
 70
     0
  9
$USERI4
 70
     0
  9
$USERI5
 70
     0
  9
$USERR1
 40
0.0
  9
$USERR2
 40
0.0
  9
$USERR3
 40
0.0
  9
$USERR4
 40
0.0
  9
$USERR5
 40
0.0
  9
$WORLDVIEW
 70
     1
  9
$SHADEDGE
 70
     3
  9
$SHADEDIF
 70
    70
  9
$TILEMODE
 70
     1
  9
$MAXACTVP
 70
    64
  9
$PINSBASE
 10
0.0
 20
0.0
 30
0.0
  9
$PLIMCHECK
 70
     0
  9
$PEXTMIN
 10
0.0
 20
0.0
 30
0.0
  9
$PEXTMAX
 10
210.0
 20
297.0
 30
0.0
  9
$PLIMMIN
 10
0.0
 20
0.0
  9
$PLIMMAX
 10
210.0
 20
297.0
  9
$UNITMODE
 70
     0
  9
$VISRETAIN
 70
     1
  9
$PLINEGEN
 70
     0
  9
$PSLTSCALE
 70
     1
  9
$TREEDEPTH
 70
  3020
  9
$CMLSTYLE
  2
Standard
  9
$CMLJUST
 70
     0
  9
$CMLSCALE
 40
1.0
  9
$PROXYGRAPHICS
 70
     1
  9
$MEASUREMENT
 70
     1
  9
$CELWEIGHT
370
    -1
  9
$ENDCAPS
280
     0
  9
$JOINSTYLE
280
     0
  9
$LWDISPLAY
290
     0
  9
$INSUNITS
 70
     1
  9
$HYPERLINKBASE
  1

  9
$STYLESHEET
  1

  9
$XEDIT
290
     1
  9
$CEPSNTYPE
380
     0
  9
$PSTYLEMODE
290
     1
  9
$FINGERPRINTGUID
  2
{D5E0DF3B-48D6-4732-A968-4712F8A0E3A3}
  9
$VERSIONGUID
  2
{FAEB1C32-E019-11D5-929B-00C0DF256EC4}
  9
$EXTNAMES
290
     1
  9
$PSVPSCALE
 40
0.0
  9
$OLESTARTUP
290
     0
  0
ENDSEC
  0
SECTION
  2
CLASSES
  0
CLASS
  1
ACDBDICTIONARYWDFLT
  2
AcDbDictionaryWithDefault
  3
ObjectDBX Classes
 90
        0
280
     0
281
     0
  0
CLASS
  1
SPATIAL_FILTER
  2
AcDbSpatialFilter
  3
ObjectDBX Classes
 90
        0
280
     0
281
     0
  0
CLASS
  1
ACDBPLACEHOLDER
  2
AcDbPlaceHolder
  3
ObjectDBX Classes
 90
        0
280
     0
281
     0
  0
CLASS
  1
LAYOUT
  2
AcDbLayout
  3
ObjectDBX Classes
 90
        0
280
     0
281
     0
  0
ENDSEC
  0
SECTION
  2
TABLES
  0
TABLE
  2
VPORT
  5
8
330
0
100
AcDbSymbolTable
 70
     1
  0
VPORT
  5
29
330
8
100
AcDbSymbolTableRecord
100
AcDbViewportTableRecord
  2
*Active
 70
     0
 10
0.0
 20
0.0
 11
1.0
 21
1.0
 12
10.4299065421
 22
4.5
 13
0.0
 23
0.0
 14
0.5
 24
0.5
 15
0.5
 25
0.5
 16
0.0
 26
0.0
 36
1.0
 17
0.0
 27
0.0
 37
0.0
 40
9.0
 41
1.9729729729
 42
50.0
 43
0.0
 44
0.0
 50
0.0
 51
0.0
 71
     0
 72
   100
 73
     1
 74
     3
 75
     0
 76
     0
 77
     0
 78
     0
281
     0
 65
     1
110
0.0
120
0.0
130
0.0
111
1.0
121
0.0
131
0.0
112
0.0
122
1.0
132
0.0
 79
     0
146
0.0
  0
ENDTAB
  0
TABLE
  2
LTYPE
  5
5
330
0
100
AcDbSymbolTable
 70
     2
  0
LTYPE
  5
14
330
5
100
AcDbSymbolTableRecord
100
AcDbLinetypeTableRecord
  2
ByBlock
 70
     0
  3

 72
    65
 73
     0
 40
0.0
  0
LTYPE
  5
15
330
5
100
AcDbSymbolTableRecord
100
AcDbLinetypeTableRecord
  2
ByLayer
 70
     0
  3

 72
    65
 73
     0
 40
0.0
  0
LTYPE
  5
16
330
5
100
AcDbSymbolTableRecord
100
AcDbLinetypeTableRecord
  2
Continuous
 70
     0
  3
Solid line
 72
    65
 73
     0
 40
0.0
  0
LTYPE
  5
2D
330
5
100
AcDbSymbolTableRecord
100
AcDbLinetypeTableRecord
  2
CENTER2
 70
     0
  3
___ _ ___ _ ___ _ ___ _ ___ _ ___ _ ___ _ ___ _
 72
    65
 73
     4
 40
1.125
 49
0.75
 74
     4
 75
     0
340
0
 46
0.0
 50
0.0
 44
0.0
 45
0.0
 49
-0.125
 74
     4
 75
     0
340
0
 46
0.0
 50
0.0
 44
0.0
 45
0.0
 49
0.125
 74
     4
 75
     0
340
0
 46
0.0
 50
0.0
 44
0.0
 45
0.0
 49
-0.125
 74
     4
 75
     0
340
0
 46
0.0
 50
0.0
 44
0.0
 45
0.0
  0
ENDTAB
  0
TABLE
  2
LAYER
  5
2
330
0
100
AcDbSymbolTable
 70
     4
  0
LAYER
  5
10
330
2
100
AcDbSymbolTableRecord
100
AcDbLayerTableRecord
  2
0
 70
     0
 62
     7
  6
Continuous
370
    -3
390
F
  0
LAYER
  5
2A
330
2
100
AcDbSymbolTableRecord
100
AcDbLayerTableRecord
  2
Default
 70
     0
 62
     7
  6
Continuous
370
    -3
390
F
  0
LAYER
  5
4C
330
2
100
AcDbSymbolTableRecord
100
AcDbLayerTableRecord
  2
MEGA_009641
 70
     0
 62
     7
  6
Continuous
370
    -3
390
F
  0
LAYER
  5
5E
330
2
100
AcDbSymbolTableRecord
100
AcDbLayerTableRecord
  2
MEGA_001463
 70
     0
 62
     7
  6
Continuous
370
    -3
390
F
  0
ENDTAB
  0
TABLE
  2
STYLE
  5
3
330
0
100
AcDbSymbolTable
 70
     3
  0
STYLE
  5
11
330
3
100
AcDbSymbolTableRecord
100
AcDbTextStyleTableRecord
  2
Standard
 70
     0
 40
0.0
 41
1.0
 50
0.0
 71
     0
 42
0.2
  3
txt
  4

  0
STYLE
  5
100
330
3
100
AcDbSymbolTableRecord
100
AcDbTextStyleTableRecord
  2
SEACAD_seiso_ttf
 70
     0
 40
0.2
 41
1.0
 50
0.0
 71
     0
 42
0.2
  3
seiso.ttf
  4

  0
STYLE
  5
102
330
3
100
AcDbSymbolTableRecord
100
AcDbTextStyleTableRecord
  2
SEACAD_semeci1_ttf
 70
     0
 40
0.2
 41
1.0
 50
0.0
 71
     0
 42
0.2
  3
semeci1.ttf
  4

  0
ENDTAB
  0
TABLE
  2
VIEW
  5
6
330
0
100
AcDbSymbolTable
 70
     0
  0
ENDTAB
  0
TABLE
  2
UCS
  5
7
330
0
100
AcDbSymbolTable
 70
     0
  0
ENDTAB
  0
TABLE
  2
APPID
  5
9
330
0
100
AcDbSymbolTable
 70
     1
  0
APPID
  5
12
330
9
100
AcDbSymbolTableRecord
100
AcDbRegAppTableRecord
  2
ACAD
 70
     0
  0
ENDTAB
  0
TABLE
  2
DIMSTYLE
  5
A
330
0
100
AcDbSymbolTable
 70
     1
100
AcDbDimStyleTable
  0
DIMSTYLE
105
27
330
A
100
AcDbSymbolTableRecord
100
AcDbDimStyleTableRecord
  2
Standard
 70
     0
340
11
  0
ENDTAB
  0
TABLE
  2
BLOCK_RECORD
  5
1
330
0
100
AcDbSymbolTable
 70
    16
  0
BLOCK_RECORD
  5
1F
330
1
100
AcDbSymbolTableRecord
100
AcDbBlockTableRecord
  2
*Model_Space
340
22
  0
BLOCK_RECORD
  5
1B
330
1
100
AcDbSymbolTableRecord
100
AcDbBlockTableRecord
  2
*Paper_Space
340
1E
  0
BLOCK_RECORD
  5
2B
330
1
100
AcDbSymbolTableRecord
100
AcDbBlockTableRecord
  2
SEANNOT_GROUP
340
0
102
{BLKREFS
331
2C
102
}
  0
BLOCK_RECORD
  5
31
330
1
100
AcDbSymbolTableRecord
100
AcDbBlockTableRecord
  2
SEANNOT_GROUP1
340
0
102
{BLKREFS
331
32
102
}
  0
BLOCK_RECORD
  5
36
330
1
100
AcDbSymbolTableRecord
100
AcDbBlockTableRecord
  2
SEANNOT_GROUP2
340
0
102
{BLKREFS
331
37
102
}
  0
BLOCK_RECORD
  5
3B
330
1
100
AcDbSymbolTableRecord
100
AcDbBlockTableRecord
  2
SEANNOT_GROUP3
340
0
102
{BLKREFS
331
3C
102
}
  0
BLOCK_RECORD
  5
40
330
1
100
AcDbSymbolTableRecord
100
AcDbBlockTableRecord
  2
SEANNOT_GROUP4
340
0
102
{BLKREFS
331
41
102
}
  0
BLOCK_RECORD
  5
45
330
1
100
AcDbSymbolTableRecord
100
AcDbBlockTableRecord
  2
SEANNOT_GROUP5
340
0
102
{BLKREFS
331
46
102
}
  0
BLOCK_RECORD
  5
4A
330
1
100
AcDbSymbolTableRecord
100
AcDbBlockTableRecord
  2
SE
340
0
102
{BLKREFS
331
4B
102
}
  0
BLOCK_RECORD
  5
7C
330
1
100
AcDbSymbolTableRecord
100
AcDbBlockTableRecord
  2
SE1
340
0
102
{BLKREFS
331
7D
102
}
  0
BLOCK_RECORD
  5
B9
330
1
100
AcDbSymbolTableRecord
100
AcDbBlockTableRecord
  2
SE2
340
0
102
{BLKREFS
331
BA
102
}
  0
BLOCK_RECORD
  5
F7
330
1
100
AcDbSymbolTableRecord
100
AcDbBlockTableRecord
  2
GDimGGroup
340
0
102
{BLKREFS
331
F8
102
}
  0
BLOCK_RECORD
  5
106
330
1
100
AcDbSymbolTableRecord
100
AcDbBlockTableRecord
  2
GDimGGroup1
340
0
102
{BLKREFS
331
107
102
}
  0
BLOCK_RECORD
  5
116
330
1
100
AcDbSymbolTableRecord
100
AcDbBlockTableRecord
  2
GDimGGroup2
340
0
102
{BLKREFS
331
117
102
}
  0
BLOCK_RECORD
  5
122
330
1
100
AcDbSymbolTableRecord
100
AcDbBlockTableRecord
  2
GDimGGroup3
340
0
102
{BLKREFS
331
123
102
}
  0
BLOCK_RECORD
  5
12E
330
1
100
AcDbSymbolTableRecord
100
AcDbBlockTableRecord
  2
GDimGGroup4
340
0
102
{BLKREFS
331
12F
102
}
  0
BLOCK_RECORD
  5
13A
330
1
100
AcDbSymbolTableRecord
100
AcDbBlockTableRecord
  2
GDimGGroup5
340
0
102
{BLKREFS
331
13B
102
}
  0
ENDTAB
  0
ENDSEC
  0
SECTION
  2
BLOCKS
  0
BLOCK
  5
20
330
1F
100
AcDbEntity
  8
0
100
AcDbBlockBegin
  2
*Model_Space
 70
     0
 71
     0
 10
0.0
 20
0.0
 30
0.0
  3
*Model_Space
  1

  0
ENDBLK
  5
21
330
1F
100
AcDbEntity
  8
0
100
AcDbBlockEnd
  0
BLOCK
  5
1C
330
1B
100
AcDbEntity
 67
     1
  8
0
100
AcDbBlockBegin
  2
*Paper_Space
 70
     0
 71
     0
 10
0.0
 20
0.0
 30
0.0
  3
*Paper_Space
  1

  0
ENDBLK
  5
1D
330
1B
100
AcDbEntity
 67
     1
  8
0
100
AcDbBlockEnd
  0
BLOCK
  5
2F
330
2B
100
AcDbEntity
  8
0
100
AcDbBlockBegin
  2
SEANNOT_GROUP
 70
     0
 71
     0
 10
0.0
 20
0.0
 30
0.0
  3
SEANNOT_GROUP
  1

  0
LINE
  5
2E
330
2B
100
AcDbEntity
  8
Default
  6
CENTER2
 62
     7
 48
25.4
100
AcDbLine
 10
126.5339008691
 20
173.7779376933
 30
0.0
 11
126.5339008691
 21
227.2791560392
 31
0.0
  0
ENDBLK
  5
30
330
2B
100
AcDbEntity
  8
0
100
AcDbBlockEnd
  0
BLOCK
  5
34
330
31
100
AcDbEntity
  8
0
100
AcDbBlockBegin
  2
SEANNOT_GROUP1
 70
     0
 71
     0
 10
0.0
 20
0.0
 30
0.0
  3
SEANNOT_GROUP1
  1

  0
LINE
  5
33
330
31
100
AcDbEntity
  8
Default
  6
CENTER2
 62
     7
 48
25.4
100
AcDbLine
 10
153.2845100421
 20
200.5285468662
 30
0.0
 11
99.7248807468
 21
200.5285468662
 31
0.0
  0
ENDBLK
  5
35
330
31
100
AcDbEntity
  8
0
100
AcDbBlockEnd
  0
BLOCK
  5
39
330
36
100
AcDbEntity
  8
0
100
AcDbBlockBegin
  2
SEANNOT_GROUP2
 70
     0
 71
     0
 10
0.0
 20
0.0
 30
0.0
  3
SEANNOT_GROUP2
  1

  0
LINE
  5
38
330
36
100
AcDbEntity
  8
Default
  6
CENTER2
 62
     7
 48
25.4
100
AcDbLine
 10
50.9793792203
 20
200.5285468662
 30
0.0
 11
37.6193029865
 21
200.5285468662
 31
0.0
  0
ENDBLK
  5
3A
330
36
100
AcDbEntity
  8
0
100
AcDbBlockEnd
  0
BLOCK
  5
3E
330
3B
100
AcDbEntity
  8
0
100
AcDbBlockBegin
  2
SEANNOT_GROUP3
 70
     0
 71
     0
 10
0.0
 20
0.0
 30
0.0
  3
SEANNOT_GROUP3
  1

  0
LINE
  5
3D
330
3B
100
AcDbEntity
  8
Default
  6
CENTER2
 62
     7
 48
25.4
100
AcDbLine
 10
107.5339008691
 20
123.2386316778
 30
0.0
 11
107.5339008691
 21
130.7735311745
 31
0.0
  0
ENDBLK
  5
3F
330
3B
100
AcDbEntity
  8
0
100
AcDbBlockEnd
  0
BLOCK
  5
43
330
40
100
AcDbEntity
  8
0
100
AcDbBlockBegin
  2
SEANNOT_GROUP4
 70
     0
 71
     0
 10
0.0
 20
0.0
 30
0.0
  3
SEANNOT_GROUP4
  1

  0
LINE
  5
42
330
40
100
AcDbEntity
  8
Default
  6
CENTER2
 62
     7
 48
25.4
100
AcDbLine
 10
145.5339008691
 20
123.2386316778
 30
0.0
 11
145.5339008691
 21
130.7735311745
 31
0.0
  0
ENDBLK
  5
44
330
40
100
AcDbEntity
  8
0
100
AcDbBlockEnd
  0
BLOCK
  5
48
330
45
100
AcDbEntity
  8
0
100
AcDbBlockBegin
  2
SEANNOT_GROUP5
 70
     0
 71
     0
 10
0.0
 20
0.0
 30
0.0
  3
SEANNOT_GROUP5
  1

  0
LINE
  5
47
330
45
100
AcDbEntity
  8
Default
  6
CENTER2
 62
     7
 48
25.4
100
AcDbLine
 10
126.5339008691
 20
116.666918003
 30
0.0
 11
126.5339008691
 21
130.2909809228
 31
0.0
  0
ENDBLK
  5
49
330
45
100
AcDbEntity
  8
0
100
AcDbBlockEnd
  0
BLOCK
  5
7A
330
4A
100
AcDbEntity
  8
0
100
AcDbBlockBegin
  2
SE
 70
     0
 71
     0
 10
0.0
 20
0.0
 30
0.0
  3
SE
  1

  0
LINE
  5
4D
330
4A
100
AcDbEntity
  8
MEGA_009641
  6
Continuous
 62
     7
 48
25.4
100
AcDbLine
 10
40.6441875223
 20
226.3352639168
 30
0.0
 11
46.179087019
 21
226.5285468662
 31
0.0
  0
LINE
  5
4E
330
4A
100
AcDbEntity
  8
MEGA_009641
  6
Continuous
 62
     7
 48
25.4
100
AcDbLine
 10
46.179087019
 20
175.5279376933
 30
0.0
 11
46.179087019
 21
225.5291560392
 31
0.0
  0
LINE
  5
4F
330
4A
100
AcDbEntity
  8
MEGA_009641
  6
Continuous
 62
     7
 48
25.4
100
AcDbLine
 10
46.179087019
 20
175.5279376933
 30
0.0
 11
46.179087019
 21
174.5285468662
 31
0.0
  0
LINE
  5
50
330
4A
100
AcDbEntity
  8
MEGA_009641
  6
Continuous
 62
     7
 48
25.4
100
AcDbLine
 10
46.179087019
 20
226.5285468662
 30
0.0
 11
46.179087019
 21
225.5291560392
 31
0.0
  0
LINE
  5
51
330
4A
100
AcDbEntity
  8
MEGA_009641
  6
Continuous
 62
     7
 48
25.4
100
AcDbLine
 10
40.6441875223
 20
225.3358730897
 30
0.0
 11
40.6441875223
 21
175.7212206427
 31
0.0
  0
LINE
  5
52
330
4A
100
AcDbEntity
  8
MEGA_009641
  6
Continuous
 62
     7
 48
25.4
100
AcDbLine
 10
40.6441875223
 20
175.7212206427
 30
0.0
 11
46.179087019
 21
175.5279376933
 31
0.0
  0
LINE
  5
53
330
4A
100
AcDbEntity
  8
MEGA_009641
  6
Continuous
 62
     7
 48
25.4
100
AcDbLine
 10
46.179087019
 20
225.5291560392
 30
0.0
 11
40.6441875223
 21
225.3358730897
 31
0.0
  0
LINE
  5
54
330
4A
100
AcDbEntity
  8
MEGA_009641
  6
Continuous
 62
     7
 48
25.4
100
AcDbLine
 10
46.179087019
 20
174.5285468662
 30
0.0
 11
40.6441875223
 21
174.7218298157
 31
0.0
  0
LINE
  5
55
330
4A
100
AcDbEntity
  8
MEGA_009641
  6
Continuous
 62
     7
 48
25.4
100
AcDbLine
 10
39.679087019
 20
175.7212206427
 30
0.0
 11
39.679087019
 21
225.3358730897
 31
0.0
  0
ELLIPSE
  5
56
330
4A
100
AcDbEntity
  8
MEGA_009641
  6
Continuous
 62
     7
 48
25.4
100
AcDbEllipse
 10
40.679087019
 20
175.7212206427
 30
0.0
 11
-0.03489949670250001
 21
-0.9993908270190949
 31
0.0
210
0.0
220
0.0
230
1.0
 40
0.0348782627
 41
4.713606955555914
 42
6.283185307179586
  0
ARC
  5
57
330
4A
100
AcDbEntity
  8
MEGA_009641
  6
Continuous
 62
     7
 48
25.4
100
AcDbCircle
 10
40.679087019
 20
175.7212206427
 30
0.0
 40
1.0
100
AcDbArc
 50
180.0
 51
268.0
  0
LINE
  5
58
330
4A
100
AcDbEntity
  8
MEGA_009641
  6
Continuous
 62
     7
 48
25.4
100
AcDbLine
 10
39.679087019
 20
175.7212206427
 30
0.0
 11
40.6441875223
 21
175.7212206427
 31
0.0
  0
LINE
  5
59
330
4A
100
AcDbEntity
  8
MEGA_009641
  6
Continuous
 62
     7
 48
25.4
100
AcDbLine
 10
39.679087019
 20
225.3358730897
 30
0.0
 11
40.6441875223
 21
225.3358730897
 31
0.0
  0
ARC
  5
5A
330
4A
100
AcDbEntity
  8
MEGA_009641
  6
Continuous
 62
     7
 48
25.4
100
AcDbCircle
 10
40.679087019
 20
225.3358730897
 30
0.0
 40
0.9999999999999991
100
AcDbArc
 50
92.0
 51
180.0
  0
ELLIPSE
  5
5B
330
4A
100
AcDbEntity
  8
MEGA_009641
  6
Continuous
 62
     7
 48
25.4
100
AcDbEllipse
 10
40.679087019
 20
225.3358730897
 30
0.0
 11
-0.03489949670250087
 21
0.9993908270190949
 31
0.0
210
0.0
220
0.0
230
1.0
 40
0.0348782627
 41
0.0
 42
1.569578351623672
  0
LINE
  5
5C
330
4A
100
AcDbEntity
  8
MEGA_009641
  6
Continuous
 62
     7
 48
25.4
100
AcDbLine
 10
46.179087019
 20
226.5285468662
 30
0.0
 11
45.179087019
 21
226.4936260968
 31
0.0
  0
LINE
  5
5D
330
4A
100
AcDbEntity
  8
MEGA_009641
  6
Continuous
 62
     7
 48
25.4
100
AcDbLine
 10
44.6649189606
 20
226.4756709525
 30
0.0
 11
44.179087019
 21
226.4587053273
 31
0.0
  0
LINE
  5
5F
330
4A
100
AcDbEntity
  8
MEGA_001463
  6
Continuous
 62
     7
 48
25.4
100
AcDbLine
 10
49.2139865157
 20
189.6694486615
 30
0.0
 11
49.2139865157
 21
197.1694486615
 31
0.0
  0
LINE
  5
60
330
4A
100
AcDbEntity
  8
MEGA_001463
  6
Continuous
 62
     7
 48
25.4
100
AcDbLine
 10
49.2139865157
 20
203.887645071
 30
0.0
 11
49.2139865157
 21
211.387645071
 31
0.0
  0
LINE
  5
61
330
4A
100
AcDbEntity
  8
MEGA_001463
  6
Continuous
 62
     7
 48
25.4
100
AcDbLine
 10
50.179087019
 20
190.6688394885
 30
0.0
 11
50.179087019
 21
197.6859951011
 31
0.0
  0
LINE
  5
62
330
4A
100
AcDbEntity
  8
MEGA_001463
  6
Continuous
 62
     7
 48
25.4
100
AcDbLine
 10
50.179087019
 20
203.3710986314
 30
0.0
 11
50.179087019
 21
210.388254244
 31
0.0
  0
LINE
  5
63
330
4A
100
AcDbEntity
  8
MEGA_001463
  6
Continuous
 62
     7
 48
25.4
100
AcDbLine
 10
38.179087019
 20
190.1330152246
 30
0.0
 11
38.179087019
 21
210.9240785079
 31
0.0
  0
LINE
  5
64
330
4A
100
AcDbEntity
  8
MEGA_001463
  6
Continuous
 62
     7
 48
25.4
100
AcDbLine
 10
38.6787824325
 20
189.6333198111
 30
0.0
 11
38.6787824325
 21
211.4237739214
 31
0.0
  0
LINE
  5
65
330
4A
100
AcDbEntity
  8
MEGA_001463
  6
Continuous
 62
     7
 48
25.4
100
AcDbLine
 10
45.179087019
 20
226.5285468662
 30
0.0
 11
45.179087019
 21
226.4936260968
 31
0.0
  0
LINE
  5
66
330
4A
100
AcDbEntity
  8
MEGA_001463
  6
Continuous
 62
     7
 48
25.4
100
AcDbLine
 10
44.679087019
 20
226.5285468662
 30
0.0
 11
44.679087019
 21
226.476165712
 31
0.0
  0
LINE
  5
67
330
4A
100
AcDbEntity
  8
MEGA_001463
  6
Continuous
 62
     7
 48
25.4
100
AcDbLine
 10
50.179087019
 20
197.6859951011
 30
0.0
 11
50.179087019
 21
203.3710986314
 31
0.0
  0
LINE
  5
68
330
4A
100
AcDbEntity
  8
MEGA_001463
  6
Continuous
 62
     7
 48
25.4
100
AcDbLine
 10
49.6965367673
 20
203.8707940449
 30
0.0
 11
49.6965367673
 21
197.1862996876
 31
0.0
  0
ARC
  5
69
330
4A
100
AcDbEntity
  8
MEGA_001463
  6
Continuous
 62
     7
 48
25.4
100
AcDbCircle
 10
49.179087019
 20
190.6688394885
 30
0.0
 40
1.000000000000002
100
AcDbArc
 50
272.0
 51
360.0
  0
ARC
  5
6A
330
4A
100
AcDbEntity
  8
MEGA_001463
  6
Continuous
 62
     7
 48
25.4
100
AcDbCircle
 10
49.179087019
 20
210.388254244
 30
0.0
 40
0.9999999999999966
100
AcDbArc
 50
0.0
 51
88.0
  0
LINE
  5
6B
330
4A
100
AcDbEntity
  8
MEGA_001463
  6
Continuous
 62
     7
 48
25.4
100
AcDbLine
 10
38.6787824325
 20
211.4237739214
 30
0.0
 11
38.179087019
 21
210.9240785079
 31
0.0
  0
LINE
  5
6C
330
4A
100
AcDbEntity
  8
MEGA_001463
  6
Continuous
 62
     7
 48
25.4
100
AcDbLine
 10
38.179087019
 20
190.1330152246
 30
0.0
 11
38.6787824325
 21
189.6333198111
 31
0.0
  0
LINE
  5
6D
330
4A
100
AcDbEntity
  8
MEGA_001463
  6
Continuous
 62
     7
 48
25.4
100
AcDbLine
 10
39.679087019
 20
211.4587053273
 30
0.0
 11
38.6787824325
 21
211.4237739214
 31
0.0
  0
LINE
  5
6E
330
4A
100
AcDbEntity
  8
MEGA_001463
  6
Continuous
 62
     7
 48
25.4
100
AcDbLine
 10
38.6787824325
 20
189.6333198111
 30
0.0
 11
39.679087019
 21
189.5983884052
 31
0.0
  0
LINE
  5
6F
330
4A
100
AcDbEntity
  8
MEGA_001463
  6
Continuous
 62
     7
 48
25.4
100
AcDbLine
 10
46.179087019
 20
189.5634676357
 30
0.0
 11
49.2139865157
 21
189.6694486615
 31
0.0
  0
LINE
  5
70
330
4A
100
AcDbEntity
  8
MEGA_001463
  6
Continuous
 62
     7
 48
25.4
100
AcDbLine
 10
49.2139865157
 20
211.387645071
 30
0.0
 11
46.179087019
 21
211.4936260968
 31
0.0
  0
LINE
  5
71
330
4A
100
AcDbEntity
  8
MEGA_001463
  6
Continuous
 62
     7
 48
25.4
100
AcDbLine
 10
44.679087019
 20
226.5285468662
 30
0.0
 11
44.6649189606
 21
226.4756709525
 31
0.0
  0
LINE
  5
72
330
4A
100
AcDbEntity
  8
MEGA_001463
  6
Continuous
 62
     7
 48
25.4
100
AcDbLine
 10
45.179087019
 20
226.5285468662
 30
0.0
 11
44.679087019
 21
226.5285468662
 31
0.0
  0
LINE
  5
73
330
4A
100
AcDbEntity
  8
MEGA_001463
  6
Continuous
 62
     7
 48
25.4
100
AcDbLine
 10
46.179087019
 20
197.0634676357
 30
0.0
 11
49.6965367673
 21
197.1862996876
 31
0.0
  0
LINE
  5
74
330
4A
100
AcDbEntity
  8
MEGA_001463
  6
Continuous
 62
     7
 48
25.4
100
AcDbLine
 10
49.6965367673
 20
203.8707940449
 30
0.0
 11
46.179087019
 21
203.9936260968
 31
0.0
  0
ARC
  5
75
330
4A
100
AcDbEntity
  8
MEGA_001463
  6
Continuous
 62
     7
 48
25.4
100
AcDbCircle
 10
49.679087019
 20
203.3710986314
 30
0.0
 40
0.4999999999999996
100
AcDbArc
 50
0.0
 51
88.0
  0
ARC
  5
76
330
4A
100
AcDbEntity
  8
MEGA_001463
  6
Continuous
 62
     7
 48
25.4
100
AcDbCircle
 10
49.679087019
 20
197.6859951011
 30
0.0
 40
0.5
100
AcDbArc
 50
272.0
 51
360.0
  0
ENDBLK
  5
7B
330
4A
100
AcDbEntity
  8
0
100
AcDbBlockEnd
  0
BLOCK
  5
B7
330
7C
100
AcDbEntity
  8
0
100
AcDbBlockBegin
  2
SE1
 70
     0
 71
     0
 10
0.0
 20
0.0
 30
0.0
  3
SE1
  1

  0
LINE
  5
7E
330
7C
100
AcDbEntity
  8
MEGA_009641
  6
Continuous
 62
     7
 48
25.4
100
AcDbLine
 10
151.5345100421
 20
226.5285468662
 30
0.0
 11
129.0339008691
 21
226.5285468662
 31
0.0
  0
LINE
  5
7F
330
7C
100
AcDbEntity
  8
MEGA_009641
  6
Continuous
 62
     7
 48
25.4
100
AcDbLine
 10
101.7265746456
 20
226.3352639168
 30
0.0
 11
151.3412270926
 21
226.3352639168
 31
0.0
  0
LINE
  5
80
330
7C
100
AcDbEntity
  8
MEGA_009641
  6
Continuous
 62
     7
 48
25.4
100
AcDbLine
 10
101.5332916961
 20
226.5285468662
 30
0.0
 11
101.7265746456
 21
226.3352639168
 31
0.0
  0
LINE
  5
81
330
7C
100
AcDbEntity
  8
MEGA_009641
  6
Continuous
 62
     7
 48
25.4
100
AcDbLine
 10
151.3412270926
 20
226.3352639168
 30
0.0
 11
151.5345100421
 21
226.5285468662
 31
0.0
  0
LINE
  5
82
330
7C
100
AcDbEntity
  8
MEGA_009641
  6
Continuous
 62
     7
 48
25.4
100
AcDbLine
 10
101.5332916961
 20
174.5285468662
 30
0.0
 11
151.5345100421
 21
174.5285468662
 31
0.0
  0
LINE
  5
83
330
7C
100
AcDbEntity
  8
MEGA_009641
  6
Continuous
 62
     7
 48
25.4
100
AcDbLine
 10
100.5339008691
 20
225.5291560392
 30
0.0
 11
100.5339008691
 21
175.5279376933
 31
0.0
  0
LINE
  5
84
330
7C
100
AcDbEntity
  8
MEGA_009641
  6
Continuous
 62
     7
 48
25.4
100
AcDbLine
 10
152.5339008691
 20
175.5279376933
 30
0.0
 11
152.5339008691
 21
225.5291560392
 31
0.0
  0
ELLIPSE
  5
85
330
7C
100
AcDbEntity
  8
MEGA_009641
  6
Continuous
 62
     7
 48
25.4
100
AcDbEllipse
 10
101.5345104134
 20
175.5291564105
 30
0.0
 11
0.7079685445991905
 21
0.7079685445991905
 31
0.0
210
0.0
220
0.0
230
1.0
 40
0.998782766
 41
2.356803477777962
 42
3.926381829401639
  0
ELLIPSE
  5
86
330
7C
100
AcDbEntity
  8
MEGA_009641
  6
Continuous
 62
     7
 48
25.4
100
AcDbEllipse
 10
101.5345104134
 20
225.5279373219
 30
0.0
 11
0.7079685445991905
 21
-0.7079685445991905
 31
0.0
210
0.0
220
0.0
230
1.0
 40
0.998782766
 41
2.356803477777919
 42
3.926381829401653
  0
ELLIPSE
  5
87
330
7C
100
AcDbEntity
  8
MEGA_009641
  6
Continuous
 62
     7
 48
25.4
100
AcDbEllipse
 10
151.5332913248
 20
175.5291564105
 30
0.0
 11
-0.7079685445991905
 21
0.7079685445991905
 31
0.0
210
0.0
220
0.0
230
1.0
 40
0.998782766
 41
2.356803477777919
 42
3.926381829401639
  0
ELLIPSE
  5
88
330
7C
100
AcDbEntity
  8
MEGA_009641
  6
Continuous
 62
     7
 48
25.4
100
AcDbEllipse
 10
151.5332913248
 20
225.5279373219
 30
0.0
 11
-0.7079685445991905
 21
-0.7079685445991905
 31
0.0
210
0.0
220
0.0
230
1.0
 40
0.998782766
 41
2.356803477777919
 42
3.926381829401667
  0
LINE
  5
89
330
7C
100
AcDbEntity
  8
MEGA_009641
  6
Continuous
 62
     7
 48
25.4
100
AcDbLine
 10
152.3406179196
 20
225.3358730897
 30
0.0
 11
152.3406179196
 21
175.7212206427
 31
0.0
  0
LINE
  5
8A
330
7C
100
AcDbEntity
  8
MEGA_009641
  6
Continuous
 62
     7
 48
25.4
100
AcDbLine
 10
152.3406179196
 20
175.7212206427
 30
0.0
 11
152.5339008691
 21
175.5279376933
 31
0.0
  0
LINE
  5
8B
330
7C
100
AcDbEntity
  8
MEGA_009641
  6
Continuous
 62
     7
 48
25.4
100
AcDbLine
 10
152.5339008691
 20
225.5291560392
 30
0.0
 11
152.3406179196
 21
225.3358730897
 31
0.0
  0
LINE
  5
8C
330
7C
100
AcDbEntity
  8
MEGA_009641
  6
Continuous
 62
     7
 48
25.4
100
AcDbLine
 10
101.7265746456
 20
174.7218298157
 30
0.0
 11
101.5332916961
 21
174.5285468662
 31
0.0
  0
LINE
  5
8D
330
7C
100
AcDbEntity
  8
MEGA_009641
  6
Continuous
 62
     7
 48
25.4
100
AcDbLine
 10
151.3412270926
 20
174.7218298157
 30
0.0
 11
101.7265746456
 21
174.7218298157
 31
0.0
  0
LINE
  5
8E
330
7C
100
AcDbEntity
  8
MEGA_009641
  6
Continuous
 62
     7
 48
25.4
100
AcDbLine
 10
151.5345100421
 20
174.5285468662
 30
0.0
 11
151.3412270926
 21
174.7218298157
 31
0.0
  0
LINE
  5
8F
330
7C
100
AcDbEntity
  8
MEGA_009641
  6
Continuous
 62
     7
 48
25.4
100
AcDbLine
 10
101.7265746456
 20
225.3358730897
 30
0.0
 11
101.7265746456
 21
175.7212206427
 31
0.0
  0
LINE
  5
90
330
7C
100
AcDbEntity
  8
MEGA_009641
  6
Continuous
 62
     7
 48
25.4
100
AcDbLine
 10
101.7265746456
 20
175.7212206427
 30
0.0
 11
151.3412270926
 21
175.7212206427
 31
0.0
  0
LINE
  5
91
330
7C
100
AcDbEntity
  8
MEGA_009641
  6
Continuous
 62
     7
 48
25.4
100
AcDbLine
 10
151.3412270926
 20
225.3358730897
 30
0.0
 11
101.7265746456
 21
225.3358730897
 31
0.0
  0
LINE
  5
92
330
7C
100
AcDbEntity
  8
MEGA_009641
  6
Continuous
 62
     7
 48
25.4
100
AcDbLine
 10
151.3412270926
 20
175.7212206427
 30
0.0
 11
151.3412270926
 21
225.3358730897
 31
0.0
  0
LINE
  5
93
330
7C
100
AcDbEntity
  8
MEGA_009641
  6
Continuous
 62
     7
 48
25.4
100
AcDbLine
 10
100.5339008691
 20
175.5279376933
 30
0.0
 11
100.7271838186
 21
175.7212206427
 31
0.0
  0
LINE
  5
94
330
7C
100
AcDbEntity
  8
MEGA_009641
  6
Continuous
 62
     7
 48
25.4
100
AcDbLine
 10
100.7271838186
 20
175.7212206427
 30
0.0
 11
100.7271838186
 21
225.3358730897
 31
0.0
  0
LINE
  5
95
330
7C
100
AcDbEntity
  8
MEGA_009641
  6
Continuous
 62
     7
 48
25.4
100
AcDbLine
 10
100.7271838186
 20
225.3358730897
 30
0.0
 11
100.5339008691
 21
225.5291560392
 31
0.0
  0
ELLIPSE
  5
96
330
7C
100
AcDbEntity
  8
MEGA_009641
  6
Continuous
 62
     7
 48
25.4
100
AcDbEllipse
 10
101.7265746456
 20
175.7212206427
 30
0.0
 11
-0.7071067811541647
 21
0.7071067812188491
 31
0.0
210
0.0
220
0.0
230
1.0
 40
0.998782766
 41
0.7860071510287403
 42
2.355585502652476
  0
LINE
  5
97
330
7C
100
AcDbEntity
  8
MEGA_009641
  6
Continuous
 62
     7
 48
25.4
100
AcDbLine
 10
101.7265746456
 20
175.7212206427
 30
0.0
 11
101.7265746456
 21
174.7218298157
 31
0.0
  0
LINE
  5
98
330
7C
100
AcDbEntity
  8
MEGA_009641
  6
Continuous
 62
     7
 48
25.4
100
AcDbLine
 10
100.7271838186
 20
175.7212206427
 30
0.0
 11
101.7265746456
 21
175.7212206427
 31
0.0
  0
ELLIPSE
  5
99
330
7C
100
AcDbEntity
  8
MEGA_009641
  6
Continuous
 62
     7
 48
25.4
100
AcDbEllipse
 10
151.3412270926
 20
175.7212206427
 30
0.0
 11
-0.7071067812188491
 21
-0.7071067811541647
 31
0.0
210
0.0
220
0.0
230
1.0
 40
0.998782766
 41
0.7860071510287829
 42
2.35558550265249
  0
LINE
  5
9A
330
7C
100
AcDbEntity
  8
MEGA_009641
  6
Continuous
 62
     7
 48
25.4
100
AcDbLine
 10
151.3412270926
 20
175.7212206427
 30
0.0
 11
151.3412270926
 21
174.7218298157
 31
0.0
  0
LINE
  5
9B
330
7C
100
AcDbEntity
  8
MEGA_009641
  6
Continuous
 62
     7
 48
25.4
100
AcDbLine
 10
100.7271838186
 20
225.3358730897
 30
0.0
 11
101.7265746456
 21
225.3358730897
 31
0.0
  0
ELLIPSE
  5
9C
330
7C
100
AcDbEntity
  8
MEGA_009641
  6
Continuous
 62
     7
 48
25.4
100
AcDbEllipse
 10
101.7265746456
 20
225.3358730897
 30
0.0
 11
0.7071067812188491
 21
0.7071067811541647
 31
0.0
210
0.0
220
0.0
230
1.0
 40
0.998782766
 41
0.7860071510287829
 42
2.355585502652518
  0
LINE
  5
9D
330
7C
100
AcDbEntity
  8
MEGA_009641
  6
Continuous
 62
     7
 48
25.4
100
AcDbLine
 10
151.3412270926
 20
175.7212206427
 30
0.0
 11
152.3406179196
 21
175.7212206427
 31
0.0
  0
LINE
  5
9E
330
7C
100
AcDbEntity
  8
MEGA_009641
  6
Continuous
 62
     7
 48
25.4
100
AcDbLine
 10
101.7265746456
 20
226.3352639168
 30
0.0
 11
101.7265746456
 21
225.3358730897
 31
0.0
  0
LINE
  5
9F
330
7C
100
AcDbEntity
  8
MEGA_009641
  6
Continuous
 62
     7
 48
25.4
100
AcDbLine
 10
151.3412270926
 20
225.3358730897
 30
0.0
 11
152.3406179196
 21
225.3358730897
 31
0.0
  0
LINE
  5
A0
330
7C
100
AcDbEntity
  8
MEGA_009641
  6
Continuous
 62
     7
 48
25.4
100
AcDbLine
 10
151.3412270926
 20
226.3352639168
 30
0.0
 11
151.3412270926
 21
225.3358730897
 31
0.0
  0
ELLIPSE
  5
A1
330
7C
100
AcDbEntity
  8
MEGA_009641
  6
Continuous
 62
     7
 48
25.4
100
AcDbEllipse
 10
151.3412270926
 20
225.3358730897
 30
0.0
 11
-0.7071067811944137
 21
0.707106781178659
 31
0.0
210
0.0
220
0.0
230
1.0
 40
0.998782766
 41
3.927599804561694
 42
5.497178156185403
  0
LINE
  5
A2
330
7C
100
AcDbEntity
  8
MEGA_009641
  6
Continuous
 62
     7
 48
25.4
100
AcDbLine
 10
124.0339008691
 20
226.5285468662
 30
0.0
 11
101.5332916961
 21
226.5285468662
 31
0.0
  0
LINE
  5
A3
330
7C
100
AcDbEntity
  8
MEGA_009641
  6
Continuous
 62
     7
 48
25.4
100
AcDbLine
 10
128.858923542
 20
226.4587053273
 30
0.0
 11
124.2088781961
 21
226.4587053273
 31
0.0
  0
LINE
  5
A4
330
7C
100
AcDbEntity
  8
MEGA_009641
  6
Continuous
 62
     7
 48
25.4
100
AcDbLine
 10
124.0339008691
 20
226.5285468662
 30
0.0
 11
124.2088781961
 21
226.4587053273
 31
0.0
  0
LINE
  5
A5
330
7C
100
AcDbEntity
  8
MEGA_009641
  6
Continuous
 62
     7
 48
25.4
100
AcDbLine
 10
128.858923542
 20
226.4587053273
 30
0.0
 11
129.0339008691
 21
226.5285468662
 31
0.0
  0
CIRCLE
  5
A6
330
7C
100
AcDbEntity
  8
MEGA_009641
  6
Continuous
 62
     7
 48
25.4
100
AcDbCircle
 10
126.5339008691
 20
200.5285468662
 30
0.0
 40
11.15
  0
CIRCLE
  5
A7
330
7C
100
AcDbEntity
  8
MEGA_001463
  6
Continuous
 62
     7
 48
25.4
100
AcDbCircle
 10
126.5339008691
 20
200.5285468662
 30
0.0
 40
8.0
  0
CIRCLE
  5
A8
330
7C
100
AcDbEntity
  8
MEGA_001463
  6
Continuous
 62
     7
 48
25.4
100
AcDbCircle
 10
126.5339008691
 20
200.5285468662
 30
0.0
 40
9.000000000000004
  0
CIRCLE
  5
A9
330
7C
100
AcDbEntity
  8
MEGA_001463
  6
Continuous
 62
     7
 48
25.4
100
AcDbCircle
 10
126.5339008691
 20
200.5285468662
 30
0.0
 40
10.39553164162058
  0
CIRCLE
  5
AA
330
7C
100
AcDbEntity
  8
MEGA_001463
  6
Continuous
 62
     7
 48
25.4
100
AcDbCircle
 10
126.5339008691
 20
200.5285468662
 30
0.0
 40
10.89522705513013
  0
ARC
  5
AB
330
7C
100
AcDbEntity
  8
MEGA_001463
  6
Continuous
 62
     7
 48
25.4
100
AcDbCircle
 10
126.5339008691
 20
200.5285468662
 30
0.0
 40
11.0
100
AcDbArc
 50
253.7148548404
 51
286.2851451596
  0
ARC
  5
AC
330
7C
100
AcDbEntity
  8
MEGA_001463
  6
Continuous
 62
     7
 48
25.4
100
AcDbCircle
 10
126.5339008691
 20
200.5285468662
 30
0.0
 40
25.99999999999999
100
AcDbArc
 50
85.799460028
 51
94.200539972
  0
ARC
  5
AD
330
7C
100
AcDbEntity
  8
MEGA_001463
  6
Continuous
 62
     7
 48
25.4
100
AcDbCircle
 10
126.5339008691
 20
200.5285468662
 30
0.0
 40
11.0
100
AcDbArc
 50
286.2851451596
 51
73.7148548404
  0
LINE
  5
AE
330
7C
100
AcDbEntity
  8
MEGA_001463
  6
Continuous
 62
     7
 48
25.4
100
AcDbLine
 10
129.6184972711
 20
189.9698885691
 30
0.0
 11
129.7391929979
 21
189.8491928423
 31
0.0
  0
LINE
  5
AF
330
7C
100
AcDbEntity
  8
MEGA_001463
  6
Continuous
 62
     7
 48
25.4
100
AcDbLine
 10
123.3286087402
 20
189.8491928423
 30
0.0
 11
123.449304467
 21
189.9698885691
 31
0.0
  0
ARC
  5
B0
330
7C
100
AcDbEntity
  8
MEGA_001463
  6
Continuous
 62
     7
 48
25.4
100
AcDbCircle
 10
126.5339008691
 20
200.5285468662
 30
0.0
 40
11.0
100
AcDbArc
 50
73.7148548404
 51
106.2851451596
  0
ARC
  5
B1
330
7C
100
AcDbEntity
  8
MEGA_001463
  6
Continuous
 62
     7
 48
25.4
100
AcDbCircle
 10
126.5339008691
 20
200.5285468662
 30
0.0
 40
11.0
100
AcDbArc
 50
106.2851451596
 51
253.7148548404
  0
LINE
  5
B2
330
7C
100
AcDbEntity
  8
MEGA_001463
  6
Continuous
 62
     7
 48
25.4
100
AcDbLine
 10
123.3286087402
 20
211.2079008902
 30
0.0
 11
123.449304467
 21
211.0872051634
 31
0.0
  0
LINE
  5
B3
330
7C
100
AcDbEntity
  8
MEGA_001463
  6
Continuous
 62
     7
 48
25.4
100
AcDbLine
 10
129.6184972711
 20
211.0872051634
 30
0.0
 11
129.7391929979
 21
211.2079008902
 31
0.0
  0
ENDBLK
  5
B8
330
7C
100
AcDbEntity
  8
0
100
AcDbBlockEnd
  0
BLOCK
  5
F5
330
B9
100
AcDbEntity
  8
0
100
AcDbBlockBegin
  2
SE2
 70
     0
 71
     0
 10
0.0
 20
0.0
 30
0.0
  3
SE2
  1

  0
LINE
  5
BB
330
B9
100
AcDbEntity
  8
MEGA_009641
  6
Continuous
 62
     7
 48
25.4
100
AcDbLine
 10
151.5345100421
 20
125.5060814261
 30
0.0
 11
129.0339008691
 21
125.5060814261
 31
0.0
  0
LINE
  5
BC
330
B9
100
AcDbEntity
  8
MEGA_009641
  6
Continuous
 62
     7
 48
25.4
100
AcDbLine
 10
101.7265746456
 20
119.9711819294
 30
0.0
 11
151.3412270926
 21
119.9711819294
 31
0.0
  0
LINE
  5
BD
330
B9
100
AcDbEntity
  8
MEGA_009641
  6
Continuous
 62
     7
 48
25.4
100
AcDbLine
 10
101.5332916961
 20
125.5060814261
 30
0.0
 11
101.7265746456
 21
119.9711819294
 31
0.0
  0
LINE
  5
BE
330
B9
100
AcDbEntity
  8
MEGA_009641
  6
Continuous
 62
     7
 48
25.4
100
AcDbLine
 10
151.3412270926
 20
119.9711819294
 30
0.0
 11
151.5345100421
 21
125.5060814261
 31
0.0
  0
LINE
  5
BF
330
B9
100
AcDbEntity
  8
MEGA_009641
  6
Continuous
 62
     7
 48
25.4
100
AcDbLine
 10
100.5339008691
 20
125.5060814261
 30
0.0
 11
101.5332916961
 21
125.5060814261
 31
0.0
  0
LINE
  5
C0
330
B9
100
AcDbEntity
  8
MEGA_009641
  6
Continuous
 62
     7
 48
25.4
100
AcDbLine
 10
151.5345100421
 20
125.5060814261
 30
0.0
 11
152.5339008691
 21
125.5060814261
 31
0.0
  0
LINE
  5
C1
330
B9
100
AcDbEntity
  8
MEGA_009641
  6
Continuous
 62
     7
 48
25.4
100
AcDbLine
 10
152.5339008691
 20
125.5060814261
 30
0.0
 11
152.3406179196
 21
119.9711819294
 31
0.0
  0
LINE
  5
C2
330
B9
100
AcDbEntity
  8
MEGA_009641
  6
Continuous
 62
     7
 48
25.4
100
AcDbLine
 10
151.3412270926
 20
119.0060814261
 30
0.0
 11
101.7265746456
 21
119.0060814261
 31
0.0
  0
LINE
  5
C3
330
B9
100
AcDbEntity
  8
MEGA_009641
  6
Continuous
 62
     7
 48
25.4
100
AcDbLine
 10
100.7271838186
 20
119.9711819294
 30
0.0
 11
100.5339008691
 21
125.5060814261
 31
0.0
  0
ARC
  5
C4
330
B9
100
AcDbEntity
  8
MEGA_009641
  6
Continuous
 62
     7
 48
25.4
100
AcDbCircle
 10
101.7265746456
 20
120.0060814261
 30
0.0
 40
0.9999999999999991
100
AcDbArc
 50
182.0
 51
270.0
  0
ELLIPSE
  5
C5
330
B9
100
AcDbEntity
  8
MEGA_009641
  6
Continuous
 62
     7
 48
25.4
100
AcDbEllipse
 10
101.7265746456
 20
120.0060814261
 30
0.0
 11
0.9993908270190949
 21
0.03489949670250081
 31
0.0
210
0.0
220
0.0
230
1.0
 40
0.0348782627
 41
3.141592653589989
 42
4.711171005213451
  0
LINE
  5
C6
330
B9
100
AcDbEntity
  8
MEGA_009641
  6
Continuous
 62
     7
 48
25.4
100
AcDbLine
 10
101.7265746456
 20
119.9711819294
 30
0.0
 11
101.7265746456
 21
119.0060814261
 31
0.0
  0
ARC
  5
C7
330
B9
100
AcDbEntity
  8
MEGA_009641
  6
Continuous
 62
     7
 48
25.4
100
AcDbCircle
 10
151.3412270926
 20
120.0060814261
 30
0.0
 40
1.0
100
AcDbArc
 50
270.0
 51
358.0
  0
LINE
  5
C8
330
B9
100
AcDbEntity
  8
MEGA_009641
  6
Continuous
 62
     7
 48
25.4
100
AcDbLine
 10
151.3412270926
 20
119.9711819294
 30
0.0
 11
151.3412270926
 21
119.0060814261
 31
0.0
  0
ELLIPSE
  5
C9
330
B9
100
AcDbEntity
  8
MEGA_009641
  6
Continuous
 62
     7
 48
25.4
100
AcDbEllipse
 10
151.3412270926
 20
120.0060814261
 30
0.0
 11
-0.9993908270190949
 21
0.0348994967025018
 31
0.0
210
0.0
220
0.0
230
1.0
 40
0.0348782627
 41
1.572014301966122
 42
3.141592653589639
  0
LINE
  5
CA
330
B9
100
AcDbEntity
  8
MEGA_009641
  6
Continuous
 62
     7
 48
25.4
100
AcDbLine
 10
124.0339008691
 20
125.5060814261
 30
0.0
 11
101.5332916961
 21
125.5060814261
 31
0.0
  0
LINE
  5
CB
330
B9
100
AcDbEntity
  8
MEGA_009641
  6
Continuous
 62
     7
 48
25.4
100
AcDbLine
 10
128.858923542
 20
123.5060814261
 30
0.0
 11
124.2088781961
 21
123.5060814261
 31
0.0
  0
LINE
  5
CC
330
B9
100
AcDbEntity
  8
MEGA_009641
  6
Continuous
 62
     7
 48
25.4
100
AcDbLine
 10
124.0339008691
 20
125.5060814261
 30
0.0
 11
124.2088781961
 21
123.5060814261
 31
0.0
  0
LINE
  5
CD
330
B9
100
AcDbEntity
  8
MEGA_009641
  6
Continuous
 62
     7
 48
25.4
100
AcDbLine
 10
128.858923542
 20
123.5060814261
 30
0.0
 11
129.0339008691
 21
125.5060814261
 31
0.0
  0
LINE
  5
CE
330
B9
100
AcDbEntity
  8
MEGA_001463
  6
Continuous
 62
     7
 48
25.4
100
AcDbLine
 10
115.6748026643
 20
128.5409809228
 30
0.0
 11
137.3929990738
 21
128.5409809228
 31
0.0
  0
LINE
  5
CF
330
B9
100
AcDbEntity
  8
MEGA_001463
  6
Continuous
 62
     7
 48
25.4
100
AcDbLine
 10
116.6741934913
 20
129.5060814261
 30
0.0
 11
136.3936082468
 21
129.5060814261
 31
0.0
  0
LINE
  5
D0
330
B9
100
AcDbEntity
  8
MEGA_001463
  6
Continuous
 62
     7
 48
25.4
100
AcDbLine
 10
116.1383692275
 20
117.5060814261
 30
0.0
 11
136.9294325107
 21
117.5060814261
 31
0.0
  0
LINE
  5
D1
330
B9
100
AcDbEntity
  8
MEGA_001463
  6
Continuous
 62
     7
 48
25.4
100
AcDbLine
 10
115.6386738139
 20
118.0057768396
 30
0.0
 11
137.4291279242
 21
118.0057768396
 31
0.0
  0
LINE
  5
D2
330
B9
100
AcDbEntity
  8
MEGA_001463
  6
Continuous
 62
     7
 48
25.4
100
AcDbLine
 10
128.9464122056
 20
124.5060814261
 30
0.0
 11
128.7839008691
 21
124.5060814261
 31
0.0
  0
LINE
  5
D3
330
B9
100
AcDbEntity
  8
MEGA_001463
  6
Continuous
 62
     7
 48
25.4
100
AcDbLine
 10
124.2839008691
 20
124.5060814261
 30
0.0
 11
124.1213895326
 21
124.5060814261
 31
0.0
  0
LINE
  5
D4
330
B9
100
AcDbEntity
  8
MEGA_001463
  6
Continuous
 62
     7
 48
25.4
100
AcDbLine
 10
124.2839008691
 20
124.5060814261
 30
0.0
 11
128.7839008691
 21
124.5060814261
 31
0.0
  0
LINE
  5
D5
330
B9
100
AcDbEntity
  8
MEGA_001463
  6
Continuous
 62
     7
 48
25.4
100
AcDbLine
 10
124.2839008691
 20
124.0060814261
 30
0.0
 11
128.7839008691
 21
124.0060814261
 31
0.0
  0
LINE
  5
D6
330
B9
100
AcDbEntity
  8
MEGA_001463
  6
Continuous
 62
     7
 48
25.4
100
AcDbLine
 10
128.7839008691
 20
124.0060814261
 30
0.0
 11
128.7839008691
 21
124.5060814261
 31
0.0
  0
LINE
  5
D7
330
B9
100
AcDbEntity
  8
MEGA_001463
  6
Continuous
 62
     7
 48
25.4
100
AcDbLine
 10
124.2839008691
 20
124.0060814261
 30
0.0
 11
124.2839008691
 21
124.5060814261
 31
0.0
  0
LINE
  5
D8
330
B9
100
AcDbEntity
  8
MEGA_001463
  6
Continuous
 62
     7
 48
25.4
100
AcDbLine
 10
110.3764526342
 20
129.5060814261
 30
0.0
 11
104.6913491039
 21
129.5060814261
 31
0.0
  0
LINE
  5
D9
330
B9
100
AcDbEntity
  8
MEGA_001463
  6
Continuous
 62
     7
 48
25.4
100
AcDbLine
 10
104.1916536904
 20
129.0235311745
 30
0.0
 11
110.8761480477
 21
129.0235311745
 31
0.0
  0
LINE
  5
DA
330
B9
100
AcDbEntity
  8
MEGA_001463
  6
Continuous
 62
     7
 48
25.4
100
AcDbLine
 10
148.3764526342
 20
129.5060814261
 30
0.0
 11
142.6913491039
 21
129.5060814261
 31
0.0
  0
LINE
  5
DB
330
B9
100
AcDbEntity
  8
MEGA_001463
  6
Continuous
 62
     7
 48
25.4
100
AcDbLine
 10
142.1916536904
 20
129.0235311745
 30
0.0
 11
148.8761480477
 21
129.0235311745
 31
0.0
  0
LINE
  5
DC
330
B9
100
AcDbEntity
  8
MEGA_001463
  6
Continuous
 62
     7
 48
25.4
100
AcDbLine
 10
128.9886298822
 20
124.9886316778
 30
0.0
 11
124.079171856
 21
124.9886316778
 31
0.0
  0
LINE
  5
DD
330
B9
100
AcDbEntity
  8
MEGA_001463
  6
Continuous
 62
     7
 48
25.4
100
AcDbLine
 10
124.2839008691
 20
123.5348072834
 30
0.0
 11
124.2839008691
 21
124.0060814261
 31
0.0
  0
LINE
  5
DE
330
B9
100
AcDbEntity
  8
MEGA_001463
  6
Continuous
 62
     7
 48
25.4
100
AcDbLine
 10
128.7839008691
 20
123.5348072834
 30
0.0
 11
128.7839008691
 21
124.0060814261
 31
0.0
  0
LINE
  5
DF
330
B9
100
AcDbEntity
  8
MEGA_001463
  6
Continuous
 62
     7
 48
25.4
100
AcDbLine
 10
124.2839008691
 20
123.5348072834
 30
0.0
 11
128.7839008691
 21
123.5348072834
 31
0.0
  0
LINE
  5
E0
330
B9
100
AcDbEntity
  8
MEGA_001463
  6
Continuous
 62
     7
 48
25.4
100
AcDbLine
 10
128.7839008691
 20
123.5348072834
 30
0.0
 11
128.7839008691
 21
123.5094791525
 31
0.0
  0
LINE
  5
E1
330
B9
100
AcDbEntity
  8
MEGA_001463
  6
Continuous
 62
     7
 48
25.4
100
AcDbLine
 10
124.2839008691
 20
123.5086928928
 30
0.0
 11
124.2839008691
 21
123.5348072834
 31
0.0
  0
ARC
  5
E2
330
B9
100
AcDbEntity
  8
MEGA_001463
  6
Continuous
 62
     7
 48
25.4
100
AcDbCircle
 10
136.3936082468
 20
128.5060814261
 30
0.0
 40
1.000000000000002
100
AcDbArc
 50
2.0
 51
90.0
  0
ARC
  5
E3
330
B9
100
AcDbEntity
  8
MEGA_001463
  6
Continuous
 62
     7
 48
25.4
100
AcDbCircle
 10
116.6741934913
 20
128.5060814261
 30
0.0
 40
0.9999999999999966
100
AcDbArc
 50
90.0
 51
178.0
  0
LINE
  5
E4
330
B9
100
AcDbEntity
  8
MEGA_001463
  6
Continuous
 62
     7
 48
25.4
100
AcDbLine
 10
115.6386738139
 20
118.0057768396
 30
0.0
 11
116.1383692275
 21
117.5060814261
 31
0.0
  0
LINE
  5
E5
330
B9
100
AcDbEntity
  8
MEGA_001463
  6
Continuous
 62
     7
 48
25.4
100
AcDbLine
 10
136.9294325107
 20
117.5060814261
 30
0.0
 11
137.4291279242
 21
118.0057768396
 31
0.0
  0
LINE
  5
E6
330
B9
100
AcDbEntity
  8
MEGA_001463
  6
Continuous
 62
     7
 48
25.4
100
AcDbLine
 10
115.6037424081
 20
119.0060814261
 30
0.0
 11
115.6386738139
 21
118.0057768396
 31
0.0
  0
LINE
  5
E7
330
B9
100
AcDbEntity
  8
MEGA_001463
  6
Continuous
 62
     7
 48
25.4
100
AcDbLine
 10
137.4291279242
 20
118.0057768396
 30
0.0
 11
137.4640593301
 21
119.0060814261
 31
0.0
  0
LINE
  5
E8
330
B9
100
AcDbEntity
  8
MEGA_001463
  6
Continuous
 62
     7
 48
25.4
100
AcDbLine
 10
137.4989800996
 20
125.5060814261
 30
0.0
 11
137.3929990738
 21
128.5409809228
 31
0.0
  0
LINE
  5
E9
330
B9
100
AcDbEntity
  8
MEGA_001463
  6
Continuous
 62
     7
 48
25.4
100
AcDbLine
 10
115.6748026643
 20
128.5409809228
 30
0.0
 11
115.5688216386
 21
125.5060814261
 31
0.0
  0
LINE
  5
EA
330
B9
100
AcDbEntity
  8
MEGA_001463
  6
Continuous
 62
     7
 48
25.4
100
AcDbLine
 10
110.9989800996
 20
125.5060814261
 30
0.0
 11
110.8761480477
 21
129.0235311745
 31
0.0
  0
LINE
  5
EB
330
B9
100
AcDbEntity
  8
MEGA_001463
  6
Continuous
 62
     7
 48
25.4
100
AcDbLine
 10
104.1916536904
 20
129.0235311745
 30
0.0
 11
104.0688216386
 21
125.5060814261
 31
0.0
  0
LINE
  5
EC
330
B9
100
AcDbEntity
  8
MEGA_001463
  6
Continuous
 62
     7
 48
25.4
100
AcDbLine
 10
148.9989800996
 20
125.5060814261
 30
0.0
 11
148.8761480477
 21
129.0235311745
 31
0.0
  0
LINE
  5
ED
330
B9
100
AcDbEntity
  8
MEGA_001463
  6
Continuous
 62
     7
 48
25.4
100
AcDbLine
 10
142.1916536904
 20
129.0235311745
 30
0.0
 11
142.0688216386
 21
125.5060814261
 31
0.0
  0
ARC
  5
EE
330
B9
100
AcDbEntity
  8
MEGA_001463
  6
Continuous
 62
     7
 48
25.4
100
AcDbCircle
 10
104.6913491039
 20
129.0060814261
 30
0.0
 40
0.4999999999999996
100
AcDbArc
 50
90.0
 51
178.0
  0
ARC
  5
EF
330
B9
100
AcDbEntity
  8
MEGA_001463
  6
Continuous
 62
     7
 48
25.4
100
AcDbCircle
 10
110.3764526342
 20
129.0060814261
 30
0.0
 40
0.4999999999999996
100
AcDbArc
 50
2.0
 51
90.0
  0
ARC
  5
F0
330
B9
100
AcDbEntity
  8
MEGA_001463
  6
Continuous
 62
     7
 48
25.4
100
AcDbCircle
 10
142.6913491039
 20
129.0060814261
 30
0.0
 40
0.4999999999999996
100
AcDbArc
 50
90.0
 51
178.0
  0
ARC
  5
F1
330
B9
100
AcDbEntity
  8
MEGA_001463
  6
Continuous
 62
     7
 48
25.4
100
AcDbCircle
 10
148.3764526342
 20
129.0060814261
 30
0.0
 40
0.4999999999999996
100
AcDbArc
 50
2.0
 51
90.0
  0
ENDBLK
  5
F6
330
B9
100
AcDbEntity
  8
0
100
AcDbBlockEnd
  0
BLOCK
  5
104
330
F7
100
AcDbEntity
  8
0
100
AcDbBlockBegin
  2
GDimGGroup
 70
     0
 71
     0
 10
0.0
 20
0.0
 30
0.0
  3
GDimGGroup
  1

  0
HATCH
  5
F9
330
F7
100
AcDbEntity
  8
Default
  6
Continuous
 62
   176
 48
25.4
100
AcDbHatch
 10
0.0
 20
0.0
 30
0.0
210
0.0
220
0.0
230
1.0
  2
SOLID
 70
     1
 71
     0
 91
        1
 92
        1
 93
        3
 72
     1
 10
60.96996650384187
 20
223.5285468401686
 11
60.4699664994957
 21
226.5285468662457
 72
     1
 10
60.4699664994957
 20
226.5285468662457
 11
59.96996649514953
 21
223.5285468401686
 72
     1
 10
59.96996649514953
 20
223.5285468401686
 11
60.96996650384187
 21
223.5285468401686
 97
        0
 75
     0
 76
     1
 98
        0
  0
LWPOLYLINE
  5
FA
330
F7
100
AcDbEntity
  8
Default
  6
Continuous
 62
   176
 48
25.4
370
     9
100
AcDbPolyline
 90
        4
 70
     1
 43
0.00013
 10
60.9699665038
 20
223.5285468402
 10
60.4699664995
 20
226.5285468662
 10
59.9699664951
 20
223.5285468402
 10
60.9699665038
 20
223.5285468402
  0
HATCH
  5
FB
330
F7
100
AcDbEntity
  8
Default
  6
Continuous
 62
   176
 48
25.4
100
AcDbHatch
 10
0.0
 20
0.0
 30
0.0
210
0.0
220
0.0
230
1.0
  2
SOLID
 70
     1
 71
     0
 91
        1
 92
        1
 93
        3
 72
     1
 10
60.96996650384187
 20
177.5285458194391
 11
59.96996649514953
 21
177.5285458194391
 72
     1
 10
59.96996649514953
 20
177.5285458194391
 11
60.4699664994957
 21
174.5285457933621
 72
     1
 10
60.4699664994957
 20
174.5285457933621
 11
60.96996650384187
 21
177.5285458194391
 97
        0
 75
     0
 76
     1
 98
        0
  0
LWPOLYLINE
  5
FC
330
F7
100
AcDbEntity
  8
Default
  6
Continuous
 62
   176
 48
25.4
370
     9
100
AcDbPolyline
 90
        4
 70
     1
 43
0.00013
 10
60.9699665038
 20
177.5285458194
 10
60.4699664995
 20
174.5285457934
 10
59.9699664951
 20
177.5285458194
 10
60.9699665038
 20
177.5285458194
  0
LINE
  5
FD
330
F7
100
AcDbEntity
  8
Default
  6
Continuous
 62
     7
 48
25.4
100
AcDbLine
 10
46.179087019
 20
226.5285468662
 30
0.0
 11
61.9699665125
 21
226.5285468662
 31
0.0
  0
LINE
  5
FE
330
F7
100
AcDbEntity
  8
Default
  6
Continuous
 62
     7
 48
25.4
100
AcDbLine
 10
46.179087019
 20
174.5285468662
 30
0.0
 11
61.9699665125
 21
174.5285468662
 31
0.0
  0
LINE
  5
FF
330
F7
100
AcDbEntity
  8
Default
  6
Continuous
 62
     7
 48
25.4
100
AcDbLine
 10
60.4699664995
 20
226.5285468662
 30
0.0
 11
60.4699664995
 21
174.5285457934
 31
0.0
  0
TEXT
  5
101
330
F7
100
AcDbEntity
  8
Default
  6
Continuous
 62
     7
 48
25.4
100
AcDbText
 10
59.7199664995
 20
200.6088758256
 30
0.0
 40
3.0
  1
52
 50
90.0
  7
SEACAD_seiso_ttf
 11
56.7199664995
 21
200.6088758256
 31
0.0
100
AcDbText
 73
     3
  0
TEXT
  5
103
330
F7
100
AcDbEntity
  8
Default
  6
Continuous
 62
     7
 48
25.4
100
AcDbText
 10
59.7199664995
 20
196.9027622885
 30
0.0
 40
3.0
  1
q
 50
90.0
  7
SEACAD_semeci1_ttf
 11
56.7199664995
 21
196.9027622885
 31
0.0
100
AcDbText
 73
     3
  0
ENDBLK
  5
105
330
F7
100
AcDbEntity
  8
0
100
AcDbBlockEnd
  0
BLOCK
  5
114
330
106
100
AcDbEntity
  8
0
100
AcDbBlockBegin
  2
GDimGGroup1
 70
     0
 71
     0
 10
0.0
 20
0.0
 30
0.0
  3
GDimGGroup1
  1

  0
HATCH
  5
108
330
106
100
AcDbEntity
  8
Default
  6
Continuous
 62
   176
 48
25.4
100
AcDbHatch
 10
0.0
 20
0.0
 30
0.0
210
0.0
220
0.0
230
1.0
  2
SOLID
 70
     1
 71
     0
 91
        1
 92
        1
 93
        3
 72
     1
 10
169.2502502665516
 20
189.5285468401686
 11
168.7502502622054
 21
192.5285468662457
 72
     1
 10
168.7502502622054
 20
192.5285468662457
 11
168.2502502578593
 21
189.5285468401686
 72
     1
 10
168.2502502578593
 20
189.5285468401686
 11
169.2502502665516
 21
189.5285468401686
 97
        0
 75
     0
 76
     1
 98
        0
  0
LWPOLYLINE
  5
109
330
106
100
AcDbEntity
  8
Default
  6
Continuous
 62
   176
 48
25.4
370
     9
100
AcDbPolyline
 90
        4
 70
     1
 43
0.00013
 10
169.2502502666
 20
189.5285468402
 10
168.7502502622
 20
192.5285468662
 10
168.2502502579
 20
189.5285468402
 10
169.2502502666
 20
189.5285468402
  0
HATCH
  5
10A
330
106
100
AcDbEntity
  8
Default
  6
Continuous
 62
   176
 48
25.4
100
AcDbHatch
 10
0.0
 20
0.0
 30
0.0
210
0.0
220
0.0
230
1.0
  2
SOLID
 70
     1
 71
     0
 91
        1
 92
        1
 93
        3
 72
     1
 10
169.2502502665516
 20
211.5285468923227
 11
168.2502502578593
 21
211.5285468923227
 72
     1
 10
168.2502502578593
 20
211.5285468923227
 11
168.7502502622054
 21
208.5285468662457
 72
     1
 10
168.7502502622054
 20
208.5285468662457
 11
169.2502502665516
 21
211.5285468923227
 97
        0
 75
     0
 76
     1
 98
        0
  0
LWPOLYLINE
  5
10B
330
106
100
AcDbEntity
  8
Default
  6
Continuous
 62
   176
 48
25.4
370
     9
100
AcDbPolyline
 90
        4
 70
     1
 43
0.00013
 10
169.2502502666
 20
211.5285468923
 10
168.7502502622
 20
208.5285468662
 10
168.2502502579
 20
211.5285468923
 10
169.2502502666
 20
211.5285468923
  0
LINE
  5
10C
330
106
100
AcDbEntity
  8
Default
  6
Continuous
 62
     7
 48
25.4
100
AcDbLine
 10
126.5339008691
 20
192.5285468662
 30
0.0
 11
170.2502502752
 21
192.5285468662
 31
0.0
  0
LINE
  5
10D
330
106
100
AcDbEntity
  8
Default
  6
Continuous
 62
     7
 48
25.4
100
AcDbLine
 10
126.5339008691
 20
208.5285468662
 30
0.0
 11
170.2502502752
 21
208.5285468662
 31
0.0
  0
LINE
  5
10E
330
106
100
AcDbEntity
  8
Default
  6
Continuous
 62
     7
 48
25.4
100
AcDbLine
 10
168.7502502622
 20
186.5285468141
 30
0.0
 11
168.7502502622
 21
214.528546747
 31
0.0
  0
TEXT
  5
10F
330
106
100
AcDbEntity
  8
Default
  6
Continuous
 62
     7
 48
25.4
100
AcDbText
 10
168.0002502622
 20
196.8808199735
 30
0.0
 40
3.0
  1
16
 50
90.0
  7
SEACAD_seiso_ttf
 11
165.0002502622
 21
196.8808199735
 31
0.0
100
AcDbText
 73
     3
  0
TEXT
  5
110
330
106
100
AcDbEntity
  8
Default
  6
Continuous
 62
     7
 48
25.4
100
AcDbText
 10
168.0002502622
 20
193.2402086198
 30
0.0
 40
3.0
  1
O
 50
90.0
  7
SEACAD_semeci1_ttf
 11
165.0002502622
 21
193.2402086198
 31
0.0
100
AcDbText
 73
     3
  0
TEXT
  5
111
330
106
100
AcDbEntity
  8
Default
  6
Continuous
 62
     7
 48
25.4
100
AcDbText
 10
168.0002502622
 20
200.2490017917
 30
0.0
 40
3.0
  1
/
 50
90.0
  7
SEACAD_seiso_ttf
 11
165.0002502622
 21
200.2490017917
 31
0.0
100
AcDbText
 73
     3
  0
TEXT
  5
112
330
106
100
AcDbEntity
  8
Default
  6
Continuous
 62
     7
 48
25.4
100
AcDbText
 10
168.0002502622
 20
201.3399108826
 30
0.0
 40
3.0
  1
O
 50
90.0
  7
SEACAD_semeci1_ttf
 11
165.0002502622
 21
201.3399108826
 31
0.0
100
AcDbText
 73
     3
  0
TEXT
  5
113
330
106
100
AcDbEntity
  8
Default
  6
Continuous
 62
     7
 48
25.4
100
AcDbText
 10
168.0002502622
 20
204.6805222363
 30
0.0
 40
3.0
  1
18
 50
90.0
  7
SEACAD_seiso_ttf
 11
165.0002502622
 21
204.6805222363
 31
0.0
100
AcDbText
 73
     3
  0
ENDBLK
  5
115
330
106
100
AcDbEntity
  8
0
100
AcDbBlockEnd
  0
BLOCK
  5
120
330
116
100
AcDbEntity
  8
0
100
AcDbBlockBegin
  2
GDimGGroup2
 70
     0
 71
     0
 10
0.0
 20
0.0
 30
0.0
  3
GDimGGroup2
  1

  0
HATCH
  5
118
330
116
100
AcDbEntity
  8
Default
  6
Continuous
 62
   176
 48
25.4
100
AcDbHatch
 10
0.0
 20
0.0
 30
0.0
210
0.0
220
0.0
230
1.0
  2
SOLID
 70
     1
 71
     0
 91
        1
 92
        1
 93
        3
 72
     1
 10
110.5339008951531
 20
148.0943011178219
 11
107.5339008690761
 21
147.5943011134758
 72
     1
 10
107.5339008690761
 20
147.5943011134758
 11
110.5339008951531
 21
147.0943011091296
 72
     1
 10
110.5339008951531
 20
147.0943011091296
 11
110.5339008951531
 21
148.0943011178219
 97
        0
 75
     0
 76
     1
 98
        0
  0
LWPOLYLINE
  5
119
330
116
100
AcDbEntity
  8
Default
  6
Continuous
 62
   176
 48
25.4
370
     9
100
AcDbPolyline
 90
        4
 70
     1
 43
0.00013
 10
110.5339008952
 20
148.0943011178
 10
107.5339008691
 20
147.5943011135
 10
110.5339008952
 20
147.0943011091
 10
110.5339008952
 20
148.0943011178
  0
HATCH
  5
11A
330
116
100
AcDbEntity
  8
Default
  6
Continuous
 62
   176
 48
25.4
100
AcDbHatch
 10
0.0
 20
0.0
 30
0.0
210
0.0
220
0.0
230
1.0
  2
SOLID
 70
     1
 71
     0
 91
        1
 92
        1
 93
        3
 72
     1
 10
142.5338996211038
 20
148.0943011178219
 11
142.5338996211038
 21
147.0943011091296
 72
     1
 10
142.5338996211038
 20
147.0943011091296
 11
145.5338996471808
 21
147.5943011134758
 72
     1
 10
145.5338996471808
 20
147.5943011134758
 11
142.5338996211038
 21
148.0943011178219
 97
        0
 75
     0
 76
     1
 98
        0
  0
LWPOLYLINE
  5
11B
330
116
100
AcDbEntity
  8
Default
  6
Continuous
 62
   176
 48
25.4
370
     9
100
AcDbPolyline
 90
        4
 70
     1
 43
0.00013
 10
142.5338996211
 20
148.0943011178
 10
145.5338996472
 20
147.5943011135
 10
142.5338996211
 20
147.0943011091
 10
142.5338996211
 20
148.0943011178
  0
LINE
  5
11C
330
116
100
AcDbEntity
  8
Default
  6
Continuous
 62
     7
 48
25.4
100
AcDbLine
 10
107.5339008691
 20
129.5060814261
 30
0.0
 11
107.5339008691
 21
149.0943011265
 31
0.0
  0
LINE
  5
11D
330
116
100
AcDbEntity
  8
Default
  6
Continuous
 62
     7
 48
25.4
100
AcDbLine
 10
145.5339008691
 20
129.5060814261
 30
0.0
 11
145.5339008691
 21
149.0943011265
 31
0.0
  0
LINE
  5
11E
330
116
100
AcDbEntity
  8
Default
  6
Continuous
 62
     7
 48
25.4
100
AcDbLine
 10
107.5339008691
 20
147.5943011135
 30
0.0
 11
145.5338996472
 21
147.5943011135
 31
0.0
  0
TEXT
  5
11F
330
116
100
AcDbEntity
  8
Default
  6
Continuous
 62
     7
 48
25.4
100
AcDbText
 10
124.7952638945
 20
148.3443011135
 30
0.0
 40
3.0
  1
38
  7
SEACAD_seiso_ttf
 11
124.7952638945
 21
151.3443011135
 31
0.0
100
AcDbText
 73
     3
  0
ENDBLK
  5
121
330
116
100
AcDbEntity
  8
0
100
AcDbBlockEnd
  0
BLOCK
  5
12C
330
122
100
AcDbEntity
  8
0
100
AcDbBlockBegin
  2
GDimGGroup3
 70
     0
 71
     0
 10
0.0
 20
0.0
 30
0.0
  3
GDimGGroup3
  1

  0
HATCH
  5
124
330
122
100
AcDbEntity
  8
Default
  6
Continuous
 62
   176
 48
25.4
100
AcDbHatch
 10
0.0
 20
0.0
 30
0.0
210
0.0
220
0.0
230
1.0
  2
SOLID
 70
     1
 71
     0
 91
        1
 92
        1
 93
        3
 72
     1
 10
89.40530707501512
 20
114.5060814000561
 11
90.40530708370747
 21
114.5060814000561
 72
     1
 10
90.40530708370747
 20
114.5060814000561
 11
89.90530707936129
 21
117.5060814261331
 72
     1
 10
89.90530707936129
 20
117.5060814261331
 11
89.40530707501512
 21
114.5060814000561
 97
        0
 75
     0
 76
     1
 98
        0
  0
LWPOLYLINE
  5
125
330
122
100
AcDbEntity
  8
Default
  6
Continuous
 62
   176
 48
25.4
370
     9
100
AcDbPolyline
 90
        4
 70
     1
 43
0.00013
 10
89.405307075
 20
114.5060814001
 10
89.9053070794
 20
117.5060814261
 10
90.4053070837
 20
114.5060814001
 10
89.405307075
 20
114.5060814001
  0
HATCH
  5
126
330
122
100
AcDbEntity
  8
Default
  6
Continuous
 62
   176
 48
25.4
100
AcDbHatch
 10
0.0
 20
0.0
 30
0.0
210
0.0
220
0.0
230
1.0
  2
SOLID
 70
     1
 71
     0
 91
        1
 92
        1
 93
        3
 72
     1
 10
89.40530707501512
 20
128.5060814522101
 11
89.90530707936129
 21
125.5060814261331
 72
     1
 10
89.90530707936129
 20
125.5060814261331
 11
90.40530708370747
 21
128.5060814522101
 72
     1
 10
90.40530708370747
 20
128.5060814522101
 11
89.40530707501512
 21
128.5060814522101
 97
        0
 75
     0
 76
     1
 98
        0
  0
LWPOLYLINE
  5
127
330
122
100
AcDbEntity
  8
Default
  6
Continuous
 62
   176
 48
25.4
370
     9
100
AcDbPolyline
 90
        4
 70
     1
 43
0.00013
 10
89.405307075
 20
128.5060814522
 10
89.9053070794
 20
125.5060814261
 10
90.4053070837
 20
128.5060814522
 10
89.405307075
 20
128.5060814522
  0
LINE
  5
128
330
122
100
AcDbEntity
  8
Default
  6
Continuous
 62
     7
 48
25.4
100
AcDbLine
 10
116.1383692275
 20
117.5060814261
 30
0.0
 11
88.4053070663
 21
117.5060814261
 31
0.0
  0
LINE
  5
129
330
122
100
AcDbEntity
  8
Default
  6
Continuous
 62
     7
 48
25.4
100
AcDbLine
 10
112.7835962826
 20
125.5060814261
 30
0.0
 11
88.4053070663
 21
125.5060814261
 31
0.0
  0
LINE
  5
12A
330
122
100
AcDbEntity
  8
Default
  6
Continuous
 62
     7
 48
25.4
100
AcDbLine
 10
89.9053070794
 20
111.506081374
 30
0.0
 11
89.9053070794
 21
131.5060818583
 31
0.0
  0
TEXT
  5
12B
330
122
100
AcDbEntity
  8
Default
  6
Continuous
 62
     7
 48
25.4
100
AcDbText
 10
89.1553070794
 20
120.5515361616
 30
0.0
 40
3.0
  1
8
 50
90.0
  7
SEACAD_seiso_ttf
 11
86.1553070794
 21
120.5515361616
 31
0.0
100
AcDbText
 73
     3
  0
ENDBLK
  5
12D
330
122
100
AcDbEntity
  8
0
100
AcDbBlockEnd
  0
BLOCK
  5
138
330
12E
100
AcDbEntity
  8
0
100
AcDbBlockBegin
  2
GDimGGroup4
 70
     0
 71
     0
 10
0.0
 20
0.0
 30
0.0
  3
GDimGGroup4
  1

  0
HATCH
  5
130
330
12E
100
AcDbEntity
  8
Default
  6
Continuous
 62
   176
 48
25.4
100
AcDbHatch
 10
0.0
 20
0.0
 30
0.0
210
0.0
220
0.0
230
1.0
  2
SOLID
 70
     1
 71
     0
 91
        1
 92
        1
 93
        3
 72
     1
 10
80.40530746244531
 20
120.5060814522101
 11
80.90530746679148
 21
117.5060814261331
 72
     1
 10
80.90530746679148
 20
117.5060814261331
 11
81.40530747113766
 21
120.5060814522101
 72
     1
 10
81.40530747113766
 20
120.5060814522101
 11
80.40530746244531
 21
120.5060814522101
 97
        0
 75
     0
 76
     1
 98
        0
  0
LWPOLYLINE
  5
131
330
12E
100
AcDbEntity
  8
Default
  6
Continuous
 62
   176
 48
25.4
370
     9
100
AcDbPolyline
 90
        4
 70
     1
 43
0.00013
 10
80.4053074624
 20
120.5060814522
 10
80.9053074668
 20
117.5060814261
 10
81.4053074711
 20
120.5060814522
 10
80.4053074624
 20
120.5060814522
  0
HATCH
  5
132
330
12E
100
AcDbEntity
  8
Default
  6
Continuous
 62
   176
 48
25.4
100
AcDbHatch
 10
0.0
 20
0.0
 30
0.0
210
0.0
220
0.0
230
1.0
  2
SOLID
 70
     1
 71
     0
 91
        1
 92
        1
 93
        3
 72
     1
 10
80.40530746244531
 20
126.5060815043642
 11
81.40530747113766
 21
126.5060815043642
 72
     1
 10
81.40530747113766
 20
126.5060815043642
 11
80.90530746679148
 21
129.5060815304412
 72
     1
 10
80.90530746679148
 20
129.5060815304412
 11
80.40530746244531
 21
126.5060815043642
 97
        0
 75
     0
 76
     1
 98
        0
  0
LWPOLYLINE
  5
133
330
12E
100
AcDbEntity
  8
Default
  6
Continuous
 62
   176
 48
25.4
370
     9
100
AcDbPolyline
 90
        4
 70
     1
 43
0.00013
 10
80.4053074624
 20
126.5060815044
 10
80.9053074668
 20
129.5060815304
 10
81.4053074711
 20
126.5060815044
 10
80.4053074624
 20
126.5060815044
  0
LINE
  5
134
330
12E
100
AcDbEntity
  8
Default
  6
Continuous
 62
     7
 48
25.4
100
AcDbLine
 10
116.1383692275
 20
117.5060814261
 30
0.0
 11
79.4053074538
 21
117.5060814261
 31
0.0
  0
LINE
  5
135
330
12E
100
AcDbEntity
  8
Default
  6
Continuous
 62
     7
 48
25.4
100
AcDbLine
 10
107.5339008691
 20
129.5060814261
 30
0.0
 11
79.4053074538
 21
129.5060814261
 31
0.0
  0
LINE
  5
136
330
12E
100
AcDbEntity
  8
Default
  6
Continuous
 62
     7
 48
25.4
100
AcDbLine
 10
80.9053074668
 20
117.5060814261
 30
0.0
 11
80.9053074668
 21
129.5060815304
 31
0.0
  0
TEXT
  5
137
330
12E
100
AcDbEntity
  8
Default
  6
Continuous
 62
     7
 48
25.4
100
AcDbText
 10
80.1553074668
 20
121.9719905692
 30
0.0
 40
3.0
  1
12
 50
90.0
  7
SEACAD_seiso_ttf
 11
77.1553074668
 21
121.9719905692
 31
0.0
100
AcDbText
 73
     3
  0
ENDBLK
  5
139
330
12E
100
AcDbEntity
  8
0
100
AcDbBlockEnd
  0
BLOCK
  5
145
330
13A
100
AcDbEntity
  8
0
100
AcDbBlockBegin
  2
GDimGGroup5
 70
     0
 71
     0
 10
0.0
 20
0.0
 30
0.0
  3
GDimGGroup5
  1

  0
HATCH
  5
13C
330
13A
100
AcDbEntity
  8
Default
  6
Continuous
 62
   176
 48
25.4
100
AcDbHatch
 10
0.0
 20
0.0
 30
0.0
210
0.0
220
0.0
230
1.0
  2
SOLID
 70
     1
 71
     0
 91
        1
 92
        1
 93
        3
 72
     1
 10
101.050751869105
 20
138.8510365724865
 11
101.050751869105
 21
137.8510365637942
 72
     1
 10
101.050751869105
 20
137.8510365637942
 11
104.0507518951821
 21
138.3510365681403
 72
     1
 10
104.0507518951821
 20
138.3510365681403
 11
101.050751869105
 21
138.8510365724865
 97
        0
 75
     0
 76
     1
 98
        0
  0
LWPOLYLINE
  5
13D
330
13A
100
AcDbEntity
  8
Default
  6
Continuous
 62
   176
 48
25.4
370
     9
100
AcDbPolyline
 90
        4
 70
     1
 43
0.00013
 10
101.0507518691
 20
138.8510365725
 10
104.0507518952
 20
138.3510365681
 10
101.0507518691
 20
137.8510365638
 10
101.0507518691
 20
138.8510365725
  0
HATCH
  5
13E
330
13A
100
AcDbEntity
  8
Default
  6
Continuous
 62
   176
 48
25.4
100
AcDbHatch
 10
0.0
 20
0.0
 30
0.0
210
0.0
220
0.0
230
1.0
  2
SOLID
 70
     1
 71
     0
 91
        1
 92
        1
 93
        3
 72
     1
 10
114.0170498690471
 20
138.8510365724865
 11
111.0170498429701
 21
138.3510365681403
 72
     1
 10
111.0170498429701
 20
138.3510365681403
 11
114.0170498690471
 21
137.8510365637942
 72
     1
 10
114.0170498690471
 20
137.8510365637942
 11
114.0170498690471
 21
138.8510365724865
 97
        0
 75
     0
 76
     1
 98
        0
  0
LWPOLYLINE
  5
13F
330
13A
100
AcDbEntity
  8
Default
  6
Continuous
 62
   176
 48
25.4
370
     9
100
AcDbPolyline
 90
        4
 70
     1
 43
0.00013
 10
114.017049869
 20
138.8510365725
 10
111.017049843
 20
138.3510365681
 10
114.017049869
 20
137.8510365638
 10
114.017049869
 20
138.8510365725
  0
LINE
  5
140
330
13A
100
AcDbEntity
  8
Default
  6
Continuous
 62
     7
 48
25.4
100
AcDbLine
 10
104.0507518952
 20
125.5053229811
 30
0.0
 11
104.0507518952
 21
139.8510365812
 31
0.0
  0
LINE
  5
141
330
13A
100
AcDbEntity
  8
Default
  6
Continuous
 62
     7
 48
25.4
100
AcDbLine
 10
111.017049843
 20
125.5053229811
 30
0.0
 11
111.017049843
 21
139.8510365812
 31
0.0
  0
LINE
  5
142
330
13A
100
AcDbEntity
  8
Default
  6
Continuous
 62
     7
 48
25.4
100
AcDbLine
 10
93.9543779274
 20
138.3510365681
 30
0.0
 11
117.0170494621
 21
138.3510365681
 31
0.0
  0
TEXT
  5
143
330
13A
100
AcDbEntity
  8
Default
  6
Continuous
 62
     7
 48
25.4
100
AcDbText
 10
98.6449897367
 20
139.1010365681
 30
0.0
 40
3.0
  1
7
  7
SEACAD_seiso_ttf
 11
98.6449897367
 21
142.1010365681
 31
0.0
100
AcDbText
 73
     3
  0
TEXT
  5
144
330
13A
100
AcDbEntity
  8
Default
  6
Continuous
 62
     7
 48
25.4
100
AcDbText
 10
95.004378383
 20
139.1010365681
 30
0.0
 40
3.0
  1
O
  7
SEACAD_semeci1_ttf
 11
95.004378383
 21
142.1010365681
 31
0.0
100
AcDbText
 73
     3
  0
ENDBLK
  5
146
330
13A
100
AcDbEntity
  8
0
100
AcDbBlockEnd
  0
ENDSEC
  0
SECTION
  2
ENTITIES
  0
INSERT
  5
2C
330
1F
100
AcDbEntity
  8
Default
100
AcDbBlockReference
  2
SEANNOT_GROUP
 10
0.0
 20
0.0
 30
0.0
  0
INSERT
  5
32
330
1F
100
AcDbEntity
  8
Default
100
AcDbBlockReference
  2
SEANNOT_GROUP1
 10
0.0
 20
0.0
 30
0.0
  0
INSERT
  5
37
330
1F
100
AcDbEntity
  8
Default
100
AcDbBlockReference
  2
SEANNOT_GROUP2
 10
0.0
 20
0.0
 30
0.0
  0
INSERT
  5
3C
330
1F
100
AcDbEntity
  8
Default
100
AcDbBlockReference
  2
SEANNOT_GROUP3
 10
0.0
 20
0.0
 30
0.0
  0
INSERT
  5
41
330
1F
100
AcDbEntity
  8
Default
100
AcDbBlockReference
  2
SEANNOT_GROUP4
 10
0.0
 20
0.0
 30
0.0
  0
INSERT
  5
46
330
1F
100
AcDbEntity
  8
Default
100
AcDbBlockReference
  2
SEANNOT_GROUP5
 10
0.0
 20
0.0
 30
0.0
  0
INSERT
  5
4B
102
{ACAD_XDICTIONARY
360
77
102
}
330
1F
100
AcDbEntity
  8
Default
100
AcDbBlockReference
  2
SE
 10
0.0
 20
0.0
 30
0.0
  0
INSERT
  5
7D
102
{ACAD_XDICTIONARY
360
B4
102
}
330
1F
100
AcDbEntity
  8
Default
100
AcDbBlockReference
  2
SE1
 10
0.0
 20
0.0
 30
0.0
  0
INSERT
  5
BA
102
{ACAD_XDICTIONARY
360
F2
102
}
330
1F
100
AcDbEntity
  8
Default
100
AcDbBlockReference
  2
SE2
 10
0.0
 20
0.0
 30
0.0
  0
INSERT
  5
F8
330
1F
100
AcDbEntity
  8
Default
100
AcDbBlockReference
  2
GDimGGroup
 10
0.0
 20
0.0
 30
0.0
  0
INSERT
  5
107
330
1F
100
AcDbEntity
  8
Default
100
AcDbBlockReference
  2
GDimGGroup1
 10
0.0
 20
0.0
 30
0.0
  0
INSERT
  5
117
330
1F
100
AcDbEntity
  8
Default
100
AcDbBlockReference
  2
GDimGGroup2
 10
0.0
 20
0.0
 30
0.0
  0
INSERT
  5
123
330
1F
100
AcDbEntity
  8
Default
100
AcDbBlockReference
  2
GDimGGroup3
 10
0.0
 20
0.0
 30
0.0
  0
INSERT
  5
12F
330
1F
100
AcDbEntity
  8
Default
100
AcDbBlockReference
  2
GDimGGroup4
 10
0.0
 20
0.0
 30
0.0
  0
INSERT
  5
13B
330
1F
100
AcDbEntity
  8
Default
100
AcDbBlockReference
  2
GDimGGroup5
 10
0.0
 20
0.0
 30
0.0
  0
ENDSEC
  0
SECTION
  2
OBJECTS
  0
DICTIONARY
  5
C
330
0
100
AcDbDictionary
281
     1
  3
ACAD_GROUP
350
D
  3
ACAD_LAYOUT
350
1A
  3
ACAD_MLINESTYLE
350
17
  3
ACAD_PLOTSETTINGS
350
19
  3
ACAD_PLOTSTYLENAME
350
E
  0
DICTIONARY
  5
77
330
4B
100
AcDbDictionary
280
     1
281
     1
  3
ACAD_FILTER
360
78
  0
DICTIONARY
  5
B4
330
7D
100
AcDbDictionary
280
     1
281
     1
  3
ACAD_FILTER
360
B5
  0
DICTIONARY
  5
F2
330
BA
100
AcDbDictionary
280
     1
281
     1
  3
ACAD_FILTER
360
F3
  0
DICTIONARY
  5
D
102
{ACAD_REACTORS
330
C
102
}
330
C
100
AcDbDictionary
281
     1
  0
DICTIONARY
  5
1A
102
{ACAD_REACTORS
330
C
102
}
330
C
100
AcDbDictionary
281
     1
  3
Layout1
350
1E
  3
Model
350
22
  0
DICTIONARY
  5
17
102
{ACAD_REACTORS
330
C
102
}
330
C
100
AcDbDictionary
281
     1
  3
Standard
350
18
  0
DICTIONARY
  5
19
102
{ACAD_REACTORS
330
C
102
}
330
C
100
AcDbDictionary
281
     1
  0
ACDBDICTIONARYWDFLT
  5
E
102
{ACAD_REACTORS
330
C
102
}
330
C
100
AcDbDictionary
281
     1
  3
Normal
350
F
100
AcDbDictionaryWithDefault
340
F
  0
DICTIONARY
  5
78
102
{ACAD_REACTORS
330
77
102
}
330
77
100
AcDbDictionary
281
     1
  3
SPATIAL
360
79
  0
DICTIONARY
  5
B5
102
{ACAD_REACTORS
330
B4
102
}
330
B4
100
AcDbDictionary
281
     1
  3
SPATIAL
360
B6
  0
DICTIONARY
  5
F3
102
{ACAD_REACTORS
330
F2
102
}
330
F2
100
AcDbDictionary
281
     1
  3
SPATIAL
360
F4
  0
LAYOUT
  5
1E
102
{ACAD_REACTORS
330
1A
102
}
330
1A
100
AcDbPlotSettings
  1

  2

  4

  6

 40
0.0
 41
0.0
 42
0.0
 43
0.0
 44
0.0
 45
0.0
 46
0.0
 47
0.0
 48
0.0
 49
0.0
140
0.0
141
0.0
142
1.0
143
1.0
 70
   688
 72
     0
 73
     0
 74
     5
  7

 75
    16
147
1.0
148
0.0
149
0.0
100
AcDbLayout
  1
Layout1
 70
     1
 71
     1
 10
0.0
 20
0.0
 11
210.0
 21
297.0
 12
0.0
 22
0.0
 32
0.0
 14
0.0
 24
0.0
 34
0.0
 15
210.0
 25
297.0
 35
0.0
146
0.0
 13
0.0
 23
0.0
 33
0.0
 16
1.0
 26
0.0
 36
0.0
 17
0.0
 27
1.0
 37
0.0
 76
     0
330
1B
  0
LAYOUT
  5
22
102
{ACAD_REACTORS
330
1A
102
}
330
1A
100
AcDbPlotSettings
  1

  2

  4

  6

 40
0.0
 41
0.0
 42
0.0
 43
0.0
 44
0.0
 45
0.0
 46
0.0
 47
0.0
 48
0.0
 49
0.0
140
0.0
141
0.0
142
1.0
143
1.0
 70
  1712
 72
     0
 73
     0
 74
     0
  7

 75
     0
147
1.0
148
0.0
149
0.0
100
AcDbLayout
  1
Model
 70
     1
 71
     0
 10
0.0
 20
0.0
 11
210.0
 21
297.0
 12
0.0
 22
0.0
 32
0.0
 14
0.0
 24
0.0
 34
0.0
 15
210.0
 25
297.0
 35
0.0
146
0.0
 13
0.0
 23
0.0
 33
0.0
 16
1.0
 26
0.0
 36
0.0
 17
0.0
 27
1.0
 37
0.0
 76
     0
330
1F
  0
MLINESTYLE
  5
18
102
{ACAD_REACTORS
330
17
102
}
330
17
100
AcDbMlineStyle
  2
Standard
 70
     0
  3

 62
   256
 51
90.0
 52
90.0
 71
     2
 49
0.5
 62
   256
  6
BYLAYER
 49
-0.5
 62
   256
  6
BYLAYER
  0
ACDBPLACEHOLDER
  5
F
102
{ACAD_REACTORS
330
E
102
}
330
E
  0
SPATIAL_FILTER
  5
79
102
{ACAD_REACTORS
330
78
102
}
330
78
100
AcDbFilter
100
AcDbSpatialFilter
 70
     2
 10
31.829087019
 20
168.1785468662
 10
56.529087019
 20
232.8785468662
210
0.0
220
0.0
230
1.0
 11
0.0
 21
0.0
 31
0.0
 71
     1
 72
     0
 73
     0
 40
1.0
 40
0.0
 40
0.0
 40
0.0
 40
0.0
 40
1.0
 40
0.0
 40
0.0
 40
0.0
 40
0.0
 40
1.0
 40
0.0
 40
1.0
 40
0.0
 40
0.0
 40
0.0
 40
0.0
 40
1.0
 40
0.0
 40
0.0
 40
0.0
 40
0.0
 40
1.0
 40
0.0
  0
SPATIAL_FILTER
  5
B6
102
{ACAD_REACTORS
330
B5
102
}
330
B5
100
AcDbFilter
100
AcDbSpatialFilter
 70
     2
 10
94.1839008691
 20
168.1785468662
 10
158.8839008691
 20
232.8785468662
210
0.0
220
0.0
230
1.0
 11
0.0
 21
0.0
 31
0.0
 71
     1
 72
     0
 73
     0
 40
1.0
 40
0.0
 40
0.0
 40
0.0
 40
0.0
 40
1.0
 40
0.0
 40
0.0
 40
0.0
 40
0.0
 40
1.0
 40
0.0
 40
1.0
 40
0.0
 40
0.0
 40
0.0
 40
0.0
 40
1.0
 40
0.0
 40
0.0
 40
0.0
 40
0.0
 40
1.0
 40
0.0
  0
SPATIAL_FILTER
  5
F4
102
{ACAD_REACTORS
330
F3
102
}
330
F3
100
AcDbFilter
100
AcDbSpatialFilter
 70
     2
 10
94.1839008691
 20
111.1560814261
 10
158.8839008691
 20
135.8560814261
210
0.0
220
0.0
230
1.0
 11
0.0
 21
0.0
 31
0.0
 71
     1
 72
     0
 73
     0
 40
1.0
 40
0.0
 40
0.0
 40
0.0
 40
0.0
 40
1.0
 40
0.0
 40
0.0
 40
0.0
 40
0.0
 40
1.0
 40
0.0
 40
1.0
 40
0.0
 40
0.0
 40
0.0
 40
0.0
 40
1.0
 40
0.0
 40
0.0
 40
0.0
 40
0.0
 40
1.0
 40
0.0
  0
ENDSEC
  0
EOF
