  0
SECTION
  2
HEADER
  9
$ACADVER
  1
AC1012
  9
$DWGCODEPAGE
  3
ansi_1252
  9
$INSBASE
 10
0.0
 20
0.0
 30
0.0
  9
$EXTMIN
 10
0.0
 20
0.0
 30
0.0
  9
$EXTMAX
 10
210.0
 20
297.0
 30
0.0
  9
$LIMMIN
 10
0.0
 20
0.0
  9
$LIMMAX
 10
210.0
 20
297.0
  9
$ORTHOMODE
 70
     0
  9
$REGENMODE
 70
     1
  9
$FILLMODE
 70
     1
  9
$QTEXTMODE
 70
     0
  9
$MIRRTEXT
 70
     1
  9
$DRAGMODE
 70
     2
  9
$LTSCALE
 40
1.0
  9
$OSMODE
 70
    37
  9
$ATTMODE
 70
     1
  9
$TEXTSIZE
 40
0.2
  9
$TRACEWID
 40
0.05
  9
$TEXTSTYLE
  7
STANDARD
  9
$CLAYER
  8
0
  9
$CELTYPE
  6
BYLAYER
  9
$CECOLOR
 62
   256
  9
$CELTSCALE
 40
25.4
  9
$DELOBJ
 70
     1
  9
$DISPSILH
 70
     0
  9
$DIMSCALE
 40
1.0
  9
$DIMASZ
 40
0.18
  9
$DIMEXO
 40
0.0625
  9
$DIMDLI
 40
0.38
  9
$DIMRND
 40
0.0
  9
$DIMDLE
 40
0.0
  9
$DIMEXE
 40
0.18
  9
$DIMTP
 40
0.0
  9
$DIMTM
 40
0.0
  9
$DIMTXT
 40
0.18
  9
$DIMCEN
 40
0.09
  9
$DIMTSZ
 40
0.0
  9
$DIMTOL
 70
     0
  9
$DIMLIM
 70
     0
  9
$DIMTIH
 70
     1
  9
$DIMTOH
 70
     1
  9
$DIMSE1
 70
     0
  9
$DIMSE2
 70
     0
  9
$DIMTAD
 70
     0
  9
$DIMZIN
 70
     0
  9
$DIMBLK
  1

  9
$DIMASO
 70
     1
  9
$DIMSHO
 70
     1
  9
$DIMPOST
  1

  9
$DIMAPOST
  1

  9
$DIMALT
 70
     0
  9
$DIMALTD
 70
     2
  9
$DIMALTF
 40
25.4
  9
$DIMLFAC
 40
1.0
  9
$DIMTOFL
 70
     0
  9
$DIMTVP
 40
0.0
  9
$DIMTIX
 70
     0
  9
$DIMSOXD
 70
     0
  9
$DIMSAH
 70
     0
  9
$DIMBLK1
  1

  9
$DIMBLK2
  1

  9
$DIMSTYLE
  2
STANDARD
  9
$DIMCLRD
 70
     0
  9
$DIMCLRE
 70
     0
  9
$DIMCLRT
 70
     0
  9
$DIMTFAC
 40
1.0
  9
$DIMGAP
 40
0.09
  9
$DIMJUST
 70
     0
  9
$DIMSD1
 70
     0
  9
$DIMSD2
 70
     0
  9
$DIMTOLJ
 70
     1
  9
$DIMTZIN
 70
     0
  9
$DIMALTZ
 70
     0
  9
$DIMALTTZ
 70
     0
  9
$DIMFIT
 70
     3
  9
$DIMUPT
 70
     0
  9
$DIMUNIT
 70
     2
  9
$DIMDEC
 70
     4
  9
$DIMTDEC
 70
     4
  9
$DIMALTU
 70
     2
  9
$DIMALTTD
 70
     2
  9
$DIMTXSTY
  7
STANDARD
  9
$DIMAUNIT
 70
     0
  9
$LUNITS
 70
     2
  9
$LUPREC
 70
     4
  9
$SKETCHINC
 40
0.1
  9
$FILLETRAD
 40
0.5
  9
$AUNITS
 70
     0
  9
$AUPREC
 70
     0
  9
$MENU
  1
.
  9
$ELEVATION
 40
0.0
  9
$PELEVATION
 40
0.0
  9
$THICKNESS
 40
0.0
  9
$LIMCHECK
 70
     0
  9
$CHAMFERA
 40
0.5
  9
$CHAMFERB
 40
0.5
  9
$CHAMFERC
 40
1.0
  9
$CHAMFERD
 40
0.0
  9
$SKPOLY
 70
     0
  9
$TDCREATE
 40
2453762.544217222
  9
$TDUPDATE
 40
2453762.544217234
  9
$TDINDWG
 40
0.0000000116
  9
$TDUSRTIMER
 40
0.0000000116
  9
$USRTIMER
 70
     1
  9
$ANGBASE
 50
0.0
  9
$ANGDIR
 70
     0
  9
$PDMODE
 70
     0
  9
$PDSIZE
 40
0.0
  9
$PLINEWID
 40
0.0
  9
$COORDS
 70
     1
  9
$SPLFRAME
 70
     0
  9
$SPLINETYPE
 70
     6
  9
$SPLINESEGS
 70
     8
  9
$ATTDIA
 70
     0
  9
$ATTREQ
 70
     1
  9
$HANDLING
 70
     1
  9
$HANDSEED
  5
150
  9
$SURFTAB1
 70
     6
  9
$SURFTAB2
 70
     6
  9
$SURFTYPE
 70
     6
  9
$SURFU
 70
     6
  9
$SURFV
 70
     6
  9
$UCSNAME
  2

  9
$UCSORG
 10
0.0
 20
0.0
 30
0.0
  9
$UCSXDIR
 10
1.0
 20
0.0
 30
0.0
  9
$UCSYDIR
 10
0.0
 20
1.0
 30
0.0
  9
$PUCSNAME
  2

  9
$PUCSORG
 10
0.0
 20
0.0
 30
0.0
  9
$PUCSXDIR
 10
1.0
 20
0.0
 30
0.0
  9
$PUCSYDIR
 10
0.0
 20
1.0
 30
0.0
  9
$USERI1
 70
     0
  9
$USERI2
 70
     0
  9
$USERI3
 70
     0
  9
$USERI4
 70
     0
  9
$USERI5
 70
     0
  9
$USERR1
 40
0.0
  9
$USERR2
 40
0.0
  9
$USERR3
 40
0.0
  9
$USERR4
 40
0.0
  9
$USERR5
 40
0.0
  9
$WORLDVIEW
 70
     1
  9
$SHADEDGE
 70
     3
  9
$SHADEDIF
 70
    70
  9
$TILEMODE
 70
     1
  9
$MAXACTVP
 70
    64
  9
$PINSBASE
 10
0.0
 20
0.0
 30
0.0
  9
$PLIMCHECK
 70
     0
  9
$PEXTMIN
 10
0.0
 20
0.0
 30
0.0
  9
$PEXTMAX
 10
210.0
 20
297.0
 30
0.0
  9
$PLIMMIN
 10
0.0
 20
0.0
  9
$PLIMMAX
 10
12.0
 20
9.0
  9
$UNITMODE
 70
     0
  9
$VISRETAIN
 70
     1
  9
$PLINEGEN
 70
     0
  9
$PSLTSCALE
 70
     1
  9
$TREEDEPTH
 70
  3020
  9
$PICKSTYLE
 70
     1
  9
$CMLSTYLE
  2
STANDARD
  9
$CMLJUST
 70
     0
  9
$CMLSCALE
 40
1.0
  9
$SAVEIMAGES
 70
     1
  0
ENDSEC
  0
SECTION
  2
CLASSES
  0
CLASS
  1
ACDBDICTIONARYWDFLT
  2
AcDbDictionaryWithDefault
  3
ObjectDBX Classes
 90
        0
280
     0
281
     0
  0
CLASS
  1
TABLESTYLE
  2
AcDbTableStyle
  3
ObjectDBX Classes
 90
     2047
280
     0
281
     0
  0
CLASS
  1
DICTIONARYVAR
  2
AcDbDictionaryVar
  3
ObjectDBX Classes
 90
        0
280
     0
281
     0
  0
CLASS
  1
XRECORD
  2
AcDbXrecord
  3
AutoCAD 2000
 90
    32768
280
     0
281
     0
  0
CLASS
  1
LWPOLYLINE
  2
AcDbPolyline
  3
AutoCAD 2000
 90
    32768
280
     0
281
     1
  0
CLASS
  1
HATCH
  2
AcDbHatch
  3
AutoCAD 2000
 90
    32768
280
     0
281
     1
  0
CLASS
  1
ACDBPLACEHOLDER
  2
AcDbPlaceHolder
  3
ObjectDBX Classes
 90
        0
280
     0
281
     0
  0
CLASS
  1
LAYOUT
  2
AcDbLayout
  3
ObjectDBX Classes
 90
        0
280
     0
281
     0
  0
ENDSEC
  0
SECTION
  2
TABLES
  0
TABLE
  2
VPORT
  5
8
330
0
100
AcDbSymbolTable
 70
     2
  0
VPORT
  5
29
102
{ACAD_XDICTIONARY
360
14E
102
}
330
8
100
AcDbSymbolTableRecord
100
AcDbViewportTableRecord
  2
*ACTIVE
 70
     0
 10
0.0
 20
0.0
 11
1.0
 21
1.0
 12
10.4299065421
 22
4.5
 13
0.0
 23
0.0
 14
0.5
 24
0.5
 15
0.5
 25
0.5
 16
0.0
 26
0.0
 36
1.0
 17
0.0
 27
0.0
 37
0.0
 40
9.0
 41
1.9729729729
 42
50.0
 43
0.0
 44
0.0
 50
0.0
 51
0.0
 71
     0
 72
   100
 73
     1
 74
     3
 75
     0
 76
     0
 77
     0
 78
     0
  0
ENDTAB
  0
TABLE
  2
LTYPE
  5
5
330
0
100
AcDbSymbolTable
 70
     3
  0
LTYPE
  5
14
330
5
100
AcDbSymbolTableRecord
100
AcDbLinetypeTableRecord
  2
BYBLOCK
 70
     0
  3

 72
    65
 73
     0
 40
0.0
  0
LTYPE
  5
15
330
5
100
AcDbSymbolTableRecord
100
AcDbLinetypeTableRecord
  2
BYLAYER
 70
     0
  3

 72
    65
 73
     0
 40
0.0
  0
LTYPE
  5
16
330
5
100
AcDbSymbolTableRecord
100
AcDbLinetypeTableRecord
  2
CONTINUOUS
 70
     0
  3
Solid line
 72
    65
 73
     0
 40
0.0
  0
LTYPE
  5
31
330
5
100
AcDbSymbolTableRecord
100
AcDbLinetypeTableRecord
  2
CENTER2
 70
     0
  3
___ _ ___ _ ___ _ ___ _ ___ _ ___ _ ___ _ ___ _
 72
    65
 73
     4
 40
1.125
 49
0.75
 74
     4
 75
     0
340
0
 46
0.0
 50
0.0
 44
0.0
 45
0.0
 49
-0.125
 74
     4
 75
     0
340
0
 46
0.0
 50
0.0
 44
0.0
 45
0.0
 49
0.125
 74
     4
 75
     0
340
0
 46
0.0
 50
0.0
 44
0.0
 45
0.0
 49
-0.125
 74
     4
 75
     0
340
0
 46
0.0
 50
0.0
 44
0.0
 45
0.0
  0
LTYPE
  5
8D
330
5
100
AcDbSymbolTableRecord
100
AcDbLinetypeTableRecord
  2
HIDDEN2
 70
     0
  3
_ _ _ _ _ _ _ _ _ _ _ _ _ _ _ _ _ _ _ _ _ _ _ _
 72
    65
 73
     2
 40
0.1875
 49
0.125
 74
     4
 75
     0
340
0
 46
0.0
 50
0.0
 44
0.0
 45
0.0
 49
-0.0625
 74
     4
 75
     0
340
0
 46
0.0
 50
0.0
 44
0.0
 45
0.0
  0
ENDTAB
  0
TABLE
  2
LAYER
  5
2
330
0
100
AcDbSymbolTable
 70
     6
  0
LAYER
  5
10
330
2
100
AcDbSymbolTableRecord
100
AcDbLayerTableRecord
  2
0
 70
     0
 62
     7
  6
CONTINUOUS
  0
LAYER
  5
30
330
2
100
AcDbSymbolTableRecord
100
AcDbLayerTableRecord
  2
DEFAULT
 70
     0
 62
     7
  6
CONTINUOUS
  0
LAYER
  5
50
330
2
100
AcDbSymbolTableRecord
100
AcDbLayerTableRecord
  2
MEGA_001501
 70
     0
 62
     7
  6
CONTINUOUS
  0
LAYER
  5
54
330
2
100
AcDbSymbolTableRecord
100
AcDbLayerTableRecord
  2
MEGA_001979
 70
     0
 62
     7
  6
CONTINUOUS
  0
LAYER
  5
60
330
2
100
AcDbSymbolTableRecord
100
AcDbLayerTableRecord
  2
STANDARD
 70
     0
 62
     7
  6
CONTINUOUS
  0
LAYER
  5
6D
330
2
100
AcDbSymbolTableRecord
100
AcDbLayerTableRecord
  2
MEGA_001422
 70
     0
 62
     7
  6
CONTINUOUS
  0
ENDTAB
  0
TABLE
  2
STYLE
  5
3
330
0
100
AcDbSymbolTable
 70
     3
  0
STYLE
  5
11
330
3
100
AcDbSymbolTableRecord
100
AcDbTextStyleTableRecord
  2
STANDARD
 70
     0
 40
0.0
 41
1.0
 50
0.0
 71
     0
 42
0.2
  3
txt
  4

  0
STYLE
  5
D3
330
3
100
AcDbSymbolTableRecord
100
AcDbTextStyleTableRecord
  2
SEACAD_SEISO_TTF
 70
     0
 40
0.2
 41
1.0
 50
0.0
 71
     0
 42
0.2
  3
seiso.ttf
  4

  0
STYLE
  5
D5
330
3
100
AcDbSymbolTableRecord
100
AcDbTextStyleTableRecord
  2
SEACAD_SEMECI1_TTF
 70
     0
 40
0.2
 41
1.0
 50
0.0
 71
     0
 42
0.2
  3
semeci1.ttf
  4

  0
ENDTAB
  0
TABLE
  2
VIEW
  5
6
330
0
100
AcDbSymbolTable
 70
     0
  0
ENDTAB
  0
TABLE
  2
UCS
  5
7
330
0
100
AcDbSymbolTable
 70
     0
  0
ENDTAB
  0
TABLE
  2
APPID
  5
9
330
0
100
AcDbSymbolTable
 70
     1
  0
APPID
  5
12
330
9
100
AcDbSymbolTableRecord
100
AcDbRegAppTableRecord
  2
ACAD
 70
     0
  0
ENDTAB
  0
TABLE
  2
DIMSTYLE
  5
A
330
0
100
AcDbSymbolTable
 70
     1
  0
DIMSTYLE
105
27
330
A
100
AcDbSymbolTableRecord
100
AcDbDimStyleTableRecord
  2
STANDARD
 70
     0
  3

  4

  5

  6

  7

 40
1.0
 41
0.18
 42
0.0625
 43
0.38
 44
0.18
 45
0.0
 46
0.0
 47
0.0
 48
0.0
140
0.18
141
0.09
142
0.0
143
25.4
144
1.0
145
0.0
146
1.0
147
0.09
 71
     0
 72
     0
 73
     1
 74
     1
 75
     0
 76
     0
 77
     0
 78
     0
170
     0
171
     2
172
     0
173
     0
174
     0
175
     0
176
     0
177
     0
178
     0
270
     2
271
     4
272
     4
273
     2
274
     2
340
11
275
     0
280
     0
281
     0
282
     0
283
     1
284
     0
285
     0
286
     0
287
     3
288
     0
  0
ENDTAB
  0
TABLE
  2
BLOCK_RECORD
  5
1
330
0
100
AcDbSymbolTable
 70
    16
  0
BLOCK_RECORD
  5
1F
330
1
100
AcDbSymbolTableRecord
100
AcDbBlockTableRecord
  2
*MODEL_SPACE
  0
BLOCK_RECORD
  5
1B
330
1
100
AcDbSymbolTableRecord
100
AcDbBlockTableRecord
  2
*PAPER_SPACE
  0
BLOCK_RECORD
  5
2E
330
1
100
AcDbSymbolTableRecord
100
AcDbBlockTableRecord
  2
SE
  0
BLOCK_RECORD
  5
3A
330
1
100
AcDbSymbolTableRecord
100
AcDbBlockTableRecord
  2
SE1
  0
BLOCK_RECORD
  5
3F
330
1
100
AcDbSymbolTableRecord
100
AcDbBlockTableRecord
  2
SE2
  0
BLOCK_RECORD
  5
44
330
1
100
AcDbSymbolTableRecord
100
AcDbBlockTableRecord
  2
SE3
  0
BLOCK_RECORD
  5
49
330
1
100
AcDbSymbolTableRecord
100
AcDbBlockTableRecord
  2
SE4
  0
BLOCK_RECORD
  5
4E
330
1
100
AcDbSymbolTableRecord
100
AcDbBlockTableRecord
  2
SE5
  0
BLOCK_RECORD
  5
64
330
1
100
AcDbSymbolTableRecord
100
AcDbBlockTableRecord
  2
SE6
  0
BLOCK_RECORD
  5
9B
330
1
100
AcDbSymbolTableRecord
100
AcDbBlockTableRecord
  2
SE7
  0
BLOCK_RECORD
  5
CD
330
1
100
AcDbSymbolTableRecord
100
AcDbBlockTableRecord
  2
SE8
  0
BLOCK_RECORD
  5
D9
330
1
100
AcDbSymbolTableRecord
100
AcDbBlockTableRecord
  2
SE9
  0
BLOCK_RECORD
  5
E3
330
1
100
AcDbSymbolTableRecord
100
AcDbBlockTableRecord
  2
SE10
  0
BLOCK_RECORD
  5
EE
330
1
100
AcDbSymbolTableRecord
100
AcDbBlockTableRecord
  2
SE11
  0
BLOCK_RECORD
  5
F9
330
1
100
AcDbSymbolTableRecord
100
AcDbBlockTableRecord
  2
SE12
  0
BLOCK_RECORD
  5
103
330
1
100
AcDbSymbolTableRecord
100
AcDbBlockTableRecord
  2
SE13
  0
BLOCK_RECORD
  5
10D
330
1
100
AcDbSymbolTableRecord
100
AcDbBlockTableRecord
  2
SE14
  0
ENDTAB
  0
ENDSEC
  0
SECTION
  2
BLOCKS
  0
BLOCK
  5
20
330
1F
100
AcDbEntity
  8
0
100
AcDbBlockBegin
  2
*MODEL_SPACE
 70
     0
 71
     0
 10
0.0
 20
0.0
 30
0.0
  3
*MODEL_SPACE
  1

  0
ENDBLK
  5
21
330
1F
100
AcDbEntity
  8
0
100
AcDbBlockEnd
  0
BLOCK
  5
1C
330
1B
100
AcDbEntity
 67
     1
  8
0
100
AcDbBlockBegin
  2
*PAPER_SPACE
 70
     0
 71
     0
 10
0.0
 20
0.0
 30
0.0
  3
*PAPER_SPACE
  1

  0
ENDBLK
  5
1D
330
1B
100
AcDbEntity
 67
     1
  8
0
100
AcDbBlockEnd
  0
BLOCK
  5
38
330
2E
100
AcDbEntity
  8
0
100
AcDbBlockBegin
  2
SE
 70
     0
 71
     0
 10
0.0
 20
0.0
 30
0.0
  3
SE
  1

  0
LINE
  5
32
330
2E
100
AcDbEntity
  8
DEFAULT
  6
CENTER2
 62
     7
 48
25.4
100
AcDbLine
 10
135.8780008169
 20
193.1399630475
 30
0.0
 11
123.8780007126
 21
193.1399630475
 31
0.0
  0
LINE
  5
33
330
2E
100
AcDbEntity
  8
DEFAULT
  6
CENTER2
 62
     7
 48
25.4
100
AcDbLine
 10
129.8780007647
 20
199.1399630997
 30
0.0
 11
129.8780007647
 21
187.1399629954
 31
0.0
  0
LINE
  5
34
330
2E
100
AcDbEntity
  8
DEFAULT
  6
CENTER2
 62
     7
 48
25.4
100
AcDbLine
 10
137.3780007647
 20
193.1399630475
 30
0.0
 11
157.6280007647
 21
193.1399630475
 31
0.0
  0
LINE
  5
35
330
2E
100
AcDbEntity
  8
DEFAULT
  6
CENTER2
 62
     7
 48
25.4
100
AcDbLine
 10
129.8780007647
 20
200.6399630475
 30
0.0
 11
129.8780007647
 21
220.8899630475
 31
0.0
  0
LINE
  5
36
330
2E
100
AcDbEntity
  8
DEFAULT
  6
CENTER2
 62
     7
 48
25.4
100
AcDbLine
 10
122.3780007647
 20
193.1399630475
 30
0.0
 11
102.1280007647
 21
193.1399630475
 31
0.0
  0
LINE
  5
37
330
2E
100
AcDbEntity
  8
DEFAULT
  6
CENTER2
 62
     7
 48
25.4
100
AcDbLine
 10
129.8780007647
 20
185.6399630475
 30
0.0
 11
129.8780007647
 21
165.3899630475
 31
0.0
  0
ENDBLK
  5
39
330
2E
100
AcDbEntity
  8
0
100
AcDbBlockEnd
  0
BLOCK
  5
3D
330
3A
100
AcDbEntity
  8
0
100
AcDbBlockBegin
  2
SE1
 70
     0
 71
     0
 10
0.0
 20
0.0
 30
0.0
  3
SE1
  1

  0
LINE
  5
3C
330
3A
100
AcDbEntity
  8
DEFAULT
  6
CENTER2
 62
     7
 48
25.4
100
AcDbLine
 10
71.2476058492
 20
193.1399630475
 30
0.0
 11
48.8905116472
 21
193.1399630475
 31
0.0
  0
ENDBLK
  5
3E
330
3A
100
AcDbEntity
  8
0
100
AcDbBlockEnd
  0
BLOCK
  5
42
330
3F
100
AcDbEntity
  8
0
100
AcDbBlockBegin
  2
SE2
 70
     0
 71
     0
 10
0.0
 20
0.0
 30
0.0
  3
SE2
  1

  0
LINE
  5
41
330
3F
100
AcDbEntity
  8
DEFAULT
  6
CENTER2
 62
     7
 48
25.4
100
AcDbLine
 10
110.8780007647
 20
95.5131180114
 30
0.0
 11
110.8780007647
 21
128.9973310885
 31
0.0
  0
ENDBLK
  5
43
330
3F
100
AcDbEntity
  8
0
100
AcDbBlockEnd
  0
BLOCK
  5
47
330
44
100
AcDbEntity
  8
0
100
AcDbBlockBegin
  2
SE3
 70
     0
 71
     0
 10
0.0
 20
0.0
 30
0.0
  3
SE3
  1

  0
LINE
  5
46
330
44
100
AcDbEntity
  8
DEFAULT
  6
CENTER2
 62
     7
 48
25.4
100
AcDbLine
 10
129.8780007647
 20
86.3824150931
 30
0.0
 11
129.8780007647
 21
108.7864546612
 31
0.0
  0
ENDBLK
  5
48
330
44
100
AcDbEntity
  8
0
100
AcDbBlockEnd
  0
BLOCK
  5
4C
330
49
100
AcDbEntity
  8
0
100
AcDbBlockBegin
  2
SE4
 70
     0
 71
     0
 10
0.0
 20
0.0
 30
0.0
  3
SE4
  1

  0
LINE
  5
4B
330
49
100
AcDbEntity
  8
DEFAULT
  6
CENTER2
 62
     7
 48
25.4
100
AcDbLine
 10
148.8780007647
 20
95.0904002837
 30
0.0
 11
148.8780007647
 21
129.5661240596
 31
0.0
  0
ENDBLK
  5
4D
330
49
100
AcDbEntity
  8
0
100
AcDbBlockEnd
  0
BLOCK
  5
62
330
4E
100
AcDbEntity
  8
0
100
AcDbBlockBegin
  2
SE5
 70
     0
 71
     0
 10
0.0
 20
0.0
 30
0.0
  3
SE5
  1

  0
CIRCLE
  5
51
330
4E
100
AcDbEntity
  8
MEGA_001501
  6
CONTINUOUS
 62
     7
 48
25.4
100
AcDbCircle
 10
129.8780007647
 20
193.1399630475
 30
0.0
 40
11.1
  0
ARC
  5
52
330
4E
100
AcDbEntity
  8
MEGA_001501
  6
CONTINUOUS
 62
     7
 48
25.4
100
AcDbCircle
 10
129.8780007647
 20
193.1399630475
 30
0.0
 40
25.93015846099999
100
AcDbArc
 50
84.8556759748
 51
95.1443240252
  0
ARC
  5
53
330
4E
100
AcDbEntity
  8
MEGA_001501
  6
CONTINUOUS
 62
     7
 48
25.4
100
AcDbCircle
 10
129.8780007647
 20
193.1399630475
 30
0.0
 40
26.0
100
AcDbArc
 50
95.5177343738
 51
84.4822656262
  0
SPLINE
  5
55
330
4E
100
AcDbEntity
  8
MEGA_001979
  6
CONTINUOUS
 62
     7
 48
25.4
100
AcDbSpline
210
0.0
220
0.0
230
1.0
 70
     8
 71
     3
 72
    14
 73
    10
 74
     0
 42
0.0000000001
 43
0.0000000001
 40
0.0
 40
0.0
 40
0.0
 40
0.0
 40
0.4999999999999968
 40
0.4999999999999968
 40
0.4999999999999968
 40
0.7499999999999983
 40
0.7499999999999983
 40
0.7499999999999983
 40
1.0
 40
1.0
 40
1.0
 40
1.0
 10
121.7885666362134
 20
194.124752556871
 30
0.0
 10
121.7103867254012
 20
194.1252192281162
 30
0.0
 10
121.6339708642245
 20
194.1356292347478
 30
0.0
 10
121.5605162963809
 20
194.1634438828015
 30
0.0
 10
121.5237890124591
 20
194.1773512068284
 30
0.0
 10
121.4877417498878
 20
194.1958822081508
 30
0.0
 10
121.4578153397748
 20
194.222243593428
 30
0.0
 10
121.4278889296619
 20
194.2486049787053
 30
0.0
 10
121.4029844834901
 20
194.2864471613752
 30
0.0
 10
121.4048883250391
 20
194.3284487032144
 30
0.0
  0
ELLIPSE
  5
56
330
4E
100
AcDbEntity
  8
MEGA_001979
  6
CONTINUOUS
 62
     7
 48
25.4
100
AcDbEllipse
 10
129.8780007647
 20
193.2671849245
 30
0.0
 11
49.79892481932576
 21
-3.920000000000000E-14
 31
0.0
210
0.0
220
0.0
230
1.0
 40
0.0174524064
 41
1.407631361612297
 42
1.733961291977518
  0
SPLINE
  5
57
330
4E
100
AcDbEntity
  8
MEGA_001979
  6
CONTINUOUS
 62
     7
 48
25.4
100
AcDbSpline
210
0.0
220
0.0
230
1.0
 70
     8
 71
     3
 72
    14
 73
    10
 74
     0
 42
0.0000000001
 43
0.0000000001
 40
0.0
 40
0.0
 40
0.0
 40
0.0
 40
0.2499999999999999
 40
0.2499999999999999
 40
0.2499999999999999
 40
0.4999999999999998
 40
0.4999999999999998
 40
0.4999999999999998
 40
1.0
 40
1.0
 40
1.0
 40
1.0
 10
138.3511132043715
 20
194.3284487032144
 30
0.0
 10
138.3530132586191
 20
194.2865307148085
 30
0.0
 10
138.3284538442462
 20
194.2489515325573
 30
0.0
 10
138.2983313462079
 20
194.2223715684304
 30
0.0
 10
138.2682088481695
 20
194.1957916043036
 30
0.0
 10
138.2328360314992
 20
194.1776600716079
 30
0.0
 10
138.1962400798316
 20
194.1637304586685
 30
0.0
 10
138.1230481764963
 20
194.1358712327896
 30
0.0
 10
138.0455412174302
 20
194.1252187888635
 30
0.0
 10
137.9674348931972
 20
194.124752556871
 30
0.0
  0
ELLIPSE
  5
58
330
4E
100
AcDbEntity
  8
MEGA_001979
  6
CONTINUOUS
 62
     7
 48
25.4
100
AcDbEllipse
 10
129.8780007647
 20
194.5376528669
 30
0.0
 11
24.99999999999928
 21
-1.700000000000000E-15
 31
0.0
210
0.0
220
0.0
230
1.0
 40
0.0174550649
 41
4.382881161340881
 42
5.041896799428493
  0
CIRCLE
  5
59
330
4E
100
AcDbEntity
  8
MEGA_001979
  6
CONTINUOUS
 62
     7
 48
25.4
100
AcDbCircle
 10
129.8780007647
 20
193.1399630475
 30
0.0
 40
9.5
  0
ELLIPSE
  5
5A
330
4E
100
AcDbEntity
  8
MEGA_001979
  6
CONTINUOUS
 62
     7
 48
25.4
100
AcDbEllipse
 10
129.8780007647
 20
191.7422732282
 30
0.0
 11
25.0000000000001
 21
-4.000000000000000E-16
 31
0.0
210
0.0
220
0.0
230
0.9999999999999999
 40
0.0174550649
 41
1.241288507751071
 42
1.900304145838723
  0
ELLIPSE
  5
5B
330
4E
100
AcDbEntity
  8
MEGA_001979
  6
CONTINUOUS
 62
     7
 48
25.4
100
AcDbEllipse
 10
129.8780007647
 20
193.0127411706
 30
0.0
 11
-49.79892481932576
 21
3.920000000000000E-14
 31
0.0
210
0.0
220
0.0
230
1.0
 40
0.0174524064
 41
1.407631361612297
 42
1.733961291977518
  0
SPLINE
  5
5C
330
4E
100
AcDbEntity
  8
MEGA_001979
  6
CONTINUOUS
 62
     7
 48
25.4
100
AcDbSpline
210
0.0
220
0.0
230
1.0
 70
     8
 71
     3
 72
    14
 73
    10
 74
     0
 42
0.0000000001
 43
0.0000000001
 40
0.0
 40
0.0
 40
0.0
 40
0.0
 40
0.2500000000000024
 40
0.2500000000000024
 40
0.2500000000000024
 40
0.5000000000000048
 40
0.5000000000000048
 40
0.5000000000000048
 40
1.0
 40
1.0
 40
1.0
 40
1.0
 10
121.4048883250391
 20
191.9514773918538
 30
0.0
 10
121.4029882707915
 20
191.9933953802597
 30
0.0
 10
121.4275476851643
 20
192.0309745625109
 30
0.0
 10
121.4576701832027
 20
192.0575545266377
 30
0.0
 10
121.4877926812411
 20
192.0841344907647
 30
0.0
 10
121.5231654979114
 20
192.1022660234603
 30
0.0
 10
121.559761449579
 20
192.1161956363997
 30
0.0
 10
121.6329533529143
 20
192.1440548622785
 30
0.0
 10
121.7104603119804
 20
192.1547073062047
 30
0.0
 10
121.7885666362134
 20
192.1551735381972
 30
0.0
  0
SPLINE
  5
5D
330
4E
100
AcDbEntity
  8
MEGA_001979
  6
CONTINUOUS
 62
     7
 48
25.4
100
AcDbSpline
210
0.0
220
0.0
230
1.0
 70
     8
 71
     3
 72
    14
 73
    10
 74
     0
 42
0.0000000001
 43
0.0000000001
 40
0.0
 40
0.0
 40
0.0
 40
0.0
 40
0.5000000000000047
 40
0.5000000000000047
 40
0.5000000000000047
 40
0.7500000000000023
 40
0.7500000000000023
 40
0.7500000000000023
 40
1.0
 40
1.0
 40
1.0
 40
1.0
 10
137.9674348931972
 20
192.1551735381972
 30
0.0
 10
138.0456148040094
 20
192.154706866952
 30
0.0
 10
138.1220306651861
 20
192.1442968603204
 30
0.0
 10
138.1954852330297
 20
192.1164822122667
 30
0.0
 10
138.2322125169515
 20
192.1025748882398
 30
0.0
 10
138.2682597795229
 20
192.0840438869174
 30
0.0
 10
138.2981861896357
 20
192.0576825016402
 30
0.0
 10
138.3281125997487
 20
192.0313211163629
 30
0.0
 10
138.3530170459205
 20
191.993478933693
 30
0.0
 10
138.3511132043715
 20
191.9514773918538
 30
0.0
  0
ARC
  5
5E
330
4E
100
AcDbEntity
  8
MEGA_001979
  6
CONTINUOUS
 62
     7
 48
25.4
100
AcDbCircle
 10
112.1357975884
 20
193.1399630475
 30
0.0
 40
26.24224211069999
100
AcDbArc
 50
357.4042419237
 51
2.5957580763
  0
ARC
  5
5F
330
4E
100
AcDbEntity
  8
MEGA_001979
  6
CONTINUOUS
 62
     7
 48
25.4
100
AcDbCircle
 10
147.620203941
 20
193.1399630475
 30
0.0
 40
26.24224211070001
100
AcDbArc
 50
177.4042419237
 51
182.5957580763
  0
ARC
  5
61
330
4E
100
AcDbEntity
  8
STANDARD
  6
CONTINUOUS
 62
     7
 48
25.4
100
AcDbCircle
 10
129.8780007644
 20
193.1399603053
 30
0.0
 40
26.0000027296
100
AcDbArc
 50
84.4822662066
 51
95.517733792
  0
ENDBLK
  5
63
330
4E
100
AcDbEntity
  8
0
100
AcDbBlockEnd
  0
BLOCK
  5
99
330
64
100
AcDbEntity
  8
0
100
AcDbBlockBegin
  2
SE6
 70
     0
 71
     0
 10
0.0
 20
0.0
 30
0.0
  3
SE6
  1

  0
LINE
  5
66
330
64
100
AcDbEntity
  8
MEGA_001501
  6
CONTINUOUS
 62
     7
 48
25.4
100
AcDbLine
 10
105.3120967349
 20
93.6229357308
 30
0.0
 11
154.4439047945
 21
93.6229357308
 31
0.0
  0
LINE
  5
67
330
64
100
AcDbEntity
  8
MEGA_001501
  6
CONTINUOUS
 62
     7
 48
25.4
100
AcDbLine
 10
155.8780007647
 20
100.1229357308
 30
0.0
 11
132.3780007647
 21
100.1229357308
 31
0.0
  0
LINE
  5
68
330
64
100
AcDbEntity
  8
MEGA_001501
  6
CONTINUOUS
 62
     7
 48
25.4
100
AcDbLine
 10
127.3780007647
 20
100.1229357308
 30
0.0
 11
103.8780007647
 21
100.1229357308
 31
0.0
  0
LINE
  5
69
330
64
100
AcDbEntity
  8
MEGA_001501
  6
CONTINUOUS
 62
     7
 48
25.4
100
AcDbLine
 10
103.8780007647
 20
100.1229357308
 30
0.0
 11
104.0628582011
 21
94.8293113599
 31
0.0
  0
ARC
  5
6A
330
64
100
AcDbEntity
  8
MEGA_001501
  6
CONTINUOUS
 62
     7
 48
25.4
100
AcDbCircle
 10
105.3120967349
 20
94.8729357308
 30
0.0
 40
1.25
100
AcDbArc
 50
182.0
 51
270.0
  0
LINE
  5
6B
330
64
100
AcDbEntity
  8
MEGA_001501
  6
CONTINUOUS
 62
     7
 48
25.4
100
AcDbLine
 10
155.6931433283
 20
94.8293113599
 30
0.0
 11
155.8780007647
 21
100.1229357308
 31
0.0
  0
ARC
  5
6C
330
64
100
AcDbEntity
  8
MEGA_001501
  6
CONTINUOUS
 62
     7
 48
25.4
100
AcDbCircle
 10
154.4439047945
 20
94.8729357308
 30
0.0
 40
1.25
100
AcDbArc
 50
270.0
 51
358.0
  0
LINE
  5
6E
330
64
100
AcDbEntity
  8
MEGA_001422
  6
CONTINUOUS
 62
     7
 48
25.4
100
AcDbLine
 10
140.8611497386
 20
100.6054859825
 30
0.0
 11
140.7370989695
 21
104.1578352275
 31
0.0
  0
LINE
  5
6F
330
64
100
AcDbEntity
  8
MEGA_001422
  6
CONTINUOUS
 62
     7
 48
25.4
100
AcDbLine
 10
151.7205525298
 20
105.1229357308
 30
0.0
 11
146.0354489996
 21
105.1229357308
 31
0.0
  0
LINE
  5
70
330
64
100
AcDbEntity
  8
MEGA_001422
  6
CONTINUOUS
 62
     7
 48
25.4
100
AcDbLine
 10
113.7205525298
 20
105.1229357308
 30
0.0
 11
108.0354489996
 21
105.1229357308
 31
0.0
  0
LINE
  5
71
330
64
100
AcDbEntity
  8
MEGA_001422
  6
CONTINUOUS
 62
     7
 48
25.4
100
AcDbLine
 10
119.01890256
 20
104.1578352275
 30
0.0
 11
118.8948517908
 21
100.6054859825
 31
0.0
  0
LINE
  5
72
330
64
100
AcDbEntity
  8
MEGA_001422
  6
CONTINUOUS
 62
     7
 48
25.4
100
AcDbLine
 10
152.3611497386
 20
100.6054859825
 30
0.0
 11
152.2202479434
 21
104.6403854792
 31
0.0
  0
LINE
  5
73
330
64
100
AcDbEntity
  8
MEGA_001422
  6
CONTINUOUS
 62
     7
 48
25.4
100
AcDbLine
 10
145.5357535861
 20
104.6403854792
 30
0.0
 11
145.3948517908
 21
100.6054859825
 31
0.0
  0
LINE
  5
74
330
64
100
AcDbEntity
  8
MEGA_001422
  6
CONTINUOUS
 62
     7
 48
25.4
100
AcDbLine
 10
114.3611497386
 20
100.6054859825
 30
0.0
 11
114.2202479434
 21
104.6403854792
 31
0.0
  0
LINE
  5
75
330
64
100
AcDbEntity
  8
MEGA_001422
  6
CONTINUOUS
 62
     7
 48
25.4
100
AcDbLine
 10
107.5357535861
 20
104.6403854792
 30
0.0
 11
107.3948517908
 21
100.6054859825
 31
0.0
  0
LINE
  5
76
330
64
100
AcDbEntity
  8
MEGA_001422
  6
CONTINUOUS
 62
     7
 48
25.4
100
AcDbLine
 10
120.018293387
 20
105.1229357308
 30
0.0
 11
139.7377081424
 21
105.1229357308
 31
0.0
  0
LINE
  5
77
330
64
100
AcDbEntity
  8
MEGA_001422
  6
CONTINUOUS
 62
     7
 48
25.4
100
AcDbLine
 10
118.9827737096
 20
93.6226311443
 30
0.0
 11
140.7732278198
 21
93.6226311443
 31
0.0
  0
LINE
  5
78
330
64
100
AcDbEntity
  8
MEGA_001422
  6
CONTINUOUS
 62
     7
 48
25.4
100
AcDbLine
 10
132.3780007647
 20
100.1229357308
 30
0.0
 11
132.1280007647
 21
100.1229357308
 31
0.0
  0
LINE
  5
79
330
64
100
AcDbEntity
  8
MEGA_001422
  6
CONTINUOUS
 62
     7
 48
25.4
100
AcDbLine
 10
127.6280007647
 20
100.1229357308
 30
0.0
 11
127.3780007647
 21
100.1229357308
 31
0.0
  0
LINE
  5
7A
330
64
100
AcDbEntity
  8
MEGA_001422
  6
CONTINUOUS
 62
     7
 48
25.4
100
AcDbLine
 10
127.6280007647
 20
100.1229357308
 30
0.0
 11
132.1280007647
 21
100.1229357308
 31
0.0
  0
ARC
  5
7B
330
64
100
AcDbEntity
  8
MEGA_001422
  6
CONTINUOUS
 62
     7
 48
25.4
100
AcDbCircle
 10
108.0354489996
 20
104.6229357308
 30
0.0
 40
0.5
100
AcDbArc
 50
90.0
 51
178.0
  0
ARC
  5
7C
330
64
100
AcDbEntity
  8
MEGA_001422
  6
CONTINUOUS
 62
     7
 48
25.4
100
AcDbCircle
 10
146.0354489996
 20
104.6229357308
 30
0.0
 40
0.5
100
AcDbArc
 50
90.0
 51
178.0
  0
ARC
  5
7D
330
64
100
AcDbEntity
  8
MEGA_001422
  6
CONTINUOUS
 62
     7
 48
25.4
100
AcDbCircle
 10
114.8608451521
 20
100.6229357308
 30
0.0
 40
0.5
100
AcDbArc
 50
182.0
 51
270.0
  0
ARC
  5
7E
330
64
100
AcDbEntity
  8
MEGA_001422
  6
CONTINUOUS
 62
     7
 48
25.4
100
AcDbCircle
 10
152.8608451521
 20
100.6229357308
 30
0.0
 40
0.5
100
AcDbArc
 50
182.0
 51
270.0
  0
ARC
  5
7F
330
64
100
AcDbEntity
  8
MEGA_001422
  6
CONTINUOUS
 62
     7
 48
25.4
100
AcDbCircle
 10
141.3608451521
 20
100.6229357308
 30
0.0
 40
0.5
100
AcDbArc
 50
182.0
 51
270.0
  0
ARC
  5
80
330
64
100
AcDbEntity
  8
MEGA_001422
  6
CONTINUOUS
 62
     7
 48
25.4
100
AcDbCircle
 10
113.7205525298
 20
104.6229357308
 30
0.0
 40
0.5
100
AcDbArc
 50
2.0
 51
90.0
  0
ARC
  5
81
330
64
100
AcDbEntity
  8
MEGA_001422
  6
CONTINUOUS
 62
     7
 48
25.4
100
AcDbCircle
 10
151.7205525298
 20
104.6229357308
 30
0.0
 40
0.5
100
AcDbArc
 50
2.0
 51
90.0
  0
ARC
  5
82
330
64
100
AcDbEntity
  8
MEGA_001422
  6
CONTINUOUS
 62
     7
 48
25.4
100
AcDbCircle
 10
106.8951563773
 20
100.6229357308
 30
0.0
 40
0.5
100
AcDbArc
 50
270.0
 51
358.0
  0
ARC
  5
83
330
64
100
AcDbEntity
  8
MEGA_001422
  6
CONTINUOUS
 62
     7
 48
25.4
100
AcDbCircle
 10
144.8951563773
 20
100.6229357308
 30
0.0
 40
0.5
100
AcDbArc
 50
270.0
 51
358.0
  0
ARC
  5
84
330
64
100
AcDbEntity
  8
MEGA_001422
  6
CONTINUOUS
 62
     7
 48
25.4
100
AcDbCircle
 10
118.3951563773
 20
100.6229357308
 30
0.0
 40
0.5
100
AcDbArc
 50
270.0
 51
358.0
  0
LINE
  5
85
330
64
100
AcDbEntity
  8
MEGA_001422
  6
CONTINUOUS
 62
     7
 48
25.4
100
AcDbLine
 10
118.9827630732
 20
93.6229357308
 30
0.0
 11
118.9827737096
 21
93.6226311443
 31
0.0
  0
ARC
  5
86
330
64
100
AcDbEntity
  8
MEGA_001422
  6
CONTINUOUS
 62
     7
 48
25.4
100
AcDbCircle
 10
139.7377081424
 20
104.1229357308
 30
0.0
 40
1.0
100
AcDbArc
 50
2.0
 51
90.0
  0
LINE
  5
87
330
64
100
AcDbEntity
  8
MEGA_001422
  6
CONTINUOUS
 62
     7
 48
25.4
100
AcDbLine
 10
140.7732278198
 20
93.6226311443
 30
0.0
 11
140.7732384562
 21
93.6229357308
 31
0.0
  0
ARC
  5
88
330
64
100
AcDbEntity
  8
MEGA_001422
  6
CONTINUOUS
 62
     7
 48
25.4
100
AcDbCircle
 10
120.018293387
 20
104.1229357308
 30
0.0
 40
1.0
100
AcDbArc
 50
90.0
 51
178.0
  0
LINE
  5
89
330
64
100
AcDbEntity
  8
MEGA_001422
  6
CONTINUOUS
 62
     7
 48
25.4
100
AcDbLine
 10
118.9827737096
 20
93.6226311443
 30
0.0
 11
119.4824691231
 21
93.1229357308
 31
0.0
  0
LINE
  5
8A
330
64
100
AcDbEntity
  8
MEGA_001422
  6
CONTINUOUS
 62
     7
 48
25.4
100
AcDbLine
 10
140.2735324063
 20
93.1229357308
 30
0.0
 11
140.7732278198
 21
93.6226311443
 31
0.0
  0
ARC
  5
8B
330
64
100
AcDbEntity
  8
MEGA_001979
  6
CONTINUOUS
 62
     7
 48
25.4
100
AcDbCircle
 10
129.8780007647
 20
140.232885341
 30
0.0
 40
50.0063180269
100
AcDbArc
 50
260.2446901934
 51
279.7553098066
  0
ARC
  5
8C
330
64
100
AcDbEntity
  8
MEGA_001979
  6
CONTINUOUS
 62
     7
 48
25.4
100
AcDbCircle
 10
129.8780007647
 20
140.2121402467
 30
0.0
 40
50.0
100
AcDbArc
 50
279.7877891041
 51
280.9527841989
  0
ARC
  5
8E
330
64
100
AcDbEntity
  8
MEGA_001979
  6
HIDDEN2
 62
     7
 48
25.4
100
AcDbCircle
 10
129.877999122
 20
67.4293006773
 30
0.0
 40
24.9999999996
100
AcDbArc
 50
108.8794033691
 51
109.8116076487
  0
ARC
  5
8F
330
64
100
AcDbEntity
  8
MEGA_001979
  6
HIDDEN2
 62
     7
 48
25.4
100
AcDbCircle
 10
129.8780025794
 20
67.4293006184
 30
0.0
 40
24.99999999970001
100
AcDbArc
 50
70.1883905298
 51
71.1205970475
  0
LINE
  5
90
330
64
100
AcDbEntity
  8
MEGA_001979
  6
CONTINUOUS
 62
     7
 48
25.4
100
AcDbLine
 10
120.3780007647
 20
91.1229357308
 30
0.0
 11
139.3780007647
 21
91.1229357308
 31
0.0
  0
LINE
  5
91
330
64
100
AcDbEntity
  8
MEGA_001979
  6
CONTINUOUS
 62
     7
 48
25.4
100
AcDbLine
 10
119.3780007647
 20
93.1229357308
 30
0.0
 11
140.3780007647
 21
93.1229357308
 31
0.0
  0
ARC
  5
92
330
64
100
AcDbEntity
  8
MEGA_001979
  6
CONTINUOUS
 62
     7
 48
25.4
100
AcDbCircle
 10
129.8780007647
 20
140.2121402467
 30
0.0
 40
50.0
100
AcDbArc
 50
259.0472158011
 51
260.2121848127
  0
LINE
  5
93
330
64
100
AcDbEntity
  8
MEGA_001979
  6
CONTINUOUS
 62
     7
 48
25.4
100
AcDbLine
 10
119.3780007647
 20
92.1229357308
 30
0.0
 11
120.3780007647
 21
91.1229357308
 31
0.0
  0
LINE
  5
94
330
64
100
AcDbEntity
  8
MEGA_001979
  6
CONTINUOUS
 62
     7
 48
25.4
100
AcDbLine
 10
139.3780007647
 20
91.1229357308
 30
0.0
 11
140.3780007647
 21
92.1229357308
 31
0.0
  0
LINE
  5
95
330
64
100
AcDbEntity
  8
MEGA_001979
  6
CONTINUOUS
 62
     7
 48
25.4
100
AcDbLine
 10
140.3780007647
 20
92.1229357308
 30
0.0
 11
140.3780007647
 21
93.1229357308
 31
0.0
  0
LINE
  5
96
330
64
100
AcDbEntity
  8
MEGA_001979
  6
CONTINUOUS
 62
     7
 48
25.4
100
AcDbLine
 10
119.3780007647
 20
93.1229357308
 30
0.0
 11
119.3780007647
 21
92.1229357308
 31
0.0
  0
LINE
  5
97
330
64
100
AcDbEntity
  8
MEGA_001979
  6
CONTINUOUS
 62
     7
 48
25.4
100
AcDbLine
 10
138.3780405637
 20
90.9399401623
 30
0.0
 11
138.3511132044
 21
90.9496406407
 31
0.0
  0
LINE
  5
98
330
64
100
AcDbEntity
  8
MEGA_001979
  6
CONTINUOUS
 62
     7
 48
25.4
100
AcDbLine
 10
121.3779609657
 20
90.9399401623
 30
0.0
 11
121.404888325
 21
90.9496406407
 31
0.0
  0
ENDBLK
  5
9A
330
64
100
AcDbEntity
  8
0
100
AcDbBlockEnd
  0
BLOCK
  5
CB
330
9B
100
AcDbEntity
  8
0
100
AcDbBlockBegin
  2
SE7
 70
     0
 71
     0
 10
0.0
 20
0.0
 30
0.0
  3
SE7
  1

  0
LINE
  5
9D
330
9B
100
AcDbEntity
  8
MEGA_001501
  6
CONTINUOUS
 62
     7
 48
25.4
100
AcDbLine
 10
57.3401511379
 20
167.324820484
 30
0.0
 11
62.6337755088
 21
167.1399630475
 31
0.0
  0
LINE
  5
9E
330
9B
100
AcDbEntity
  8
MEGA_001501
  6
CONTINUOUS
 62
     7
 48
25.4
100
AcDbLine
 10
60.6337755088
 20
219.0701215086
 30
0.0
 11
57.3401511379
 21
218.9551056111
 31
0.0
  0
ARC
  5
9F
330
9B
100
AcDbEntity
  8
MEGA_001501
  6
CONTINUOUS
 62
     7
 48
25.4
100
AcDbCircle
 10
57.3837755088
 20
217.7058670773
 30
0.0
 40
1.25
100
AcDbArc
 50
92.0
 51
180.0
  0
ARC
  5
A0
330
9B
100
AcDbEntity
  8
MEGA_001501
  6
CONTINUOUS
 62
     7
 48
25.4
100
AcDbCircle
 10
57.3837755088
 20
168.5740590177
 30
0.0
 40
1.25
100
AcDbArc
 50
180.0
 51
268.0
  0
LINE
  5
A1
330
9B
100
AcDbEntity
  8
MEGA_001501
  6
CONTINUOUS
 62
     7
 48
25.4
100
AcDbLine
 10
62.6337755088
 20
167.1399630475
 30
0.0
 11
62.6337755088
 21
219.0194916367
 31
0.0
  0
LINE
  5
A2
330
9B
100
AcDbEntity
  8
MEGA_001501
  6
CONTINUOUS
 62
     7
 48
25.4
100
AcDbLine
 10
56.1337755088
 20
168.5740590177
 30
0.0
 11
56.1337755088
 21
217.7058670773
 31
0.0
  0
LINE
  5
A3
330
9B
100
AcDbEntity
  8
MEGA_001422
  6
CONTINUOUS
 62
     7
 48
25.4
100
AcDbLine
 10
63.1163257604
 20
182.1568140736
 30
0.0
 11
66.6686750055
 21
182.2808648428
 31
0.0
  0
LINE
  5
A4
330
9B
100
AcDbEntity
  8
MEGA_001422
  6
CONTINUOUS
 62
     7
 48
25.4
100
AcDbLine
 10
66.6686750055
 20
203.9990612523
 30
0.0
 11
63.1163257604
 21
204.1231120214
 31
0.0
  0
LINE
  5
A5
330
9B
100
AcDbEntity
  8
MEGA_001422
  6
CONTINUOUS
 62
     7
 48
25.4
100
AcDbLine
 10
62.6337755088
 20
219.0424243205
 30
0.0
 11
62.6337755088
 21
219.0194916367
 31
0.0
  0
LINE
  5
A6
330
9B
100
AcDbEntity
  8
MEGA_001422
  6
CONTINUOUS
 62
     7
 48
25.4
100
AcDbLine
 10
67.6337755088
 20
183.2802556698
 30
0.0
 11
67.6337755088
 21
190.2974112824
 31
0.0
  0
LINE
  5
A7
330
9B
100
AcDbEntity
  8
MEGA_001422
  6
CONTINUOUS
 62
     7
 48
25.4
100
AcDbLine
 10
67.6337755088
 20
195.9825148127
 30
0.0
 11
67.6337755088
 21
202.9996704253
 31
0.0
  0
LINE
  5
A8
330
9B
100
AcDbEntity
  8
MEGA_001422
  6
CONTINUOUS
 62
     7
 48
25.4
100
AcDbLine
 10
56.1334709223
 20
182.2447359924
 30
0.0
 11
56.1334709223
 21
204.0351901027
 31
0.0
  0
LINE
  5
A9
330
9B
100
AcDbEntity
  8
MEGA_001422
  6
CONTINUOUS
 62
     7
 48
25.4
100
AcDbLine
 10
62.6337755088
 20
219.1399630475
 30
0.0
 11
62.6337755088
 21
219.0424243205
 31
0.0
  0
ARC
  5
AA
330
9B
100
AcDbEntity
  8
MEGA_001422
  6
CONTINUOUS
 62
     7
 48
25.4
100
AcDbCircle
 10
67.1337755088
 20
195.9825148127
 30
0.0
 40
0.5
100
AcDbArc
 50
0.0
 51
88.0
  0
ARC
  5
AB
330
9B
100
AcDbEntity
  8
MEGA_001422
  6
CONTINUOUS
 62
     7
 48
25.4
100
AcDbCircle
 10
63.1337755088
 20
181.6571186601
 30
0.0
 40
0.5
100
AcDbArc
 50
92.0
 51
180.0
  0
ARC
  5
AC
330
9B
100
AcDbEntity
  8
MEGA_001422
  6
CONTINUOUS
 62
     7
 48
25.4
100
AcDbCircle
 10
63.1337755088
 20
189.1571186601
 30
0.0
 40
0.5
100
AcDbArc
 50
92.0
 51
180.0
  0
ARC
  5
AD
330
9B
100
AcDbEntity
  8
MEGA_001422
  6
CONTINUOUS
 62
     7
 48
25.4
100
AcDbCircle
 10
67.1337755088
 20
190.2974112824
 30
0.0
 40
0.5
100
AcDbArc
 50
272.0
 51
360.0
  0
ARC
  5
AE
330
9B
100
AcDbEntity
  8
MEGA_001422
  6
CONTINUOUS
 62
     7
 48
25.4
100
AcDbCircle
 10
63.1337755088
 20
204.6228074349
 30
0.0
 40
0.5
100
AcDbArc
 50
180.0
 51
268.0
  0
ARC
  5
AF
330
9B
100
AcDbEntity
  8
MEGA_001422
  6
CONTINUOUS
 62
     7
 48
25.4
100
AcDbCircle
 10
63.1337755088
 20
197.1228074349
 30
0.0
 40
0.5
100
AcDbArc
 50
180.0
 51
268.0
  0
LINE
  5
B0
330
9B
100
AcDbEntity
  8
MEGA_001422
  6
CONTINUOUS
 62
     7
 48
25.4
100
AcDbLine
 10
56.1337755088
 20
204.0352007391
 30
0.0
 11
56.1334709223
 21
204.0351901027
 31
0.0
  0
ARC
  5
B1
330
9B
100
AcDbEntity
  8
MEGA_001422
  6
CONTINUOUS
 62
     7
 48
25.4
100
AcDbCircle
 10
66.6337755088
 20
183.2802556698
 30
0.0
 40
1.0
100
AcDbArc
 50
272.0
 51
360.0
  0
LINE
  5
B2
330
9B
100
AcDbEntity
  8
MEGA_001422
  6
CONTINUOUS
 62
     7
 48
25.4
100
AcDbLine
 10
56.1334709223
 20
182.2447359924
 30
0.0
 11
56.1337755088
 21
182.244725356
 31
0.0
  0
ARC
  5
B3
330
9B
100
AcDbEntity
  8
MEGA_001422
  6
CONTINUOUS
 62
     7
 48
25.4
100
AcDbCircle
 10
66.6337755088
 20
202.9996704253
 30
0.0
 40
1.0
100
AcDbArc
 50
0.0
 51
88.0
  0
LINE
  5
B4
330
9B
100
AcDbEntity
  8
MEGA_001422
  6
CONTINUOUS
 62
     7
 48
25.4
100
AcDbLine
 10
67.6337755088
 20
190.2974112824
 30
0.0
 11
67.6337755088
 21
195.9825148127
 31
0.0
  0
LINE
  5
B5
330
9B
100
AcDbEntity
  8
MEGA_001422
  6
CONTINUOUS
 62
     7
 48
25.4
100
AcDbLine
 10
56.1334709223
 20
204.0351901027
 30
0.0
 11
55.6337755088
 21
203.5354946892
 31
0.0
  0
LINE
  5
B6
330
9B
100
AcDbEntity
  8
MEGA_001422
  6
CONTINUOUS
 62
     7
 48
25.4
100
AcDbLine
 10
55.6337755088
 20
182.7444314059
 30
0.0
 11
56.1334709223
 21
182.2447359924
 31
0.0
  0
LINE
  5
B7
330
9B
100
AcDbEntity
  8
MEGA_001422
  6
CONTINUOUS
 62
     7
 48
25.4
100
AcDbLine
 10
63.1163257604
 20
189.6568140736
 30
0.0
 11
67.1512252571
 21
189.7977158689
 31
0.0
  0
LINE
  5
B8
330
9B
100
AcDbEntity
  8
MEGA_001422
  6
CONTINUOUS
 62
     7
 48
25.4
100
AcDbLine
 10
67.1512252571
 20
196.4822102262
 30
0.0
 11
63.1163257604
 21
196.6231120214
 31
0.0
  0
ARC
  5
B9
330
9B
100
AcDbEntity
  8
MEGA_001979
  6
CONTINUOUS
 62
     7
 48
25.4
100
AcDbCircle
 10
102.7229800246
 20
193.1399630475
 30
0.0
 40
50.00000000000001
100
AcDbArc
 50
181.3764995544
 51
190.9527841989
  0
LINE
  5
BA
330
9B
100
AcDbEntity
  8
MEGA_001979
  6
HIDDEN2
 62
     7
 48
25.4
100
AcDbLine
 10
53.5951839353
 20
194.1247525569
 30
0.0
 11
53.4519365981
 21
194.1272529484
 31
0.0
  0
LINE
  5
BB
330
9B
100
AcDbEntity
  8
MEGA_001979
  6
CONTINUOUS
 62
     7
 48
25.4
100
AcDbLine
 10
53.4519365981
 20
194.1272529484
 30
0.0
 11
52.9338604889
 21
194.1362960006
 31
0.0
  0
SPLINE
  5
BC
330
9B
100
AcDbEntity
  8
MEGA_001979
  6
HIDDEN2
 62
     7
 48
25.4
100
AcDbSpline
210
0.0
220
0.0
230
1.0
 70
     8
 71
     3
 72
    14
 73
    10
 74
     0
 42
0.0000000001
 43
0.0000000001
 40
0.0
 40
0.0
 40
0.0
 40
0.0
 40
0.2499999999999999
 40
0.2499999999999999
 40
0.2499999999999999
 40
0.4999999999999998
 40
0.4999999999999998
 40
0.4999999999999998
 40
1.0
 40
1.0
 40
1.0
 40
1.0
 10
53.46048041865122
 20
194.3284487032144
 30
0.0
 10
53.45979593136528
 20
194.2865307148085
 30
0.0
 10
53.4686527890008
 20
194.2489515325573
 30
0.0
 10
53.47942802579218
 20
194.2223715684304
 30
0.0
 10
53.49020326258356
 20
194.1957916043036
 30
0.0
 10
53.50278589483818
 20
194.1776600716079
 30
0.0
 10
53.51569816164333
 20
194.1637304586685
 30
0.0
 10
53.54152269525365
 20
194.1358712327896
 30
0.0
 10
53.5684735223032
 20
194.1252187888635
 30
0.0
 10
53.59518393526145
 20
194.124752556871
 30
0.0
  0
LINE
  5
BD
330
9B
100
AcDbEntity
  8
MEGA_001979
  6
CONTINUOUS
 62
     7
 48
25.4
100
AcDbLine
 10
53.6337755088
 20
183.6399630475
 30
0.0
 11
53.6337755088
 21
202.6399630475
 31
0.0
  0
LINE
  5
BE
330
9B
100
AcDbEntity
  8
MEGA_001979
  6
CONTINUOUS
 62
     7
 48
25.4
100
AcDbLine
 10
55.6337755088
 20
182.6399630475
 30
0.0
 11
55.6337755088
 21
203.6399630475
 31
0.0
  0
LINE
  5
BF
330
9B
100
AcDbEntity
  8
MEGA_001979
  6
HIDDEN2
 62
     7
 48
25.4
100
AcDbLine
 10
53.5951839353
 20
192.1551735382
 30
0.0
 11
53.4566908514
 21
192.1527561324
 31
0.0
  0
LINE
  5
C0
330
9B
100
AcDbEntity
  8
MEGA_001979
  6
CONTINUOUS
 62
     7
 48
25.4
100
AcDbLine
 10
53.4566908514
 20
192.1527561324
 30
0.0
 11
52.9338604889
 21
192.1436300945
 31
0.0
  0
ARC
  5
C1
330
9B
100
AcDbEntity
  8
MEGA_001979
  6
CONTINUOUS
 62
     7
 48
25.4
100
AcDbCircle
 10
102.7229800246
 20
193.1399630475
 30
0.0
 40
50.00000000000001
100
AcDbArc
 50
169.0472158011
 51
178.6235004456
  0
ARC
  5
C2
330
9B
100
AcDbEntity
  8
MEGA_001979
  6
CONTINUOUS
 62
     7
 48
25.4
100
AcDbCircle
 10
52.9373509702
 20
194.3362655396
 30
0.0
 40
0.2000000000000028
100
AcDbArc
 50
178.6235004456
 51
269.0
  0
LINE
  5
C3
330
9B
100
AcDbEntity
  8
MEGA_001979
  6
CONTINUOUS
 62
     7
 48
25.4
100
AcDbLine
 10
54.6337755088
 20
203.6399630475
 30
0.0
 11
53.6337755088
 21
202.6399630475
 31
0.0
  0
ARC
  5
C4
330
9B
100
AcDbEntity
  8
MEGA_001979
  6
CONTINUOUS
 62
     7
 48
25.4
100
AcDbCircle
 10
52.9373509702
 20
191.9436605555
 30
0.0
 40
0.2000000000000028
100
AcDbArc
 50
91.0
 51
181.3764995544
  0
LINE
  5
C5
330
9B
100
AcDbEntity
  8
MEGA_001979
  6
CONTINUOUS
 62
     7
 48
25.4
100
AcDbLine
 10
53.6337755088
 20
183.6399630475
 30
0.0
 11
54.6337755088
 21
182.6399630475
 31
0.0
  0
LINE
  5
C6
330
9B
100
AcDbEntity
  8
MEGA_001979
  6
CONTINUOUS
 62
     7
 48
25.4
100
AcDbLine
 10
54.6337755088
 20
182.6399630475
 30
0.0
 11
55.6337755088
 21
182.6399630475
 31
0.0
  0
LINE
  5
C7
330
9B
100
AcDbEntity
  8
MEGA_001979
  6
CONTINUOUS
 62
     7
 48
25.4
100
AcDbLine
 10
55.6337755088
 20
203.6399630475
 30
0.0
 11
54.6337755088
 21
203.6399630475
 31
0.0
  0
SPLINE
  5
C8
330
9B
100
AcDbEntity
  8
MEGA_001979
  6
HIDDEN2
 62
     7
 48
25.4
100
AcDbSpline
210
0.0
220
0.0
230
1.0
 70
     8
 71
     3
 72
    14
 73
    10
 74
     0
 42
0.0000000001
 43
0.0000000001
 40
0.0
 40
0.0
 40
0.0
 40
0.0
 40
0.5000000000000047
 40
0.5000000000000047
 40
0.5000000000000047
 40
0.7500000000000023
 40
0.7500000000000023
 40
0.7500000000000023
 40
1.0
 40
1.0
 40
1.0
 40
1.0
 10
53.59518393526145
 20
192.1551735381972
 30
0.0
 10
53.56844835753018
 20
192.154706866952
 30
0.0
 10
53.5418790488118
 20
192.1442968603204
 30
0.0
 10
53.51596448306875
 20
192.1164822122667
 30
0.0
 10
53.50300720019722
 20
192.1025748882398
 30
0.0
 10
53.49018483506832
 20
192.0840438869174
 30
0.0
 10
53.4794799498135
 20
192.0576825016402
 30
0.0
 10
53.4687750645587
 20
192.0313211163629
 30
0.0
 10
53.45979456700443
 20
191.993478933693
 30
0.0
 10
53.46048041865123
 20
191.9514773918538
 30
0.0
  0
ARC
  5
C9
330
9B
100
AcDbEntity
  8
MEGA_001979
  6
CONTINUOUS
 62
     7
 48
25.4
100
AcDbCircle
 10
126.2583580714
 20
193.1399630475
 30
0.0
 40
72.80757851280002
100
AcDbArc
 50
179.0646820295
 51
180.9353179705
  0
LINE
  5
CA
330
9B
100
AcDbEntity
  8
STANDARD
  6
CONTINUOUS
 62
     7
 48
25.4
100
AcDbLine
 10
60.5575747593
 20
219.0630577933
 30
0.0
 11
62.6337755088
 21
219.1399630475
 31
0.0
  0
ENDBLK
  5
CC
330
9B
100
AcDbEntity
  8
0
100
AcDbBlockEnd
  0
BLOCK
  5
D7
330
CD
100
AcDbEntity
  8
0
100
AcDbBlockBegin
  2
SE8
 70
     0
 71
     0
 10
0.0
 20
0.0
 30
0.0
  3
SE8
  1

  0
POLYLINE
  5
CF
330
CD
100
AcDbEntity
  8
DEFAULT
  6
CONTINUOUS
 62
     7
 48
25.4
100
AcDb2dPolyline
 66
     1
 10
0.0
 20
0.0
 30
0.0
 70
     1
  0
VERTEX
  5
118
330
CF
100
AcDbEntity
  8
DEFAULT
  6
CONTINUOUS
 62
     7
100
AcDbVertex
100
AcDb2dVertex
 10
84.26575854
 20
170.1399630736
 30
0.0
  0
VERTEX
  5
119
330
CF
100
AcDbEntity
  8
DEFAULT
  6
CONTINUOUS
 62
     7
100
AcDbVertex
100
AcDb2dVertex
 10
83.7657585357
 20
167.1399630475
 30
0.0
  0
VERTEX
  5
11A
330
CF
100
AcDbEntity
  8
DEFAULT
  6
CONTINUOUS
 62
     7
100
AcDbVertex
100
AcDb2dVertex
 10
83.2657585313
 20
170.1399630736
 30
0.0
  0
VERTEX
  5
11B
330
CF
100
AcDbEntity
  8
DEFAULT
  6
CONTINUOUS
 62
     7
100
AcDbVertex
100
AcDb2dVertex
 10
84.26575854
 20
170.1399630736
 30
0.0
  0
SEQEND
  5
117
330
CF
100
AcDbEntity
  8
DEFAULT
  6
CONTINUOUS
 62
     7
 48
25.4
  0
LINE
  5
D0
330
CD
100
AcDbEntity
  8
DEFAULT
  6
CONTINUOUS
 62
     7
 48
25.4
100
AcDbLine
 10
62.6337755088
 20
219.1399630475
 30
0.0
 11
85.2657585487
 21
219.1399630475
 31
0.0
  0
LINE
  5
D1
330
CD
100
AcDbEntity
  8
DEFAULT
  6
CONTINUOUS
 62
     7
 48
25.4
100
AcDbLine
 10
62.6337755088
 20
167.1399630475
 30
0.0
 11
85.2657585487
 21
167.1399630475
 31
0.0
  0
LINE
  5
D2
330
CD
100
AcDbEntity
  8
DEFAULT
  6
CONTINUOUS
 62
     7
 48
25.4
100
AcDbLine
 10
83.7657585357
 20
219.1399630475
 30
0.0
 11
83.7657585357
 21
167.1399619747
 31
0.0
  0
TEXT
  5
D4
330
CD
100
AcDbEntity
  8
DEFAULT
  6
CONTINUOUS
 62
     7
 48
25.4
100
AcDbText
 10
83.0157585357
 20
193.1875409152
 30
0.0
 40
3.0
  1
52
 50
90.0
  7
SEACAD_SEISO_TTF
 11
80.0157585357
 21
193.1875409152
 31
0.0
100
AcDbText
 73
     3
  0
TEXT
  5
D6
330
CD
100
AcDbEntity
  8
DEFAULT
  6
CONTINUOUS
 62
     7
 48
25.4
100
AcDbText
 10
83.0157585357
 20
189.5469295615
 30
0.0
 40
3.0
  1
O
 50
90.0
  7
SEACAD_SEMECI1_TTF
 11
80.0157585357
 21
189.5469295615
 31
0.0
100
AcDbText
 73
     3
  0
ENDBLK
  5
D8
330
CD
100
AcDbEntity
  8
0
100
AcDbBlockEnd
  0
BLOCK
  5
E1
330
D9
100
AcDbEntity
  8
0
100
AcDbBlockBegin
  2
SE9
 70
     0
 71
     0
 10
0.0
 20
0.0
 30
0.0
  3
SE9
  1

  0
POLYLINE
  5
DB
330
D9
100
AcDbEntity
  8
DEFAULT
  6
CONTINUOUS
 62
     7
 48
25.4
100
AcDb2dPolyline
 66
     1
 10
0.0
 20
0.0
 30
0.0
 70
     1
  0
VERTEX
  5
11D
330
DB
100
AcDbEntity
  8
DEFAULT
  6
CONTINUOUS
 62
     7
100
AcDbVertex
100
AcDb2dVertex
 10
172.3368770773
 20
185.0399649295
 30
0.0
  0
VERTEX
  5
11E
330
DB
100
AcDbEntity
  8
DEFAULT
  6
CONTINUOUS
 62
     7
100
AcDbVertex
100
AcDb2dVertex
 10
171.8368772041
 20
182.0399648816
 30
0.0
  0
VERTEX
  5
11F
330
DB
100
AcDbEntity
  8
DEFAULT
  6
CONTINUOUS
 62
     7
100
AcDbVertex
100
AcDb2dVertex
 10
171.3368770686
 20
185.0399648858
 30
0.0
  0
VERTEX
  5
120
330
DB
100
AcDbEntity
  8
DEFAULT
  6
CONTINUOUS
 62
     7
100
AcDbVertex
100
AcDb2dVertex
 10
172.3368770773
 20
185.0399649295
 30
0.0
  0
SEQEND
  5
11C
330
DB
100
AcDbEntity
  8
DEFAULT
  6
CONTINUOUS
 62
     7
 48
25.4
  0
POLYLINE
  5
DC
330
D9
100
AcDbEntity
  8
DEFAULT
  6
CONTINUOUS
 62
     7
 48
25.4
100
AcDb2dPolyline
 66
     1
 10
0.0
 20
0.0
 30
0.0
 70
     1
  0
VERTEX
  5
122
330
DC
100
AcDbEntity
  8
DEFAULT
  6
CONTINUOUS
 62
     7
100
AcDbVertex
100
AcDb2dVertex
 10
172.3368763691
 20
201.2399648774
 30
0.0
  0
VERTEX
  5
123
330
DC
100
AcDbEntity
  8
DEFAULT
  6
CONTINUOUS
 62
     7
100
AcDbVertex
100
AcDb2dVertex
 10
171.8368762337
 20
204.2399648816
 30
0.0
  0
VERTEX
  5
124
330
DC
100
AcDbEntity
  8
DEFAULT
  6
CONTINUOUS
 62
     7
100
AcDbVertex
100
AcDb2dVertex
 10
171.3368763604
 20
201.2399648337
 30
0.0
  0
VERTEX
  5
125
330
DC
100
AcDbEntity
  8
DEFAULT
  6
CONTINUOUS
 62
     7
100
AcDbVertex
100
AcDb2dVertex
 10
172.3368763691
 20
201.2399648774
 30
0.0
  0
SEQEND
  5
121
330
DC
100
AcDbEntity
  8
DEFAULT
  6
CONTINUOUS
 62
     7
 48
25.4
  0
LINE
  5
DD
330
D9
100
AcDbEntity
  8
DEFAULT
  6
CONTINUOUS
 62
     7
 48
25.4
100
AcDbLine
 10
129.8780012499
 20
182.0399630475
 30
0.0
 11
173.3368772171
 21
182.0399649472
 31
0.0
  0
LINE
  5
DE
330
D9
100
AcDbEntity
  8
DEFAULT
  6
CONTINUOUS
 62
     7
 48
25.4
100
AcDbLine
 10
129.8780002795
 20
204.2399630475
 30
0.0
 11
173.3368762467
 21
204.2399649472
 31
0.0
  0
LINE
  5
DF
330
D9
100
AcDbEntity
  8
DEFAULT
  6
CONTINUOUS
 62
     7
 48
25.4
100
AcDbLine
 10
171.8368772041
 20
182.0399648816
 30
0.0
 11
171.8368762337
 21
204.2399644227
 31
0.0
  0
TEXT
  5
E0
330
D9
100
AcDbEntity
  8
DEFAULT
  6
CONTINUOUS
 62
     7
 48
25.4
100
AcDbText
 10
171.0868767189
 20
190.105873743
 30
0.0
 40
3.0
  1
22,2
 50
90.0
  7
SEACAD_SEISO_TTF
 11
168.0868767189
 21
190.105873743
 31
0.0
100
AcDbText
 73
     3
  0
ENDBLK
  5
E2
330
D9
100
AcDbEntity
  8
0
100
AcDbBlockEnd
  0
BLOCK
  5
EC
330
E3
100
AcDbEntity
  8
0
100
AcDbBlockBegin
  2
SE10
 70
     0
 71
     0
 10
0.0
 20
0.0
 30
0.0
  3
SE10
  1

  0
POLYLINE
  5
E5
330
E3
100
AcDbEntity
  8
DEFAULT
  6
CONTINUOUS
 62
     7
 48
25.4
100
AcDb2dPolyline
 66
     1
 10
0.0
 20
0.0
 30
0.0
 70
     1
  0
VERTEX
  5
127
330
E5
100
AcDbEntity
  8
DEFAULT
  6
CONTINUOUS
 62
     7
100
AcDbVertex
100
AcDb2dVertex
 10
113.8780007908
 20
131.4312272449
 30
0.0
  0
VERTEX
  5
128
330
E5
100
AcDbEntity
  8
DEFAULT
  6
CONTINUOUS
 62
     7
100
AcDbVertex
100
AcDb2dVertex
 10
110.8780007647
 20
130.9312272406
 30
0.0
  0
VERTEX
  5
129
330
E5
100
AcDbEntity
  8
DEFAULT
  6
CONTINUOUS
 62
     7
100
AcDbVertex
100
AcDb2dVertex
 10
113.8780007908
 20
130.4312272362
 30
0.0
  0
VERTEX
  5
12A
330
E5
100
AcDbEntity
  8
DEFAULT
  6
CONTINUOUS
 62
     7
100
AcDbVertex
100
AcDb2dVertex
 10
113.8780007908
 20
131.4312272449
 30
0.0
  0
SEQEND
  5
126
330
E5
100
AcDbEntity
  8
DEFAULT
  6
CONTINUOUS
 62
     7
 48
25.4
  0
POLYLINE
  5
E6
330
E3
100
AcDbEntity
  8
DEFAULT
  6
CONTINUOUS
 62
     7
 48
25.4
100
AcDb2dPolyline
 66
     1
 10
0.0
 20
0.0
 30
0.0
 70
     1
  0
VERTEX
  5
12C
330
E6
100
AcDbEntity
  8
DEFAULT
  6
CONTINUOUS
 62
     7
100
AcDbVertex
100
AcDb2dVertex
 10
145.8780007386
 20
131.4312272449
 30
0.0
  0
VERTEX
  5
12D
330
E6
100
AcDbEntity
  8
DEFAULT
  6
CONTINUOUS
 62
     7
100
AcDbVertex
100
AcDb2dVertex
 10
148.8780007647
 20
130.9312272406
 30
0.0
  0
VERTEX
  5
12E
330
E6
100
AcDbEntity
  8
DEFAULT
  6
CONTINUOUS
 62
     7
100
AcDbVertex
100
AcDb2dVertex
 10
145.8780007386
 20
130.4312272362
 30
0.0
  0
VERTEX
  5
12F
330
E6
100
AcDbEntity
  8
DEFAULT
  6
CONTINUOUS
 62
     7
100
AcDbVertex
100
AcDb2dVertex
 10
145.8780007386
 20
131.4312272449
 30
0.0
  0
SEQEND
  5
12B
330
E6
100
AcDbEntity
  8
DEFAULT
  6
CONTINUOUS
 62
     7
 48
25.4
  0
LINE
  5
E7
330
E3
100
AcDbEntity
  8
DEFAULT
  6
CONTINUOUS
 62
     7
 48
25.4
100
AcDbLine
 10
110.8780007647
 20
129.2248487061
 30
0.0
 11
110.8780007647
 21
132.4312272536
 31
0.0
  0
LINE
  5
E8
330
E3
100
AcDbEntity
  8
DEFAULT
  6
CONTINUOUS
 62
     7
 48
25.4
100
AcDbLine
 10
148.8780007647
 20
128.5422972923
 30
0.0
 11
148.8780007647
 21
132.4312272536
 31
0.0
  0
LINE
  5
E9
330
E3
100
AcDbEntity
  8
DEFAULT
  6
CONTINUOUS
 62
     7
 48
25.4
100
AcDbLine
 10
110.8780007647
 20
130.9312272406
 30
0.0
 11
148.8779995428
 21
130.9312272406
 31
0.0
  0
TEXT
  5
EA
330
E3
100
AcDbEntity
  8
DEFAULT
  6
CONTINUOUS
 62
     7
 48
25.4
100
AcDbText
 10
129.959669467
 20
131.6812272406
 30
0.0
 40
3.0
  1
38
  7
SEACAD_SEISO_TTF
 11
129.959669467
 21
134.6812272406
 31
0.0
100
AcDbText
 73
     3
  0
TEXT
  5
EB
330
E3
100
AcDbEntity
  8
DEFAULT
  6
CONTINUOUS
 62
     7
 48
25.4
100
AcDbText
 10
126.3190581133
 20
131.6812272406
 30
0.0
 40
3.0
  1
O
  7
SEACAD_SEMECI1_TTF
 11
126.3190581133
 21
134.6812272406
 31
0.0
100
AcDbText
 73
     3
  0
ENDBLK
  5
ED
330
E3
100
AcDbEntity
  8
0
100
AcDbBlockEnd
  0
BLOCK
  5
F7
330
EE
100
AcDbEntity
  8
0
100
AcDbBlockBegin
  2
SE11
 70
     0
 71
     0
 10
0.0
 20
0.0
 30
0.0
  3
SE11
  1

  0
POLYLINE
  5
F0
330
EE
100
AcDbEntity
  8
DEFAULT
  6
CONTINUOUS
 62
     7
 48
25.4
100
AcDb2dPolyline
 66
     1
 10
0.0
 20
0.0
 30
0.0
 70
     1
  0
VERTEX
  5
131
330
F0
100
AcDbEntity
  8
DEFAULT
  6
CONTINUOUS
 62
     7
100
AcDbVertex
100
AcDb2dVertex
 10
104.3780007386
 20
120.2828852017
 30
0.0
  0
VERTEX
  5
132
330
F0
100
AcDbEntity
  8
DEFAULT
  6
CONTINUOUS
 62
     7
100
AcDbVertex
100
AcDb2dVertex
 10
107.3780007647
 20
119.7828851974
 30
0.0
  0
VERTEX
  5
133
330
F0
100
AcDbEntity
  8
DEFAULT
  6
CONTINUOUS
 62
     7
100
AcDbVertex
100
AcDb2dVertex
 10
104.3780007386
 20
119.282885193
 30
0.0
  0
VERTEX
  5
134
330
F0
100
AcDbEntity
  8
DEFAULT
  6
CONTINUOUS
 62
     7
100
AcDbVertex
100
AcDb2dVertex
 10
104.3780007386
 20
120.2828852017
 30
0.0
  0
SEQEND
  5
130
330
F0
100
AcDbEntity
  8
DEFAULT
  6
CONTINUOUS
 62
     7
 48
25.4
  0
POLYLINE
  5
F1
330
EE
100
AcDbEntity
  8
DEFAULT
  6
CONTINUOUS
 62
     7
 48
25.4
100
AcDb2dPolyline
 66
     1
 10
0.0
 20
0.0
 30
0.0
 70
     1
  0
VERTEX
  5
136
330
F1
100
AcDbEntity
  8
DEFAULT
  6
CONTINUOUS
 62
     7
100
AcDbVertex
100
AcDb2dVertex
 10
117.3780007908
 20
120.2828852017
 30
0.0
  0
VERTEX
  5
137
330
F1
100
AcDbEntity
  8
DEFAULT
  6
CONTINUOUS
 62
     7
100
AcDbVertex
100
AcDb2dVertex
 10
114.3780007647
 20
119.7828851974
 30
0.0
  0
VERTEX
  5
138
330
F1
100
AcDbEntity
  8
DEFAULT
  6
CONTINUOUS
 62
     7
100
AcDbVertex
100
AcDb2dVertex
 10
117.3780007908
 20
119.282885193
 30
0.0
  0
VERTEX
  5
139
330
F1
100
AcDbEntity
  8
DEFAULT
  6
CONTINUOUS
 62
     7
100
AcDbVertex
100
AcDb2dVertex
 10
117.3780007908
 20
120.2828852017
 30
0.0
  0
SEQEND
  5
135
330
F1
100
AcDbEntity
  8
DEFAULT
  6
CONTINUOUS
 62
     7
 48
25.4
  0
LINE
  5
F2
330
EE
100
AcDbEntity
  8
DEFAULT
  6
CONTINUOUS
 62
     7
 48
25.4
100
AcDbLine
 10
107.3780007647
 20
100.1229357308
 30
0.0
 11
107.3780007647
 21
121.2828852104
 31
0.0
  0
LINE
  5
F3
330
EE
100
AcDbEntity
  8
DEFAULT
  6
CONTINUOUS
 62
     7
 48
25.4
100
AcDbLine
 10
114.3780007647
 20
100.1229357308
 30
0.0
 11
114.3780007647
 21
121.2828852104
 31
0.0
  0
LINE
  5
F4
330
EE
100
AcDbEntity
  8
DEFAULT
  6
CONTINUOUS
 62
     7
 48
25.4
100
AcDbLine
 10
96.46315351
 20
119.7828851974
 30
0.0
 11
120.3780010329
 21
119.7828851974
 31
0.0
  0
TEXT
  5
F5
330
EE
100
AcDbEntity
  8
DEFAULT
  6
CONTINUOUS
 62
     7
 48
25.4
100
AcDbText
 10
101.1537650865
 20
120.5328851974
 30
0.0
 40
3.0
  1
7
  7
SEACAD_SEISO_TTF
 11
101.1537650865
 21
123.5328851974
 31
0.0
100
AcDbText
 73
     3
  0
TEXT
  5
F6
330
EE
100
AcDbEntity
  8
DEFAULT
  6
CONTINUOUS
 62
     7
 48
25.4
100
AcDbText
 10
97.5131537328
 20
120.5328851974
 30
0.0
 40
3.0
  1
O
  7
SEACAD_SEMECI1_TTF
 11
97.5131537328
 21
123.5328851974
 31
0.0
100
AcDbText
 73
     3
  0
ENDBLK
  5
F8
330
EE
100
AcDbEntity
  8
0
100
AcDbBlockEnd
  0
BLOCK
  5
101
330
F9
100
AcDbEntity
  8
0
100
AcDbBlockBegin
  2
SE12
 70
     0
 71
     0
 10
0.0
 20
0.0
 30
0.0
  3
SE12
  1

  0
CIRCLE
  5
FB
330
F9
100
AcDbEntity
  8
DEFAULT
  6
CONTINUOUS
 62
     7
 48
25.4
100
AcDbCircle
 10
87.049067034
 20
100.1229357308
 30
0.0
 40
1.000000008692339
  0
POLYLINE
  5
FC
330
F9
100
AcDbEntity
  8
DEFAULT
  6
CONTINUOUS
 62
     7
 48
25.4
100
AcDb2dPolyline
 66
     1
 10
0.0
 20
0.0
 30
0.0
 70
     1
  0
VERTEX
  5
13B
330
FC
100
AcDbEntity
  8
DEFAULT
  6
CONTINUOUS
 62
     7
100
AcDbVertex
100
AcDb2dVertex
 10
86.5490670296
 20
108.1229357569
 30
0.0
  0
VERTEX
  5
13C
330
FC
100
AcDbEntity
  8
DEFAULT
  6
CONTINUOUS
 62
     7
100
AcDbVertex
100
AcDb2dVertex
 10
87.049067034
 20
105.1229357308
 30
0.0
  0
VERTEX
  5
13D
330
FC
100
AcDbEntity
  8
DEFAULT
  6
CONTINUOUS
 62
     7
100
AcDbVertex
100
AcDb2dVertex
 10
87.5490670383
 20
108.1229357569
 30
0.0
  0
VERTEX
  5
13E
330
FC
100
AcDbEntity
  8
DEFAULT
  6
CONTINUOUS
 62
     7
100
AcDbVertex
100
AcDb2dVertex
 10
86.5490670296
 20
108.1229357569
 30
0.0
  0
SEQEND
  5
13A
330
FC
100
AcDbEntity
  8
DEFAULT
  6
CONTINUOUS
 62
     7
 48
25.4
  0
LINE
  5
FD
330
F9
100
AcDbEntity
  8
DEFAULT
  6
CONTINUOUS
 62
     7
 48
25.4
100
AcDbLine
 10
103.8780007647
 20
100.1229357308
 30
0.0
 11
85.5490670209
 21
100.1229357308
 31
0.0
  0
LINE
  5
FE
330
F9
100
AcDbEntity
  8
DEFAULT
  6
CONTINUOUS
 62
     7
 48
25.4
100
AcDbLine
 10
108.0354489996
 20
105.1229357308
 30
0.0
 11
85.5490670209
 21
105.1229357308
 31
0.0
  0
LINE
  5
FF
330
F9
100
AcDbEntity
  8
DEFAULT
  6
CONTINUOUS
 62
     7
 48
25.4
100
AcDbLine
 10
87.049067034
 20
94.1229356787
 30
0.0
 11
87.049067034
 21
111.1229356712
 31
0.0
  0
TEXT
  5
100
330
F9
100
AcDbEntity
  8
DEFAULT
  6
CONTINUOUS
 62
     7
 48
25.4
100
AcDbText
 10
86.299067034
 20
101.7706629477
 30
0.0
 40
3.0
  1
5
 50
90.0
  7
SEACAD_SEISO_TTF
 11
83.299067034
 21
101.7706629477
 31
0.0
100
AcDbText
 73
     3
  0
ENDBLK
  5
102
330
F9
100
AcDbEntity
  8
0
100
AcDbBlockEnd
  0
BLOCK
  5
10B
330
103
100
AcDbEntity
  8
0
100
AcDbBlockBegin
  2
SE13
 70
     0
 71
     0
 10
0.0
 20
0.0
 30
0.0
  3
SE13
  1

  0
CIRCLE
  5
105
330
103
100
AcDbEntity
  8
DEFAULT
  6
CONTINUOUS
 62
     7
 48
25.4
100
AcDbCircle
 10
87.049067034
 20
100.1229357308
 30
0.0
 40
1.000000008692339
  0
POLYLINE
  5
106
330
103
100
AcDbEntity
  8
DEFAULT
  6
CONTINUOUS
 62
     7
 48
25.4
100
AcDb2dPolyline
 66
     1
 10
0.0
 20
0.0
 30
0.0
 70
     1
  0
VERTEX
  5
140
330
106
100
AcDbEntity
  8
DEFAULT
  6
CONTINUOUS
 62
     7
100
AcDbVertex
100
AcDb2dVertex
 10
86.5490670296
 20
90.6229357047
 30
0.0
  0
VERTEX
  5
141
330
106
100
AcDbEntity
  8
DEFAULT
  6
CONTINUOUS
 62
     7
100
AcDbVertex
100
AcDb2dVertex
 10
87.049067034
 20
93.6229357308
 30
0.0
  0
VERTEX
  5
142
330
106
100
AcDbEntity
  8
DEFAULT
  6
CONTINUOUS
 62
     7
100
AcDbVertex
100
AcDb2dVertex
 10
87.5490670383
 20
90.6229357047
 30
0.0
  0
VERTEX
  5
143
330
106
100
AcDbEntity
  8
DEFAULT
  6
CONTINUOUS
 62
     7
100
AcDbVertex
100
AcDb2dVertex
 10
86.5490670296
 20
90.6229357047
 30
0.0
  0
SEQEND
  5
13F
330
106
100
AcDbEntity
  8
DEFAULT
  6
CONTINUOUS
 62
     7
 48
25.4
  0
LINE
  5
107
330
103
100
AcDbEntity
  8
DEFAULT
  6
CONTINUOUS
 62
     7
 48
25.4
100
AcDbLine
 10
103.8780007647
 20
100.1229357308
 30
0.0
 11
85.5490670209
 21
100.1229357308
 31
0.0
  0
LINE
  5
108
330
103
100
AcDbEntity
  8
DEFAULT
  6
CONTINUOUS
 62
     7
 48
25.4
100
AcDbLine
 10
105.3120967349
 20
93.6229357308
 30
0.0
 11
85.5490670209
 21
93.6229357308
 31
0.0
  0
LINE
  5
109
330
103
100
AcDbEntity
  8
DEFAULT
  6
CONTINUOUS
 62
     7
 48
25.4
100
AcDbLine
 10
87.049067034
 20
106.122935783
 30
0.0
 11
87.049067034
 21
87.6229355445
 31
0.0
  0
TEXT
  5
10A
330
103
100
AcDbEntity
  8
DEFAULT
  6
CONTINUOUS
 62
     7
 48
25.4
100
AcDbText
 10
86.299067034
 20
94.8274811183
 30
0.0
 40
3.0
  1
6,5
 50
90.0
  7
SEACAD_SEISO_TTF
 11
83.299067034
 21
94.8274811183
 31
0.0
100
AcDbText
 73
     3
  0
ENDBLK
  5
10C
330
103
100
AcDbEntity
  8
0
100
AcDbBlockEnd
  0
BLOCK
  5
115
330
10D
100
AcDbEntity
  8
0
100
AcDbBlockBegin
  2
SE14
 70
     0
 71
     0
 10
0.0
 20
0.0
 30
0.0
  3
SE14
  1

  0
POLYLINE
  5
10F
330
10D
100
AcDbEntity
  8
DEFAULT
  6
CONTINUOUS
 62
     7
 48
25.4
100
AcDb2dPolyline
 66
     1
 10
0.0
 20
0.0
 30
0.0
 70
     1
  0
VERTEX
  5
145
330
10F
100
AcDbEntity
  8
DEFAULT
  6
CONTINUOUS
 62
     7
100
AcDbVertex
100
AcDb2dVertex
 10
169.3649891347
 20
93.2265673402
 30
0.0
  0
VERTEX
  5
146
330
10F
100
AcDbEntity
  8
DEFAULT
  6
CONTINUOUS
 62
     7
100
AcDbVertex
100
AcDb2dVertex
 10
168.8649891304
 20
90.2265673141
 30
0.0
  0
VERTEX
  5
147
330
10F
100
AcDbEntity
  8
DEFAULT
  6
CONTINUOUS
 62
     7
100
AcDbVertex
100
AcDb2dVertex
 10
168.364989126
 20
93.2265673402
 30
0.0
  0
VERTEX
  5
148
330
10F
100
AcDbEntity
  8
DEFAULT
  6
CONTINUOUS
 62
     7
100
AcDbVertex
100
AcDb2dVertex
 10
169.3649891347
 20
93.2265673402
 30
0.0
  0
SEQEND
  5
144
330
10F
100
AcDbEntity
  8
DEFAULT
  6
CONTINUOUS
 62
     7
 48
25.4
  0
POLYLINE
  5
110
330
10D
100
AcDbEntity
  8
DEFAULT
  6
CONTINUOUS
 62
     7
 48
25.4
100
AcDb2dPolyline
 66
     1
 10
0.0
 20
0.0
 30
0.0
 70
     1
  0
VERTEX
  5
14A
330
110
100
AcDbEntity
  8
DEFAULT
  6
CONTINUOUS
 62
     7
100
AcDbVertex
100
AcDb2dVertex
 10
169.3649891347
 20
102.1229357047
 30
0.0
  0
VERTEX
  5
14B
330
110
100
AcDbEntity
  8
DEFAULT
  6
CONTINUOUS
 62
     7
100
AcDbVertex
100
AcDb2dVertex
 10
168.8649891304
 20
105.1229357308
 30
0.0
  0
VERTEX
  5
14C
330
110
100
AcDbEntity
  8
DEFAULT
  6
CONTINUOUS
 62
     7
100
AcDbVertex
100
AcDb2dVertex
 10
168.364989126
 20
102.1229357047
 30
0.0
  0
VERTEX
  5
14D
330
110
100
AcDbEntity
  8
DEFAULT
  6
CONTINUOUS
 62
     7
100
AcDbVertex
100
AcDb2dVertex
 10
169.3649891347
 20
102.1229357047
 30
0.0
  0
SEQEND
  5
149
330
110
100
AcDbEntity
  8
DEFAULT
  6
CONTINUOUS
 62
     7
 48
25.4
  0
LINE
  5
111
330
10D
100
AcDbEntity
  8
DEFAULT
  6
CONTINUOUS
 62
     7
 48
25.4
100
AcDbLine
 10
129.8780007647
 20
90.2265673141
 30
0.0
 11
170.3649891434
 21
90.2265673141
 31
0.0
  0
LINE
  5
112
330
10D
100
AcDbEntity
  8
DEFAULT
  6
CONTINUOUS
 62
     7
 48
25.4
100
AcDbLine
 10
151.7205525298
 20
105.1229357308
 30
0.0
 11
170.3649891434
 21
105.1229357308
 31
0.0
  0
LINE
  5
113
330
10D
100
AcDbEntity
  8
DEFAULT
  6
CONTINUOUS
 62
     7
 48
25.4
100
AcDbLine
 10
168.8649891304
 20
90.2265673141
 30
0.0
 11
168.8649891304
 21
105.122935922
 31
0.0
  0
TEXT
  5
114
330
10D
100
AcDbEntity
  8
DEFAULT
  6
CONTINUOUS
 62
     7
 48
25.4
100
AcDbText
 10
168.1149891304
 20
94.9815697998
 30
0.0
 40
3.0
  1
14,9
 50
90.0
  7
SEACAD_SEISO_TTF
 11
165.1149891304
 21
94.9815697998
 31
0.0
100
AcDbText
 73
     3
  0
ENDBLK
  5
116
330
10D
100
AcDbEntity
  8
0
100
AcDbBlockEnd
  0
ENDSEC
  0
SECTION
  2
ENTITIES
  0
INSERT
  5
2F
330
1F
100
AcDbEntity
  8
0
100
AcDbBlockReference
  2
SE
 10
0.0
 20
0.0
 30
0.0
  0
INSERT
  5
3B
330
1F
100
AcDbEntity
  8
0
100
AcDbBlockReference
  2
SE1
 10
0.0
 20
0.0
 30
0.0
  0
INSERT
  5
40
330
1F
100
AcDbEntity
  8
0
100
AcDbBlockReference
  2
SE2
 10
0.0
 20
0.0
 30
0.0
  0
INSERT
  5
45
330
1F
100
AcDbEntity
  8
0
100
AcDbBlockReference
  2
SE3
 10
0.0
 20
0.0
 30
0.0
  0
INSERT
  5
4A
330
1F
100
AcDbEntity
  8
0
100
AcDbBlockReference
  2
SE4
 10
0.0
 20
0.0
 30
0.0
  0
INSERT
  5
4F
330
1F
100
AcDbEntity
  8
0
100
AcDbBlockReference
  2
SE5
 10
0.0
 20
0.0
 30
0.0
  0
INSERT
  5
65
330
1F
100
AcDbEntity
  8
0
100
AcDbBlockReference
  2
SE6
 10
0.0
 20
0.0
 30
0.0
  0
INSERT
  5
9C
330
1F
100
AcDbEntity
  8
0
100
AcDbBlockReference
  2
SE7
 10
0.0
 20
0.0
 30
0.0
  0
INSERT
  5
CE
330
1F
100
AcDbEntity
  8
0
100
AcDbBlockReference
  2
SE8
 10
0.0
 20
0.0
 30
0.0
  0
INSERT
  5
DA
330
1F
100
AcDbEntity
  8
0
100
AcDbBlockReference
  2
SE9
 10
0.0
 20
0.0
 30
0.0
  0
INSERT
  5
E4
330
1F
100
AcDbEntity
  8
0
100
AcDbBlockReference
  2
SE10
 10
0.0
 20
0.0
 30
0.0
  0
INSERT
  5
EF
330
1F
100
AcDbEntity
  8
0
100
AcDbBlockReference
  2
SE11
 10
0.0
 20
0.0
 30
0.0
  0
INSERT
  5
FA
330
1F
100
AcDbEntity
  8
0
100
AcDbBlockReference
  2
SE12
 10
0.0
 20
0.0
 30
0.0
  0
INSERT
  5
104
330
1F
100
AcDbEntity
  8
0
100
AcDbBlockReference
  2
SE13
 10
0.0
 20
0.0
 30
0.0
  0
INSERT
  5
10E
330
1F
100
AcDbEntity
  8
0
100
AcDbBlockReference
  2
SE14
 10
0.0
 20
0.0
 30
0.0
  0
ENDSEC
  0
SECTION
  2
OBJECTS
  0
DICTIONARY
  5
C
330
0
100
AcDbDictionary
  3
ACAD_GROUP
350
D
  3
ACAD_LAYOUT
350
1A
  3
ACAD_MLINESTYLE
350
17
  3
ACAD_PLOTSETTINGS
350
19
  3
ACAD_TABLESTYLE
350
2A
  3
ACDBVARIABLEDICTIONARY
350
2C
1001
ACAD
1000
TREAT_AS_HARD
1070
     0
  0
DICTIONARY
  5
14E
330
29
100
AcDbDictionary
  3
ACAD_XREC_ROUNDTRIP
360
14F
  0
DICTIONARY
  5
D
102
{ACAD_REACTORS
330
C
102
}
330
C
100
AcDbDictionary
1001
ACAD
1000
TREAT_AS_HARD
1070
     0
  0
DICTIONARY
  5
1A
102
{ACAD_REACTORS
330
C
102
}
330
C
100
AcDbDictionary
1001
ACAD
1000
TREAT_AS_HARD
1070
     0
  0
DICTIONARY
  5
17
102
{ACAD_REACTORS
330
C
102
}
330
C
100
AcDbDictionary
  3
STANDARD
350
18
1001
ACAD
1000
TREAT_AS_HARD
1070
     0
  0
DICTIONARY
  5
19
102
{ACAD_REACTORS
330
C
102
}
330
C
100
AcDbDictionary
1001
ACAD
1000
TREAT_AS_HARD
1070
     0
  0
DICTIONARY
  5
2A
102
{ACAD_REACTORS
330
C
102
}
330
C
100
AcDbDictionary
  3
STANDARD
350
2B
1001
ACAD
1000
TREAT_AS_HARD
1070
     0
  0
DICTIONARY
  5
2C
102
{ACAD_REACTORS
330
C
102
}
330
C
100
AcDbDictionary
  3
CTABLESTYLE
350
2D
1001
ACAD
1000
TREAT_AS_HARD
1070
     0
  0
XRECORD
  5
14F
102
{ACAD_REACTORS
330
14E
102
}
330
14E
100
AcDbXrecord
102
UCS
 74
     0
 71
     1
 10
0.0
 20
0.0
 30
0.0
 10
1.0
 20
0.0
 30
0.0
 10
0.0
 20
1.0
 30
0.0
146
0.0
 79
     0
102
VIEW
281
     0
  0
MLINESTYLE
  5
18
102
{ACAD_REACTORS
330
17
102
}
330
17
100
AcDbMlineStyle
  2
Standard
 70
     0
  3

 62
   256
 51
90.0
 52
90.0
 71
     2
 49
0.5
 62
   256
  6
BYLAYER
 49
-0.5
 62
   256
  6
BYLAYER
  0
TABLESTYLE
  5
2B
102
{ACAD_REACTORS
330
2A
102
}
330
2A
100
AcDbTableStyle
  3
Standard
 70
     0
 71
     0
 40
0.06
 41
0.06
280
     0
281
     0
  7
STANDARD
140
0.18
170
     2
 62
     0
 63
     7
283
     0
274
    -2
284
     1
 64
     0
275
    -2
285
     1
 65
     0
276
    -2
286
     1
 66
     0
277
    -2
287
     1
 67
     0
278
    -2
288
     1
 68
     0
279
    -2
289
     1
 69
     0
  7
STANDARD
140
0.25
170
     5
 62
     0
 63
     7
283
     0
274
    -2
284
     1
 64
     0
275
    -2
285
     1
 65
     0
276
    -2
286
     1
 66
     0
277
    -2
287
     1
 67
     0
278
    -2
288
     1
 68
     0
279
    -2
289
     1
 69
     0
  7
STANDARD
140
0.18
170
     5
 62
     0
 63
     7
283
     0
274
    -2
284
     1
 64
     0
275
    -2
285
     1
 65
     0
276
    -2
286
     1
 66
     0
277
    -2
287
     1
 67
     0
278
    -2
288
     1
 68
     0
279
    -2
289
     1
 69
     0
  0
DICTIONARYVAR
  5
2D
102
{ACAD_REACTORS
330
2C
102
}
330
2C
100
DictionaryVariables
280
     0
  1
Standard
  0
ENDSEC
  0
EOF
