  0
SECTION
  2
HEADER
  9
$ACADVER
  1
AC1012
  9
$DWGCODEPAGE
  3
ansi_1252
  9
$INSBASE
 10
0.0
 20
0.0
 30
0.0
  9
$EXTMIN
 10
0.0
 20
0.0
 30
0.0
  9
$EXTMAX
 10
210.0
 20
297.0
 30
0.0
  9
$LIMMIN
 10
0.0
 20
0.0
  9
$LIMMAX
 10
210.0
 20
297.0
  9
$ORTHOMODE
 70
     0
  9
$REGENMODE
 70
     1
  9
$FILLMODE
 70
     1
  9
$QTEXTMODE
 70
     0
  9
$MIRRTEXT
 70
     1
  9
$DRAGMODE
 70
     2
  9
$LTSCALE
 40
1.0
  9
$OSMODE
 70
    37
  9
$ATTMODE
 70
     1
  9
$TEXTSIZE
 40
0.2
  9
$TRACEWID
 40
0.05
  9
$TEXTSTYLE
  7
STANDARD
  9
$CLAYER
  8
0
  9
$CELTYPE
  6
BYLAYER
  9
$CECOLOR
 62
   256
  9
$CELTSCALE
 40
25.4
  9
$DELOBJ
 70
     1
  9
$DISPSILH
 70
     0
  9
$DIMSCALE
 40
1.0
  9
$DIMASZ
 40
0.18
  9
$DIMEXO
 40
0.0625
  9
$DIMDLI
 40
0.38
  9
$DIMRND
 40
0.0
  9
$DIMDLE
 40
0.0
  9
$DIMEXE
 40
0.18
  9
$DIMTP
 40
0.0
  9
$DIMTM
 40
0.0
  9
$DIMTXT
 40
0.18
  9
$DIMCEN
 40
0.09
  9
$DIMTSZ
 40
0.0
  9
$DIMTOL
 70
     0
  9
$DIMLIM
 70
     0
  9
$DIMTIH
 70
     1
  9
$DIMTOH
 70
     1
  9
$DIMSE1
 70
     0
  9
$DIMSE2
 70
     0
  9
$DIMTAD
 70
     0
  9
$DIMZIN
 70
     0
  9
$DIMBLK
  1

  9
$DIMASO
 70
     1
  9
$DIMSHO
 70
     1
  9
$DIMPOST
  1

  9
$DIMAPOST
  1

  9
$DIMALT
 70
     0
  9
$DIMALTD
 70
     2
  9
$DIMALTF
 40
25.4
  9
$DIMLFAC
 40
1.0
  9
$DIMTOFL
 70
     0
  9
$DIMTVP
 40
0.0
  9
$DIMTIX
 70
     0
  9
$DIMSOXD
 70
     0
  9
$DIMSAH
 70
     0
  9
$DIMBLK1
  1

  9
$DIMBLK2
  1

  9
$DIMSTYLE
  2
STANDARD
  9
$DIMCLRD
 70
     0
  9
$DIMCLRE
 70
     0
  9
$DIMCLRT
 70
     0
  9
$DIMTFAC
 40
1.0
  9
$DIMGAP
 40
0.09
  9
$DIMJUST
 70
     0
  9
$DIMSD1
 70
     0
  9
$DIMSD2
 70
     0
  9
$DIMTOLJ
 70
     1
  9
$DIMTZIN
 70
     0
  9
$DIMALTZ
 70
     0
  9
$DIMALTTZ
 70
     0
  9
$DIMFIT
 70
     3
  9
$DIMUPT
 70
     0
  9
$DIMUNIT
 70
     2
  9
$DIMDEC
 70
     4
  9
$DIMTDEC
 70
     4
  9
$DIMALTU
 70
     2
  9
$DIMALTTD
 70
     2
  9
$DIMTXSTY
  7
STANDARD
  9
$DIMAUNIT
 70
     0
  9
$LUNITS
 70
     2
  9
$LUPREC
 70
     4
  9
$SKETCHINC
 40
0.1
  9
$FILLETRAD
 40
0.5
  9
$AUNITS
 70
     0
  9
$AUPREC
 70
     0
  9
$MENU
  1
.
  9
$ELEVATION
 40
0.0
  9
$PELEVATION
 40
0.0
  9
$THICKNESS
 40
0.0
  9
$LIMCHECK
 70
     0
  9
$CHAMFERA
 40
0.5
  9
$CHAMFERB
 40
0.5
  9
$CHAMFERC
 40
1.0
  9
$CHAMFERD
 40
0.0
  9
$SKPOLY
 70
     0
  9
$TDCREATE
 40
2453762.544198785
  9
$TDUPDATE
 40
2453762.544198796
  9
$TDINDWG
 40
0.0000000116
  9
$TDUSRTIMER
 40
0.0000000116
  9
$USRTIMER
 70
     1
  9
$ANGBASE
 50
0.0
  9
$ANGDIR
 70
     0
  9
$PDMODE
 70
     0
  9
$PDSIZE
 40
0.0
  9
$PLINEWID
 40
0.0
  9
$COORDS
 70
     1
  9
$SPLFRAME
 70
     0
  9
$SPLINETYPE
 70
     6
  9
$SPLINESEGS
 70
     8
  9
$ATTDIA
 70
     0
  9
$ATTREQ
 70
     1
  9
$HANDLING
 70
     1
  9
$HANDSEED
  5
167
  9
$SURFTAB1
 70
     6
  9
$SURFTAB2
 70
     6
  9
$SURFTYPE
 70
     6
  9
$SURFU
 70
     6
  9
$SURFV
 70
     6
  9
$UCSNAME
  2

  9
$UCSORG
 10
0.0
 20
0.0
 30
0.0
  9
$UCSXDIR
 10
1.0
 20
0.0
 30
0.0
  9
$UCSYDIR
 10
0.0
 20
1.0
 30
0.0
  9
$PUCSNAME
  2

  9
$PUCSORG
 10
0.0
 20
0.0
 30
0.0
  9
$PUCSXDIR
 10
1.0
 20
0.0
 30
0.0
  9
$PUCSYDIR
 10
0.0
 20
1.0
 30
0.0
  9
$USERI1
 70
     0
  9
$USERI2
 70
     0
  9
$USERI3
 70
     0
  9
$USERI4
 70
     0
  9
$USERI5
 70
     0
  9
$USERR1
 40
0.0
  9
$USERR2
 40
0.0
  9
$USERR3
 40
0.0
  9
$USERR4
 40
0.0
  9
$USERR5
 40
0.0
  9
$WORLDVIEW
 70
     1
  9
$SHADEDGE
 70
     3
  9
$SHADEDIF
 70
    70
  9
$TILEMODE
 70
     1
  9
$MAXACTVP
 70
    64
  9
$PINSBASE
 10
0.0
 20
0.0
 30
0.0
  9
$PLIMCHECK
 70
     0
  9
$PEXTMIN
 10
0.0
 20
0.0
 30
0.0
  9
$PEXTMAX
 10
210.0
 20
297.0
 30
0.0
  9
$PLIMMIN
 10
0.0
 20
0.0
  9
$PLIMMAX
 10
12.0
 20
9.0
  9
$UNITMODE
 70
     0
  9
$VISRETAIN
 70
     1
  9
$PLINEGEN
 70
     0
  9
$PSLTSCALE
 70
     1
  9
$TREEDEPTH
 70
  3020
  9
$PICKSTYLE
 70
     1
  9
$CMLSTYLE
  2
STANDARD
  9
$CMLJUST
 70
     0
  9
$CMLSCALE
 40
1.0
  9
$SAVEIMAGES
 70
     1
  0
ENDSEC
  0
SECTION
  2
CLASSES
  0
CLASS
  1
ACDBDICTIONARYWDFLT
  2
AcDbDictionaryWithDefault
  3
ObjectDBX Classes
 90
        0
280
     0
281
     0
  0
CLASS
  1
TABLESTYLE
  2
AcDbTableStyle
  3
ObjectDBX Classes
 90
     2047
280
     0
281
     0
  0
CLASS
  1
DICTIONARYVAR
  2
AcDbDictionaryVar
  3
ObjectDBX Classes
 90
        0
280
     0
281
     0
  0
CLASS
  1
XRECORD
  2
AcDbXrecord
  3
AutoCAD 2000
 90
    32768
280
     0
281
     0
  0
CLASS
  1
LWPOLYLINE
  2
AcDbPolyline
  3
AutoCAD 2000
 90
    32768
280
     0
281
     1
  0
CLASS
  1
HATCH
  2
AcDbHatch
  3
AutoCAD 2000
 90
    32768
280
     0
281
     1
  0
CLASS
  1
ACDBPLACEHOLDER
  2
AcDbPlaceHolder
  3
ObjectDBX Classes
 90
        0
280
     0
281
     0
  0
CLASS
  1
LAYOUT
  2
AcDbLayout
  3
ObjectDBX Classes
 90
        0
280
     0
281
     0
  0
ENDSEC
  0
SECTION
  2
TABLES
  0
TABLE
  2
VPORT
  5
8
330
0
100
AcDbSymbolTable
 70
     2
  0
VPORT
  5
29
102
{ACAD_XDICTIONARY
360
165
102
}
330
8
100
AcDbSymbolTableRecord
100
AcDbViewportTableRecord
  2
*ACTIVE
 70
     0
 10
0.0
 20
0.0
 11
1.0
 21
1.0
 12
10.4299065421
 22
4.5
 13
0.0
 23
0.0
 14
0.5
 24
0.5
 15
0.5
 25
0.5
 16
0.0
 26
0.0
 36
1.0
 17
0.0
 27
0.0
 37
0.0
 40
9.0
 41
1.9729729729
 42
50.0
 43
0.0
 44
0.0
 50
0.0
 51
0.0
 71
     0
 72
   100
 73
     1
 74
     3
 75
     0
 76
     0
 77
     0
 78
     0
  0
ENDTAB
  0
TABLE
  2
LTYPE
  5
5
330
0
100
AcDbSymbolTable
 70
     2
  0
LTYPE
  5
14
330
5
100
AcDbSymbolTableRecord
100
AcDbLinetypeTableRecord
  2
BYBLOCK
 70
     0
  3

 72
    65
 73
     0
 40
0.0
  0
LTYPE
  5
15
330
5
100
AcDbSymbolTableRecord
100
AcDbLinetypeTableRecord
  2
BYLAYER
 70
     0
  3

 72
    65
 73
     0
 40
0.0
  0
LTYPE
  5
16
330
5
100
AcDbSymbolTableRecord
100
AcDbLinetypeTableRecord
  2
CONTINUOUS
 70
     0
  3
Solid line
 72
    65
 73
     0
 40
0.0
  0
LTYPE
  5
31
330
5
100
AcDbSymbolTableRecord
100
AcDbLinetypeTableRecord
  2
CENTER2
 70
     0
  3
___ _ ___ _ ___ _ ___ _ ___ _ ___ _ ___ _ ___ _
 72
    65
 73
     4
 40
1.125
 49
0.75
 74
     4
 75
     0
340
0
 46
0.0
 50
0.0
 44
0.0
 45
0.0
 49
-0.125
 74
     4
 75
     0
340
0
 46
0.0
 50
0.0
 44
0.0
 45
0.0
 49
0.125
 74
     4
 75
     0
340
0
 46
0.0
 50
0.0
 44
0.0
 45
0.0
 49
-0.125
 74
     4
 75
     0
340
0
 46
0.0
 50
0.0
 44
0.0
 45
0.0
  0
ENDTAB
  0
TABLE
  2
LAYER
  5
2
330
0
100
AcDbSymbolTable
 70
     6
  0
LAYER
  5
10
330
2
100
AcDbSymbolTableRecord
100
AcDbLayerTableRecord
  2
0
 70
     0
 62
     7
  6
CONTINUOUS
  0
LAYER
  5
30
330
2
100
AcDbSymbolTableRecord
100
AcDbLayerTableRecord
  2
DEFAULT
 70
     0
 62
     7
  6
CONTINUOUS
  0
LAYER
  5
5A
330
2
100
AcDbSymbolTableRecord
100
AcDbLayerTableRecord
  2
MEGA_002117
 70
     0
 62
     7
  6
CONTINUOUS
  0
LAYER
  5
6C
330
2
100
AcDbSymbolTableRecord
100
AcDbLayerTableRecord
  2
MEGA_001125
 70
     0
 62
     7
  6
CONTINUOUS
  0
LAYER
  5
6F
330
2
100
AcDbSymbolTableRecord
100
AcDbLayerTableRecord
  2
STANDARD
 70
     0
 62
     7
  6
CONTINUOUS
  0
LAYER
  5
8E
330
2
100
AcDbSymbolTableRecord
100
AcDbLayerTableRecord
  2
MEGA_001468
 70
     0
 62
     7
  6
CONTINUOUS
  0
ENDTAB
  0
TABLE
  2
STYLE
  5
3
330
0
100
AcDbSymbolTable
 70
     3
  0
STYLE
  5
11
330
3
100
AcDbSymbolTableRecord
100
AcDbTextStyleTableRecord
  2
STANDARD
 70
     0
 40
0.0
 41
1.0
 50
0.0
 71
     0
 42
0.2
  3
txt
  4

  0
STYLE
  5
C3
330
3
100
AcDbSymbolTableRecord
100
AcDbTextStyleTableRecord
  2
SEACAD_SEISO_TTF
 70
     0
 40
0.2
 41
1.0
 50
0.0
 71
     0
 42
0.2
  3
seiso.ttf
  4

  0
STYLE
  5
D9
330
3
100
AcDbSymbolTableRecord
100
AcDbTextStyleTableRecord
  2
SEACAD_SEMECI1_TTF
 70
     0
 40
0.2
 41
1.0
 50
0.0
 71
     0
 42
0.2
  3
semeci1.ttf
  4

  0
ENDTAB
  0
TABLE
  2
VIEW
  5
6
330
0
100
AcDbSymbolTable
 70
     0
  0
ENDTAB
  0
TABLE
  2
UCS
  5
7
330
0
100
AcDbSymbolTable
 70
     0
  0
ENDTAB
  0
TABLE
  2
APPID
  5
9
330
0
100
AcDbSymbolTable
 70
     1
  0
APPID
  5
12
330
9
100
AcDbSymbolTableRecord
100
AcDbRegAppTableRecord
  2
ACAD
 70
     0
  0
ENDTAB
  0
TABLE
  2
DIMSTYLE
  5
A
330
0
100
AcDbSymbolTable
 70
     1
  0
DIMSTYLE
105
27
330
A
100
AcDbSymbolTableRecord
100
AcDbDimStyleTableRecord
  2
STANDARD
 70
     0
  3

  4

  5

  6

  7

 40
1.0
 41
0.18
 42
0.0625
 43
0.38
 44
0.18
 45
0.0
 46
0.0
 47
0.0
 48
0.0
140
0.18
141
0.09
142
0.0
143
25.4
144
1.0
145
0.0
146
1.0
147
0.09
 71
     0
 72
     0
 73
     1
 74
     1
 75
     0
 76
     0
 77
     0
 78
     0
170
     0
171
     2
172
     0
173
     0
174
     0
175
     0
176
     0
177
     0
178
     0
270
     2
271
     4
272
     4
273
     2
274
     2
340
11
275
     0
280
     0
281
     0
282
     0
283
     1
284
     0
285
     0
286
     0
287
     3
288
     0
  0
ENDTAB
  0
TABLE
  2
BLOCK_RECORD
  5
1
330
0
100
AcDbSymbolTable
 70
    19
  0
BLOCK_RECORD
  5
1F
330
1
100
AcDbSymbolTableRecord
100
AcDbBlockTableRecord
  2
*MODEL_SPACE
  0
BLOCK_RECORD
  5
1B
330
1
100
AcDbSymbolTableRecord
100
AcDbBlockTableRecord
  2
*PAPER_SPACE
  0
BLOCK_RECORD
  5
2E
330
1
100
AcDbSymbolTableRecord
100
AcDbBlockTableRecord
  2
SE
  0
BLOCK_RECORD
  5
3A
330
1
100
AcDbSymbolTableRecord
100
AcDbBlockTableRecord
  2
SE1
  0
BLOCK_RECORD
  5
44
330
1
100
AcDbSymbolTableRecord
100
AcDbBlockTableRecord
  2
SE2
  0
BLOCK_RECORD
  5
49
330
1
100
AcDbSymbolTableRecord
100
AcDbBlockTableRecord
  2
SE3
  0
BLOCK_RECORD
  5
4E
330
1
100
AcDbSymbolTableRecord
100
AcDbBlockTableRecord
  2
SE4
  0
BLOCK_RECORD
  5
53
330
1
100
AcDbSymbolTableRecord
100
AcDbBlockTableRecord
  2
SE5
  0
BLOCK_RECORD
  5
58
330
1
100
AcDbSymbolTableRecord
100
AcDbBlockTableRecord
  2
SE6
  0
BLOCK_RECORD
  5
73
330
1
100
AcDbSymbolTableRecord
100
AcDbBlockTableRecord
  2
SE7
  0
BLOCK_RECORD
  5
9B
330
1
100
AcDbSymbolTableRecord
100
AcDbBlockTableRecord
  2
SE8
  0
BLOCK_RECORD
  5
BD
330
1
100
AcDbSymbolTableRecord
100
AcDbBlockTableRecord
  2
SE9
  0
BLOCK_RECORD
  5
C7
330
1
100
AcDbSymbolTableRecord
100
AcDbBlockTableRecord
  2
SE10
  0
BLOCK_RECORD
  5
D1
330
1
100
AcDbSymbolTableRecord
100
AcDbBlockTableRecord
  2
SE11
  0
BLOCK_RECORD
  5
DD
330
1
100
AcDbSymbolTableRecord
100
AcDbBlockTableRecord
  2
SE12
  0
BLOCK_RECORD
  5
E7
330
1
100
AcDbSymbolTableRecord
100
AcDbBlockTableRecord
  2
SE13
  0
BLOCK_RECORD
  5
F1
330
1
100
AcDbSymbolTableRecord
100
AcDbBlockTableRecord
  2
SE14
  0
BLOCK_RECORD
  5
FB
330
1
100
AcDbSymbolTableRecord
100
AcDbBlockTableRecord
  2
SE15
  0
BLOCK_RECORD
  5
105
330
1
100
AcDbSymbolTableRecord
100
AcDbBlockTableRecord
  2
SE16
  0
BLOCK_RECORD
  5
10F
330
1
100
AcDbSymbolTableRecord
100
AcDbBlockTableRecord
  2
SE17
  0
ENDTAB
  0
ENDSEC
  0
SECTION
  2
BLOCKS
  0
BLOCK
  5
20
330
1F
100
AcDbEntity
  8
0
100
AcDbBlockBegin
  2
*MODEL_SPACE
 70
     0
 71
     0
 10
0.0
 20
0.0
 30
0.0
  3
*MODEL_SPACE
  1

  0
ENDBLK
  5
21
330
1F
100
AcDbEntity
  8
0
100
AcDbBlockEnd
  0
BLOCK
  5
1C
330
1B
100
AcDbEntity
 67
     1
  8
0
100
AcDbBlockBegin
  2
*PAPER_SPACE
 70
     0
 71
     0
 10
0.0
 20
0.0
 30
0.0
  3
*PAPER_SPACE
  1

  0
ENDBLK
  5
1D
330
1B
100
AcDbEntity
 67
     1
  8
0
100
AcDbBlockEnd
  0
BLOCK
  5
38
330
2E
100
AcDbEntity
  8
0
100
AcDbBlockBegin
  2
SE
 70
     0
 71
     0
 10
0.0
 20
0.0
 30
0.0
  3
SE
  1

  0
LINE
  5
32
330
2E
100
AcDbEntity
  8
DEFAULT
  6
CENTER2
 62
     7
 48
25.4
100
AcDbLine
 10
135.4719307792
 20
205.363760769
 30
0.0
 11
123.4719306749
 21
205.363760769
 31
0.0
  0
LINE
  5
33
330
2E
100
AcDbEntity
  8
DEFAULT
  6
CENTER2
 62
     7
 48
25.4
100
AcDbLine
 10
129.4719307271
 20
211.3637608212
 30
0.0
 11
129.4719307271
 21
199.3637607169
 31
0.0
  0
LINE
  5
34
330
2E
100
AcDbEntity
  8
DEFAULT
  6
CENTER2
 62
     7
 48
25.4
100
AcDbLine
 10
136.9719307271
 20
205.363760769
 30
0.0
 11
133.7219307271
 21
205.363760769
 31
0.0
  0
LINE
  5
35
330
2E
100
AcDbEntity
  8
DEFAULT
  6
CENTER2
 62
     7
 48
25.4
100
AcDbLine
 10
129.4719307271
 20
212.863760769
 30
0.0
 11
129.4719307271
 21
209.613760769
 31
0.0
  0
LINE
  5
36
330
2E
100
AcDbEntity
  8
DEFAULT
  6
CENTER2
 62
     7
 48
25.4
100
AcDbLine
 10
121.9719307271
 20
205.363760769
 30
0.0
 11
125.2219307271
 21
205.363760769
 31
0.0
  0
LINE
  5
37
330
2E
100
AcDbEntity
  8
DEFAULT
  6
CENTER2
 62
     7
 48
25.4
100
AcDbLine
 10
129.4719307271
 20
197.863760769
 30
0.0
 11
129.4719307271
 21
201.113760769
 31
0.0
  0
ENDBLK
  5
39
330
2E
100
AcDbEntity
  8
0
100
AcDbBlockEnd
  0
BLOCK
  5
42
330
3A
100
AcDbEntity
  8
0
100
AcDbBlockBegin
  2
SE1
 70
     0
 71
     0
 10
0.0
 20
0.0
 30
0.0
  3
SE1
  1

  0
LINE
  5
3C
330
3A
100
AcDbEntity
  8
DEFAULT
  6
CENTER2
 62
     7
 48
25.4
100
AcDbLine
 10
135.4719307792
 20
194.363760769
 30
0.0
 11
123.4719306749
 21
194.363760769
 31
0.0
  0
LINE
  5
3D
330
3A
100
AcDbEntity
  8
DEFAULT
  6
CENTER2
 62
     7
 48
25.4
100
AcDbLine
 10
129.4719307271
 20
200.3637608212
 30
0.0
 11
129.4719307271
 21
188.3637607169
 31
0.0
  0
LINE
  5
3E
330
3A
100
AcDbEntity
  8
DEFAULT
  6
CENTER2
 62
     7
 48
25.4
100
AcDbLine
 10
136.9719307271
 20
194.363760769
 30
0.0
 11
157.2219307271
 21
194.363760769
 31
0.0
  0
LINE
  5
3F
330
3A
100
AcDbEntity
  8
DEFAULT
  6
CENTER2
 62
     7
 48
25.4
100
AcDbLine
 10
129.4719307271
 20
201.863760769
 30
0.0
 11
129.4719307271
 21
222.113760769
 31
0.0
  0
LINE
  5
40
330
3A
100
AcDbEntity
  8
DEFAULT
  6
CENTER2
 62
     7
 48
25.4
100
AcDbLine
 10
121.9719307271
 20
194.363760769
 30
0.0
 11
101.7219307271
 21
194.363760769
 31
0.0
  0
LINE
  5
41
330
3A
100
AcDbEntity
  8
DEFAULT
  6
CENTER2
 62
     7
 48
25.4
100
AcDbLine
 10
129.4719307271
 20
186.863760769
 30
0.0
 11
129.4719307271
 21
166.613760769
 31
0.0
  0
ENDBLK
  5
43
330
3A
100
AcDbEntity
  8
0
100
AcDbBlockEnd
  0
BLOCK
  5
47
330
44
100
AcDbEntity
  8
0
100
AcDbBlockBegin
  2
SE2
 70
     0
 71
     0
 10
0.0
 20
0.0
 30
0.0
  3
SE2
  1

  0
LINE
  5
46
330
44
100
AcDbEntity
  8
DEFAULT
  6
CENTER2
 62
     7
 48
25.4
100
AcDbLine
 10
61.7612479587
 20
194.363760769
 30
0.0
 11
38.0187661822
 21
194.363760769
 31
0.0
  0
ENDBLK
  5
48
330
44
100
AcDbEntity
  8
0
100
AcDbBlockEnd
  0
BLOCK
  5
4C
330
49
100
AcDbEntity
  8
0
100
AcDbBlockBegin
  2
SE3
 70
     0
 71
     0
 10
0.0
 20
0.0
 30
0.0
  3
SE3
  1

  0
LINE
  5
4B
330
49
100
AcDbEntity
  8
DEFAULT
  6
CENTER2
 62
     7
 48
25.4
100
AcDbLine
 10
110.4719307271
 20
95.7849529335
 30
0.0
 11
110.4719307271
 21
120.9736182647
 31
0.0
  0
ENDBLK
  5
4D
330
49
100
AcDbEntity
  8
0
100
AcDbBlockEnd
  0
BLOCK
  5
51
330
4E
100
AcDbEntity
  8
0
100
AcDbBlockBegin
  2
SE4
 70
     0
 71
     0
 10
0.0
 20
0.0
 30
0.0
  3
SE4
  1

  0
LINE
  5
50
330
4E
100
AcDbEntity
  8
DEFAULT
  6
CENTER2
 62
     7
 48
25.4
100
AcDbLine
 10
148.4719307271
 20
96.0171108875
 30
0.0
 11
148.4719307271
 21
122.5583931634
 31
0.0
  0
ENDBLK
  5
52
330
4E
100
AcDbEntity
  8
0
100
AcDbBlockEnd
  0
BLOCK
  5
56
330
53
100
AcDbEntity
  8
0
100
AcDbBlockBegin
  2
SE5
 70
     0
 71
     0
 10
0.0
 20
0.0
 30
0.0
  3
SE5
  1

  0
LINE
  5
55
330
53
100
AcDbEntity
  8
DEFAULT
  6
CENTER2
 62
     7
 48
25.4
100
AcDbLine
 10
129.4719307271
 20
83.0089225812
 30
0.0
 11
129.4719307271
 21
104.4908762081
 31
0.0
  0
ENDBLK
  5
57
330
53
100
AcDbEntity
  8
0
100
AcDbBlockEnd
  0
BLOCK
  5
71
330
58
100
AcDbEntity
  8
0
100
AcDbBlockBegin
  2
SE6
 70
     0
 71
     0
 10
0.0
 20
0.0
 30
0.0
  3
SE6
  1

  0
CIRCLE
  5
5B
330
58
100
AcDbEntity
  8
MEGA_002117
  6
CONTINUOUS
 62
     7
 48
25.4
100
AcDbCircle
 10
129.4719307271
 20
194.363760769
 30
0.0
 40
8.0
  0
LINE
  5
5C
330
58
100
AcDbEntity
  8
MEGA_002117
  6
CONTINUOUS
 62
     7
 48
25.4
100
AcDbLine
 10
134.3309715568
 20
193.363760769
 30
0.0
 11
135.4915180187
 21
193.363760769
 31
0.0
  0
LINE
  5
5D
330
58
100
AcDbEntity
  8
MEGA_002117
  6
CONTINUOUS
 62
     7
 48
25.4
100
AcDbLine
 10
124.6128898974
 20
193.363760769
 30
0.0
 11
124.8316909265
 21
193.363760769
 31
0.0
  0
LINE
  5
5E
330
58
100
AcDbEntity
  8
MEGA_002117
  6
CONTINUOUS
 62
     7
 48
25.4
100
AcDbLine
 10
124.8316909265
 20
193.363760769
 30
0.0
 11
134.1121705277
 21
193.363760769
 31
0.0
  0
LINE
  5
5F
330
58
100
AcDbEntity
  8
MEGA_002117
  6
CONTINUOUS
 62
     7
 48
25.4
100
AcDbLine
 10
134.1121705277
 20
193.363760769
 30
0.0
 11
134.3309715568
 21
193.363760769
 31
0.0
  0
LINE
  5
60
330
58
100
AcDbEntity
  8
MEGA_002117
  6
CONTINUOUS
 62
     7
 48
25.4
100
AcDbLine
 10
123.4523434355
 20
193.363760769
 30
0.0
 11
124.6128898974
 21
193.363760769
 31
0.0
  0
LINE
  5
61
330
58
100
AcDbEntity
  8
MEGA_002117
  6
CONTINUOUS
 62
     7
 48
25.4
100
AcDbLine
 10
124.6128898974
 20
195.363760769
 30
0.0
 11
123.4523434355
 21
195.363760769
 31
0.0
  0
LINE
  5
62
330
58
100
AcDbEntity
  8
MEGA_002117
  6
CONTINUOUS
 62
     7
 48
25.4
100
AcDbLine
 10
135.4915180187
 20
195.363760769
 30
0.0
 11
134.3309715568
 21
195.363760769
 31
0.0
  0
LINE
  5
63
330
58
100
AcDbEntity
  8
MEGA_002117
  6
CONTINUOUS
 62
     7
 48
25.4
100
AcDbLine
 10
134.3309715568
 20
195.363760769
 30
0.0
 11
134.1121705277
 21
195.363760769
 31
0.0
  0
LINE
  5
64
330
58
100
AcDbEntity
  8
MEGA_002117
  6
CONTINUOUS
 62
     7
 48
25.4
100
AcDbLine
 10
134.1121705277
 20
195.363760769
 30
0.0
 11
124.8316909265
 21
195.363760769
 31
0.0
  0
LINE
  5
65
330
58
100
AcDbEntity
  8
MEGA_002117
  6
CONTINUOUS
 62
     7
 48
25.4
100
AcDbLine
 10
124.8316909265
 20
195.363760769
 30
0.0
 11
124.6128898974
 21
195.363760769
 31
0.0
  0
ARC
  5
66
330
58
100
AcDbEntity
  8
MEGA_002117
  6
CONTINUOUS
 62
     7
 48
25.4
100
AcDbCircle
 10
128.3336793761
 20
194.363760769
 30
0.0
 40
7.498563497899994
100
AcDbArc
 50
350.5806404883
 51
9.4193595117
  0
ARC
  5
67
330
58
100
AcDbEntity
  8
MEGA_002117
  6
CONTINUOUS
 62
     7
 48
25.4
100
AcDbCircle
 10
130.6101820781
 20
194.363760769
 30
0.0
 40
7.498563497899994
100
AcDbArc
 50
170.5806404883
 51
189.4193595117
  0
SPLINE
  5
68
330
58
100
AcDbEntity
  8
MEGA_002117
  6
CONTINUOUS
 62
     7
 48
25.4
100
AcDbSpline
210
0.0
220
0.0
230
1.0
 70
     8
 71
     3
 72
    11
 73
     7
 74
     0
 42
0.0000000001
 43
0.0000000001
 40
0.0
 40
0.0
 40
0.0
 40
0.0
 40
0.5
 40
0.5
 40
0.5
 40
1.0
 40
1.0
 40
1.0
 40
1.0
 10
135.4915180187334
 20
193.3637607690335
 30
0.0
 10
135.5540854703735
 20
193.3637607690335
 30
0.0
 10
135.6160234187903
 20
193.3445161130408
 30
0.0
 10
135.6641652358796
 20
193.3039600739796
 30
0.0
 10
135.7123070529689
 20
193.2634040349184
 30
0.0
 10
135.7415713187285
 20
193.1995680688047
 30
0.0
 10
135.7311391389822
 20
193.1365510931831
 30
0.0
  0
SPLINE
  5
69
330
58
100
AcDbEntity
  8
MEGA_002117
  6
CONTINUOUS
 62
     7
 48
25.4
100
AcDbSpline
210
0.0
220
0.0
230
1.0
 70
     8
 71
     3
 72
    11
 73
     7
 74
     0
 42
0.0000000001
 43
0.0000000001
 40
0.0
 40
0.0
 40
0.0
 40
0.0
 40
0.5
 40
0.5
 40
0.5
 40
1.0
 40
1.0
 40
1.0
 40
1.0
 10
123.4523434354521
 20
195.3637607690335
 30
0.0
 10
123.3897759838119
 20
195.3637607690335
 30
0.0
 10
123.3278380353951
 20
195.3830054250262
 30
0.0
 10
123.2796962183059
 20
195.4235614640875
 30
0.0
 10
123.2315544012166
 20
195.4641175031487
 30
0.0
 10
123.202290135457
 20
195.5279534692623
 30
0.0
 10
123.2127223152032
 20
195.5909704448839
 30
0.0
  0
SPLINE
  5
6A
330
58
100
AcDbEntity
  8
MEGA_002117
  6
CONTINUOUS
 62
     7
 48
25.4
100
AcDbSpline
210
0.0
220
0.0
230
1.0
 70
     8
 71
     3
 72
    11
 73
     7
 74
     0
 42
0.0000000001
 43
0.0000000001
 40
0.0
 40
0.0
 40
0.0
 40
0.0
 40
0.5
 40
0.5
 40
0.5
 40
1.0
 40
1.0
 40
1.0
 40
1.0
 10
135.7311391389822
 20
195.5909704448839
 30
0.0
 10
135.741529787652
 20
195.5282043432779
 30
0.0
 10
135.7120035022496
 20
195.4639365084176
 30
0.0
 10
135.6643218639218
 20
195.423693534488
 30
0.0
 10
135.616640225594
 20
195.3834505605583
 30
0.0
 10
135.5539558723388
 20
195.3637607690335
 30
0.0
 10
135.4915180187334
 20
195.3637607690335
 30
0.0
  0
SPLINE
  5
6B
330
58
100
AcDbEntity
  8
MEGA_002117
  6
CONTINUOUS
 62
     7
 48
25.4
100
AcDbSpline
210
0.0
220
0.0
230
1.0
 70
     8
 71
     3
 72
    11
 73
     7
 74
     0
 42
0.0000000001
 43
0.0000000001
 40
0.0
 40
0.0
 40
0.0
 40
0.0
 40
0.5
 40
0.5
 40
0.5
 40
1.0
 40
1.0
 40
1.0
 40
1.0
 10
123.2127223152032
 20
193.1365510931831
 30
0.0
 10
123.2023316665334
 20
193.1993171947891
 30
0.0
 10
123.2318579519359
 20
193.2635850296495
 30
0.0
 10
123.2795395902636
 20
193.303828003579
 30
0.0
 10
123.3272212285914
 20
193.3440709775087
 30
0.0
 10
123.3899055818466
 20
193.3637607690335
 30
0.0
 10
123.4523434354521
 20
193.3637607690335
 30
0.0
  0
CIRCLE
  5
6D
330
58
100
AcDbEntity
  8
MEGA_001125
  6
CONTINUOUS
 62
     7
 48
25.4
100
AcDbCircle
 10
129.4719307271
 20
205.363760769
 30
0.0
 40
2.5
  0
ARC
  5
6E
330
58
100
AcDbEntity
  8
MEGA_001125
  6
CONTINUOUS
 62
     7
 48
25.4
100
AcDbCircle
 10
129.4719307271
 20
194.363760769
 30
0.0
 40
26.0
100
AcDbArc
 50
275.0751066988
 51
264.9248933012
  0
ARC
  5
70
330
58
100
AcDbEntity
  8
STANDARD
  6
CONTINUOUS
 62
     7
 48
25.4
100
AcDbCircle
 10
129.4719307274
 20
194.3637635113
 30
0.0
 40
26.0000027296
100
AcDbArc
 50
264.4822662066
 51
275.517733792
  0
ENDBLK
  5
72
330
58
100
AcDbEntity
  8
0
100
AcDbBlockEnd
  0
BLOCK
  5
99
330
73
100
AcDbEntity
  8
0
100
AcDbBlockBegin
  2
SE7
 70
     0
 71
     0
 10
0.0
 20
0.0
 30
0.0
  3
SE7
  1

  0
LINE
  5
75
330
73
100
AcDbEntity
  8
MEGA_002117
  6
CONTINUOUS
 62
     7
 48
25.4
100
AcDbLine
 10
134.1121705277
 20
88.2550723276
 30
0.0
 11
124.8316909265
 21
88.2550723276
 31
0.0
  0
ARC
  5
76
330
73
100
AcDbEntity
  8
MEGA_002117
  6
CONTINUOUS
 62
     7
 48
25.4
100
AcDbCircle
 10
134.1118649969
 20
88.761979296
 30
0.0
 40
0.5069070604999979
100
AcDbArc
 50
270.034534187
 51
314.6757162541
  0
LINE
  5
77
330
73
100
AcDbEntity
  8
MEGA_002117
  6
CONTINUOUS
 62
     7
 48
25.4
100
AcDbLine
 10
135.8318010591
 20
89.6149426596
 30
0.0
 11
137.3254841177
 21
91.1086257182
 31
0.0
  0
ARC
  5
78
330
73
100
AcDbEntity
  8
MEGA_002117
  6
CONTINUOUS
 62
     7
 48
25.4
100
AcDbCircle
 10
136.9719307271
 20
91.4621791088
 30
0.0
 40
0.5
100
AcDbArc
 50
315.0
 51
360.0
  0
LINE
  5
79
330
73
100
AcDbEntity
  8
MEGA_002117
  6
CONTINUOUS
 62
     7
 48
25.4
100
AcDbLine
 10
121.4719307271
 20
93.8550723276
 30
0.0
 11
121.4719307271
 21
91.4621791088
 31
0.0
  0
LINE
  5
7A
330
73
100
AcDbEntity
  8
MEGA_002117
  6
CONTINUOUS
 62
     7
 48
25.4
100
AcDbLine
 10
121.6183773365
 20
91.1086257182
 30
0.0
 11
123.1120603951
 21
89.6149426596
 31
0.0
  0
ARC
  5
7B
330
73
100
AcDbEntity
  8
MEGA_002117
  6
CONTINUOUS
 62
     7
 48
25.4
100
AcDbCircle
 10
279.5581969418
 20
248.3667892261
 30
0.0
 40
222.8021332411
100
AcDbArc
 50
225.4342190915
 51
225.8879076392
  0
ARC
  5
7C
330
73
100
AcDbEntity
  8
MEGA_002117
  6
CONTINUOUS
 62
     7
 48
25.4
100
AcDbCircle
 10
124.8245315529
 20
88.7529345933
 30
0.0
 40
0.4966609159999962
100
AcDbArc
 50
225.2047403235
 51
270.8300880239
  0
ARC
  5
7D
330
73
100
AcDbEntity
  8
MEGA_002117
  6
CONTINUOUS
 62
     7
 48
25.4
100
AcDbCircle
 10
6.3761793732
 20
221.043810246
 30
0.0
 40
184.3988958164
100
AcDbArc
 50
314.0002067685
 51
314.548359632
  0
ARC
  5
7E
330
73
100
AcDbEntity
  8
MEGA_002117
  6
CONTINUOUS
 62
     7
 48
25.4
100
AcDbCircle
 10
134.1195399565
 20
88.7533456918
 30
0.0
 40
0.4969247360000111
100
AcDbArc
 50
269.9992632496
 51
314.7451834109
  0
ARC
  5
7F
330
73
100
AcDbEntity
  8
MEGA_002117
  6
CONTINUOUS
 62
     7
 48
25.4
100
AcDbCircle
 10
243.7924730872
 20
212.0170468376
 30
0.0
 40
171.8094746589
100
AcDbArc
 50
225.4254112685
 51
226.0137322667
  0
ARC
  5
80
330
73
100
AcDbEntity
  8
MEGA_002117
  6
CONTINUOUS
 62
     7
 48
25.4
100
AcDbCircle
 10
121.9719307271
 20
91.4621791088
 30
0.0
 40
0.5
100
AcDbArc
 50
180.0
 51
225.0
  0
LINE
  5
81
330
73
100
AcDbEntity
  8
MEGA_002117
  6
CONTINUOUS
 62
     7
 48
25.4
100
AcDbLine
 10
137.4719307271
 20
91.4621791088
 30
0.0
 11
137.4719307271
 21
93.8550723276
 31
0.0
  0
ARC
  5
82
330
73
100
AcDbEntity
  8
MEGA_002117
  6
CONTINUOUS
 62
     7
 48
25.4
100
AcDbCircle
 10
124.8320342873
 20
88.7620712831
 30
0.0
 40
0.5069990717999957
100
AcDbArc
 50
225.328552642
 51
269.9611969169
  0
LINE
  5
83
330
73
100
AcDbEntity
  8
MEGA_002117
  6
CONTINUOUS
 62
     7
 48
25.4
100
AcDbLine
 10
123.2127223152
 20
89.6334524928
 30
0.0
 11
123.1115784092
 21
89.6151545036
 31
0.0
  0
LINE
  5
84
330
73
100
AcDbEntity
  8
MEGA_002117
  6
CONTINUOUS
 62
     7
 48
25.4
100
AcDbLine
 10
135.731139139
 20
89.6334524928
 30
0.0
 11
135.832283045
 21
89.6151545036
 31
0.0
  0
SPLINE
  5
85
330
73
100
AcDbEntity
  8
MEGA_002117
  6
CONTINUOUS
 62
     7
 48
25.4
100
AcDbSpline
210
0.0
220
0.0
230
1.0
 70
     8
 71
     3
 72
     8
 73
     4
 74
     0
 42
0.0000000001
 43
0.0000000001
 40
0.0
 40
0.0
 40
0.0
 40
0.0
 40
1.0
 40
1.0
 40
1.0
 40
1.0
 10
135.7311391389822
 20
89.63345249278714
 30
0.0
 10
135.7326399103505
 20
89.63318098756848
 30
0.0
 10
135.7333079580159
 20
89.63306072406765
 30
0.0
 10
135.7332088521124
 20
89.63307938218496
 30
0.0
  0
LINE
  5
86
330
73
100
AcDbEntity
  8
MEGA_001125
  6
CONTINUOUS
 62
     7
 48
25.4
100
AcDbLine
 10
155.2870732907
 20
95.0614479567
 30
0.0
 11
155.4719307271
 21
100.3550723276
 31
0.0
  0
LINE
  5
87
330
73
100
AcDbEntity
  8
MEGA_001125
  6
CONTINUOUS
 62
     7
 48
25.4
100
AcDbLine
 10
103.4719307271
 20
100.3550723276
 30
0.0
 11
103.6567881635
 21
95.0614479567
 31
0.0
  0
LINE
  5
88
330
73
100
AcDbEntity
  8
MEGA_001125
  6
CONTINUOUS
 62
     7
 48
25.4
100
AcDbLine
 10
155.4719307271
 20
100.3550723276
 30
0.0
 11
131.7719307271
 21
100.3550723276
 31
0.0
  0
LINE
  5
89
330
73
100
AcDbEntity
  8
MEGA_001125
  6
CONTINUOUS
 62
     7
 48
25.4
100
AcDbLine
 10
127.1719307271
 20
100.3550723276
 30
0.0
 11
103.4719307271
 21
100.3550723276
 31
0.0
  0
LINE
  5
8A
330
73
100
AcDbEntity
  8
MEGA_001125
  6
CONTINUOUS
 62
     7
 48
25.4
100
AcDbLine
 10
104.9060266973
 20
93.8550723276
 30
0.0
 11
154.0378347569
 21
93.8550723276
 31
0.0
  0
ARC
  5
8B
330
73
100
AcDbEntity
  8
MEGA_001125
  6
CONTINUOUS
 62
     7
 48
25.4
100
AcDbCircle
 10
104.9060266973
 20
95.1050723276
 30
0.0
 40
1.25
100
AcDbArc
 50
182.0
 51
270.0
  0
ARC
  5
8C
330
73
100
AcDbEntity
  8
MEGA_001125
  6
CONTINUOUS
 62
     7
 48
25.4
100
AcDbCircle
 10
154.0378347569
 20
95.1050723276
 30
0.0
 40
1.25
100
AcDbArc
 50
270.0
 51
358.0
  0
LINE
  5
8D
330
73
100
AcDbEntity
  8
MEGA_001125
  6
CONTINUOUS
 62
     7
 48
25.4
100
AcDbLine
 10
127.1716804276
 20
100.3550723276
 30
0.0
 11
131.7724030098
 21
100.3550723276
 31
0.0
  0
LINE
  5
8F
330
73
100
AcDbEntity
  8
MEGA_001468
  6
CONTINUOUS
 62
     7
 48
25.4
100
AcDbLine
 10
145.1296835484
 20
103.8725220759
 30
0.0
 11
145.0068514966
 21
100.3550723276
 31
0.0
  0
LINE
  5
90
330
73
100
AcDbEntity
  8
MEGA_001468
  6
CONTINUOUS
 62
     7
 48
25.4
100
AcDbLine
 10
151.9370099576
 20
100.3550723276
 30
0.0
 11
151.8141779057
 21
103.8725220759
 31
0.0
  0
LINE
  5
91
330
73
100
AcDbEntity
  8
MEGA_001468
  6
CONTINUOUS
 62
     7
 48
25.4
100
AcDbLine
 10
107.1296835484
 20
103.8725220759
 30
0.0
 11
107.0068514966
 21
100.3550723276
 31
0.0
  0
LINE
  5
92
330
73
100
AcDbEntity
  8
MEGA_001468
  6
CONTINUOUS
 62
     7
 48
25.4
100
AcDbLine
 10
113.9370099576
 20
100.3550723276
 30
0.0
 11
113.8141779057
 21
103.8725220759
 31
0.0
  0
LINE
  5
93
330
73
100
AcDbEntity
  8
MEGA_001468
  6
CONTINUOUS
 62
     7
 48
25.4
100
AcDbLine
 10
151.3144824922
 20
104.3550723276
 30
0.0
 11
145.629378962
 21
104.3550723276
 31
0.0
  0
LINE
  5
94
330
73
100
AcDbEntity
  8
MEGA_001468
  6
CONTINUOUS
 62
     7
 48
25.4
100
AcDbLine
 10
113.3144824922
 20
104.3550723276
 30
0.0
 11
107.629378962
 21
104.3550723276
 31
0.0
  0
ARC
  5
95
330
73
100
AcDbEntity
  8
MEGA_001468
  6
CONTINUOUS
 62
     7
 48
25.4
100
AcDbCircle
 10
151.3144824922
 20
103.8550723276
 30
0.0
 40
0.5
100
AcDbArc
 50
2.0
 51
90.0
  0
ARC
  5
96
330
73
100
AcDbEntity
  8
MEGA_001468
  6
CONTINUOUS
 62
     7
 48
25.4
100
AcDbCircle
 10
113.3144824922
 20
103.8550723276
 30
0.0
 40
0.5
100
AcDbArc
 50
2.0
 51
90.0
  0
ARC
  5
97
330
73
100
AcDbEntity
  8
MEGA_001468
  6
CONTINUOUS
 62
     7
 48
25.4
100
AcDbCircle
 10
145.629378962
 20
103.8550723276
 30
0.0
 40
0.5
100
AcDbArc
 50
90.0
 51
178.0
  0
ARC
  5
98
330
73
100
AcDbEntity
  8
MEGA_001468
  6
CONTINUOUS
 62
     7
 48
25.4
100
AcDbCircle
 10
107.629378962
 20
103.8550723276
 30
0.0
 40
0.5
100
AcDbArc
 50
90.0
 51
178.0
  0
ENDBLK
  5
9A
330
73
100
AcDbEntity
  8
0
100
AcDbBlockEnd
  0
BLOCK
  5
BB
330
9B
100
AcDbEntity
  8
0
100
AcDbBlockBegin
  2
SE8
 70
     0
 71
     0
 10
0.0
 20
0.0
 30
0.0
  3
SE8
  1

  0
ARC
  5
9D
330
9B
100
AcDbEntity
  8
MEGA_002117
  6
CONTINUOUS
 62
     7
 48
25.4
100
AcDbCircle
 10
41.898585911
 20
195.563760769
 30
0.0
 40
0.2000000000000028
100
AcDbArc
 50
180.0
 51
270.0
  0
LINE
  5
9E
330
9B
100
AcDbEntity
  8
MEGA_002117
  6
CONTINUOUS
 62
     7
 48
25.4
100
AcDbLine
 10
41.698585911
 20
199.1566539878
 30
0.0
 11
41.698585911
 21
195.563760769
 31
0.0
  0
LINE
  5
9F
330
9B
100
AcDbEntity
  8
MEGA_002117
  6
CONTINUOUS
 62
     7
 48
25.4
100
AcDbLine
 10
41.9864538766
 20
195.363760769
 30
0.0
 11
41.898585911
 21
195.363760769
 31
0.0
  0
LINE
  5
A0
330
9B
100
AcDbEntity
  8
MEGA_002117
  6
CONTINUOUS
 62
     7
 48
25.4
100
AcDbLine
 10
43.0707915904
 20
195.363760769
 30
0.0
 11
41.9864538766
 21
195.363760769
 31
0.0
  0
LINE
  5
A1
330
9B
100
AcDbEntity
  8
MEGA_002117
  6
CONTINUOUS
 62
     7
 48
25.4
100
AcDbLine
 10
41.698585911
 20
189.5708675502
 30
0.0
 11
41.698585911
 21
193.163760769
 31
0.0
  0
LINE
  5
A2
330
9B
100
AcDbEntity
  8
MEGA_002117
  6
CONTINUOUS
 62
     7
 48
25.4
100
AcDbLine
 10
41.9864538766
 20
193.363760769
 30
0.0
 11
43.0707916131
 21
193.363760769
 31
0.0
  0
LINE
  5
A3
330
9B
100
AcDbEntity
  8
MEGA_002117
  6
CONTINUOUS
 62
     7
 48
25.4
100
AcDbLine
 10
41.898585911
 20
193.363760769
 30
0.0
 11
41.9864538766
 21
193.363760769
 31
0.0
  0
LINE
  5
A4
330
9B
100
AcDbEntity
  8
MEGA_002117
  6
CONTINUOUS
 62
     7
 48
25.4
100
AcDbLine
 10
41.8450325204
 20
189.2173141596
 30
0.0
 11
44.5521393016
 21
186.5102073784
 31
0.0
  0
ARC
  5
A5
330
9B
100
AcDbEntity
  8
MEGA_002117
  6
CONTINUOUS
 62
     7
 48
25.4
100
AcDbCircle
 10
44.9056926922
 20
186.863760769
 30
0.0
 40
0.5
100
AcDbArc
 50
225.0
 51
270.0
  0
LINE
  5
A6
330
9B
100
AcDbEntity
  8
MEGA_002117
  6
CONTINUOUS
 62
     7
 48
25.4
100
AcDbLine
 10
47.298585911
 20
202.363760769
 30
0.0
 11
44.9056926922
 21
202.363760769
 31
0.0
  0
LINE
  5
A7
330
9B
100
AcDbEntity
  8
MEGA_002117
  6
CONTINUOUS
 62
     7
 48
25.4
100
AcDbLine
 10
44.5521393016
 20
202.2173141596
 30
0.0
 11
41.8450325204
 21
199.5102073784
 31
0.0
  0
ARC
  5
A8
330
9B
100
AcDbEntity
  8
MEGA_002117
  6
CONTINUOUS
 62
     7
 48
25.4
100
AcDbCircle
 10
42.198585911
 20
199.1566539878
 30
0.0
 40
0.5
100
AcDbArc
 50
135.0
 51
180.0
  0
ARC
  5
A9
330
9B
100
AcDbEntity
  8
MEGA_002117
  6
CONTINUOUS
 62
     7
 48
25.4
100
AcDbCircle
 10
42.198585911
 20
189.5708675502
 30
0.0
 40
0.5
100
AcDbArc
 50
180.0
 51
225.0
  0
ARC
  5
AA
330
9B
100
AcDbEntity
  8
MEGA_002117
  6
CONTINUOUS
 62
     7
 48
25.4
100
AcDbCircle
 10
44.9056926922
 20
201.863760769
 30
0.0
 40
0.5
100
AcDbArc
 50
90.0
 51
135.0
  0
LINE
  5
AB
330
9B
100
AcDbEntity
  8
MEGA_002117
  6
CONTINUOUS
 62
     7
 48
25.4
100
AcDbLine
 10
44.9056926922
 20
186.363760769
 30
0.0
 11
47.298585911
 21
186.363760769
 31
0.0
  0
ARC
  5
AC
330
9B
100
AcDbEntity
  8
MEGA_002117
  6
CONTINUOUS
 62
     7
 48
25.4
100
AcDbCircle
 10
41.898585911
 20
193.163760769
 30
0.0
 40
0.2000000000000028
100
AcDbArc
 50
90.0
 51
180.0
  0
ARC
  5
AD
330
9B
100
AcDbEntity
  8
MEGA_002117
  6
CONTINUOUS
 62
     7
 48
25.4
100
AcDbCircle
 10
84.1942703162
 20
194.363760769
 30
0.0
 40
41.13561415070001
100
AcDbArc
 50
178.2904261717
 51
181.7095738283
  0
LINE
  5
AE
330
9B
100
AcDbEntity
  8
MEGA_001125
  6
CONTINUOUS
 62
     7
 48
25.4
100
AcDbLine
 10
48.5049615401
 20
168.5486182055
 30
0.0
 11
53.798585911
 21
168.363760769
 31
0.0
  0
LINE
  5
AF
330
9B
100
AcDbEntity
  8
MEGA_001125
  6
CONTINUOUS
 62
     7
 48
25.4
100
AcDbLine
 10
47.298585911
 20
169.7978567392
 30
0.0
 11
47.298585911
 21
218.9296647988
 31
0.0
  0
ARC
  5
B0
330
9B
100
AcDbEntity
  8
MEGA_001125
  6
CONTINUOUS
 62
     7
 48
25.4
100
AcDbCircle
 10
48.548585911
 20
218.9296647988
 30
0.0
 40
1.25
100
AcDbArc
 50
92.0
 51
180.0
  0
ARC
  5
B1
330
9B
100
AcDbEntity
  8
MEGA_001125
  6
CONTINUOUS
 62
     7
 48
25.4
100
AcDbCircle
 10
48.548585911
 20
169.7978567392
 30
0.0
 40
1.25
100
AcDbArc
 50
180.0
 51
268.0
  0
LINE
  5
B2
330
9B
100
AcDbEntity
  8
MEGA_001125
  6
CONTINUOUS
 62
     7
 48
25.4
100
AcDbLine
 10
53.798585911
 20
220.2618301952
 30
0.0
 11
53.798585911
 21
168.363760769
 31
0.0
  0
LINE
  5
B3
330
9B
100
AcDbEntity
  8
MEGA_001125
  6
CONTINUOUS
 62
     7
 48
25.4
100
AcDbLine
 10
51.798585911
 20
220.2939192301
 30
0.0
 11
48.5049615401
 21
220.1789033326
 31
0.0
  0
LINE
  5
B4
330
9B
100
AcDbEntity
  8
MEGA_001468
  6
CONTINUOUS
 62
     7
 48
25.4
100
AcDbLine
 10
53.798585911
 20
190.8986815385
 30
0.0
 11
57.3160356593
 21
191.0215135904
 31
0.0
  0
ARC
  5
B5
330
9B
100
AcDbEntity
  8
MEGA_001468
  6
CONTINUOUS
 62
     7
 48
25.4
100
AcDbCircle
 10
57.298585911
 20
191.5212090039
 30
0.0
 40
0.5
100
AcDbArc
 50
272.0
 51
360.0
  0
ARC
  5
B6
330
9B
100
AcDbEntity
  8
MEGA_001468
  6
CONTINUOUS
 62
     7
 48
25.4
100
AcDbCircle
 10
57.298585911
 20
197.2063125342
 30
0.0
 40
0.5
100
AcDbArc
 50
0.0
 51
88.0
  0
LINE
  5
B7
330
9B
100
AcDbEntity
  8
MEGA_001468
  6
CONTINUOUS
 62
     7
 48
25.4
100
AcDbLine
 10
57.798585911
 20
191.5212090039
 30
0.0
 11
57.798585911
 21
197.2063125342
 31
0.0
  0
LINE
  5
B8
330
9B
100
AcDbEntity
  8
STANDARD
  6
CONTINUOUS
 62
     7
 48
25.4
100
AcDbLine
 10
53.798585911
 20
220.363760769
 30
0.0
 11
53.798585911
 21
220.2618301952
 31
0.0
  0
LINE
  5
B9
330
9B
100
AcDbEntity
  8
STANDARD
  6
CONTINUOUS
 62
     7
 48
25.4
100
AcDbLine
 10
51.798585911
 20
220.2939192301
 30
0.0
 11
53.798585911
 21
220.363760769
 31
0.0
  0
LINE
  5
BA
330
9B
100
AcDbEntity
  8
STANDARD
  6
CONTINUOUS
 62
     7
 48
25.4
100
AcDbLine
 10
57.3160356593
 20
197.7060079477
 30
0.0
 11
53.798585911
 21
197.8288399995
 31
0.0
  0
ENDBLK
  5
BC
330
9B
100
AcDbEntity
  8
0
100
AcDbBlockEnd
  0
BLOCK
  5
C5
330
BD
100
AcDbEntity
  8
0
100
AcDbBlockBegin
  2
SE9
 70
     0
 71
     0
 10
0.0
 20
0.0
 30
0.0
  3
SE9
  1

  0
POLYLINE
  5
BF
330
BD
100
AcDbEntity
  8
DEFAULT
  6
CONTINUOUS
 62
     7
 48
25.4
100
AcDb2dPolyline
 66
     1
 10
0.0
 20
0.0
 30
0.0
 70
     1
  0
VERTEX
  5
11B
330
BF
100
AcDbEntity
  8
DEFAULT
  6
CONTINUOUS
 62
     7
100
AcDbVertex
100
AcDb2dVertex
 10
170.603623588
 20
197.3637607951
 30
0.0
  0
VERTEX
  5
11C
330
BF
100
AcDbEntity
  8
DEFAULT
  6
CONTINUOUS
 62
     7
100
AcDbVertex
100
AcDb2dVertex
 10
170.1036235836
 20
194.363760769
 30
0.0
  0
VERTEX
  5
11D
330
BF
100
AcDbEntity
  8
DEFAULT
  6
CONTINUOUS
 62
     7
100
AcDbVertex
100
AcDb2dVertex
 10
169.6036235793
 20
197.3637607951
 30
0.0
  0
VERTEX
  5
11E
330
BF
100
AcDbEntity
  8
DEFAULT
  6
CONTINUOUS
 62
     7
100
AcDbVertex
100
AcDb2dVertex
 10
170.603623588
 20
197.3637607951
 30
0.0
  0
SEQEND
  5
11A
330
BF
100
AcDbEntity
  8
DEFAULT
  6
CONTINUOUS
 62
     7
 48
25.4
  0
LINE
  5
C0
330
BD
100
AcDbEntity
  8
DEFAULT
  6
CONTINUOUS
 62
     7
 48
25.4
100
AcDbLine
 10
137.7266850841
 20
205.363760769
 30
0.0
 11
171.6036235967
 21
205.363760769
 31
0.0
  0
LINE
  5
C1
330
BD
100
AcDbEntity
  8
DEFAULT
  6
CONTINUOUS
 62
     7
 48
25.4
100
AcDbLine
 10
156.4712273476
 20
194.363760769
 30
0.0
 11
171.6036235967
 21
194.363760769
 31
0.0
  0
LINE
  5
C2
330
BD
100
AcDbEntity
  8
DEFAULT
  6
CONTINUOUS
 62
     7
 48
25.4
100
AcDbLine
 10
170.1036235836
 20
205.363760769
 30
0.0
 11
170.1036235836
 21
194.3637608286
 31
0.0
  0
TEXT
  5
C4
330
BD
100
AcDbEntity
  8
DEFAULT
  6
CONTINUOUS
 62
     7
 48
25.4
100
AcDbText
 10
169.3536235836
 20
198.6364880716
 30
0.0
 40
3.0
  1
11
 50
90.0
  7
SEACAD_SEISO_TTF
 11
166.3536235836
 21
198.6364880716
 31
0.0
100
AcDbText
 73
     3
  0
ENDBLK
  5
C6
330
BD
100
AcDbEntity
  8
0
100
AcDbBlockEnd
  0
BLOCK
  5
CF
330
C7
100
AcDbEntity
  8
0
100
AcDbBlockBegin
  2
SE10
 70
     0
 71
     0
 10
0.0
 20
0.0
 30
0.0
  3
SE10
  1

  0
POLYLINE
  5
C9
330
C7
100
AcDbEntity
  8
DEFAULT
  6
CONTINUOUS
 62
     7
 48
25.4
100
AcDb2dPolyline
 66
     1
 10
0.0
 20
0.0
 30
0.0
 70
     1
  0
VERTEX
  5
120
330
C9
100
AcDbEntity
  8
DEFAULT
  6
CONTINUOUS
 62
     7
100
AcDbVertex
100
AcDb2dVertex
 10
113.4719307532
 20
128.8507810061
 30
0.0
  0
VERTEX
  5
121
330
C9
100
AcDbEntity
  8
DEFAULT
  6
CONTINUOUS
 62
     7
100
AcDbVertex
100
AcDb2dVertex
 10
110.4719307271
 20
128.3507810018
 30
0.0
  0
VERTEX
  5
122
330
C9
100
AcDbEntity
  8
DEFAULT
  6
CONTINUOUS
 62
     7
100
AcDbVertex
100
AcDb2dVertex
 10
113.4719307532
 20
127.8507809974
 30
0.0
  0
VERTEX
  5
123
330
C9
100
AcDbEntity
  8
DEFAULT
  6
CONTINUOUS
 62
     7
100
AcDbVertex
100
AcDb2dVertex
 10
113.4719307532
 20
128.8507810061
 30
0.0
  0
SEQEND
  5
11F
330
C9
100
AcDbEntity
  8
DEFAULT
  6
CONTINUOUS
 62
     7
 48
25.4
  0
POLYLINE
  5
CA
330
C7
100
AcDbEntity
  8
DEFAULT
  6
CONTINUOUS
 62
     7
 48
25.4
100
AcDb2dPolyline
 66
     1
 10
0.0
 20
0.0
 30
0.0
 70
     1
  0
VERTEX
  5
125
330
CA
100
AcDbEntity
  8
DEFAULT
  6
CONTINUOUS
 62
     7
100
AcDbVertex
100
AcDb2dVertex
 10
145.471930701
 20
128.8507810061
 30
0.0
  0
VERTEX
  5
126
330
CA
100
AcDbEntity
  8
DEFAULT
  6
CONTINUOUS
 62
     7
100
AcDbVertex
100
AcDb2dVertex
 10
148.4719307271
 20
128.3507810018
 30
0.0
  0
VERTEX
  5
127
330
CA
100
AcDbEntity
  8
DEFAULT
  6
CONTINUOUS
 62
     7
100
AcDbVertex
100
AcDb2dVertex
 10
145.471930701
 20
127.8507809974
 30
0.0
  0
VERTEX
  5
128
330
CA
100
AcDbEntity
  8
DEFAULT
  6
CONTINUOUS
 62
     7
100
AcDbVertex
100
AcDb2dVertex
 10
145.471930701
 20
128.8507810061
 30
0.0
  0
SEQEND
  5
124
330
CA
100
AcDbEntity
  8
DEFAULT
  6
CONTINUOUS
 62
     7
 48
25.4
  0
LINE
  5
CB
330
C7
100
AcDbEntity
  8
DEFAULT
  6
CONTINUOUS
 62
     7
 48
25.4
100
AcDbLine
 10
110.4719307271
 20
120.1812305531
 30
0.0
 11
110.4719307271
 21
129.8507810148
 31
0.0
  0
LINE
  5
CC
330
C7
100
AcDbEntity
  8
DEFAULT
  6
CONTINUOUS
 62
     7
 48
25.4
100
AcDbLine
 10
148.4719307271
 20
120.4981857023
 30
0.0
 11
148.4719307271
 21
129.8507810148
 31
0.0
  0
LINE
  5
CD
330
C7
100
AcDbEntity
  8
DEFAULT
  6
CONTINUOUS
 62
     7
 48
25.4
100
AcDbLine
 10
110.4719307271
 20
128.3507810018
 30
0.0
 11
148.4719295052
 21
128.3507810018
 31
0.0
  0
TEXT
  5
CE
330
C7
100
AcDbEntity
  8
DEFAULT
  6
CONTINUOUS
 62
     7
 48
25.4
100
AcDbText
 10
127.7332937525
 20
129.1007810018
 30
0.0
 40
3.0
  1
38
  7
SEACAD_SEISO_TTF
 11
127.7332937525
 21
132.1007810018
 31
0.0
100
AcDbText
 73
     3
  0
ENDBLK
  5
D0
330
C7
100
AcDbEntity
  8
0
100
AcDbBlockEnd
  0
BLOCK
  5
DB
330
D1
100
AcDbEntity
  8
0
100
AcDbBlockBegin
  2
SE11
 70
     0
 71
     0
 10
0.0
 20
0.0
 30
0.0
  3
SE11
  1

  0
POLYLINE
  5
D3
330
D1
100
AcDbEntity
  8
DEFAULT
  6
CONTINUOUS
 62
     7
 48
25.4
100
AcDb2dPolyline
 66
     1
 10
0.0
 20
0.0
 30
0.0
 70
     1
  0
VERTEX
  5
12A
330
D3
100
AcDbEntity
  8
DEFAULT
  6
CONTINUOUS
 62
     7
100
AcDbVertex
100
AcDb2dVertex
 10
103.9887817271
 20
119.1836538619
 30
0.0
  0
VERTEX
  5
12B
330
D3
100
AcDbEntity
  8
DEFAULT
  6
CONTINUOUS
 62
     7
100
AcDbVertex
100
AcDb2dVertex
 10
106.9887817532
 20
118.6836538576
 30
0.0
  0
VERTEX
  5
12C
330
D3
100
AcDbEntity
  8
DEFAULT
  6
CONTINUOUS
 62
     7
100
AcDbVertex
100
AcDb2dVertex
 10
103.9887817271
 20
118.1836538532
 30
0.0
  0
VERTEX
  5
12D
330
D3
100
AcDbEntity
  8
DEFAULT
  6
CONTINUOUS
 62
     7
100
AcDbVertex
100
AcDb2dVertex
 10
103.9887817271
 20
119.1836538619
 30
0.0
  0
SEQEND
  5
129
330
D3
100
AcDbEntity
  8
DEFAULT
  6
CONTINUOUS
 62
     7
 48
25.4
  0
POLYLINE
  5
D4
330
D1
100
AcDbEntity
  8
DEFAULT
  6
CONTINUOUS
 62
     7
 48
25.4
100
AcDb2dPolyline
 66
     1
 10
0.0
 20
0.0
 30
0.0
 70
     1
  0
VERTEX
  5
12F
330
D4
100
AcDbEntity
  8
DEFAULT
  6
CONTINUOUS
 62
     7
100
AcDbVertex
100
AcDb2dVertex
 10
116.9550797271
 20
119.1836538619
 30
0.0
  0
VERTEX
  5
130
330
D4
100
AcDbEntity
  8
DEFAULT
  6
CONTINUOUS
 62
     7
100
AcDbVertex
100
AcDb2dVertex
 10
113.955079701
 20
118.6836538576
 30
0.0
  0
VERTEX
  5
131
330
D4
100
AcDbEntity
  8
DEFAULT
  6
CONTINUOUS
 62
     7
100
AcDbVertex
100
AcDb2dVertex
 10
116.9550797271
 20
118.1836538532
 30
0.0
  0
VERTEX
  5
132
330
D4
100
AcDbEntity
  8
DEFAULT
  6
CONTINUOUS
 62
     7
100
AcDbVertex
100
AcDb2dVertex
 10
116.9550797271
 20
119.1836538619
 30
0.0
  0
SEQEND
  5
12E
330
D4
100
AcDbEntity
  8
DEFAULT
  6
CONTINUOUS
 62
     7
 48
25.4
  0
LINE
  5
D5
330
D1
100
AcDbEntity
  8
DEFAULT
  6
CONTINUOUS
 62
     7
 48
25.4
100
AcDbLine
 10
106.9887817532
 20
100.4587423844
 30
0.0
 11
106.9887817532
 21
120.1836538706
 31
0.0
  0
LINE
  5
D6
330
D1
100
AcDbEntity
  8
DEFAULT
  6
CONTINUOUS
 62
     7
 48
25.4
100
AcDbLine
 10
113.955079701
 20
100.6172199007
 30
0.0
 11
113.955079701
 21
120.1836538706
 31
0.0
  0
LINE
  5
D7
330
D1
100
AcDbEntity
  8
DEFAULT
  6
CONTINUOUS
 62
     7
 48
25.4
100
AcDbLine
 10
96.4298561841
 20
118.6836538576
 30
0.0
 11
119.9550793201
 21
118.6836538576
 31
0.0
  0
TEXT
  5
D8
330
D1
100
AcDbEntity
  8
DEFAULT
  6
CONTINUOUS
 62
     7
 48
25.4
100
AcDbText
 10
101.1204677607
 20
119.4336538576
 30
0.0
 40
3.0
  1
7
  7
SEACAD_SEISO_TTF
 11
101.1204677607
 21
122.4336538576
 31
0.0
100
AcDbText
 73
     3
  0
TEXT
  5
DA
330
D1
100
AcDbEntity
  8
DEFAULT
  6
CONTINUOUS
 62
     7
 48
25.4
100
AcDbText
 10
97.479856407
 20
119.4336538576
 30
0.0
 40
3.0
  1
O
  7
SEACAD_SEMECI1_TTF
 11
97.479856407
 21
122.4336538576
 31
0.0
100
AcDbText
 73
     3
  0
ENDBLK
  5
DC
330
D1
100
AcDbEntity
  8
0
100
AcDbBlockEnd
  0
BLOCK
  5
E5
330
DD
100
AcDbEntity
  8
0
100
AcDbBlockBegin
  2
SE12
 70
     0
 71
     0
 10
0.0
 20
0.0
 30
0.0
  3
SE12
  1

  0
CIRCLE
  5
DF
330
DD
100
AcDbEntity
  8
DEFAULT
  6
CONTINUOUS
 62
     7
 48
25.4
100
AcDbCircle
 10
86.3300800619
 20
100.3550723276
 30
0.0
 40
1.000000008692339
  0
POLYLINE
  5
E0
330
DD
100
AcDbEntity
  8
DEFAULT
  6
CONTINUOUS
 62
     7
 48
25.4
100
AcDb2dPolyline
 66
     1
 10
0.0
 20
0.0
 30
0.0
 70
     1
  0
VERTEX
  5
134
330
E0
100
AcDbEntity
  8
DEFAULT
  6
CONTINUOUS
 62
     7
100
AcDbVertex
100
AcDb2dVertex
 10
85.8300800575
 20
107.3550723537
 30
0.0
  0
VERTEX
  5
135
330
E0
100
AcDbEntity
  8
DEFAULT
  6
CONTINUOUS
 62
     7
100
AcDbVertex
100
AcDb2dVertex
 10
86.3300800619
 20
104.3550723276
 30
0.0
  0
VERTEX
  5
136
330
E0
100
AcDbEntity
  8
DEFAULT
  6
CONTINUOUS
 62
     7
100
AcDbVertex
100
AcDb2dVertex
 10
86.8300800662
 20
107.3550723537
 30
0.0
  0
VERTEX
  5
137
330
E0
100
AcDbEntity
  8
DEFAULT
  6
CONTINUOUS
 62
     7
100
AcDbVertex
100
AcDb2dVertex
 10
85.8300800575
 20
107.3550723537
 30
0.0
  0
SEQEND
  5
133
330
E0
100
AcDbEntity
  8
DEFAULT
  6
CONTINUOUS
 62
     7
 48
25.4
  0
LINE
  5
E1
330
DD
100
AcDbEntity
  8
DEFAULT
  6
CONTINUOUS
 62
     7
 48
25.4
100
AcDbLine
 10
103.4719307271
 20
100.3550723276
 30
0.0
 11
84.8300800488
 21
100.3550723276
 31
0.0
  0
LINE
  5
E2
330
DD
100
AcDbEntity
  8
DEFAULT
  6
CONTINUOUS
 62
     7
 48
25.4
100
AcDbLine
 10
107.629378962
 20
104.3550723276
 30
0.0
 11
84.8300800488
 21
104.3550723276
 31
0.0
  0
LINE
  5
E3
330
DD
100
AcDbEntity
  8
DEFAULT
  6
CONTINUOUS
 62
     7
 48
25.4
100
AcDbLine
 10
86.3300800619
 20
94.3550722754
 30
0.0
 11
86.3300800619
 21
110.3550721041
 31
0.0
  0
TEXT
  5
E4
330
DD
100
AcDbEntity
  8
DEFAULT
  6
CONTINUOUS
 62
     7
 48
25.4
100
AcDbText
 10
85.5800800619
 20
101.4687087862
 30
0.0
 40
3.0
  1
4
 50
90.0
  7
SEACAD_SEISO_TTF
 11
82.5800800619
 21
101.4687087862
 31
0.0
100
AcDbText
 73
     3
  0
ENDBLK
  5
E6
330
DD
100
AcDbEntity
  8
0
100
AcDbBlockEnd
  0
BLOCK
  5
EF
330
E7
100
AcDbEntity
  8
0
100
AcDbBlockBegin
  2
SE13
 70
     0
 71
     0
 10
0.0
 20
0.0
 30
0.0
  3
SE13
  1

  0
POLYLINE
  5
E9
330
E7
100
AcDbEntity
  8
DEFAULT
  6
CONTINUOUS
 62
     7
 48
25.4
100
AcDb2dPolyline
 66
     1
 10
0.0
 20
0.0
 30
0.0
 70
     1
  0
VERTEX
  5
139
330
E9
100
AcDbEntity
  8
DEFAULT
  6
CONTINUOUS
 62
     7
100
AcDbVertex
100
AcDb2dVertex
 10
172.6511319592
 20
101.3550723015
 30
0.0
  0
VERTEX
  5
13A
330
E9
100
AcDbEntity
  8
DEFAULT
  6
CONTINUOUS
 62
     7
100
AcDbVertex
100
AcDb2dVertex
 10
172.1511319548
 20
104.3550723276
 30
0.0
  0
VERTEX
  5
13B
330
E9
100
AcDbEntity
  8
DEFAULT
  6
CONTINUOUS
 62
     7
100
AcDbVertex
100
AcDb2dVertex
 10
171.6511319505
 20
101.3550723015
 30
0.0
  0
VERTEX
  5
13C
330
E9
100
AcDbEntity
  8
DEFAULT
  6
CONTINUOUS
 62
     7
100
AcDbVertex
100
AcDb2dVertex
 10
172.6511319592
 20
101.3550723015
 30
0.0
  0
SEQEND
  5
138
330
E9
100
AcDbEntity
  8
DEFAULT
  6
CONTINUOUS
 62
     7
 48
25.4
  0
POLYLINE
  5
EA
330
E7
100
AcDbEntity
  8
DEFAULT
  6
CONTINUOUS
 62
     7
 48
25.4
100
AcDb2dPolyline
 66
     1
 10
0.0
 20
0.0
 30
0.0
 70
     1
  0
VERTEX
  5
13E
330
EA
100
AcDbEntity
  8
DEFAULT
  6
CONTINUOUS
 62
     7
100
AcDbVertex
100
AcDb2dVertex
 10
172.6511319592
 20
91.2550723537
 30
0.0
  0
VERTEX
  5
13F
330
EA
100
AcDbEntity
  8
DEFAULT
  6
CONTINUOUS
 62
     7
100
AcDbVertex
100
AcDb2dVertex
 10
172.1511319548
 20
88.2550723276
 30
0.0
  0
VERTEX
  5
140
330
EA
100
AcDbEntity
  8
DEFAULT
  6
CONTINUOUS
 62
     7
100
AcDbVertex
100
AcDb2dVertex
 10
171.6511319505
 20
91.2550723537
 30
0.0
  0
VERTEX
  5
141
330
EA
100
AcDbEntity
  8
DEFAULT
  6
CONTINUOUS
 62
     7
100
AcDbVertex
100
AcDb2dVertex
 10
172.6511319592
 20
91.2550723537
 30
0.0
  0
SEQEND
  5
13D
330
EA
100
AcDbEntity
  8
DEFAULT
  6
CONTINUOUS
 62
     7
 48
25.4
  0
LINE
  5
EB
330
E7
100
AcDbEntity
  8
DEFAULT
  6
CONTINUOUS
 62
     7
 48
25.4
100
AcDbLine
 10
151.3144824922
 20
104.3550723276
 30
0.0
 11
173.6511319678
 21
104.3550723276
 31
0.0
  0
LINE
  5
EC
330
E7
100
AcDbEntity
  8
DEFAULT
  6
CONTINUOUS
 62
     7
 48
25.4
100
AcDbLine
 10
134.1121705277
 20
88.2550723276
 30
0.0
 11
173.6511319678
 21
88.2550723276
 31
0.0
  0
LINE
  5
ED
330
E7
100
AcDbEntity
  8
DEFAULT
  6
CONTINUOUS
 62
     7
 48
25.4
100
AcDbLine
 10
172.1511319548
 20
104.3550723276
 30
0.0
 11
172.1511319548
 21
88.2550717375
 31
0.0
  0
TEXT
  5
EE
330
E7
100
AcDbEntity
  8
DEFAULT
  6
CONTINUOUS
 62
     7
 48
25.4
100
AcDbText
 10
171.4011319548
 20
93.8846174871
 30
0.0
 40
3.0
  1
16,1
 50
90.0
  7
SEACAD_SEISO_TTF
 11
168.4011319548
 21
93.8846174871
 31
0.0
100
AcDbText
 73
     3
  0
ENDBLK
  5
F0
330
E7
100
AcDbEntity
  8
0
100
AcDbBlockEnd
  0
BLOCK
  5
F9
330
F1
100
AcDbEntity
  8
0
100
AcDbBlockBegin
  2
SE14
 70
     0
 71
     0
 10
0.0
 20
0.0
 30
0.0
  3
SE14
  1

  0
POLYLINE
  5
F3
330
F1
100
AcDbEntity
  8
DEFAULT
  6
CONTINUOUS
 62
     7
 48
25.4
100
AcDb2dPolyline
 66
     1
 10
0.0
 20
0.0
 30
0.0
 70
     1
  0
VERTEX
  5
143
330
F3
100
AcDbEntity
  8
DEFAULT
  6
CONTINUOUS
 62
     7
100
AcDbVertex
100
AcDb2dVertex
 10
123.971930701
 20
229.7601457576
 30
0.0
  0
VERTEX
  5
144
330
F3
100
AcDbEntity
  8
DEFAULT
  6
CONTINUOUS
 62
     7
100
AcDbVertex
100
AcDb2dVertex
 10
126.9719307271
 20
229.2601457533
 30
0.0
  0
VERTEX
  5
145
330
F3
100
AcDbEntity
  8
DEFAULT
  6
CONTINUOUS
 62
     7
100
AcDbVertex
100
AcDb2dVertex
 10
123.971930701
 20
228.7601457489
 30
0.0
  0
VERTEX
  5
146
330
F3
100
AcDbEntity
  8
DEFAULT
  6
CONTINUOUS
 62
     7
100
AcDbVertex
100
AcDb2dVertex
 10
123.971930701
 20
229.7601457576
 30
0.0
  0
SEQEND
  5
142
330
F3
100
AcDbEntity
  8
DEFAULT
  6
CONTINUOUS
 62
     7
 48
25.4
  0
POLYLINE
  5
F4
330
F1
100
AcDbEntity
  8
DEFAULT
  6
CONTINUOUS
 62
     7
 48
25.4
100
AcDb2dPolyline
 66
     1
 10
0.0
 20
0.0
 30
0.0
 70
     1
  0
VERTEX
  5
148
330
F4
100
AcDbEntity
  8
DEFAULT
  6
CONTINUOUS
 62
     7
100
AcDbVertex
100
AcDb2dVertex
 10
134.9719307532
 20
229.7601457576
 30
0.0
  0
VERTEX
  5
149
330
F4
100
AcDbEntity
  8
DEFAULT
  6
CONTINUOUS
 62
     7
100
AcDbVertex
100
AcDb2dVertex
 10
131.9719307271
 20
229.2601457533
 30
0.0
  0
VERTEX
  5
14A
330
F4
100
AcDbEntity
  8
DEFAULT
  6
CONTINUOUS
 62
     7
100
AcDbVertex
100
AcDb2dVertex
 10
134.9719307532
 20
228.7601457489
 30
0.0
  0
VERTEX
  5
14B
330
F4
100
AcDbEntity
  8
DEFAULT
  6
CONTINUOUS
 62
     7
100
AcDbVertex
100
AcDb2dVertex
 10
134.9719307532
 20
229.7601457576
 30
0.0
  0
SEQEND
  5
147
330
F4
100
AcDbEntity
  8
DEFAULT
  6
CONTINUOUS
 62
     7
 48
25.4
  0
LINE
  5
F5
330
F1
100
AcDbEntity
  8
DEFAULT
  6
CONTINUOUS
 62
     7
 48
25.4
100
AcDbLine
 10
126.9719307271
 20
205.363760769
 30
0.0
 11
126.9719307271
 21
230.7601457663
 31
0.0
  0
LINE
  5
F6
330
F1
100
AcDbEntity
  8
DEFAULT
  6
CONTINUOUS
 62
     7
 48
25.4
100
AcDbLine
 10
131.9719307271
 20
205.363760769
 30
0.0
 11
131.9719307271
 21
230.7601457663
 31
0.0
  0
LINE
  5
F7
330
F1
100
AcDbEntity
  8
DEFAULT
  6
CONTINUOUS
 62
     7
 48
25.4
100
AcDbLine
 10
120.9719306749
 20
229.2601457533
 30
0.0
 11
137.9719306675
 21
229.2601457533
 31
0.0
  0
TEXT
  5
F8
330
F1
100
AcDbEntity
  8
DEFAULT
  6
CONTINUOUS
 62
     7
 48
25.4
100
AcDbText
 10
128.6196579439
 20
230.0101457533
 30
0.0
 40
3.0
  1
5
  7
SEACAD_SEISO_TTF
 11
128.6196579439
 21
233.0101457533
 31
0.0
100
AcDbText
 73
     3
  0
ENDBLK
  5
FA
330
F1
100
AcDbEntity
  8
0
100
AcDbBlockEnd
  0
BLOCK
  5
103
330
FB
100
AcDbEntity
  8
0
100
AcDbBlockBegin
  2
SE15
 70
     0
 71
     0
 10
0.0
 20
0.0
 30
0.0
  3
SE15
  1

  0
POLYLINE
  5
FD
330
FB
100
AcDbEntity
  8
DEFAULT
  6
CONTINUOUS
 62
     7
 48
25.4
100
AcDb2dPolyline
 66
     1
 10
0.0
 20
0.0
 30
0.0
 70
     1
  0
VERTEX
  5
14D
330
FD
100
AcDbEntity
  8
DEFAULT
  6
CONTINUOUS
 62
     7
100
AcDbVertex
100
AcDb2dVertex
 10
134.471934256
 20
153.6990856382
 30
0.0
  0
VERTEX
  5
14E
330
FD
100
AcDbEntity
  8
DEFAULT
  6
CONTINUOUS
 62
     7
100
AcDbVertex
100
AcDb2dVertex
 10
137.4719342384
 20
154.1990859048
 30
0.0
  0
VERTEX
  5
14F
330
FD
100
AcDbEntity
  8
DEFAULT
  6
CONTINUOUS
 62
     7
100
AcDbVertex
100
AcDb2dVertex
 10
134.4719341686
 20
154.6990856469
 30
0.0
  0
VERTEX
  5
150
330
FD
100
AcDbEntity
  8
DEFAULT
  6
CONTINUOUS
 62
     7
100
AcDbVertex
100
AcDb2dVertex
 10
134.471934256
 20
153.6990856382
 30
0.0
  0
SEQEND
  5
14C
330
FD
100
AcDbEntity
  8
DEFAULT
  6
CONTINUOUS
 62
     7
 48
25.4
  0
POLYLINE
  5
FE
330
FB
100
AcDbEntity
  8
DEFAULT
  6
CONTINUOUS
 62
     7
 48
25.4
100
AcDb2dPolyline
 66
     1
 10
0.0
 20
0.0
 30
0.0
 70
     1
  0
VERTEX
  5
152
330
FE
100
AcDbEntity
  8
DEFAULT
  6
CONTINUOUS
 62
     7
100
AcDbVertex
100
AcDb2dVertex
 10
124.4719343082
 20
153.699084764
 30
0.0
  0
VERTEX
  5
153
330
FE
100
AcDbEntity
  8
DEFAULT
  6
CONTINUOUS
 62
     7
100
AcDbVertex
100
AcDb2dVertex
 10
121.4719342384
 20
154.1990845061
 30
0.0
  0
VERTEX
  5
154
330
FE
100
AcDbEntity
  8
DEFAULT
  6
CONTINUOUS
 62
     7
100
AcDbVertex
100
AcDb2dVertex
 10
124.4719342208
 20
154.6990847727
 30
0.0
  0
VERTEX
  5
155
330
FE
100
AcDbEntity
  8
DEFAULT
  6
CONTINUOUS
 62
     7
100
AcDbVertex
100
AcDb2dVertex
 10
124.4719343082
 20
153.699084764
 30
0.0
  0
SEQEND
  5
151
330
FE
100
AcDbEntity
  8
DEFAULT
  6
CONTINUOUS
 62
     7
 48
25.4
  0
LINE
  5
FF
330
FB
100
AcDbEntity
  8
DEFAULT
  6
CONTINUOUS
 62
     7
 48
25.4
100
AcDbLine
 10
137.4719307271
 20
194.3637614684
 30
0.0
 11
137.4719343695
 21
152.6990858918
 31
0.0
  0
LINE
  5
100
330
FB
100
AcDbEntity
  8
DEFAULT
  6
CONTINUOUS
 62
     7
 48
25.4
100
AcDbLine
 10
121.4719307271
 20
194.3637600697
 30
0.0
 11
121.4719343695
 21
152.699084493
 31
0.0
  0
LINE
  5
101
330
FB
100
AcDbEntity
  8
DEFAULT
  6
CONTINUOUS
 62
     7
 48
25.4
100
AcDbLine
 10
137.4719342384
 20
154.1990859048
 30
0.0
 11
121.4719334784
 21
154.1990845061
 31
0.0
  0
TEXT
  5
102
330
FB
100
AcDbEntity
  8
DEFAULT
  6
CONTINUOUS
 62
     7
 48
25.4
100
AcDbText
 10
128.0344601503
 20
154.9490850798
 30
0.0
 40
3.0
  1
16
 50
0.000005009
  7
SEACAD_SEISO_TTF
 11
128.034459888
 21
157.9490850798
 31
0.0
100
AcDbText
 73
     3
  0
ENDBLK
  5
104
330
FB
100
AcDbEntity
  8
0
100
AcDbBlockEnd
  0
BLOCK
  5
10D
330
105
100
AcDbEntity
  8
0
100
AcDbBlockBegin
  2
SE16
 70
     0
 71
     0
 10
0.0
 20
0.0
 30
0.0
  3
SE16
  1

  0
CIRCLE
  5
107
330
105
100
AcDbEntity
  8
DEFAULT
  6
CONTINUOUS
 62
     7
 48
25.4
100
AcDbCircle
 10
86.3198131618
 20
100.3550723276
 30
0.0
 40
1.000000008692339
  0
POLYLINE
  5
108
330
105
100
AcDbEntity
  8
DEFAULT
  6
CONTINUOUS
 62
     7
 48
25.4
100
AcDb2dPolyline
 66
     1
 10
0.0
 20
0.0
 30
0.0
 70
     1
  0
VERTEX
  5
157
330
108
100
AcDbEntity
  8
DEFAULT
  6
CONTINUOUS
 62
     7
100
AcDbVertex
100
AcDb2dVertex
 10
85.8198131575
 20
90.8550723015
 30
0.0
  0
VERTEX
  5
158
330
108
100
AcDbEntity
  8
DEFAULT
  6
CONTINUOUS
 62
     7
100
AcDbVertex
100
AcDb2dVertex
 10
86.3198131618
 20
93.8550723276
 30
0.0
  0
VERTEX
  5
159
330
108
100
AcDbEntity
  8
DEFAULT
  6
CONTINUOUS
 62
     7
100
AcDbVertex
100
AcDb2dVertex
 10
86.8198131662
 20
90.8550723015
 30
0.0
  0
VERTEX
  5
15A
330
108
100
AcDbEntity
  8
DEFAULT
  6
CONTINUOUS
 62
     7
100
AcDbVertex
100
AcDb2dVertex
 10
85.8198131575
 20
90.8550723015
 30
0.0
  0
SEQEND
  5
156
330
108
100
AcDbEntity
  8
DEFAULT
  6
CONTINUOUS
 62
     7
 48
25.4
  0
LINE
  5
109
330
105
100
AcDbEntity
  8
DEFAULT
  6
CONTINUOUS
 62
     7
 48
25.4
100
AcDbLine
 10
103.4719307271
 20
100.3550723276
 30
0.0
 11
84.8198131488
 21
100.3550723276
 31
0.0
  0
LINE
  5
10A
330
105
100
AcDbEntity
  8
DEFAULT
  6
CONTINUOUS
 62
     7
 48
25.4
100
AcDbLine
 10
104.9060266973
 20
93.8550723276
 30
0.0
 11
84.8198131488
 21
93.8550723276
 31
0.0
  0
LINE
  5
10B
330
105
100
AcDbEntity
  8
DEFAULT
  6
CONTINUOUS
 62
     7
 48
25.4
100
AcDbLine
 10
86.3198131618
 20
106.3550723797
 30
0.0
 11
86.3198131618
 21
87.8550721413
 31
0.0
  0
TEXT
  5
10C
330
105
100
AcDbEntity
  8
DEFAULT
  6
CONTINUOUS
 62
     7
 48
25.4
100
AcDbText
 10
85.5698131618
 20
95.0596177151
 30
0.0
 40
3.0
  1
6,5
 50
90.0
  7
SEACAD_SEISO_TTF
 11
82.5698131618
 21
95.0596177151
 31
0.0
100
AcDbText
 73
     3
  0
ENDBLK
  5
10E
330
105
100
AcDbEntity
  8
0
100
AcDbBlockEnd
  0
BLOCK
  5
118
330
10F
100
AcDbEntity
  8
0
100
AcDbBlockBegin
  2
SE17
 70
     0
 71
     0
 10
0.0
 20
0.0
 30
0.0
  3
SE17
  1

  0
POLYLINE
  5
111
330
10F
100
AcDbEntity
  8
DEFAULT
  6
CONTINUOUS
 62
     7
 48
25.4
100
AcDb2dPolyline
 66
     1
 10
0.0
 20
0.0
 30
0.0
 70
     1
  0
VERTEX
  5
15C
330
111
100
AcDbEntity
  8
DEFAULT
  6
CONTINUOUS
 62
     7
100
AcDbVertex
100
AcDb2dVertex
 10
76.4176386235
 20
217.363760743
 30
0.0
  0
VERTEX
  5
15D
330
111
100
AcDbEntity
  8
DEFAULT
  6
CONTINUOUS
 62
     7
100
AcDbVertex
100
AcDb2dVertex
 10
75.9176386191
 20
220.363760769
 30
0.0
  0
VERTEX
  5
15E
330
111
100
AcDbEntity
  8
DEFAULT
  6
CONTINUOUS
 62
     7
100
AcDbVertex
100
AcDb2dVertex
 10
75.4176386148
 20
217.363760743
 30
0.0
  0
VERTEX
  5
15F
330
111
100
AcDbEntity
  8
DEFAULT
  6
CONTINUOUS
 62
     7
100
AcDbVertex
100
AcDb2dVertex
 10
76.4176386235
 20
217.363760743
 30
0.0
  0
SEQEND
  5
15B
330
111
100
AcDbEntity
  8
DEFAULT
  6
CONTINUOUS
 62
     7
 48
25.4
  0
POLYLINE
  5
112
330
10F
100
AcDbEntity
  8
DEFAULT
  6
CONTINUOUS
 62
     7
 48
25.4
100
AcDb2dPolyline
 66
     1
 10
0.0
 20
0.0
 30
0.0
 70
     1
  0
VERTEX
  5
161
330
112
100
AcDbEntity
  8
DEFAULT
  6
CONTINUOUS
 62
     7
100
AcDbVertex
100
AcDb2dVertex
 10
76.4176386235
 20
171.3637607951
 30
0.0
  0
VERTEX
  5
162
330
112
100
AcDbEntity
  8
DEFAULT
  6
CONTINUOUS
 62
     7
100
AcDbVertex
100
AcDb2dVertex
 10
75.9176386191
 20
168.363760769
 30
0.0
  0
VERTEX
  5
163
330
112
100
AcDbEntity
  8
DEFAULT
  6
CONTINUOUS
 62
     7
100
AcDbVertex
100
AcDb2dVertex
 10
75.4176386148
 20
171.3637607951
 30
0.0
  0
VERTEX
  5
164
330
112
100
AcDbEntity
  8
DEFAULT
  6
CONTINUOUS
 62
     7
100
AcDbVertex
100
AcDb2dVertex
 10
76.4176386235
 20
171.3637607951
 30
0.0
  0
SEQEND
  5
160
330
112
100
AcDbEntity
  8
DEFAULT
  6
CONTINUOUS
 62
     7
 48
25.4
  0
LINE
  5
113
330
10F
100
AcDbEntity
  8
DEFAULT
  6
CONTINUOUS
 62
     7
 48
25.4
100
AcDbLine
 10
53.798585911
 20
220.363760769
 30
0.0
 11
77.4176386322
 21
220.363760769
 31
0.0
  0
LINE
  5
114
330
10F
100
AcDbEntity
  8
DEFAULT
  6
CONTINUOUS
 62
     7
 48
25.4
100
AcDbLine
 10
53.798585911
 20
168.363760769
 30
0.0
 11
77.4176386322
 21
168.363760769
 31
0.0
  0
LINE
  5
115
330
10F
100
AcDbEntity
  8
DEFAULT
  6
CONTINUOUS
 62
     7
 48
25.4
100
AcDbLine
 10
75.9176386191
 20
220.363760769
 30
0.0
 11
75.9176386191
 21
168.3637596961
 31
0.0
  0
TEXT
  5
116
330
10F
100
AcDbEntity
  8
DEFAULT
  6
CONTINUOUS
 62
     7
 48
25.4
100
AcDbText
 10
75.1676386191
 20
194.4113386367
 30
0.0
 40
3.0
  1
52
 50
90.0
  7
SEACAD_SEISO_TTF
 11
72.1676386191
 21
194.4113386367
 31
0.0
100
AcDbText
 73
     3
  0
TEXT
  5
117
330
10F
100
AcDbEntity
  8
DEFAULT
  6
CONTINUOUS
 62
     7
 48
25.4
100
AcDbText
 10
75.1676386191
 20
190.770727283
 30
0.0
 40
3.0
  1
O
 50
90.0
  7
SEACAD_SEMECI1_TTF
 11
72.1676386191
 21
190.770727283
 31
0.0
100
AcDbText
 73
     3
  0
ENDBLK
  5
119
330
10F
100
AcDbEntity
  8
0
100
AcDbBlockEnd
  0
ENDSEC
  0
SECTION
  2
ENTITIES
  0
INSERT
  5
2F
330
1F
100
AcDbEntity
  8
0
100
AcDbBlockReference
  2
SE
 10
0.0
 20
0.0
 30
0.0
  0
INSERT
  5
3B
330
1F
100
AcDbEntity
  8
0
100
AcDbBlockReference
  2
SE1
 10
0.0
 20
0.0
 30
0.0
  0
INSERT
  5
45
330
1F
100
AcDbEntity
  8
0
100
AcDbBlockReference
  2
SE2
 10
0.0
 20
0.0
 30
0.0
  0
INSERT
  5
4A
330
1F
100
AcDbEntity
  8
0
100
AcDbBlockReference
  2
SE3
 10
0.0
 20
0.0
 30
0.0
  0
INSERT
  5
4F
330
1F
100
AcDbEntity
  8
0
100
AcDbBlockReference
  2
SE4
 10
0.0
 20
0.0
 30
0.0
  0
INSERT
  5
54
330
1F
100
AcDbEntity
  8
0
100
AcDbBlockReference
  2
SE5
 10
0.0
 20
0.0
 30
0.0
  0
INSERT
  5
59
330
1F
100
AcDbEntity
  8
0
100
AcDbBlockReference
  2
SE6
 10
0.0
 20
0.0
 30
0.0
  0
INSERT
  5
74
330
1F
100
AcDbEntity
  8
0
100
AcDbBlockReference
  2
SE7
 10
0.0
 20
0.0
 30
0.0
  0
INSERT
  5
9C
330
1F
100
AcDbEntity
  8
0
100
AcDbBlockReference
  2
SE8
 10
0.0
 20
0.0
 30
0.0
  0
INSERT
  5
BE
330
1F
100
AcDbEntity
  8
0
100
AcDbBlockReference
  2
SE9
 10
0.0
 20
0.0
 30
0.0
  0
INSERT
  5
C8
330
1F
100
AcDbEntity
  8
0
100
AcDbBlockReference
  2
SE10
 10
0.0
 20
0.0
 30
0.0
  0
INSERT
  5
D2
330
1F
100
AcDbEntity
  8
0
100
AcDbBlockReference
  2
SE11
 10
0.0
 20
0.0
 30
0.0
  0
INSERT
  5
DE
330
1F
100
AcDbEntity
  8
0
100
AcDbBlockReference
  2
SE12
 10
0.0
 20
0.0
 30
0.0
  0
INSERT
  5
E8
330
1F
100
AcDbEntity
  8
0
100
AcDbBlockReference
  2
SE13
 10
0.0
 20
0.0
 30
0.0
  0
INSERT
  5
F2
330
1F
100
AcDbEntity
  8
0
100
AcDbBlockReference
  2
SE14
 10
0.0
 20
0.0
 30
0.0
  0
INSERT
  5
FC
330
1F
100
AcDbEntity
  8
0
100
AcDbBlockReference
  2
SE15
 10
0.0
 20
0.0
 30
0.0
  0
INSERT
  5
106
330
1F
100
AcDbEntity
  8
0
100
AcDbBlockReference
  2
SE16
 10
0.0
 20
0.0
 30
0.0
  0
INSERT
  5
110
330
1F
100
AcDbEntity
  8
0
100
AcDbBlockReference
  2
SE17
 10
0.0
 20
0.0
 30
0.0
  0
ENDSEC
  0
SECTION
  2
OBJECTS
  0
DICTIONARY
  5
C
330
0
100
AcDbDictionary
  3
ACAD_GROUP
350
D
  3
ACAD_LAYOUT
350
1A
  3
ACAD_MLINESTYLE
350
17
  3
ACAD_PLOTSETTINGS
350
19
  3
ACAD_TABLESTYLE
350
2A
  3
ACDBVARIABLEDICTIONARY
350
2C
1001
ACAD
1000
TREAT_AS_HARD
1070
     0
  0
DICTIONARY
  5
165
330
29
100
AcDbDictionary
  3
ACAD_XREC_ROUNDTRIP
360
166
  0
DICTIONARY
  5
D
102
{ACAD_REACTORS
330
C
102
}
330
C
100
AcDbDictionary
1001
ACAD
1000
TREAT_AS_HARD
1070
     0
  0
DICTIONARY
  5
1A
102
{ACAD_REACTORS
330
C
102
}
330
C
100
AcDbDictionary
1001
ACAD
1000
TREAT_AS_HARD
1070
     0
  0
DICTIONARY
  5
17
102
{ACAD_REACTORS
330
C
102
}
330
C
100
AcDbDictionary
  3
STANDARD
350
18
1001
ACAD
1000
TREAT_AS_HARD
1070
     0
  0
DICTIONARY
  5
19
102
{ACAD_REACTORS
330
C
102
}
330
C
100
AcDbDictionary
1001
ACAD
1000
TREAT_AS_HARD
1070
     0
  0
DICTIONARY
  5
2A
102
{ACAD_REACTORS
330
C
102
}
330
C
100
AcDbDictionary
  3
STANDARD
350
2B
1001
ACAD
1000
TREAT_AS_HARD
1070
     0
  0
DICTIONARY
  5
2C
102
{ACAD_REACTORS
330
C
102
}
330
C
100
AcDbDictionary
  3
CTABLESTYLE
350
2D
1001
ACAD
1000
TREAT_AS_HARD
1070
     0
  0
XRECORD
  5
166
102
{ACAD_REACTORS
330
165
102
}
330
165
100
AcDbXrecord
102
UCS
 74
     0
 71
     1
 10
0.0
 20
0.0
 30
0.0
 10
1.0
 20
0.0
 30
0.0
 10
0.0
 20
1.0
 30
0.0
146
0.0
 79
     0
102
VIEW
281
     0
  0
MLINESTYLE
  5
18
102
{ACAD_REACTORS
330
17
102
}
330
17
100
AcDbMlineStyle
  2
Standard
 70
     0
  3

 62
   256
 51
90.0
 52
90.0
 71
     2
 49
0.5
 62
   256
  6
BYLAYER
 49
-0.5
 62
   256
  6
BYLAYER
  0
TABLESTYLE
  5
2B
102
{ACAD_REACTORS
330
2A
102
}
330
2A
100
AcDbTableStyle
  3
Standard
 70
     0
 71
     0
 40
0.06
 41
0.06
280
     0
281
     0
  7
STANDARD
140
0.18
170
     2
 62
     0
 63
     7
283
     0
274
    -2
284
     1
 64
     0
275
    -2
285
     1
 65
     0
276
    -2
286
     1
 66
     0
277
    -2
287
     1
 67
     0
278
    -2
288
     1
 68
     0
279
    -2
289
     1
 69
     0
  7
STANDARD
140
0.25
170
     5
 62
     0
 63
     7
283
     0
274
    -2
284
     1
 64
     0
275
    -2
285
     1
 65
     0
276
    -2
286
     1
 66
     0
277
    -2
287
     1
 67
     0
278
    -2
288
     1
 68
     0
279
    -2
289
     1
 69
     0
  7
STANDARD
140
0.18
170
     5
 62
     0
 63
     7
283
     0
274
    -2
284
     1
 64
     0
275
    -2
285
     1
 65
     0
276
    -2
286
     1
 66
     0
277
    -2
287
     1
 67
     0
278
    -2
288
     1
 68
     0
279
    -2
289
     1
 69
     0
  0
DICTIONARYVAR
  5
2D
102
{ACAD_REACTORS
330
2C
102
}
330
2C
100
DictionaryVariables
280
     0
  1
Standard
  0
ENDSEC
  0
EOF
