  0
SECTION
  2
HEADER
  9
$ACADVER
  1
AC1012
  9
$DWGCODEPAGE
  3
ansi_1252
  9
$INSBASE
 10
0.0
 20
0.0
 30
0.0
  9
$EXTMIN
 10
0.0
 20
0.0
 30
0.0
  9
$EXTMAX
 10
210.0
 20
297.0
 30
0.0
  9
$LIMMIN
 10
0.0
 20
0.0
  9
$LIMMAX
 10
210.0
 20
297.0
  9
$ORTHOMODE
 70
     0
  9
$REGENMODE
 70
     1
  9
$FILLMODE
 70
     1
  9
$QTEXTMODE
 70
     0
  9
$MIRRTEXT
 70
     1
  9
$DRAGMODE
 70
     2
  9
$LTSCALE
 40
1.0
  9
$OSMODE
 70
    37
  9
$ATTMODE
 70
     1
  9
$TEXTSIZE
 40
0.2
  9
$TRACEWID
 40
0.05
  9
$TEXTSTYLE
  7
STANDARD
  9
$CLAYER
  8
0
  9
$CELTYPE
  6
BYLAYER
  9
$CECOLOR
 62
   256
  9
$CELTSCALE
 40
25.4
  9
$DELOBJ
 70
     1
  9
$DISPSILH
 70
     0
  9
$DIMSCALE
 40
1.0
  9
$DIMASZ
 40
0.18
  9
$DIMEXO
 40
0.0625
  9
$DIMDLI
 40
0.38
  9
$DIMRND
 40
0.0
  9
$DIMDLE
 40
0.0
  9
$DIMEXE
 40
0.18
  9
$DIMTP
 40
0.0
  9
$DIMTM
 40
0.0
  9
$DIMTXT
 40
0.18
  9
$DIMCEN
 40
0.09
  9
$DIMTSZ
 40
0.0
  9
$DIMTOL
 70
     0
  9
$DIMLIM
 70
     0
  9
$DIMTIH
 70
     1
  9
$DIMTOH
 70
     1
  9
$DIMSE1
 70
     0
  9
$DIMSE2
 70
     0
  9
$DIMTAD
 70
     0
  9
$DIMZIN
 70
     0
  9
$DIMBLK
  1

  9
$DIMASO
 70
     1
  9
$DIMSHO
 70
     1
  9
$DIMPOST
  1

  9
$DIMAPOST
  1

  9
$DIMALT
 70
     0
  9
$DIMALTD
 70
     2
  9
$DIMALTF
 40
25.4
  9
$DIMLFAC
 40
1.0
  9
$DIMTOFL
 70
     0
  9
$DIMTVP
 40
0.0
  9
$DIMTIX
 70
     0
  9
$DIMSOXD
 70
     0
  9
$DIMSAH
 70
     0
  9
$DIMBLK1
  1

  9
$DIMBLK2
  1

  9
$DIMSTYLE
  2
STANDARD
  9
$DIMCLRD
 70
     0
  9
$DIMCLRE
 70
     0
  9
$DIMCLRT
 70
     0
  9
$DIMTFAC
 40
1.0
  9
$DIMGAP
 40
0.09
  9
$DIMJUST
 70
     0
  9
$DIMSD1
 70
     0
  9
$DIMSD2
 70
     0
  9
$DIMTOLJ
 70
     1
  9
$DIMTZIN
 70
     0
  9
$DIMALTZ
 70
     0
  9
$DIMALTTZ
 70
     0
  9
$DIMFIT
 70
     3
  9
$DIMUPT
 70
     0
  9
$DIMUNIT
 70
     2
  9
$DIMDEC
 70
     4
  9
$DIMTDEC
 70
     4
  9
$DIMALTU
 70
     2
  9
$DIMALTTD
 70
     2
  9
$DIMTXSTY
  7
STANDARD
  9
$DIMAUNIT
 70
     0
  9
$LUNITS
 70
     2
  9
$LUPREC
 70
     4
  9
$SKETCHINC
 40
0.1
  9
$FILLETRAD
 40
0.5
  9
$AUNITS
 70
     0
  9
$AUPREC
 70
     0
  9
$MENU
  1
.
  9
$ELEVATION
 40
0.0
  9
$PELEVATION
 40
0.0
  9
$THICKNESS
 40
0.0
  9
$LIMCHECK
 70
     0
  9
$CHAMFERA
 40
0.5
  9
$CHAMFERB
 40
0.5
  9
$CHAMFERC
 40
1.0
  9
$CHAMFERD
 40
0.0
  9
$SKPOLY
 70
     0
  9
$TDCREATE
 40
2453762.542989294
  9
$TDUPDATE
 40
2453762.542989306
  9
$TDINDWG
 40
0.0000000116
  9
$TDUSRTIMER
 40
0.0000000116
  9
$USRTIMER
 70
     1
  9
$ANGBASE
 50
0.0
  9
$ANGDIR
 70
     0
  9
$PDMODE
 70
     0
  9
$PDSIZE
 40
0.0
  9
$PLINEWID
 40
0.0
  9
$COORDS
 70
     1
  9
$SPLFRAME
 70
     0
  9
$SPLINETYPE
 70
     6
  9
$SPLINESEGS
 70
     8
  9
$ATTDIA
 70
     0
  9
$ATTREQ
 70
     1
  9
$HANDLING
 70
     1
  9
$HANDSEED
  5
DC
  9
$SURFTAB1
 70
     6
  9
$SURFTAB2
 70
     6
  9
$SURFTYPE
 70
     6
  9
$SURFU
 70
     6
  9
$SURFV
 70
     6
  9
$UCSNAME
  2

  9
$UCSORG
 10
0.0
 20
0.0
 30
0.0
  9
$UCSXDIR
 10
1.0
 20
0.0
 30
0.0
  9
$UCSYDIR
 10
0.0
 20
1.0
 30
0.0
  9
$PUCSNAME
  2

  9
$PUCSORG
 10
0.0
 20
0.0
 30
0.0
  9
$PUCSXDIR
 10
1.0
 20
0.0
 30
0.0
  9
$PUCSYDIR
 10
0.0
 20
1.0
 30
0.0
  9
$USERI1
 70
     0
  9
$USERI2
 70
     0
  9
$USERI3
 70
     0
  9
$USERI4
 70
     0
  9
$USERI5
 70
     0
  9
$USERR1
 40
0.0
  9
$USERR2
 40
0.0
  9
$USERR3
 40
0.0
  9
$USERR4
 40
0.0
  9
$USERR5
 40
0.0
  9
$WORLDVIEW
 70
     1
  9
$SHADEDGE
 70
     3
  9
$SHADEDIF
 70
    70
  9
$TILEMODE
 70
     1
  9
$MAXACTVP
 70
    64
  9
$PINSBASE
 10
0.0
 20
0.0
 30
0.0
  9
$PLIMCHECK
 70
     0
  9
$PEXTMIN
 10
0.0
 20
0.0
 30
0.0
  9
$PEXTMAX
 10
210.0
 20
297.0
 30
0.0
  9
$PLIMMIN
 10
0.0
 20
0.0
  9
$PLIMMAX
 10
12.0
 20
9.0
  9
$UNITMODE
 70
     0
  9
$VISRETAIN
 70
     1
  9
$PLINEGEN
 70
     0
  9
$PSLTSCALE
 70
     1
  9
$TREEDEPTH
 70
  3020
  9
$PICKSTYLE
 70
     1
  9
$CMLSTYLE
  2
STANDARD
  9
$CMLJUST
 70
     0
  9
$CMLSCALE
 40
1.0
  9
$SAVEIMAGES
 70
     1
  0
ENDSEC
  0
SECTION
  2
CLASSES
  0
CLASS
  1
ACDBDICTIONARYWDFLT
  2
AcDbDictionaryWithDefault
  3
ObjectDBX Classes
 90
        0
280
     0
281
     0
  0
CLASS
  1
TABLESTYLE
  2
AcDbTableStyle
  3
ObjectDBX Classes
 90
     2047
280
     0
281
     0
  0
CLASS
  1
DICTIONARYVAR
  2
AcDbDictionaryVar
  3
ObjectDBX Classes
 90
        0
280
     0
281
     0
  0
CLASS
  1
XRECORD
  2
AcDbXrecord
  3
AutoCAD 2000
 90
    32768
280
     0
281
     0
  0
CLASS
  1
LWPOLYLINE
  2
AcDbPolyline
  3
AutoCAD 2000
 90
    32768
280
     0
281
     1
  0
CLASS
  1
HATCH
  2
AcDbHatch
  3
AutoCAD 2000
 90
    32768
280
     0
281
     1
  0
CLASS
  1
ACDBPLACEHOLDER
  2
AcDbPlaceHolder
  3
ObjectDBX Classes
 90
        0
280
     0
281
     0
  0
CLASS
  1
LAYOUT
  2
AcDbLayout
  3
ObjectDBX Classes
 90
        0
280
     0
281
     0
  0
ENDSEC
  0
SECTION
  2
TABLES
  0
TABLE
  2
VPORT
  5
8
330
0
100
AcDbSymbolTable
 70
     2
  0
VPORT
  5
29
102
{ACAD_XDICTIONARY
360
DA
102
}
330
8
100
AcDbSymbolTableRecord
100
AcDbViewportTableRecord
  2
*ACTIVE
 70
     0
 10
0.0
 20
0.0
 11
1.0
 21
1.0
 12
10.4299065421
 22
4.5
 13
0.0
 23
0.0
 14
0.5
 24
0.5
 15
0.5
 25
0.5
 16
0.0
 26
0.0
 36
1.0
 17
0.0
 27
0.0
 37
0.0
 40
9.0
 41
1.9729729729
 42
50.0
 43
0.0
 44
0.0
 50
0.0
 51
0.0
 71
     0
 72
   100
 73
     1
 74
     3
 75
     0
 76
     0
 77
     0
 78
     0
  0
ENDTAB
  0
TABLE
  2
LTYPE
  5
5
330
0
100
AcDbSymbolTable
 70
     2
  0
LTYPE
  5
14
330
5
100
AcDbSymbolTableRecord
100
AcDbLinetypeTableRecord
  2
BYBLOCK
 70
     0
  3

 72
    65
 73
     0
 40
0.0
  0
LTYPE
  5
15
330
5
100
AcDbSymbolTableRecord
100
AcDbLinetypeTableRecord
  2
BYLAYER
 70
     0
  3

 72
    65
 73
     0
 40
0.0
  0
LTYPE
  5
16
330
5
100
AcDbSymbolTableRecord
100
AcDbLinetypeTableRecord
  2
CONTINUOUS
 70
     0
  3
Solid line
 72
    65
 73
     0
 40
0.0
  0
LTYPE
  5
31
330
5
100
AcDbSymbolTableRecord
100
AcDbLinetypeTableRecord
  2
CENTER2
 70
     0
  3
___ _ ___ _ ___ _ ___ _ ___ _ ___ _ ___ _ ___ _
 72
    65
 73
     4
 40
1.125
 49
0.75
 74
     4
 75
     0
340
0
 46
0.0
 50
0.0
 44
0.0
 45
0.0
 49
-0.125
 74
     4
 75
     0
340
0
 46
0.0
 50
0.0
 44
0.0
 45
0.0
 49
0.125
 74
     4
 75
     0
340
0
 46
0.0
 50
0.0
 44
0.0
 45
0.0
 49
-0.125
 74
     4
 75
     0
340
0
 46
0.0
 50
0.0
 44
0.0
 45
0.0
  0
ENDTAB
  0
TABLE
  2
LAYER
  5
2
330
0
100
AcDbSymbolTable
 70
     4
  0
LAYER
  5
10
330
2
100
AcDbSymbolTableRecord
100
AcDbLayerTableRecord
  2
0
 70
     0
 62
     7
  6
CONTINUOUS
  0
LAYER
  5
30
330
2
100
AcDbSymbolTableRecord
100
AcDbLayerTableRecord
  2
STANDARD
 70
     0
 62
     7
  6
CONTINUOUS
  0
LAYER
  5
50
330
2
100
AcDbSymbolTableRecord
100
AcDbLayerTableRecord
  2
MEGA_001509
 70
     0
 62
     7
  6
CONTINUOUS
  0
LAYER
  5
5D
330
2
100
AcDbSymbolTableRecord
100
AcDbLayerTableRecord
  2
MEGA_001429
 70
     0
 62
     7
  6
CONTINUOUS
  0
ENDTAB
  0
TABLE
  2
STYLE
  5
3
330
0
100
AcDbSymbolTable
 70
     3
  0
STYLE
  5
11
330
3
100
AcDbSymbolTableRecord
100
AcDbTextStyleTableRecord
  2
STANDARD
 70
     0
 40
0.0
 41
1.0
 50
0.0
 71
     0
 42
0.2
  3
txt
  4

  0
STYLE
  5
88
330
3
100
AcDbSymbolTableRecord
100
AcDbTextStyleTableRecord
  2
SEACAD_SEISO_TTF
 70
     0
 40
0.2
 41
1.0
 50
0.0
 71
     0
 42
0.2
  3
seiso.ttf
  4

  0
STYLE
  5
8A
330
3
100
AcDbSymbolTableRecord
100
AcDbTextStyleTableRecord
  2
SEACAD_SEMECI1_TTF
 70
     0
 40
0.2
 41
1.0
 50
0.0
 71
     0
 42
0.2
  3
semeci1.ttf
  4

  0
ENDTAB
  0
TABLE
  2
VIEW
  5
6
330
0
100
AcDbSymbolTable
 70
     0
  0
ENDTAB
  0
TABLE
  2
UCS
  5
7
330
0
100
AcDbSymbolTable
 70
     0
  0
ENDTAB
  0
TABLE
  2
APPID
  5
9
330
0
100
AcDbSymbolTable
 70
     1
  0
APPID
  5
12
330
9
100
AcDbSymbolTableRecord
100
AcDbRegAppTableRecord
  2
ACAD
 70
     0
  0
ENDTAB
  0
TABLE
  2
DIMSTYLE
  5
A
330
0
100
AcDbSymbolTable
 70
     1
  0
DIMSTYLE
105
27
330
A
100
AcDbSymbolTableRecord
100
AcDbDimStyleTableRecord
  2
STANDARD
 70
     0
  3

  4

  5

  6

  7

 40
1.0
 41
0.18
 42
0.0625
 43
0.38
 44
0.18
 45
0.0
 46
0.0
 47
0.0
 48
0.0
140
0.18
141
0.09
142
0.0
143
25.4
144
1.0
145
0.0
146
1.0
147
0.09
 71
     0
 72
     0
 73
     1
 74
     1
 75
     0
 76
     0
 77
     0
 78
     0
170
     0
171
     2
172
     0
173
     0
174
     0
175
     0
176
     0
177
     0
178
     0
270
     2
271
     4
272
     4
273
     2
274
     2
340
11
275
     0
280
     0
281
     0
282
     0
283
     1
284
     0
285
     0
286
     0
287
     3
288
     0
  0
ENDTAB
  0
TABLE
  2
BLOCK_RECORD
  5
1
330
0
100
AcDbSymbolTable
 70
    14
  0
BLOCK_RECORD
  5
1F
330
1
100
AcDbSymbolTableRecord
100
AcDbBlockTableRecord
  2
*MODEL_SPACE
  0
BLOCK_RECORD
  5
1B
330
1
100
AcDbSymbolTableRecord
100
AcDbBlockTableRecord
  2
*PAPER_SPACE
  0
BLOCK_RECORD
  5
2E
330
1
100
AcDbSymbolTableRecord
100
AcDbBlockTableRecord
  2
SE
  0
BLOCK_RECORD
  5
35
330
1
100
AcDbSymbolTableRecord
100
AcDbBlockTableRecord
  2
SE1
  0
BLOCK_RECORD
  5
3A
330
1
100
AcDbSymbolTableRecord
100
AcDbBlockTableRecord
  2
SE2
  0
BLOCK_RECORD
  5
3F
330
1
100
AcDbSymbolTableRecord
100
AcDbBlockTableRecord
  2
SE3
  0
BLOCK_RECORD
  5
44
330
1
100
AcDbSymbolTableRecord
100
AcDbBlockTableRecord
  2
SE4
  0
BLOCK_RECORD
  5
4E
330
1
100
AcDbSymbolTableRecord
100
AcDbBlockTableRecord
  2
SE5
  0
BLOCK_RECORD
  5
55
330
1
100
AcDbSymbolTableRecord
100
AcDbBlockTableRecord
  2
SE6
  0
BLOCK_RECORD
  5
6E
330
1
100
AcDbSymbolTableRecord
100
AcDbBlockTableRecord
  2
SE7
  0
BLOCK_RECORD
  5
82
330
1
100
AcDbSymbolTableRecord
100
AcDbBlockTableRecord
  2
SE8
  0
BLOCK_RECORD
  5
8E
330
1
100
AcDbSymbolTableRecord
100
AcDbBlockTableRecord
  2
SE9
  0
BLOCK_RECORD
  5
99
330
1
100
AcDbSymbolTableRecord
100
AcDbBlockTableRecord
  2
SE10
  0
BLOCK_RECORD
  5
A3
330
1
100
AcDbSymbolTableRecord
100
AcDbBlockTableRecord
  2
SE11
  0
BLOCK_RECORD
  5
AD
330
1
100
AcDbSymbolTableRecord
100
AcDbBlockTableRecord
  2
SE12
  0
ENDTAB
  0
ENDSEC
  0
SECTION
  2
BLOCKS
  0
BLOCK
  5
20
330
1F
100
AcDbEntity
  8
0
100
AcDbBlockBegin
  2
*MODEL_SPACE
 70
     0
 71
     0
 10
0.0
 20
0.0
 30
0.0
  3
*MODEL_SPACE
  1

  0
ENDBLK
  5
21
330
1F
100
AcDbEntity
  8
0
100
AcDbBlockEnd
  0
BLOCK
  5
1C
330
1B
100
AcDbEntity
 67
     1
  8
0
100
AcDbBlockBegin
  2
*PAPER_SPACE
 70
     0
 71
     0
 10
0.0
 20
0.0
 30
0.0
  3
*PAPER_SPACE
  1

  0
ENDBLK
  5
1D
330
1B
100
AcDbEntity
 67
     1
  8
0
100
AcDbBlockEnd
  0
BLOCK
  5
33
330
2E
100
AcDbEntity
  8
0
100
AcDbBlockBegin
  2
SE
 70
     0
 71
     0
 10
0.0
 20
0.0
 30
0.0
  3
SE
  1

  0
LINE
  5
32
330
2E
100
AcDbEntity
  8
STANDARD
  6
CENTER2
 62
     7
 48
25.4
100
AcDbLine
 10
108.7395763834
 20
141.8190633405
 30
0.0
 11
108.7395763834
 21
154.756224712
 31
0.0
  0
ENDBLK
  5
34
330
2E
100
AcDbEntity
  8
0
100
AcDbBlockEnd
  0
BLOCK
  5
38
330
35
100
AcDbEntity
  8
0
100
AcDbBlockBegin
  2
SE1
 70
     0
 71
     0
 10
0.0
 20
0.0
 30
0.0
  3
SE1
  1

  0
LINE
  5
37
330
35
100
AcDbEntity
  8
STANDARD
  6
CENTER2
 62
     7
 48
25.4
100
AcDbLine
 10
146.7395763834
 20
142.3181790493
 30
0.0
 11
146.7395763834
 21
165.8415043928
 31
0.0
  0
ENDBLK
  5
39
330
35
100
AcDbEntity
  8
0
100
AcDbBlockEnd
  0
BLOCK
  5
3D
330
3A
100
AcDbEntity
  8
0
100
AcDbBlockBegin
  2
SE2
 70
     0
 71
     0
 10
0.0
 20
0.0
 30
0.0
  3
SE2
  1

  0
LINE
  5
3C
330
3A
100
AcDbEntity
  8
STANDARD
  6
CENTER2
 62
     7
 48
25.4
100
AcDbLine
 10
127.7395763834
 20
133.7333888582
 30
0.0
 11
127.7395763834
 21
149.3057989722
 31
0.0
  0
ENDBLK
  5
3E
330
3A
100
AcDbEntity
  8
0
100
AcDbBlockEnd
  0
BLOCK
  5
42
330
3F
100
AcDbEntity
  8
0
100
AcDbBlockBegin
  2
SE3
 70
     0
 71
     0
 10
0.0
 20
0.0
 30
0.0
  3
SE3
  1

  0
LINE
  5
41
330
3F
100
AcDbEntity
  8
STANDARD
  6
CENTER2
 62
     7
 48
25.4
100
AcDbLine
 10
49.1305124044
 20
205.6255452864
 30
0.0
 11
69.1816471606
 21
205.6255452864
 31
0.0
  0
ENDBLK
  5
43
330
3F
100
AcDbEntity
  8
0
100
AcDbBlockEnd
  0
BLOCK
  5
4C
330
44
100
AcDbEntity
  8
0
100
AcDbBlockBegin
  2
SE4
 70
     0
 71
     0
 10
0.0
 20
0.0
 30
0.0
  3
SE4
  1

  0
LINE
  5
46
330
44
100
AcDbEntity
  8
STANDARD
  6
CENTER2
 62
     7
 48
25.4
100
AcDbLine
 10
133.7395764356
 20
205.6255452864
 30
0.0
 11
121.7395763313
 21
205.6255452864
 31
0.0
  0
LINE
  5
47
330
44
100
AcDbEntity
  8
STANDARD
  6
CENTER2
 62
     7
 48
25.4
100
AcDbLine
 10
127.7395763834
 20
211.6255453386
 30
0.0
 11
127.7395763834
 21
199.6255452343
 31
0.0
  0
LINE
  5
48
330
44
100
AcDbEntity
  8
STANDARD
  6
CENTER2
 62
     7
 48
25.4
100
AcDbLine
 10
135.2395763834
 20
205.6255452864
 30
0.0
 11
155.4895763834
 21
205.6255452864
 31
0.0
  0
LINE
  5
49
330
44
100
AcDbEntity
  8
STANDARD
  6
CENTER2
 62
     7
 48
25.4
100
AcDbLine
 10
127.7395763834
 20
213.1255452864
 30
0.0
 11
127.7395763834
 21
233.3755452864
 31
0.0
  0
LINE
  5
4A
330
44
100
AcDbEntity
  8
STANDARD
  6
CENTER2
 62
     7
 48
25.4
100
AcDbLine
 10
120.2395763834
 20
205.6255452864
 30
0.0
 11
99.9895763834
 21
205.6255452864
 31
0.0
  0
LINE
  5
4B
330
44
100
AcDbEntity
  8
STANDARD
  6
CENTER2
 62
     7
 48
25.4
100
AcDbLine
 10
127.7395763834
 20
198.1255452864
 30
0.0
 11
127.7395763834
 21
177.8755452864
 31
0.0
  0
ENDBLK
  5
4D
330
44
100
AcDbEntity
  8
0
100
AcDbBlockEnd
  0
BLOCK
  5
53
330
4E
100
AcDbEntity
  8
0
100
AcDbBlockBegin
  2
SE5
 70
     0
 71
     0
 10
0.0
 20
0.0
 30
0.0
  3
SE5
  1

  0
ARC
  5
51
330
4E
100
AcDbEntity
  8
MEGA_001509
  6
CONTINUOUS
 62
     7
 48
25.4
100
AcDbCircle
 10
127.7395763834
 20
205.6255452864
 30
0.0
 40
26.0
100
AcDbArc
 50
275.5177343738
 51
264.4822656262
  0
ARC
  5
52
330
4E
100
AcDbEntity
  8
STANDARD
  6
CONTINUOUS
 62
     7
 48
25.4
100
AcDbCircle
 10
127.7395763847
 20
205.6255452726
 30
0.0
 40
25.99999998609999
100
AcDbArc
 50
264.4822656204
 51
275.5177343738
  0
ENDBLK
  5
54
330
4E
100
AcDbEntity
  8
0
100
AcDbBlockEnd
  0
BLOCK
  5
6C
330
55
100
AcDbEntity
  8
0
100
AcDbBlockBegin
  2
SE6
 70
     0
 71
     0
 10
0.0
 20
0.0
 30
0.0
  3
SE6
  1

  0
LINE
  5
57
330
55
100
AcDbEntity
  8
MEGA_001509
  6
CONTINUOUS
 62
     7
 48
25.4
100
AcDbLine
 10
152.3054804132
 20
138.0359463668
 30
0.0
 11
103.1736723536
 21
138.0359463668
 31
0.0
  0
LINE
  5
58
330
55
100
AcDbEntity
  8
MEGA_001509
  6
CONTINUOUS
 62
     7
 48
25.4
100
AcDbLine
 10
101.7395763834
 20
144.5359463668
 30
0.0
 11
101.9244338198
 21
139.242321996
 31
0.0
  0
LINE
  5
59
330
55
100
AcDbEntity
  8
MEGA_001509
  6
CONTINUOUS
 62
     7
 48
25.4
100
AcDbLine
 10
153.554718947
 20
139.242321996
 30
0.0
 11
153.7395763834
 21
144.5359463668
 31
0.0
  0
ARC
  5
5A
330
55
100
AcDbEntity
  8
MEGA_001509
  6
CONTINUOUS
 62
     7
 48
25.4
100
AcDbCircle
 10
103.1736723536
 20
139.2859463668
 30
0.0
 40
1.25
100
AcDbArc
 50
182.0
 51
270.0
  0
ARC
  5
5B
330
55
100
AcDbEntity
  8
MEGA_001509
  6
CONTINUOUS
 62
     7
 48
25.4
100
AcDbCircle
 10
152.3054804132
 20
139.2859463668
 30
0.0
 40
1.25
100
AcDbArc
 50
270.0
 51
358.0
  0
LINE
  5
5C
330
55
100
AcDbEntity
  8
MEGA_001509
  6
CONTINUOUS
 62
     7
 48
25.4
100
AcDbLine
 10
101.7395763834
 20
144.5359463668
 30
0.0
 11
153.7395763834
 21
144.5359463668
 31
0.0
  0
LINE
  5
5E
330
55
100
AcDbEntity
  8
MEGA_001429
  6
CONTINUOUS
 62
     7
 48
25.4
100
AcDbLine
 10
112.2227253573
 20
145.0184966185
 30
0.0
 11
112.0818235621
 21
149.0533961152
 31
0.0
  0
ARC
  5
5F
330
55
100
AcDbEntity
  8
MEGA_001429
  6
CONTINUOUS
 62
     7
 48
25.4
100
AcDbCircle
 10
104.756731996
 20
145.0359463668
 30
0.0
 40
0.5
100
AcDbArc
 50
270.0
 51
358.0
  0
ARC
  5
60
330
55
100
AcDbEntity
  8
MEGA_001429
  6
CONTINUOUS
 62
     7
 48
25.4
100
AcDbCircle
 10
111.5821281485
 20
149.0359463668
 30
0.0
 40
0.5
100
AcDbArc
 50
2.0
 51
90.0
  0
ARC
  5
61
330
55
100
AcDbEntity
  8
MEGA_001429
  6
CONTINUOUS
 62
     7
 48
25.4
100
AcDbCircle
 10
149.5821281485
 20
149.0359463668
 30
0.0
 40
0.5
100
AcDbArc
 50
2.0
 51
90.0
  0
ARC
  5
62
330
55
100
AcDbEntity
  8
MEGA_001429
  6
CONTINUOUS
 62
     7
 48
25.4
100
AcDbCircle
 10
142.756731996
 20
145.0359463668
 30
0.0
 40
0.5
100
AcDbArc
 50
270.0
 51
358.0
  0
LINE
  5
63
330
55
100
AcDbEntity
  8
MEGA_001429
  6
CONTINUOUS
 62
     7
 48
25.4
100
AcDbLine
 10
143.3973292048
 20
149.0533961152
 30
0.0
 11
143.2564274095
 21
145.0184966185
 31
0.0
  0
ARC
  5
64
330
55
100
AcDbEntity
  8
MEGA_001429
  6
CONTINUOUS
 62
     7
 48
25.4
100
AcDbCircle
 10
112.7224207708
 20
145.0359463668
 30
0.0
 40
0.5
100
AcDbArc
 50
182.0
 51
270.0
  0
ARC
  5
65
330
55
100
AcDbEntity
  8
MEGA_001429
  6
CONTINUOUS
 62
     7
 48
25.4
100
AcDbCircle
 10
105.8970246183
 20
149.0359463668
 30
0.0
 40
0.5
100
AcDbArc
 50
90.0
 51
178.0
  0
ARC
  5
66
330
55
100
AcDbEntity
  8
MEGA_001429
  6
CONTINUOUS
 62
     7
 48
25.4
100
AcDbCircle
 10
143.8970246183
 20
149.0359463668
 30
0.0
 40
0.5
100
AcDbArc
 50
90.0
 51
178.0
  0
ARC
  5
67
330
55
100
AcDbEntity
  8
MEGA_001429
  6
CONTINUOUS
 62
     7
 48
25.4
100
AcDbCircle
 10
150.7224207708
 20
145.0359463668
 30
0.0
 40
0.5
100
AcDbArc
 50
182.0
 51
270.0
  0
LINE
  5
68
330
55
100
AcDbEntity
  8
MEGA_001429
  6
CONTINUOUS
 62
     7
 48
25.4
100
AcDbLine
 10
150.2227253573
 20
145.0184966185
 30
0.0
 11
150.0818235621
 21
149.0533961152
 31
0.0
  0
LINE
  5
69
330
55
100
AcDbEntity
  8
MEGA_001429
  6
CONTINUOUS
 62
     7
 48
25.4
100
AcDbLine
 10
105.8970246183
 20
149.5359463668
 30
0.0
 11
111.5821281485
 21
149.5359463668
 31
0.0
  0
LINE
  5
6A
330
55
100
AcDbEntity
  8
MEGA_001429
  6
CONTINUOUS
 62
     7
 48
25.4
100
AcDbLine
 10
143.8970246183
 20
149.5359463668
 30
0.0
 11
149.5821281485
 21
149.5359463668
 31
0.0
  0
LINE
  5
6B
330
55
100
AcDbEntity
  8
MEGA_001429
  6
CONTINUOUS
 62
     7
 48
25.4
100
AcDbLine
 10
105.3973292048
 20
149.0533961152
 30
0.0
 11
105.2564274095
 21
145.0184966185
 31
0.0
  0
ENDBLK
  5
6D
330
55
100
AcDbEntity
  8
0
100
AcDbBlockEnd
  0
BLOCK
  5
80
330
6E
100
AcDbEntity
  8
0
100
AcDbBlockBegin
  2
SE7
 70
     0
 71
     0
 10
0.0
 20
0.0
 30
0.0
  3
SE7
  1

  0
LINE
  5
70
330
6E
100
AcDbEntity
  8
MEGA_001509
  6
CONTINUOUS
 62
     7
 48
25.4
100
AcDbLine
 10
54.132540101
 20
230.1914493162
 30
0.0
 11
54.132540101
 21
181.0596412566
 31
0.0
  0
LINE
  5
71
330
6E
100
AcDbEntity
  8
MEGA_001509
  6
CONTINUOUS
 62
     7
 48
25.4
100
AcDbLine
 10
60.632540101
 20
231.6255452864
 30
0.0
 11
55.3389157301
 21
231.44068785
 31
0.0
  0
LINE
  5
72
330
6E
100
AcDbEntity
  8
MEGA_001509
  6
CONTINUOUS
 62
     7
 48
25.4
100
AcDbLine
 10
55.3389157301
 20
179.8104027228
 30
0.0
 11
58.632540101
 21
179.6953868254
 31
0.0
  0
ARC
  5
73
330
6E
100
AcDbEntity
  8
MEGA_001509
  6
CONTINUOUS
 62
     7
 48
25.4
100
AcDbCircle
 10
55.382540101
 20
230.1914493162
 30
0.0
 40
1.25
100
AcDbArc
 50
92.0
 51
180.0
  0
ARC
  5
74
330
6E
100
AcDbEntity
  8
MEGA_001509
  6
CONTINUOUS
 62
     7
 48
25.4
100
AcDbCircle
 10
55.382540101
 20
181.0596412566
 30
0.0
 40
1.25
100
AcDbArc
 50
180.0
 51
268.0
  0
LINE
  5
75
330
6E
100
AcDbEntity
  8
MEGA_001509
  6
CONTINUOUS
 62
     7
 48
25.4
100
AcDbLine
 10
60.632540101
 20
231.6255452864
 30
0.0
 11
60.632540101
 21
179.7460166972
 31
0.0
  0
ARC
  5
76
330
6E
100
AcDbEntity
  8
MEGA_001429
  6
CONTINUOUS
 62
     7
 48
25.4
100
AcDbCircle
 10
65.132540101
 20
202.7829935213
 30
0.0
 40
0.5
100
AcDbArc
 50
272.0
 51
360.0
  0
ARC
  5
77
330
6E
100
AcDbEntity
  8
MEGA_001429
  6
CONTINUOUS
 62
     7
 48
25.4
100
AcDbCircle
 10
61.132540101
 20
209.6083896738
 30
0.0
 40
0.5
100
AcDbArc
 50
180.0
 51
268.0
  0
LINE
  5
78
330
6E
100
AcDbEntity
  8
MEGA_001429
  6
CONTINUOUS
 62
     7
 48
25.4
100
AcDbLine
 10
65.1499898493
 20
208.9677924651
 30
0.0
 11
61.1150903526
 21
209.1086942603
 31
0.0
  0
ARC
  5
79
330
6E
100
AcDbEntity
  8
MEGA_001429
  6
CONTINUOUS
 62
     7
 48
25.4
100
AcDbCircle
 10
65.132540101
 20
208.4680970515
 30
0.0
 40
0.5
100
AcDbArc
 50
0.0
 51
88.0
  0
ARC
  5
7A
330
6E
100
AcDbEntity
  8
MEGA_001429
  6
CONTINUOUS
 62
     7
 48
25.4
100
AcDbCircle
 10
61.132540101
 20
201.642700899
 30
0.0
 40
0.5
100
AcDbArc
 50
92.0
 51
180.0
  0
LINE
  5
7B
330
6E
100
AcDbEntity
  8
MEGA_001429
  6
CONTINUOUS
 62
     7
 48
25.4
100
AcDbLine
 10
61.1150903526
 20
202.1423963125
 30
0.0
 11
65.1499898493
 21
202.2832981078
 31
0.0
  0
LINE
  5
7C
330
6E
100
AcDbEntity
  8
MEGA_001429
  6
CONTINUOUS
 62
     7
 48
25.4
100
AcDbLine
 10
60.632540101
 20
179.6255452864
 30
0.0
 11
60.632540101
 21
179.7230840134
 31
0.0
  0
LINE
  5
7D
330
6E
100
AcDbEntity
  8
MEGA_001429
  6
CONTINUOUS
 62
     7
 48
25.4
100
AcDbLine
 10
65.632540101
 20
202.7829935213
 30
0.0
 11
65.632540101
 21
208.4680970515
 31
0.0
  0
LINE
  5
7E
330
6E
100
AcDbEntity
  8
MEGA_001429
  6
CONTINUOUS
 62
     7
 48
25.4
100
AcDbLine
 10
60.632540101
 20
179.7230840134
 30
0.0
 11
60.632540101
 21
179.7460166972
 31
0.0
  0
LINE
  5
7F
330
6E
100
AcDbEntity
  8
STANDARD
  6
CONTINUOUS
 62
     7
 48
25.4
100
AcDbLine
 10
58.632540101
 20
179.6953868254
 30
0.0
 11
60.632540101
 21
179.6255452864
 31
0.0
  0
ENDBLK
  5
81
330
6E
100
AcDbEntity
  8
0
100
AcDbBlockEnd
  0
BLOCK
  5
8C
330
82
100
AcDbEntity
  8
0
100
AcDbBlockBegin
  2
SE8
 70
     0
 71
     0
 10
0.0
 20
0.0
 30
0.0
  3
SE8
  1

  0
POLYLINE
  5
84
330
82
100
AcDbEntity
  8
STANDARD
  6
CONTINUOUS
 62
     7
 48
25.4
100
AcDb2dPolyline
 66
     1
 10
0.0
 20
0.0
 30
0.0
 70
     1
  0
VERTEX
  5
B8
330
84
100
AcDbEntity
  8
STANDARD
  6
CONTINUOUS
 62
     7
100
AcDbVertex
100
AcDb2dVertex
 10
81.3407908365
 20
228.6255452603
 30
0.0
  0
VERTEX
  5
B9
330
84
100
AcDbEntity
  8
STANDARD
  6
CONTINUOUS
 62
     7
100
AcDbVertex
100
AcDb2dVertex
 10
80.8407908322
 20
231.6255452864
 30
0.0
  0
VERTEX
  5
BA
330
84
100
AcDbEntity
  8
STANDARD
  6
CONTINUOUS
 62
     7
100
AcDbVertex
100
AcDb2dVertex
 10
80.3407908279
 20
228.6255452603
 30
0.0
  0
VERTEX
  5
BB
330
84
100
AcDbEntity
  8
STANDARD
  6
CONTINUOUS
 62
     7
100
AcDbVertex
100
AcDb2dVertex
 10
81.3407908365
 20
228.6255452603
 30
0.0
  0
SEQEND
  5
B7
330
84
100
AcDbEntity
  8
STANDARD
  6
CONTINUOUS
 62
     7
 48
25.4
  0
LINE
  5
85
330
82
100
AcDbEntity
  8
STANDARD
  6
CONTINUOUS
 62
     7
 48
25.4
100
AcDbLine
 10
60.632540101
 20
179.6255452864
 30
0.0
 11
82.3407908452
 21
179.6255452864
 31
0.0
  0
LINE
  5
86
330
82
100
AcDbEntity
  8
STANDARD
  6
CONTINUOUS
 62
     7
 48
25.4
100
AcDbLine
 10
60.632540101
 20
231.6255452864
 30
0.0
 11
82.3407908452
 21
231.6255452864
 31
0.0
  0
LINE
  5
87
330
82
100
AcDbEntity
  8
STANDARD
  6
CONTINUOUS
 62
     7
 48
25.4
100
AcDbLine
 10
80.8407908322
 20
179.6255452864
 30
0.0
 11
80.8407908322
 21
231.6255463593
 31
0.0
  0
TEXT
  5
89
330
82
100
AcDbEntity
  8
STANDARD
  6
CONTINUOUS
 62
     7
 48
25.4
100
AcDbText
 10
80.0907908322
 20
205.673124227
 30
0.0
 40
3.0
  1
52
 50
90.0
  7
SEACAD_SEISO_TTF
 11
77.0907908322
 21
205.673124227
 31
0.0
100
AcDbText
 73
     3
  0
TEXT
  5
8B
330
82
100
AcDbEntity
  8
STANDARD
  6
CONTINUOUS
 62
     7
 48
25.4
100
AcDbText
 10
80.0907908322
 20
202.0325128733
 30
0.0
 40
3.0
  1
O
 50
90.0
  7
SEACAD_SEMECI1_TTF
 11
77.0907908322
 21
202.0325128733
 31
0.0
100
AcDbText
 73
     3
  0
ENDBLK
  5
8D
330
82
100
AcDbEntity
  8
0
100
AcDbBlockEnd
  0
BLOCK
  5
97
330
8E
100
AcDbEntity
  8
0
100
AcDbBlockBegin
  2
SE9
 70
     0
 71
     0
 10
0.0
 20
0.0
 30
0.0
  3
SE9
  1

  0
POLYLINE
  5
90
330
8E
100
AcDbEntity
  8
STANDARD
  6
CONTINUOUS
 62
     7
 48
25.4
100
AcDb2dPolyline
 66
     1
 10
0.0
 20
0.0
 30
0.0
 70
     1
  0
VERTEX
  5
BD
330
90
100
AcDbEntity
  8
STANDARD
  6
CONTINUOUS
 62
     7
100
AcDbVertex
100
AcDb2dVertex
 10
102.4141802048
 20
156.6935956685
 30
0.0
  0
VERTEX
  5
BE
330
90
100
AcDbEntity
  8
STANDARD
  6
CONTINUOUS
 62
     7
100
AcDbVertex
100
AcDb2dVertex
 10
105.4141802309
 20
156.1935956641
 30
0.0
  0
VERTEX
  5
BF
330
90
100
AcDbEntity
  8
STANDARD
  6
CONTINUOUS
 62
     7
100
AcDbVertex
100
AcDb2dVertex
 10
102.4141802048
 20
155.6935956598
 30
0.0
  0
VERTEX
  5
C0
330
90
100
AcDbEntity
  8
STANDARD
  6
CONTINUOUS
 62
     7
100
AcDbVertex
100
AcDb2dVertex
 10
102.4141802048
 20
156.6935956685
 30
0.0
  0
SEQEND
  5
BC
330
90
100
AcDbEntity
  8
STANDARD
  6
CONTINUOUS
 62
     7
 48
25.4
  0
POLYLINE
  5
91
330
8E
100
AcDbEntity
  8
STANDARD
  6
CONTINUOUS
 62
     7
 48
25.4
100
AcDb2dPolyline
 66
     1
 10
0.0
 20
0.0
 30
0.0
 70
     1
  0
VERTEX
  5
C2
330
91
100
AcDbEntity
  8
STANDARD
  6
CONTINUOUS
 62
     7
100
AcDbVertex
100
AcDb2dVertex
 10
115.064972562
 20
156.6935956685
 30
0.0
  0
VERTEX
  5
C3
330
91
100
AcDbEntity
  8
STANDARD
  6
CONTINUOUS
 62
     7
100
AcDbVertex
100
AcDb2dVertex
 10
112.064972536
 20
156.1935956641
 30
0.0
  0
VERTEX
  5
C4
330
91
100
AcDbEntity
  8
STANDARD
  6
CONTINUOUS
 62
     7
100
AcDbVertex
100
AcDb2dVertex
 10
115.064972562
 20
155.6935956598
 30
0.0
  0
VERTEX
  5
C5
330
91
100
AcDbEntity
  8
STANDARD
  6
CONTINUOUS
 62
     7
100
AcDbVertex
100
AcDb2dVertex
 10
115.064972562
 20
156.6935956685
 30
0.0
  0
SEQEND
  5
C1
330
91
100
AcDbEntity
  8
STANDARD
  6
CONTINUOUS
 62
     7
 48
25.4
  0
LINE
  5
92
330
8E
100
AcDbEntity
  8
STANDARD
  6
CONTINUOUS
 62
     7
 48
25.4
100
AcDbLine
 10
105.4141802309
 20
149.5359463668
 30
0.0
 11
105.4141802309
 21
157.6935956771
 31
0.0
  0
LINE
  5
93
330
8E
100
AcDbEntity
  8
STANDARD
  6
CONTINUOUS
 62
     7
 48
25.4
100
AcDbLine
 10
112.064972536
 20
149.5359463668
 30
0.0
 11
112.064972536
 21
157.6935956771
 31
0.0
  0
LINE
  5
94
330
8E
100
AcDbEntity
  8
STANDARD
  6
CONTINUOUS
 62
     7
 48
25.4
100
AcDbLine
 10
94.2605688763
 20
156.1935956641
 30
0.0
 11
118.0649727178
 21
156.1935956641
 31
0.0
  0
TEXT
  5
95
330
8E
100
AcDbEntity
  8
STANDARD
  6
CONTINUOUS
 62
     7
 48
25.4
100
AcDbText
 10
98.9511804529
 20
156.9435956641
 30
0.0
 40
3.0
  1
7
  7
SEACAD_SEISO_TTF
 11
98.9511804529
 21
159.9435956641
 31
0.0
100
AcDbText
 73
     3
  0
TEXT
  5
96
330
8E
100
AcDbEntity
  8
STANDARD
  6
CONTINUOUS
 62
     7
 48
25.4
100
AcDbText
 10
95.3105690992
 20
156.9435956641
 30
0.0
 40
3.0
  1
O
  7
SEACAD_SEMECI1_TTF
 11
95.3105690992
 21
159.9435956641
 31
0.0
100
AcDbText
 73
     3
  0
ENDBLK
  5
98
330
8E
100
AcDbEntity
  8
0
100
AcDbBlockEnd
  0
BLOCK
  5
A1
330
99
100
AcDbEntity
  8
0
100
AcDbBlockBegin
  2
SE10
 70
     0
 71
     0
 10
0.0
 20
0.0
 30
0.0
  3
SE10
  1

  0
POLYLINE
  5
9B
330
99
100
AcDbEntity
  8
STANDARD
  6
CONTINUOUS
 62
     7
 48
25.4
100
AcDb2dPolyline
 66
     1
 10
0.0
 20
0.0
 30
0.0
 70
     1
  0
VERTEX
  5
C7
330
9B
100
AcDbEntity
  8
STANDARD
  6
CONTINUOUS
 62
     7
100
AcDbVertex
100
AcDb2dVertex
 10
111.7395764095
 20
167.1860969832
 30
0.0
  0
VERTEX
  5
C8
330
9B
100
AcDbEntity
  8
STANDARD
  6
CONTINUOUS
 62
     7
100
AcDbVertex
100
AcDb2dVertex
 10
108.7395763834
 20
166.6860969788
 30
0.0
  0
VERTEX
  5
C9
330
9B
100
AcDbEntity
  8
STANDARD
  6
CONTINUOUS
 62
     7
100
AcDbVertex
100
AcDb2dVertex
 10
111.7395764095
 20
166.1860969745
 30
0.0
  0
VERTEX
  5
CA
330
9B
100
AcDbEntity
  8
STANDARD
  6
CONTINUOUS
 62
     7
100
AcDbVertex
100
AcDb2dVertex
 10
111.7395764095
 20
167.1860969832
 30
0.0
  0
SEQEND
  5
C6
330
9B
100
AcDbEntity
  8
STANDARD
  6
CONTINUOUS
 62
     7
 48
25.4
  0
POLYLINE
  5
9C
330
99
100
AcDbEntity
  8
STANDARD
  6
CONTINUOUS
 62
     7
 48
25.4
100
AcDb2dPolyline
 66
     1
 10
0.0
 20
0.0
 30
0.0
 70
     1
  0
VERTEX
  5
CC
330
9C
100
AcDbEntity
  8
STANDARD
  6
CONTINUOUS
 62
     7
100
AcDbVertex
100
AcDb2dVertex
 10
143.7395763573
 20
167.1860969832
 30
0.0
  0
VERTEX
  5
CD
330
9C
100
AcDbEntity
  8
STANDARD
  6
CONTINUOUS
 62
     7
100
AcDbVertex
100
AcDb2dVertex
 10
146.7395763834
 20
166.6860969788
 30
0.0
  0
VERTEX
  5
CE
330
9C
100
AcDbEntity
  8
STANDARD
  6
CONTINUOUS
 62
     7
100
AcDbVertex
100
AcDb2dVertex
 10
143.7395763573
 20
166.1860969745
 30
0.0
  0
VERTEX
  5
CF
330
9C
100
AcDbEntity
  8
STANDARD
  6
CONTINUOUS
 62
     7
100
AcDbVertex
100
AcDb2dVertex
 10
143.7395763573
 20
167.1860969832
 30
0.0
  0
SEQEND
  5
CB
330
9C
100
AcDbEntity
  8
STANDARD
  6
CONTINUOUS
 62
     7
 48
25.4
  0
LINE
  5
9D
330
99
100
AcDbEntity
  8
STANDARD
  6
CONTINUOUS
 62
     7
 48
25.4
100
AcDbLine
 10
108.7395763834
 20
162.7798553607
 30
0.0
 11
108.7395763834
 21
168.1860969919
 31
0.0
  0
LINE
  5
9E
330
99
100
AcDbEntity
  8
STANDARD
  6
CONTINUOUS
 62
     7
 48
25.4
100
AcDbLine
 10
146.7395763834
 20
165.1024853862
 30
0.0
 11
146.7395763834
 21
168.1860969919
 31
0.0
  0
LINE
  5
9F
330
99
100
AcDbEntity
  8
STANDARD
  6
CONTINUOUS
 62
     7
 48
25.4
100
AcDbLine
 10
108.7395763834
 20
166.6860969788
 30
0.0
 11
146.7395751615
 21
166.6860969788
 31
0.0
  0
TEXT
  5
A0
330
99
100
AcDbEntity
  8
STANDARD
  6
CONTINUOUS
 62
     7
 48
25.4
100
AcDbText
 10
126.0009394088
 20
167.4360969788
 30
0.0
 40
3.0
  1
38
  7
SEACAD_SEISO_TTF
 11
126.0009394088
 21
170.4360969788
 31
0.0
100
AcDbText
 73
     3
  0
ENDBLK
  5
A2
330
99
100
AcDbEntity
  8
0
100
AcDbBlockEnd
  0
BLOCK
  5
AB
330
A3
100
AcDbEntity
  8
0
100
AcDbBlockBegin
  2
SE11
 70
     0
 71
     0
 10
0.0
 20
0.0
 30
0.0
  3
SE11
  1

  0
CIRCLE
  5
A5
330
A3
100
AcDbEntity
  8
STANDARD
  6
CONTINUOUS
 62
     7
 48
25.4
100
AcDbCircle
 10
90.8339427029
 20
144.5359463668
 30
0.0
 40
1.000000008692339
  0
POLYLINE
  5
A6
330
A3
100
AcDbEntity
  8
STANDARD
  6
CONTINUOUS
 62
     7
 48
25.4
100
AcDb2dPolyline
 66
     1
 10
0.0
 20
0.0
 30
0.0
 70
     1
  0
VERTEX
  5
D1
330
A6
100
AcDbEntity
  8
STANDARD
  6
CONTINUOUS
 62
     7
100
AcDbVertex
100
AcDb2dVertex
 10
90.3339426985
 20
152.5359463929
 30
0.0
  0
VERTEX
  5
D2
330
A6
100
AcDbEntity
  8
STANDARD
  6
CONTINUOUS
 62
     7
100
AcDbVertex
100
AcDb2dVertex
 10
90.8339427029
 20
149.5359463668
 30
0.0
  0
VERTEX
  5
D3
330
A6
100
AcDbEntity
  8
STANDARD
  6
CONTINUOUS
 62
     7
100
AcDbVertex
100
AcDb2dVertex
 10
91.3339427072
 20
152.5359463929
 30
0.0
  0
VERTEX
  5
D4
330
A6
100
AcDbEntity
  8
STANDARD
  6
CONTINUOUS
 62
     7
100
AcDbVertex
100
AcDb2dVertex
 10
90.3339426985
 20
152.5359463929
 30
0.0
  0
SEQEND
  5
D0
330
A6
100
AcDbEntity
  8
STANDARD
  6
CONTINUOUS
 62
     7
 48
25.4
  0
LINE
  5
A7
330
A3
100
AcDbEntity
  8
STANDARD
  6
CONTINUOUS
 62
     7
 48
25.4
100
AcDbLine
 10
101.7395763834
 20
144.5359463668
 30
0.0
 11
89.3339426898
 21
144.5359463668
 31
0.0
  0
LINE
  5
A8
330
A3
100
AcDbEntity
  8
STANDARD
  6
CONTINUOUS
 62
     7
 48
25.4
100
AcDbLine
 10
105.8970246183
 20
149.5359463668
 30
0.0
 11
89.3339426898
 21
149.5359463668
 31
0.0
  0
LINE
  5
A9
330
A3
100
AcDbEntity
  8
STANDARD
  6
CONTINUOUS
 62
     7
 48
25.4
100
AcDbLine
 10
90.8339427029
 20
138.5359463147
 30
0.0
 11
90.8339427029
 21
155.5359463072
 31
0.0
  0
TEXT
  5
AA
330
A3
100
AcDbEntity
  8
STANDARD
  6
CONTINUOUS
 62
     7
 48
25.4
100
AcDbText
 10
90.0839427029
 20
146.1836735837
 30
0.0
 40
3.0
  1
5
 50
90.0
  7
SEACAD_SEISO_TTF
 11
87.0839427029
 21
146.1836735837
 31
0.0
100
AcDbText
 73
     3
  0
ENDBLK
  5
AC
330
A3
100
AcDbEntity
  8
0
100
AcDbBlockEnd
  0
BLOCK
  5
B5
330
AD
100
AcDbEntity
  8
0
100
AcDbBlockBegin
  2
SE12
 70
     0
 71
     0
 10
0.0
 20
0.0
 30
0.0
  3
SE12
  1

  0
CIRCLE
  5
AF
330
AD
100
AcDbEntity
  8
STANDARD
  6
CONTINUOUS
 62
     7
 48
25.4
100
AcDbCircle
 10
90.8339427029
 20
144.5359463668
 30
0.0
 40
1.000000008692339
  0
POLYLINE
  5
B0
330
AD
100
AcDbEntity
  8
STANDARD
  6
CONTINUOUS
 62
     7
 48
25.4
100
AcDb2dPolyline
 66
     1
 10
0.0
 20
0.0
 30
0.0
 70
     1
  0
VERTEX
  5
D6
330
B0
100
AcDbEntity
  8
STANDARD
  6
CONTINUOUS
 62
     7
100
AcDbVertex
100
AcDb2dVertex
 10
90.3339426985
 20
135.0359463408
 30
0.0
  0
VERTEX
  5
D7
330
B0
100
AcDbEntity
  8
STANDARD
  6
CONTINUOUS
 62
     7
100
AcDbVertex
100
AcDb2dVertex
 10
90.8339427029
 20
138.0359463668
 30
0.0
  0
VERTEX
  5
D8
330
B0
100
AcDbEntity
  8
STANDARD
  6
CONTINUOUS
 62
     7
100
AcDbVertex
100
AcDb2dVertex
 10
91.3339427072
 20
135.0359463408
 30
0.0
  0
VERTEX
  5
D9
330
B0
100
AcDbEntity
  8
STANDARD
  6
CONTINUOUS
 62
     7
100
AcDbVertex
100
AcDb2dVertex
 10
90.3339426985
 20
135.0359463408
 30
0.0
  0
SEQEND
  5
D5
330
B0
100
AcDbEntity
  8
STANDARD
  6
CONTINUOUS
 62
     7
 48
25.4
  0
LINE
  5
B1
330
AD
100
AcDbEntity
  8
STANDARD
  6
CONTINUOUS
 62
     7
 48
25.4
100
AcDbLine
 10
101.7395763834
 20
144.5359463668
 30
0.0
 11
89.3339426898
 21
144.5359463668
 31
0.0
  0
LINE
  5
B2
330
AD
100
AcDbEntity
  8
STANDARD
  6
CONTINUOUS
 62
     7
 48
25.4
100
AcDbLine
 10
103.1736723536
 20
138.0359463668
 30
0.0
 11
89.3339426898
 21
138.0359463668
 31
0.0
  0
LINE
  5
B3
330
AD
100
AcDbEntity
  8
STANDARD
  6
CONTINUOUS
 62
     7
 48
25.4
100
AcDbLine
 10
90.8339427029
 20
150.535946419
 30
0.0
 11
90.8339427029
 21
132.0359461806
 31
0.0
  0
TEXT
  5
B4
330
AD
100
AcDbEntity
  8
STANDARD
  6
CONTINUOUS
 62
     7
 48
25.4
100
AcDbText
 10
90.0839427029
 20
139.2404917543
 30
0.0
 40
3.0
  1
6,5
 50
90.0
  7
SEACAD_SEISO_TTF
 11
87.0839427029
 21
139.2404917543
 31
0.0
100
AcDbText
 73
     3
  0
ENDBLK
  5
B6
330
AD
100
AcDbEntity
  8
0
100
AcDbBlockEnd
  0
ENDSEC
  0
SECTION
  2
ENTITIES
  0
INSERT
  5
2F
330
1F
100
AcDbEntity
  8
0
100
AcDbBlockReference
  2
SE
 10
0.0
 20
0.0
 30
0.0
  0
INSERT
  5
36
330
1F
100
AcDbEntity
  8
0
100
AcDbBlockReference
  2
SE1
 10
0.0
 20
0.0
 30
0.0
  0
INSERT
  5
3B
330
1F
100
AcDbEntity
  8
0
100
AcDbBlockReference
  2
SE2
 10
0.0
 20
0.0
 30
0.0
  0
INSERT
  5
40
330
1F
100
AcDbEntity
  8
0
100
AcDbBlockReference
  2
SE3
 10
0.0
 20
0.0
 30
0.0
  0
INSERT
  5
45
330
1F
100
AcDbEntity
  8
0
100
AcDbBlockReference
  2
SE4
 10
0.0
 20
0.0
 30
0.0
  0
INSERT
  5
4F
330
1F
100
AcDbEntity
  8
0
100
AcDbBlockReference
  2
SE5
 10
0.0
 20
0.0
 30
0.0
  0
INSERT
  5
56
330
1F
100
AcDbEntity
  8
0
100
AcDbBlockReference
  2
SE6
 10
0.0
 20
0.0
 30
0.0
  0
INSERT
  5
6F
330
1F
100
AcDbEntity
  8
0
100
AcDbBlockReference
  2
SE7
 10
0.0
 20
0.0
 30
0.0
  0
INSERT
  5
83
330
1F
100
AcDbEntity
  8
0
100
AcDbBlockReference
  2
SE8
 10
0.0
 20
0.0
 30
0.0
  0
INSERT
  5
8F
330
1F
100
AcDbEntity
  8
0
100
AcDbBlockReference
  2
SE9
 10
0.0
 20
0.0
 30
0.0
  0
INSERT
  5
9A
330
1F
100
AcDbEntity
  8
0
100
AcDbBlockReference
  2
SE10
 10
0.0
 20
0.0
 30
0.0
  0
INSERT
  5
A4
330
1F
100
AcDbEntity
  8
0
100
AcDbBlockReference
  2
SE11
 10
0.0
 20
0.0
 30
0.0
  0
INSERT
  5
AE
330
1F
100
AcDbEntity
  8
0
100
AcDbBlockReference
  2
SE12
 10
0.0
 20
0.0
 30
0.0
  0
ENDSEC
  0
SECTION
  2
OBJECTS
  0
DICTIONARY
  5
C
330
0
100
AcDbDictionary
  3
ACAD_GROUP
350
D
  3
ACAD_LAYOUT
350
1A
  3
ACAD_MLINESTYLE
350
17
  3
ACAD_PLOTSETTINGS
350
19
  3
ACAD_TABLESTYLE
350
2A
  3
ACDBVARIABLEDICTIONARY
350
2C
1001
ACAD
1000
TREAT_AS_HARD
1070
     0
  0
DICTIONARY
  5
DA
330
29
100
AcDbDictionary
  3
ACAD_XREC_ROUNDTRIP
360
DB
  0
DICTIONARY
  5
D
102
{ACAD_REACTORS
330
C
102
}
330
C
100
AcDbDictionary
1001
ACAD
1000
TREAT_AS_HARD
1070
     0
  0
DICTIONARY
  5
1A
102
{ACAD_REACTORS
330
C
102
}
330
C
100
AcDbDictionary
1001
ACAD
1000
TREAT_AS_HARD
1070
     0
  0
DICTIONARY
  5
17
102
{ACAD_REACTORS
330
C
102
}
330
C
100
AcDbDictionary
  3
STANDARD
350
18
1001
ACAD
1000
TREAT_AS_HARD
1070
     0
  0
DICTIONARY
  5
19
102
{ACAD_REACTORS
330
C
102
}
330
C
100
AcDbDictionary
1001
ACAD
1000
TREAT_AS_HARD
1070
     0
  0
DICTIONARY
  5
2A
102
{ACAD_REACTORS
330
C
102
}
330
C
100
AcDbDictionary
  3
STANDARD
350
2B
1001
ACAD
1000
TREAT_AS_HARD
1070
     0
  0
DICTIONARY
  5
2C
102
{ACAD_REACTORS
330
C
102
}
330
C
100
AcDbDictionary
  3
CTABLESTYLE
350
2D
1001
ACAD
1000
TREAT_AS_HARD
1070
     0
  0
XRECORD
  5
DB
102
{ACAD_REACTORS
330
DA
102
}
330
DA
100
AcDbXrecord
102
UCS
 74
     0
 71
     1
 10
0.0
 20
0.0
 30
0.0
 10
1.0
 20
0.0
 30
0.0
 10
0.0
 20
1.0
 30
0.0
146
0.0
 79
     0
102
VIEW
281
     0
  0
MLINESTYLE
  5
18
102
{ACAD_REACTORS
330
17
102
}
330
17
100
AcDbMlineStyle
  2
Standard
 70
     0
  3

 62
   256
 51
90.0
 52
90.0
 71
     2
 49
0.5
 62
   256
  6
BYLAYER
 49
-0.5
 62
   256
  6
BYLAYER
  0
TABLESTYLE
  5
2B
102
{ACAD_REACTORS
330
2A
102
}
330
2A
100
AcDbTableStyle
  3
Standard
 70
     0
 71
     0
 40
0.06
 41
0.06
280
     0
281
     0
  7
STANDARD
140
0.18
170
     2
 62
     0
 63
     7
283
     0
274
    -2
284
     1
 64
     0
275
    -2
285
     1
 65
     0
276
    -2
286
     1
 66
     0
277
    -2
287
     1
 67
     0
278
    -2
288
     1
 68
     0
279
    -2
289
     1
 69
     0
  7
STANDARD
140
0.25
170
     5
 62
     0
 63
     7
283
     0
274
    -2
284
     1
 64
     0
275
    -2
285
     1
 65
     0
276
    -2
286
     1
 66
     0
277
    -2
287
     1
 67
     0
278
    -2
288
     1
 68
     0
279
    -2
289
     1
 69
     0
  7
STANDARD
140
0.18
170
     5
 62
     0
 63
     7
283
     0
274
    -2
284
     1
 64
     0
275
    -2
285
     1
 65
     0
276
    -2
286
     1
 66
     0
277
    -2
287
     1
 67
     0
278
    -2
288
     1
 68
     0
279
    -2
289
     1
 69
     0
  0
DICTIONARYVAR
  5
2D
102
{ACAD_REACTORS
330
2C
102
}
330
2C
100
DictionaryVariables
280
     0
  1
Standard
  0
ENDSEC
  0
EOF
