  0
SECTION
  2
HEADER
  9
$ACADVER
  1
AC1012
  9
$DWGCODEPAGE
  3
ansi_1252
  9
$INSBASE
 10
0.0
 20
0.0
 30
0.0
  9
$EXTMIN
 10
0.0
 20
0.0
 30
0.0
  9
$EXTMAX
 10
210.0
 20
297.0
 30
0.0
  9
$LIMMIN
 10
0.0
 20
0.0
  9
$LIMMAX
 10
210.0
 20
297.0
  9
$ORTHOMODE
 70
     0
  9
$REGENMODE
 70
     1
  9
$FILLMODE
 70
     1
  9
$QTEXTMODE
 70
     0
  9
$MIRRTEXT
 70
     1
  9
$DRAGMODE
 70
     2
  9
$LTSCALE
 40
1.0
  9
$OSMODE
 70
    37
  9
$ATTMODE
 70
     1
  9
$TEXTSIZE
 40
0.2
  9
$TRACEWID
 40
0.05
  9
$TEXTSTYLE
  7
STANDARD
  9
$CLAYER
  8
0
  9
$CELTYPE
  6
BYLAYER
  9
$CECOLOR
 62
   256
  9
$CELTSCALE
 40
25.4
  9
$DELOBJ
 70
     1
  9
$DISPSILH
 70
     0
  9
$DIMSCALE
 40
1.0
  9
$DIMASZ
 40
0.18
  9
$DIMEXO
 40
0.0625
  9
$DIMDLI
 40
0.38
  9
$DIMRND
 40
0.0
  9
$DIMDLE
 40
0.0
  9
$DIMEXE
 40
0.18
  9
$DIMTP
 40
0.0
  9
$DIMTM
 40
0.0
  9
$DIMTXT
 40
0.18
  9
$DIMCEN
 40
0.09
  9
$DIMTSZ
 40
0.0
  9
$DIMTOL
 70
     0
  9
$DIMLIM
 70
     0
  9
$DIMTIH
 70
     1
  9
$DIMTOH
 70
     1
  9
$DIMSE1
 70
     0
  9
$DIMSE2
 70
     0
  9
$DIMTAD
 70
     0
  9
$DIMZIN
 70
     0
  9
$DIMBLK
  1

  9
$DIMASO
 70
     1
  9
$DIMSHO
 70
     1
  9
$DIMPOST
  1

  9
$DIMAPOST
  1

  9
$DIMALT
 70
     0
  9
$DIMALTD
 70
     2
  9
$DIMALTF
 40
25.4
  9
$DIMLFAC
 40
1.0
  9
$DIMTOFL
 70
     0
  9
$DIMTVP
 40
0.0
  9
$DIMTIX
 70
     0
  9
$DIMSOXD
 70
     0
  9
$DIMSAH
 70
     0
  9
$DIMBLK1
  1

  9
$DIMBLK2
  1

  9
$DIMSTYLE
  2
STANDARD
  9
$DIMCLRD
 70
     0
  9
$DIMCLRE
 70
     0
  9
$DIMCLRT
 70
     0
  9
$DIMTFAC
 40
1.0
  9
$DIMGAP
 40
0.09
  9
$DIMJUST
 70
     0
  9
$DIMSD1
 70
     0
  9
$DIMSD2
 70
     0
  9
$DIMTOLJ
 70
     1
  9
$DIMTZIN
 70
     0
  9
$DIMALTZ
 70
     0
  9
$DIMALTTZ
 70
     0
  9
$DIMFIT
 70
     3
  9
$DIMUPT
 70
     0
  9
$DIMUNIT
 70
     2
  9
$DIMDEC
 70
     4
  9
$DIMTDEC
 70
     4
  9
$DIMALTU
 70
     2
  9
$DIMALTTD
 70
     2
  9
$DIMTXSTY
  7
STANDARD
  9
$DIMAUNIT
 70
     0
  9
$LUNITS
 70
     2
  9
$LUPREC
 70
     4
  9
$SKETCHINC
 40
0.1
  9
$FILLETRAD
 40
0.5
  9
$AUNITS
 70
     0
  9
$AUPREC
 70
     0
  9
$MENU
  1
.
  9
$ELEVATION
 40
0.0
  9
$PELEVATION
 40
0.0
  9
$THICKNESS
 40
0.0
  9
$LIMCHECK
 70
     0
  9
$CHAMFERA
 40
0.5
  9
$CHAMFERB
 40
0.5
  9
$CHAMFERC
 40
1.0
  9
$CHAMFERD
 40
0.0
  9
$SKPOLY
 70
     0
  9
$TDCREATE
 40
2453762.543797304
  9
$TDUPDATE
 40
2453762.543797315
  9
$TDINDWG
 40
0.0000000116
  9
$TDUSRTIMER
 40
0.0000000116
  9
$USRTIMER
 70
     1
  9
$ANGBASE
 50
0.0
  9
$ANGDIR
 70
     0
  9
$PDMODE
 70
     0
  9
$PDSIZE
 40
0.0
  9
$PLINEWID
 40
0.0
  9
$COORDS
 70
     1
  9
$SPLFRAME
 70
     0
  9
$SPLINETYPE
 70
     6
  9
$SPLINESEGS
 70
     8
  9
$ATTDIA
 70
     0
  9
$ATTREQ
 70
     1
  9
$HANDLING
 70
     1
  9
$HANDSEED
  5
EA
  9
$SURFTAB1
 70
     6
  9
$SURFTAB2
 70
     6
  9
$SURFTYPE
 70
     6
  9
$SURFU
 70
     6
  9
$SURFV
 70
     6
  9
$UCSNAME
  2

  9
$UCSORG
 10
0.0
 20
0.0
 30
0.0
  9
$UCSXDIR
 10
1.0
 20
0.0
 30
0.0
  9
$UCSYDIR
 10
0.0
 20
1.0
 30
0.0
  9
$PUCSNAME
  2

  9
$PUCSORG
 10
0.0
 20
0.0
 30
0.0
  9
$PUCSXDIR
 10
1.0
 20
0.0
 30
0.0
  9
$PUCSYDIR
 10
0.0
 20
1.0
 30
0.0
  9
$USERI1
 70
     0
  9
$USERI2
 70
     0
  9
$USERI3
 70
     0
  9
$USERI4
 70
     0
  9
$USERI5
 70
     0
  9
$USERR1
 40
0.0
  9
$USERR2
 40
0.0
  9
$USERR3
 40
0.0
  9
$USERR4
 40
0.0
  9
$USERR5
 40
0.0
  9
$WORLDVIEW
 70
     1
  9
$SHADEDGE
 70
     3
  9
$SHADEDIF
 70
    70
  9
$TILEMODE
 70
     1
  9
$MAXACTVP
 70
    64
  9
$PINSBASE
 10
0.0
 20
0.0
 30
0.0
  9
$PLIMCHECK
 70
     0
  9
$PEXTMIN
 10
0.0
 20
0.0
 30
0.0
  9
$PEXTMAX
 10
210.0
 20
297.0
 30
0.0
  9
$PLIMMIN
 10
0.0
 20
0.0
  9
$PLIMMAX
 10
12.0
 20
9.0
  9
$UNITMODE
 70
     0
  9
$VISRETAIN
 70
     1
  9
$PLINEGEN
 70
     0
  9
$PSLTSCALE
 70
     1
  9
$TREEDEPTH
 70
  3020
  9
$PICKSTYLE
 70
     1
  9
$CMLSTYLE
  2
STANDARD
  9
$CMLJUST
 70
     0
  9
$CMLSCALE
 40
1.0
  9
$SAVEIMAGES
 70
     1
  0
ENDSEC
  0
SECTION
  2
CLASSES
  0
CLASS
  1
ACDBDICTIONARYWDFLT
  2
AcDbDictionaryWithDefault
  3
ObjectDBX Classes
 90
        0
280
     0
281
     0
  0
CLASS
  1
TABLESTYLE
  2
AcDbTableStyle
  3
ObjectDBX Classes
 90
     2047
280
     0
281
     0
  0
CLASS
  1
DICTIONARYVAR
  2
AcDbDictionaryVar
  3
ObjectDBX Classes
 90
        0
280
     0
281
     0
  0
CLASS
  1
XRECORD
  2
AcDbXrecord
  3
AutoCAD 2000
 90
    32768
280
     0
281
     0
  0
CLASS
  1
LWPOLYLINE
  2
AcDbPolyline
  3
AutoCAD 2000
 90
    32768
280
     0
281
     1
  0
CLASS
  1
HATCH
  2
AcDbHatch
  3
AutoCAD 2000
 90
    32768
280
     0
281
     1
  0
CLASS
  1
ACDBPLACEHOLDER
  2
AcDbPlaceHolder
  3
ObjectDBX Classes
 90
        0
280
     0
281
     0
  0
CLASS
  1
LAYOUT
  2
AcDbLayout
  3
ObjectDBX Classes
 90
        0
280
     0
281
     0
  0
ENDSEC
  0
SECTION
  2
TABLES
  0
TABLE
  2
VPORT
  5
8
330
0
100
AcDbSymbolTable
 70
     2
  0
VPORT
  5
29
102
{ACAD_XDICTIONARY
360
E8
102
}
330
8
100
AcDbSymbolTableRecord
100
AcDbViewportTableRecord
  2
*ACTIVE
 70
     0
 10
0.0
 20
0.0
 11
1.0
 21
1.0
 12
10.4299065421
 22
4.5
 13
0.0
 23
0.0
 14
0.5
 24
0.5
 15
0.5
 25
0.5
 16
0.0
 26
0.0
 36
1.0
 17
0.0
 27
0.0
 37
0.0
 40
9.0
 41
1.9729729729
 42
50.0
 43
0.0
 44
0.0
 50
0.0
 51
0.0
 71
     0
 72
   100
 73
     1
 74
     3
 75
     0
 76
     0
 77
     0
 78
     0
  0
ENDTAB
  0
TABLE
  2
LTYPE
  5
5
330
0
100
AcDbSymbolTable
 70
     2
  0
LTYPE
  5
14
330
5
100
AcDbSymbolTableRecord
100
AcDbLinetypeTableRecord
  2
BYBLOCK
 70
     0
  3

 72
    65
 73
     0
 40
0.0
  0
LTYPE
  5
15
330
5
100
AcDbSymbolTableRecord
100
AcDbLinetypeTableRecord
  2
BYLAYER
 70
     0
  3

 72
    65
 73
     0
 40
0.0
  0
LTYPE
  5
16
330
5
100
AcDbSymbolTableRecord
100
AcDbLinetypeTableRecord
  2
CONTINUOUS
 70
     0
  3
Solid line
 72
    65
 73
     0
 40
0.0
  0
LTYPE
  5
31
330
5
100
AcDbSymbolTableRecord
100
AcDbLinetypeTableRecord
  2
CENTER2
 70
     0
  3
___ _ ___ _ ___ _ ___ _ ___ _ ___ _ ___ _ ___ _
 72
    65
 73
     4
 40
1.125
 49
0.75
 74
     4
 75
     0
340
0
 46
0.0
 50
0.0
 44
0.0
 45
0.0
 49
-0.125
 74
     4
 75
     0
340
0
 46
0.0
 50
0.0
 44
0.0
 45
0.0
 49
0.125
 74
     4
 75
     0
340
0
 46
0.0
 50
0.0
 44
0.0
 45
0.0
 49
-0.125
 74
     4
 75
     0
340
0
 46
0.0
 50
0.0
 44
0.0
 45
0.0
  0
ENDTAB
  0
TABLE
  2
LAYER
  5
2
330
0
100
AcDbSymbolTable
 70
     4
  0
LAYER
  5
10
330
2
100
AcDbSymbolTableRecord
100
AcDbLayerTableRecord
  2
0
 70
     0
 62
     7
  6
CONTINUOUS
  0
LAYER
  5
30
330
2
100
AcDbSymbolTableRecord
100
AcDbLayerTableRecord
  2
DEFAULT
 70
     0
 62
     7
  6
CONTINUOUS
  0
LAYER
  5
4A
330
2
100
AcDbSymbolTableRecord
100
AcDbLayerTableRecord
  2
MEGA_001875
 70
     0
 62
     7
  6
CONTINUOUS
  0
LAYER
  5
63
330
2
100
AcDbSymbolTableRecord
100
AcDbLayerTableRecord
  2
STANDARD
 70
     0
 62
     7
  6
CONTINUOUS
  0
ENDTAB
  0
TABLE
  2
STYLE
  5
3
330
0
100
AcDbSymbolTable
 70
     2
  0
STYLE
  5
11
330
3
100
AcDbSymbolTableRecord
100
AcDbTextStyleTableRecord
  2
STANDARD
 70
     0
 40
0.0
 41
1.0
 50
0.0
 71
     0
 42
0.2
  3
txt
  4

  0
STYLE
  5
7B
330
3
100
AcDbSymbolTableRecord
100
AcDbTextStyleTableRecord
  2
SEACAD_SEISO_TTF
 70
     0
 40
0.2
 41
1.0
 50
0.0
 71
     0
 42
0.2
  3
seiso.ttf
  4

  0
ENDTAB
  0
TABLE
  2
VIEW
  5
6
330
0
100
AcDbSymbolTable
 70
     0
  0
ENDTAB
  0
TABLE
  2
UCS
  5
7
330
0
100
AcDbSymbolTable
 70
     0
  0
ENDTAB
  0
TABLE
  2
APPID
  5
9
330
0
100
AcDbSymbolTable
 70
     1
  0
APPID
  5
12
330
9
100
AcDbSymbolTableRecord
100
AcDbRegAppTableRecord
  2
ACAD
 70
     0
  0
ENDTAB
  0
TABLE
  2
DIMSTYLE
  5
A
330
0
100
AcDbSymbolTable
 70
     1
  0
DIMSTYLE
105
27
330
A
100
AcDbSymbolTableRecord
100
AcDbDimStyleTableRecord
  2
STANDARD
 70
     0
  3

  4

  5

  6

  7

 40
1.0
 41
0.18
 42
0.0625
 43
0.38
 44
0.18
 45
0.0
 46
0.0
 47
0.0
 48
0.0
140
0.18
141
0.09
142
0.0
143
25.4
144
1.0
145
0.0
146
1.0
147
0.09
 71
     0
 72
     0
 73
     1
 74
     1
 75
     0
 76
     0
 77
     0
 78
     0
170
     0
171
     2
172
     0
173
     0
174
     0
175
     0
176
     0
177
     0
178
     0
270
     2
271
     4
272
     4
273
     2
274
     2
340
11
275
     0
280
     0
281
     0
282
     0
283
     1
284
     0
285
     0
286
     0
287
     3
288
     0
  0
ENDTAB
  0
TABLE
  2
BLOCK_RECORD
  5
1
330
0
100
AcDbSymbolTable
 70
    13
  0
BLOCK_RECORD
  5
1F
330
1
100
AcDbSymbolTableRecord
100
AcDbBlockTableRecord
  2
*MODEL_SPACE
  0
BLOCK_RECORD
  5
1B
330
1
100
AcDbSymbolTableRecord
100
AcDbBlockTableRecord
  2
*PAPER_SPACE
  0
BLOCK_RECORD
  5
2E
330
1
100
AcDbSymbolTableRecord
100
AcDbBlockTableRecord
  2
SE
  0
BLOCK_RECORD
  5
36
330
1
100
AcDbSymbolTableRecord
100
AcDbBlockTableRecord
  2
SE1
  0
BLOCK_RECORD
  5
3C
330
1
100
AcDbSymbolTableRecord
100
AcDbBlockTableRecord
  2
SE2
  0
BLOCK_RECORD
  5
42
330
1
100
AcDbSymbolTableRecord
100
AcDbBlockTableRecord
  2
SE3
  0
BLOCK_RECORD
  5
48
330
1
100
AcDbSymbolTableRecord
100
AcDbBlockTableRecord
  2
SE4
  0
BLOCK_RECORD
  5
69
330
1
100
AcDbSymbolTableRecord
100
AcDbBlockTableRecord
  2
SE5
  0
BLOCK_RECORD
  5
75
330
1
100
AcDbSymbolTableRecord
100
AcDbBlockTableRecord
  2
SE6
  0
BLOCK_RECORD
  5
7F
330
1
100
AcDbSymbolTableRecord
100
AcDbBlockTableRecord
  2
SE7
  0
BLOCK_RECORD
  5
89
330
1
100
AcDbSymbolTableRecord
100
AcDbBlockTableRecord
  2
SE8
  0
BLOCK_RECORD
  5
93
330
1
100
AcDbSymbolTableRecord
100
AcDbBlockTableRecord
  2
SE9
  0
BLOCK_RECORD
  5
9D
330
1
100
AcDbSymbolTableRecord
100
AcDbBlockTableRecord
  2
SE10
  0
BLOCK_RECORD
  5
A7
330
1
100
AcDbSymbolTableRecord
100
AcDbBlockTableRecord
  2
SE11
  0
ENDTAB
  0
ENDSEC
  0
SECTION
  2
BLOCKS
  0
BLOCK
  5
20
330
1F
100
AcDbEntity
  8
0
100
AcDbBlockBegin
  2
*MODEL_SPACE
 70
     0
 71
     0
 10
0.0
 20
0.0
 30
0.0
  3
*MODEL_SPACE
  1

  0
ENDBLK
  5
21
330
1F
100
AcDbEntity
  8
0
100
AcDbBlockEnd
  0
BLOCK
  5
1C
330
1B
100
AcDbEntity
 67
     1
  8
0
100
AcDbBlockBegin
  2
*PAPER_SPACE
 70
     0
 71
     0
 10
0.0
 20
0.0
 30
0.0
  3
*PAPER_SPACE
  1

  0
ENDBLK
  5
1D
330
1B
100
AcDbEntity
 67
     1
  8
0
100
AcDbBlockEnd
  0
BLOCK
  5
34
330
2E
100
AcDbEntity
  8
0
100
AcDbBlockBegin
  2
SE
 70
     0
 71
     0
 10
0.0
 20
0.0
 30
0.0
  3
SE
  1

  0
LINE
  5
32
330
2E
100
AcDbEntity
  8
DEFAULT
  6
CENTER2
 62
     7
 48
25.4
100
AcDbLine
 10
78.1556640368
 20
257.6861174611
 30
0.0
 11
66.1556639325
 21
257.6861174611
 31
0.0
  0
LINE
  5
33
330
2E
100
AcDbEntity
  8
DEFAULT
  6
CENTER2
 62
     7
 48
25.4
100
AcDbLine
 10
72.1556639846
 20
263.6861175133
 30
0.0
 11
72.1556639846
 21
251.686117409
 31
0.0
  0
ENDBLK
  5
35
330
2E
100
AcDbEntity
  8
0
100
AcDbBlockEnd
  0
BLOCK
  5
3A
330
36
100
AcDbEntity
  8
0
100
AcDbBlockBegin
  2
SE1
 70
     0
 71
     0
 10
0.0
 20
0.0
 30
0.0
  3
SE1
  1

  0
LINE
  5
38
330
36
100
AcDbEntity
  8
DEFAULT
  6
CENTER2
 62
     7
 48
25.4
100
AcDbLine
 10
122.1556640368
 20
257.6861174611
 30
0.0
 11
110.1556639325
 21
257.6861174611
 31
0.0
  0
LINE
  5
39
330
36
100
AcDbEntity
  8
DEFAULT
  6
CENTER2
 62
     7
 48
25.4
100
AcDbLine
 10
116.1556639846
 20
263.6861175133
 30
0.0
 11
116.1556639846
 21
251.686117409
 31
0.0
  0
ENDBLK
  5
3B
330
36
100
AcDbEntity
  8
0
100
AcDbBlockEnd
  0
BLOCK
  5
40
330
3C
100
AcDbEntity
  8
0
100
AcDbBlockBegin
  2
SE2
 70
     0
 71
     0
 10
0.0
 20
0.0
 30
0.0
  3
SE2
  1

  0
LINE
  5
3E
330
3C
100
AcDbEntity
  8
DEFAULT
  6
CENTER2
 62
     7
 48
25.4
100
AcDbLine
 10
122.1556640368
 20
13.6861174611
 30
0.0
 11
110.1556639325
 21
13.6861174611
 31
0.0
  0
LINE
  5
3F
330
3C
100
AcDbEntity
  8
DEFAULT
  6
CENTER2
 62
     7
 48
25.4
100
AcDbLine
 10
116.1556639846
 20
19.6861175133
 30
0.0
 11
116.1556639846
 21
7.686117409
 31
0.0
  0
ENDBLK
  5
41
330
3C
100
AcDbEntity
  8
0
100
AcDbBlockEnd
  0
BLOCK
  5
46
330
42
100
AcDbEntity
  8
0
100
AcDbBlockBegin
  2
SE3
 70
     0
 71
     0
 10
0.0
 20
0.0
 30
0.0
  3
SE3
  1

  0
LINE
  5
44
330
42
100
AcDbEntity
  8
DEFAULT
  6
CENTER2
 62
     7
 48
25.4
100
AcDbLine
 10
78.1556640368
 20
13.6861174611
 30
0.0
 11
66.1556639325
 21
13.6861174611
 31
0.0
  0
LINE
  5
45
330
42
100
AcDbEntity
  8
DEFAULT
  6
CENTER2
 62
     7
 48
25.4
100
AcDbLine
 10
72.1556639846
 20
19.6861175133
 30
0.0
 11
72.1556639846
 21
7.686117409
 31
0.0
  0
ENDBLK
  5
47
330
42
100
AcDbEntity
  8
0
100
AcDbBlockEnd
  0
BLOCK
  5
67
330
48
100
AcDbEntity
  8
0
100
AcDbBlockBegin
  2
SE4
 70
     0
 71
     0
 10
0.0
 20
0.0
 30
0.0
  3
SE4
  1

  0
LINE
  5
4B
330
48
100
AcDbEntity
  8
MEGA_001875
  6
CONTINUOUS
 62
     7
 48
25.4
100
AcDbLine
 10
64.1556639846
 20
262.7883399822
 30
0.0
 11
64.1556639846
 21
8.58389494
 31
0.0
  0
LINE
  5
4C
330
48
100
AcDbEntity
  8
MEGA_001875
  6
CONTINUOUS
 62
     7
 48
25.4
100
AcDbLine
 10
121.2578865058
 20
265.6861174611
 30
0.0
 11
67.0534414635
 21
265.6861174611
 31
0.0
  0
LINE
  5
4D
330
48
100
AcDbEntity
  8
MEGA_001875
  6
CONTINUOUS
 62
     7
 48
25.4
100
AcDbLine
 10
124.1556639846
 20
8.58389494
 30
0.0
 11
124.1556639846
 21
262.7883399822
 31
0.0
  0
LINE
  5
4E
330
48
100
AcDbEntity
  8
MEGA_001875
  6
CONTINUOUS
 62
     7
 48
25.4
100
AcDbLine
 10
67.0534414635
 20
5.6861174611
 30
0.0
 11
121.2578865058
 21
5.6861174611
 31
0.0
  0
CIRCLE
  5
4F
330
48
100
AcDbEntity
  8
MEGA_001875
  6
CONTINUOUS
 62
     7
 48
25.4
100
AcDbCircle
 10
116.1556639846
 20
13.6861174611
 30
0.0
 40
2.0
  0
CIRCLE
  5
50
330
48
100
AcDbEntity
  8
MEGA_001875
  6
CONTINUOUS
 62
     7
 48
25.4
100
AcDbCircle
 10
116.1556639846
 20
257.6861174611
 30
0.0
 40
3.599999999999966
  0
CIRCLE
  5
51
330
48
100
AcDbEntity
  8
MEGA_001875
  6
CONTINUOUS
 62
     7
 48
25.4
100
AcDbCircle
 10
72.1556639846
 20
13.6861174611
 30
0.0
 40
3.599999999999981
  0
CIRCLE
  5
52
330
48
100
AcDbEntity
  8
MEGA_001875
  6
CONTINUOUS
 62
     7
 48
25.4
100
AcDbCircle
 10
116.1556639846
 20
13.6861174611
 30
0.0
 40
3.599999999999981
  0
CIRCLE
  5
53
330
48
100
AcDbEntity
  8
MEGA_001875
  6
CONTINUOUS
 62
     7
 48
25.4
100
AcDbCircle
 10
72.1556639846
 20
257.6861174611
 30
0.0
 40
3.599999999999966
  0
ELLIPSE
  5
54
330
48
100
AcDbEntity
  8
MEGA_001875
  6
CONTINUOUS
 62
     7
 48
25.4
100
AcDbEllipse
 10
68.6548283265
 20
10.185281803
 30
0.0
 11
2.268517341243046
 21
2.268517341243047
 31
0.0
210
0.0
220
0.0
230
1.0
 40
0.9351131265
 41
2.389713239294805
 42
3.893472067884766
  0
ELLIPSE
  5
55
330
48
100
AcDbEntity
  8
MEGA_001875
  6
CONTINUOUS
 62
     7
 48
25.4
100
AcDbEllipse
 10
67.2614925259
 20
8.7919460023
 30
0.0
 11
2.268517341243046
 21
2.268517341243047
 31
0.0
210
0.0
220
0.0
230
1.0
 40
0.9351131265
 41
2.389713239294802
 42
3.89347206788477
  0
CIRCLE
  5
56
330
48
100
AcDbEntity
  8
MEGA_001875
  6
CONTINUOUS
 62
     7
 48
25.4
100
AcDbCircle
 10
72.1556639846
 20
257.6861174611
 30
0.0
 40
2.0
  0
CIRCLE
  5
57
330
48
100
AcDbEntity
  8
MEGA_001875
  6
CONTINUOUS
 62
     7
 48
25.4
100
AcDbCircle
 10
72.1556639846
 20
13.6861174611
 30
0.0
 40
2.0
  0
CIRCLE
  5
58
330
48
100
AcDbEntity
  8
MEGA_001875
  6
CONTINUOUS
 62
     7
 48
25.4
100
AcDbCircle
 10
116.1556639846
 20
257.6861174611
 30
0.0
 40
2.0
  0
LINE
  5
59
330
48
100
AcDbEntity
  8
MEGA_001875
  6
CONTINUOUS
 62
     7
 48
25.4
100
AcDbLine
 10
68.4467772641
 20
7.0794532618
 30
0.0
 11
119.8645507051
 21
7.0794532618
 31
0.0
  0
LINE
  5
5A
330
48
100
AcDbEntity
  8
MEGA_001875
  6
CONTINUOUS
 62
     7
 48
25.4
100
AcDbLine
 10
119.8645507051
 20
264.2927816605
 30
0.0
 11
68.4467772641
 21
264.2927816605
 31
0.0
  0
LINE
  5
5B
330
48
100
AcDbEntity
  8
MEGA_001875
  6
CONTINUOUS
 62
     7
 48
25.4
100
AcDbLine
 10
122.762328184
 20
9.9772307406
 30
0.0
 11
122.762328184
 21
261.3950041816
 31
0.0
  0
LINE
  5
5C
330
48
100
AcDbEntity
  8
MEGA_001875
  6
CONTINUOUS
 62
     7
 48
25.4
100
AcDbLine
 10
65.5489997853
 20
261.3950041816
 30
0.0
 11
65.5489997853
 21
9.9772307406
 31
0.0
  0
ELLIPSE
  5
5D
330
48
100
AcDbEntity
  8
MEGA_001875
  6
CONTINUOUS
 62
     7
 48
25.4
100
AcDbEllipse
 10
119.6564996428
 20
10.185281803
 30
0.0
 11
-2.268517341243047
 21
2.268517341243046
 31
0.0
210
0.0
220
0.0
230
1.0
 40
0.9351131265
 41
2.389713239294787
 42
3.893472067884787
  0
ELLIPSE
  5
5E
330
48
100
AcDbEntity
  8
MEGA_001875
  6
CONTINUOUS
 62
     7
 48
25.4
100
AcDbEllipse
 10
121.0498354434
 20
8.7919460023
 30
0.0
 11
-2.268517341243047
 21
2.268517341243046
 31
0.0
210
0.0
220
0.0
230
1.0
 40
0.9351131265
 41
2.38971323929482
 42
3.893472067884773
  0
ELLIPSE
  5
5F
330
48
100
AcDbEntity
  8
MEGA_001875
  6
CONTINUOUS
 62
     7
 48
25.4
100
AcDbEllipse
 10
67.2614925259
 20
262.5802889199
 30
0.0
 11
2.268517341243046
 21
-2.268517341243046
 31
0.0
210
0.0
220
0.0
230
1.0
 40
0.9351131265
 41
2.389713239294808
 42
3.893472067884774
  0
ELLIPSE
  5
60
330
48
100
AcDbEntity
  8
MEGA_001875
  6
CONTINUOUS
 62
     7
 48
25.4
100
AcDbEllipse
 10
121.0498354434
 20
262.5802889199
 30
0.0
 11
-2.268517341243047
 21
-2.268517341243047
 31
0.0
210
0.0
220
0.0
230
1.0
 40
0.9351131265
 41
2.389713239294812
 42
3.893472067884761
  0
ELLIPSE
  5
61
330
48
100
AcDbEntity
  8
MEGA_001875
  6
CONTINUOUS
 62
     7
 48
25.4
100
AcDbEllipse
 10
119.6564996428
 20
261.1869531192
 30
0.0
 11
-2.268517341243047
 21
-2.268517341243047
 31
0.0
210
0.0
220
0.0
230
1.0
 40
0.9351131265
 41
2.389713239294789
 42
3.893472067884774
  0
ELLIPSE
  5
62
330
48
100
AcDbEntity
  8
MEGA_001875
  6
CONTINUOUS
 62
     7
 48
25.4
100
AcDbEllipse
 10
68.6548283265
 20
261.1869531192
 30
0.0
 11
2.268517341243046
 21
-2.268517341243046
 31
0.0
210
0.0
220
0.0
230
1.0
 40
0.9351131265
 41
2.389713239294817
 42
3.893472067884792
  0
LINE
  5
64
330
48
100
AcDbEntity
  8
STANDARD
  6
CENTER2
 62
     7
 48
25.4
100
AcDbLine
 10
94.1556639846
 20
265.6861174611
 30
0.0
 11
94.1556639846
 21
5.6861174611
 31
0.0
  0
LINE
  5
65
330
48
100
AcDbEntity
  8
STANDARD
  6
CENTER2
 62
     7
 48
25.4
100
AcDbLine
 10
94.1556639846
 20
265.6861174611
 30
0.0
 11
94.1556639846
 21
269.7732657377
 31
0.0
  0
LINE
  5
66
330
48
100
AcDbEntity
  8
STANDARD
  6
CENTER2
 62
     7
 48
25.4
100
AcDbLine
 10
94.1556639846
 20
5.6861174611
 30
0.0
 11
94.1556639846
 21
1.4164430548
 31
0.0
  0
ENDBLK
  5
68
330
48
100
AcDbEntity
  8
0
100
AcDbBlockEnd
  0
BLOCK
  5
73
330
69
100
AcDbEntity
  8
0
100
AcDbBlockBegin
  2
SE5
 70
     0
 71
     0
 10
0.0
 20
0.0
 30
0.0
  3
SE5
  1

  0
LINE
  5
6B
330
69
100
AcDbEntity
  8
MEGA_001875
  6
CONTINUOUS
 62
     7
 48
25.4
100
AcDbLine
 10
159.2989297245
 20
262.7883399822
 30
0.0
 11
159.2989297245
 21
8.58389494
 31
0.0
  0
LINE
  5
6C
330
69
100
AcDbEntity
  8
MEGA_001875
  6
CONTINUOUS
 62
     7
 48
25.4
100
AcDbLine
 10
164.4989297245
 20
261.3950041816
 30
0.0
 11
164.4989297245
 21
9.9772307406
 31
0.0
  0
LINE
  5
6D
330
69
100
AcDbEntity
  8
MEGA_001875
  6
CONTINUOUS
 62
     7
 48
25.4
100
AcDbLine
 10
164.4989297245
 20
9.9772307406
 30
0.0
 11
164.4989297245
 21
7.0794532618
 31
0.0
  0
LINE
  5
6E
330
69
100
AcDbEntity
  8
MEGA_001875
  6
CONTINUOUS
 62
     7
 48
25.4
100
AcDbLine
 10
159.2989297245
 20
5.6861174611
 30
0.0
 11
159.2989297245
 21
8.58389494
 31
0.0
  0
LINE
  5
6F
330
69
100
AcDbEntity
  8
MEGA_001875
  6
CONTINUOUS
 62
     7
 48
25.4
100
AcDbLine
 10
164.4989297245
 20
7.0794532618
 30
0.0
 11
159.2989297245
 21
5.6861174611
 31
0.0
  0
LINE
  5
70
330
69
100
AcDbEntity
  8
MEGA_001875
  6
CONTINUOUS
 62
     7
 48
25.4
100
AcDbLine
 10
164.4989297245
 20
264.2927816605
 30
0.0
 11
164.4989297245
 21
261.3950041816
 31
0.0
  0
LINE
  5
71
330
69
100
AcDbEntity
  8
MEGA_001875
  6
CONTINUOUS
 62
     7
 48
25.4
100
AcDbLine
 10
159.2989297245
 20
265.6861174611
 30
0.0
 11
164.4989297245
 21
264.2927816605
 31
0.0
  0
LINE
  5
72
330
69
100
AcDbEntity
  8
MEGA_001875
  6
CONTINUOUS
 62
     7
 48
25.4
100
AcDbLine
 10
159.2989297245
 20
262.7883399822
 30
0.0
 11
159.2989297245
 21
265.6861174611
 31
0.0
  0
ENDBLK
  5
74
330
69
100
AcDbEntity
  8
0
100
AcDbBlockEnd
  0
BLOCK
  5
7D
330
75
100
AcDbEntity
  8
0
100
AcDbBlockBegin
  2
SE6
 70
     0
 71
     0
 10
0.0
 20
0.0
 30
0.0
  3
SE6
  1

  0
POLYLINE
  5
77
330
75
100
AcDbEntity
  8
DEFAULT
  6
CONTINUOUS
 62
     7
 48
25.4
100
AcDb2dPolyline
 66
     1
 10
0.0
 20
0.0
 30
0.0
 70
     1
  0
VERTEX
  5
B2
330
77
100
AcDbEntity
  8
DEFAULT
  6
CONTINUOUS
 62
     7
100
AcDbVertex
100
AcDb2dVertex
 10
33.2672164085
 20
8.6861174872
 30
0.0
  0
VERTEX
  5
B3
330
77
100
AcDbEntity
  8
DEFAULT
  6
CONTINUOUS
 62
     7
100
AcDbVertex
100
AcDb2dVertex
 10
33.7672164128
 20
5.6861174611
 30
0.0
  0
VERTEX
  5
B4
330
77
100
AcDbEntity
  8
DEFAULT
  6
CONTINUOUS
 62
     7
100
AcDbVertex
100
AcDb2dVertex
 10
34.2672164171
 20
8.6861174872
 30
0.0
  0
VERTEX
  5
B5
330
77
100
AcDbEntity
  8
DEFAULT
  6
CONTINUOUS
 62
     7
100
AcDbVertex
100
AcDb2dVertex
 10
33.2672164085
 20
8.6861174872
 30
0.0
  0
SEQEND
  5
B1
330
77
100
AcDbEntity
  8
DEFAULT
  6
CONTINUOUS
 62
     7
 48
25.4
  0
LINE
  5
78
330
75
100
AcDbEntity
  8
DEFAULT
  6
CONTINUOUS
 62
     7
 48
25.4
100
AcDbLine
 10
67.0534414635
 20
265.6861174611
 30
0.0
 11
32.2672163998
 21
265.6861174611
 31
0.0
  0
LINE
  5
79
330
75
100
AcDbEntity
  8
DEFAULT
  6
CONTINUOUS
 62
     7
 48
25.4
100
AcDbLine
 10
94.1556639846
 20
5.6861174611
 30
0.0
 11
32.2672163998
 21
5.6861174611
 31
0.0
  0
LINE
  5
7A
330
75
100
AcDbEntity
  8
DEFAULT
  6
CONTINUOUS
 62
     7
 48
25.4
100
AcDbLine
 10
33.7672164128
 20
265.6861174611
 30
0.0
 11
33.7672164128
 21
5.6861269979
 31
0.0
  0
TEXT
  5
7C
330
75
100
AcDbEntity
  8
DEFAULT
  6
CONTINUOUS
 62
     7
 48
25.4
100
AcDbText
 10
33.0172164128
 20
132.9588495022
 30
0.0
 40
3.0
  1
260
 50
90.0
  7
SEACAD_SEISO_TTF
 11
30.0172164128
 21
132.9588495022
 31
0.0
100
AcDbText
 73
     3
  0
ENDBLK
  5
7E
330
75
100
AcDbEntity
  8
0
100
AcDbBlockEnd
  0
BLOCK
  5
87
330
7F
100
AcDbEntity
  8
0
100
AcDbBlockBegin
  2
SE7
 70
     0
 71
     0
 10
0.0
 20
0.0
 30
0.0
  3
SE7
  1

  0
POLYLINE
  5
81
330
7F
100
AcDbEntity
  8
DEFAULT
  6
CONTINUOUS
 62
     7
 48
25.4
100
AcDb2dPolyline
 66
     1
 10
0.0
 20
0.0
 30
0.0
 70
     1
  0
VERTEX
  5
B7
330
81
100
AcDbEntity
  8
DEFAULT
  6
CONTINUOUS
 62
     7
100
AcDbVertex
100
AcDb2dVertex
 10
42.9907807541
 20
254.686117435
 30
0.0
  0
VERTEX
  5
B8
330
81
100
AcDbEntity
  8
DEFAULT
  6
CONTINUOUS
 62
     7
100
AcDbVertex
100
AcDb2dVertex
 10
43.4907807585
 20
257.6861174611
 30
0.0
  0
VERTEX
  5
B9
330
81
100
AcDbEntity
  8
DEFAULT
  6
CONTINUOUS
 62
     7
100
AcDbVertex
100
AcDb2dVertex
 10
43.9907807628
 20
254.686117435
 30
0.0
  0
VERTEX
  5
BA
330
81
100
AcDbEntity
  8
DEFAULT
  6
CONTINUOUS
 62
     7
100
AcDbVertex
100
AcDb2dVertex
 10
42.9907807541
 20
254.686117435
 30
0.0
  0
SEQEND
  5
B6
330
81
100
AcDbEntity
  8
DEFAULT
  6
CONTINUOUS
 62
     7
 48
25.4
  0
POLYLINE
  5
82
330
7F
100
AcDbEntity
  8
DEFAULT
  6
CONTINUOUS
 62
     7
 48
25.4
100
AcDb2dPolyline
 66
     1
 10
0.0
 20
0.0
 30
0.0
 70
     1
  0
VERTEX
  5
BC
330
82
100
AcDbEntity
  8
DEFAULT
  6
CONTINUOUS
 62
     7
100
AcDbVertex
100
AcDb2dVertex
 10
42.9907807541
 20
16.6861174872
 30
0.0
  0
VERTEX
  5
BD
330
82
100
AcDbEntity
  8
DEFAULT
  6
CONTINUOUS
 62
     7
100
AcDbVertex
100
AcDb2dVertex
 10
43.4907807585
 20
13.6861174611
 30
0.0
  0
VERTEX
  5
BE
330
82
100
AcDbEntity
  8
DEFAULT
  6
CONTINUOUS
 62
     7
100
AcDbVertex
100
AcDb2dVertex
 10
43.9907807628
 20
16.6861174872
 30
0.0
  0
VERTEX
  5
BF
330
82
100
AcDbEntity
  8
DEFAULT
  6
CONTINUOUS
 62
     7
100
AcDbVertex
100
AcDb2dVertex
 10
42.9907807541
 20
16.6861174872
 30
0.0
  0
SEQEND
  5
BB
330
82
100
AcDbEntity
  8
DEFAULT
  6
CONTINUOUS
 62
     7
 48
25.4
  0
LINE
  5
83
330
7F
100
AcDbEntity
  8
DEFAULT
  6
CONTINUOUS
 62
     7
 48
25.4
100
AcDbLine
 10
72.1556639846
 20
257.6861174611
 30
0.0
 11
41.9907807454
 21
257.6861174611
 31
0.0
  0
LINE
  5
84
330
7F
100
AcDbEntity
  8
DEFAULT
  6
CONTINUOUS
 62
     7
 48
25.4
100
AcDbLine
 10
72.1556639846
 20
13.6861174611
 30
0.0
 11
41.9907807454
 21
13.6861174611
 31
0.0
  0
LINE
  5
85
330
7F
100
AcDbEntity
  8
DEFAULT
  6
CONTINUOUS
 62
     7
 48
25.4
100
AcDbLine
 10
43.4907807585
 20
257.6861174611
 30
0.0
 11
43.4907807585
 21
13.6861147193
 31
0.0
  0
TEXT
  5
86
330
7F
100
AcDbEntity
  8
DEFAULT
  6
CONTINUOUS
 62
     7
 48
25.4
100
AcDbText
 10
42.7407807585
 20
132.992934272
 30
0.0
 40
3.0
  1
244
 50
90.0
  7
SEACAD_SEISO_TTF
 11
39.7407807585
 21
132.992934272
 31
0.0
100
AcDbText
 73
     3
  0
ENDBLK
  5
88
330
7F
100
AcDbEntity
  8
0
100
AcDbBlockEnd
  0
BLOCK
  5
91
330
89
100
AcDbEntity
  8
0
100
AcDbBlockBegin
  2
SE8
 70
     0
 71
     0
 10
0.0
 20
0.0
 30
0.0
  3
SE8
  1

  0
POLYLINE
  5
8B
330
89
100
AcDbEntity
  8
DEFAULT
  6
CONTINUOUS
 62
     7
 48
25.4
100
AcDb2dPolyline
 66
     1
 10
0.0
 20
0.0
 30
0.0
 70
     1
  0
VERTEX
  5
C1
330
8B
100
AcDbEntity
  8
DEFAULT
  6
CONTINUOUS
 62
     7
100
AcDbVertex
100
AcDb2dVertex
 10
156.2989296984
 20
276.9218961955
 30
0.0
  0
VERTEX
  5
C2
330
8B
100
AcDbEntity
  8
DEFAULT
  6
CONTINUOUS
 62
     7
100
AcDbVertex
100
AcDb2dVertex
 10
159.2989297245
 20
276.4218961912
 30
0.0
  0
VERTEX
  5
C3
330
8B
100
AcDbEntity
  8
DEFAULT
  6
CONTINUOUS
 62
     7
100
AcDbVertex
100
AcDb2dVertex
 10
156.2989296984
 20
275.9218961869
 30
0.0
  0
VERTEX
  5
C4
330
8B
100
AcDbEntity
  8
DEFAULT
  6
CONTINUOUS
 62
     7
100
AcDbVertex
100
AcDb2dVertex
 10
156.2989296984
 20
276.9218961955
 30
0.0
  0
SEQEND
  5
C0
330
8B
100
AcDbEntity
  8
DEFAULT
  6
CONTINUOUS
 62
     7
 48
25.4
  0
POLYLINE
  5
8C
330
89
100
AcDbEntity
  8
DEFAULT
  6
CONTINUOUS
 62
     7
 48
25.4
100
AcDb2dPolyline
 66
     1
 10
0.0
 20
0.0
 30
0.0
 70
     1
  0
VERTEX
  5
C6
330
8C
100
AcDbEntity
  8
DEFAULT
  6
CONTINUOUS
 62
     7
100
AcDbVertex
100
AcDb2dVertex
 10
167.4989297506
 20
276.9218961955
 30
0.0
  0
VERTEX
  5
C7
330
8C
100
AcDbEntity
  8
DEFAULT
  6
CONTINUOUS
 62
     7
100
AcDbVertex
100
AcDb2dVertex
 10
164.4989297245
 20
276.4218961912
 30
0.0
  0
VERTEX
  5
C8
330
8C
100
AcDbEntity
  8
DEFAULT
  6
CONTINUOUS
 62
     7
100
AcDbVertex
100
AcDb2dVertex
 10
167.4989297506
 20
275.9218961869
 30
0.0
  0
VERTEX
  5
C9
330
8C
100
AcDbEntity
  8
DEFAULT
  6
CONTINUOUS
 62
     7
100
AcDbVertex
100
AcDb2dVertex
 10
167.4989297506
 20
276.9218961955
 30
0.0
  0
SEQEND
  5
C5
330
8C
100
AcDbEntity
  8
DEFAULT
  6
CONTINUOUS
 62
     7
 48
25.4
  0
LINE
  5
8D
330
89
100
AcDbEntity
  8
DEFAULT
  6
CONTINUOUS
 62
     7
 48
25.4
100
AcDbLine
 10
159.2989297245
 20
262.7883469778
 30
0.0
 11
159.2989297245
 21
277.9218962042
 31
0.0
  0
LINE
  5
8E
330
89
100
AcDbEntity
  8
DEFAULT
  6
CONTINUOUS
 62
     7
 48
25.4
100
AcDbLine
 10
164.4989297245
 20
261.3950166236
 30
0.0
 11
164.4989297245
 21
277.9218962042
 31
0.0
  0
LINE
  5
8F
330
89
100
AcDbEntity
  8
DEFAULT
  6
CONTINUOUS
 62
     7
 48
25.4
100
AcDbLine
 10
153.2989296723
 20
276.4218961912
 30
0.0
 11
170.4989293251
 21
276.4218961912
 31
0.0
  0
TEXT
  5
90
330
89
100
AcDbEntity
  8
DEFAULT
  6
CONTINUOUS
 62
     7
 48
25.4
100
AcDbText
 10
159.8534751861
 20
277.1718961912
 30
0.0
 40
3.0
  1
5,2
  7
SEACAD_SEISO_TTF
 11
159.8534751861
 21
280.1718961912
 31
0.0
100
AcDbText
 73
     3
  0
ENDBLK
  5
92
330
89
100
AcDbEntity
  8
0
100
AcDbBlockEnd
  0
BLOCK
  5
9B
330
93
100
AcDbEntity
  8
0
100
AcDbBlockBegin
  2
SE9
 70
     0
 71
     0
 10
0.0
 20
0.0
 30
0.0
  3
SE9
  1

  0
POLYLINE
  5
95
330
93
100
AcDbEntity
  8
DEFAULT
  6
CONTINUOUS
 62
     7
 48
25.4
100
AcDb2dPolyline
 66
     1
 10
0.0
 20
0.0
 30
0.0
 70
     1
  0
VERTEX
  5
CB
330
95
100
AcDbEntity
  8
DEFAULT
  6
CONTINUOUS
 62
     7
100
AcDbVertex
100
AcDb2dVertex
 10
67.1556640107
 20
288.880223795
 30
0.0
  0
VERTEX
  5
CC
330
95
100
AcDbEntity
  8
DEFAULT
  6
CONTINUOUS
 62
     7
100
AcDbVertex
100
AcDb2dVertex
 10
64.1556639846
 20
288.3802237906
 30
0.0
  0
VERTEX
  5
CD
330
95
100
AcDbEntity
  8
DEFAULT
  6
CONTINUOUS
 62
     7
100
AcDbVertex
100
AcDb2dVertex
 10
67.1556640107
 20
287.8802237863
 30
0.0
  0
VERTEX
  5
CE
330
95
100
AcDbEntity
  8
DEFAULT
  6
CONTINUOUS
 62
     7
100
AcDbVertex
100
AcDb2dVertex
 10
67.1556640107
 20
288.880223795
 30
0.0
  0
SEQEND
  5
CA
330
95
100
AcDbEntity
  8
DEFAULT
  6
CONTINUOUS
 62
     7
 48
25.4
  0
POLYLINE
  5
96
330
93
100
AcDbEntity
  8
DEFAULT
  6
CONTINUOUS
 62
     7
 48
25.4
100
AcDb2dPolyline
 66
     1
 10
0.0
 20
0.0
 30
0.0
 70
     1
  0
VERTEX
  5
D0
330
96
100
AcDbEntity
  8
DEFAULT
  6
CONTINUOUS
 62
     7
100
AcDbVertex
100
AcDb2dVertex
 10
121.1556639585
 20
288.880223795
 30
0.0
  0
VERTEX
  5
D1
330
96
100
AcDbEntity
  8
DEFAULT
  6
CONTINUOUS
 62
     7
100
AcDbVertex
100
AcDb2dVertex
 10
124.1556639846
 20
288.3802237906
 30
0.0
  0
VERTEX
  5
D2
330
96
100
AcDbEntity
  8
DEFAULT
  6
CONTINUOUS
 62
     7
100
AcDbVertex
100
AcDb2dVertex
 10
121.1556639585
 20
287.8802237863
 30
0.0
  0
VERTEX
  5
D3
330
96
100
AcDbEntity
  8
DEFAULT
  6
CONTINUOUS
 62
     7
100
AcDbVertex
100
AcDb2dVertex
 10
121.1556639585
 20
288.880223795
 30
0.0
  0
SEQEND
  5
CF
330
96
100
AcDbEntity
  8
DEFAULT
  6
CONTINUOUS
 62
     7
 48
25.4
  0
LINE
  5
97
330
93
100
AcDbEntity
  8
DEFAULT
  6
CONTINUOUS
 62
     7
 48
25.4
100
AcDbLine
 10
64.1556639846
 20
262.7883399822
 30
0.0
 11
64.1556639846
 21
289.8802238037
 31
0.0
  0
LINE
  5
98
330
93
100
AcDbEntity
  8
DEFAULT
  6
CONTINUOUS
 62
     7
 48
25.4
100
AcDbLine
 10
124.1556639846
 20
262.7883399822
 30
0.0
 11
124.1556639846
 21
289.8802238037
 31
0.0
  0
LINE
  5
99
330
93
100
AcDbEntity
  8
DEFAULT
  6
CONTINUOUS
 62
     7
 48
25.4
100
AcDbLine
 10
64.1556639846
 20
288.3802237906
 30
0.0
 11
124.1556626435
 21
288.3802237906
 31
0.0
  0
TEXT
  5
9A
330
93
100
AcDbEntity
  8
DEFAULT
  6
CONTINUOUS
 62
     7
 48
25.4
100
AcDbText
 10
92.3488451323
 20
289.1302237906
 30
0.0
 40
3.0
  1
60
  7
SEACAD_SEISO_TTF
 11
92.3488451323
 21
292.1302237906
 31
0.0
100
AcDbText
 73
     3
  0
ENDBLK
  5
9C
330
93
100
AcDbEntity
  8
0
100
AcDbBlockEnd
  0
BLOCK
  5
A5
330
9D
100
AcDbEntity
  8
0
100
AcDbBlockBegin
  2
SE10
 70
     0
 71
     0
 10
0.0
 20
0.0
 30
0.0
  3
SE10
  1

  0
POLYLINE
  5
9F
330
9D
100
AcDbEntity
  8
DEFAULT
  6
CONTINUOUS
 62
     7
 48
25.4
100
AcDb2dPolyline
 66
     1
 10
0.0
 20
0.0
 30
0.0
 70
     1
  0
VERTEX
  5
D5
330
9F
100
AcDbEntity
  8
DEFAULT
  6
CONTINUOUS
 62
     7
100
AcDbVertex
100
AcDb2dVertex
 10
75.1556640107
 20
279.1725422245
 30
0.0
  0
VERTEX
  5
D6
330
9F
100
AcDbEntity
  8
DEFAULT
  6
CONTINUOUS
 62
     7
100
AcDbVertex
100
AcDb2dVertex
 10
72.1556639846
 20
278.6725422201
 30
0.0
  0
VERTEX
  5
D7
330
9F
100
AcDbEntity
  8
DEFAULT
  6
CONTINUOUS
 62
     7
100
AcDbVertex
100
AcDb2dVertex
 10
75.1556640107
 20
278.1725422158
 30
0.0
  0
VERTEX
  5
D8
330
9F
100
AcDbEntity
  8
DEFAULT
  6
CONTINUOUS
 62
     7
100
AcDbVertex
100
AcDb2dVertex
 10
75.1556640107
 20
279.1725422245
 30
0.0
  0
SEQEND
  5
D4
330
9F
100
AcDbEntity
  8
DEFAULT
  6
CONTINUOUS
 62
     7
 48
25.4
  0
POLYLINE
  5
A0
330
9D
100
AcDbEntity
  8
DEFAULT
  6
CONTINUOUS
 62
     7
 48
25.4
100
AcDb2dPolyline
 66
     1
 10
0.0
 20
0.0
 30
0.0
 70
     1
  0
VERTEX
  5
DA
330
A0
100
AcDbEntity
  8
DEFAULT
  6
CONTINUOUS
 62
     7
100
AcDbVertex
100
AcDb2dVertex
 10
113.1556639585
 20
279.1725422245
 30
0.0
  0
VERTEX
  5
DB
330
A0
100
AcDbEntity
  8
DEFAULT
  6
CONTINUOUS
 62
     7
100
AcDbVertex
100
AcDb2dVertex
 10
116.1556639846
 20
278.6725422201
 30
0.0
  0
VERTEX
  5
DC
330
A0
100
AcDbEntity
  8
DEFAULT
  6
CONTINUOUS
 62
     7
100
AcDbVertex
100
AcDb2dVertex
 10
113.1556639585
 20
278.1725422158
 30
0.0
  0
VERTEX
  5
DD
330
A0
100
AcDbEntity
  8
DEFAULT
  6
CONTINUOUS
 62
     7
100
AcDbVertex
100
AcDb2dVertex
 10
113.1556639585
 20
279.1725422245
 30
0.0
  0
SEQEND
  5
D9
330
A0
100
AcDbEntity
  8
DEFAULT
  6
CONTINUOUS
 62
     7
 48
25.4
  0
LINE
  5
A1
330
9D
100
AcDbEntity
  8
DEFAULT
  6
CONTINUOUS
 62
     7
 48
25.4
100
AcDbLine
 10
72.1556639846
 20
257.6861174611
 30
0.0
 11
72.1556639846
 21
280.1725422332
 31
0.0
  0
LINE
  5
A2
330
9D
100
AcDbEntity
  8
DEFAULT
  6
CONTINUOUS
 62
     7
 48
25.4
100
AcDbLine
 10
116.1556639846
 20
257.6861174611
 30
0.0
 11
116.1556639846
 21
280.1725422332
 31
0.0
  0
LINE
  5
A3
330
9D
100
AcDbEntity
  8
DEFAULT
  6
CONTINUOUS
 62
     7
 48
25.4
100
AcDbLine
 10
72.1556639846
 20
278.6725422201
 30
0.0
 11
116.1556637462
 21
278.6725422201
 31
0.0
  0
TEXT
  5
A4
330
9D
100
AcDbEntity
  8
DEFAULT
  6
CONTINUOUS
 62
     7
 48
25.4
100
AcDbText
 10
92.3829365927
 20
279.4225422201
 30
0.0
 40
3.0
  1
44
  7
SEACAD_SEISO_TTF
 11
92.3829365927
 21
282.4225422201
 31
0.0
100
AcDbText
 73
     3
  0
ENDBLK
  5
A6
330
9D
100
AcDbEntity
  8
0
100
AcDbBlockEnd
  0
BLOCK
  5
AF
330
A7
100
AcDbEntity
  8
0
100
AcDbBlockBegin
  2
SE11
 70
     0
 71
     0
 10
0.0
 20
0.0
 30
0.0
  3
SE11
  1

  0
POLYLINE
  5
A9
330
A7
100
AcDbEntity
  8
DEFAULT
  6
CONTINUOUS
 62
     7
 48
25.4
100
AcDb2dPolyline
 66
     1
 10
0.0
 20
0.0
 30
0.0
 70
     1
  0
VERTEX
  5
DF
330
A9
100
AcDbEntity
  8
DEFAULT
  6
CONTINUOUS
 62
     7
100
AcDbVertex
100
AcDb2dVertex
 10
137.0887529721
 20
8.68611835
 30
0.0
  0
VERTEX
  5
E0
330
A9
100
AcDbEntity
  8
DEFAULT
  6
CONTINUOUS
 62
     7
100
AcDbVertex
100
AcDb2dVertex
 10
136.5887528366
 20
11.6861183543
 30
0.0
  0
VERTEX
  5
E1
330
A9
100
AcDbEntity
  8
DEFAULT
  6
CONTINUOUS
 62
     7
100
AcDbVertex
100
AcDb2dVertex
 10
136.0887529634
 20
8.6861183063
 30
0.0
  0
VERTEX
  5
E2
330
A9
100
AcDbEntity
  8
DEFAULT
  6
CONTINUOUS
 62
     7
100
AcDbVertex
100
AcDb2dVertex
 10
137.0887529721
 20
8.68611835
 30
0.0
  0
SEQEND
  5
DE
330
A9
100
AcDbEntity
  8
DEFAULT
  6
CONTINUOUS
 62
     7
 48
25.4
  0
POLYLINE
  5
AA
330
A7
100
AcDbEntity
  8
DEFAULT
  6
CONTINUOUS
 62
     7
 48
25.4
100
AcDb2dPolyline
 66
     1
 10
0.0
 20
0.0
 30
0.0
 70
     1
  0
VERTEX
  5
E4
330
AA
100
AcDbEntity
  8
DEFAULT
  6
CONTINUOUS
 62
     7
100
AcDbVertex
100
AcDb2dVertex
 10
137.088752535
 20
18.6861184022
 30
0.0
  0
VERTEX
  5
E5
330
AA
100
AcDbEntity
  8
DEFAULT
  6
CONTINUOUS
 62
     7
100
AcDbVertex
100
AcDb2dVertex
 10
136.5887526617
 20
15.6861183543
 30
0.0
  0
VERTEX
  5
E6
330
AA
100
AcDbEntity
  8
DEFAULT
  6
CONTINUOUS
 62
     7
100
AcDbVertex
100
AcDb2dVertex
 10
136.0887525263
 20
18.6861183585
 30
0.0
  0
VERTEX
  5
E7
330
AA
100
AcDbEntity
  8
DEFAULT
  6
CONTINUOUS
 62
     7
100
AcDbVertex
100
AcDb2dVertex
 10
137.088752535
 20
18.6861184022
 30
0.0
  0
SEQEND
  5
E3
330
AA
100
AcDbEntity
  8
DEFAULT
  6
CONTINUOUS
 62
     7
 48
25.4
  0
LINE
  5
AB
330
A7
100
AcDbEntity
  8
DEFAULT
  6
CONTINUOUS
 62
     7
 48
25.4
100
AcDbLine
 10
116.155664072
 20
11.6861174611
 30
0.0
 11
138.0887528496
 21
11.6861184198
 31
0.0
  0
LINE
  5
AC
330
A7
100
AcDbEntity
  8
DEFAULT
  6
CONTINUOUS
 62
     7
 48
25.4
100
AcDbLine
 10
116.1556638972
 20
15.6861174611
 30
0.0
 11
138.0887526748
 21
15.6861184198
 31
0.0
  0
LINE
  5
AD
330
A7
100
AcDbEntity
  8
DEFAULT
  6
CONTINUOUS
 62
     7
 48
25.4
100
AcDbLine
 10
136.5887530989
 20
5.6861183021
 30
0.0
 11
136.5887523995
 21
21.6861181308
 31
0.0
  0
TEXT
  5
AE
330
A7
100
AcDbEntity
  8
DEFAULT
  6
CONTINUOUS
 62
     7
 48
25.4
100
AcDbText
 10
135.8387527492
 20
12.7997548129
 30
0.0
 40
3.0
  1
4
 50
90.0
  7
SEACAD_SEISO_TTF
 11
132.8387527492
 21
12.7997548129
 31
0.0
100
AcDbText
 73
     3
  0
ENDBLK
  5
B0
330
A7
100
AcDbEntity
  8
0
100
AcDbBlockEnd
  0
ENDSEC
  0
SECTION
  2
ENTITIES
  0
INSERT
  5
2F
330
1F
100
AcDbEntity
  8
0
100
AcDbBlockReference
  2
SE
 10
0.0
 20
0.0
 30
0.0
  0
INSERT
  5
37
330
1F
100
AcDbEntity
  8
0
100
AcDbBlockReference
  2
SE1
 10
0.0
 20
0.0
 30
0.0
  0
INSERT
  5
3D
330
1F
100
AcDbEntity
  8
0
100
AcDbBlockReference
  2
SE2
 10
0.0
 20
0.0
 30
0.0
  0
INSERT
  5
43
330
1F
100
AcDbEntity
  8
0
100
AcDbBlockReference
  2
SE3
 10
0.0
 20
0.0
 30
0.0
  0
INSERT
  5
49
330
1F
100
AcDbEntity
  8
0
100
AcDbBlockReference
  2
SE4
 10
0.0
 20
0.0
 30
0.0
  0
INSERT
  5
6A
330
1F
100
AcDbEntity
  8
0
100
AcDbBlockReference
  2
SE5
 10
0.0
 20
0.0
 30
0.0
  0
INSERT
  5
76
330
1F
100
AcDbEntity
  8
0
100
AcDbBlockReference
  2
SE6
 10
0.0
 20
0.0
 30
0.0
  0
INSERT
  5
80
330
1F
100
AcDbEntity
  8
0
100
AcDbBlockReference
  2
SE7
 10
0.0
 20
0.0
 30
0.0
  0
INSERT
  5
8A
330
1F
100
AcDbEntity
  8
0
100
AcDbBlockReference
  2
SE8
 10
0.0
 20
0.0
 30
0.0
  0
INSERT
  5
94
330
1F
100
AcDbEntity
  8
0
100
AcDbBlockReference
  2
SE9
 10
0.0
 20
0.0
 30
0.0
  0
INSERT
  5
9E
330
1F
100
AcDbEntity
  8
0
100
AcDbBlockReference
  2
SE10
 10
0.0
 20
0.0
 30
0.0
  0
INSERT
  5
A8
330
1F
100
AcDbEntity
  8
0
100
AcDbBlockReference
  2
SE11
 10
0.0
 20
0.0
 30
0.0
  0
ENDSEC
  0
SECTION
  2
OBJECTS
  0
DICTIONARY
  5
C
330
0
100
AcDbDictionary
  3
ACAD_GROUP
350
D
  3
ACAD_LAYOUT
350
1A
  3
ACAD_MLINESTYLE
350
17
  3
ACAD_PLOTSETTINGS
350
19
  3
ACAD_TABLESTYLE
350
2A
  3
ACDBVARIABLEDICTIONARY
350
2C
1001
ACAD
1000
TREAT_AS_HARD
1070
     0
  0
DICTIONARY
  5
E8
330
29
100
AcDbDictionary
  3
ACAD_XREC_ROUNDTRIP
360
E9
  0
DICTIONARY
  5
D
102
{ACAD_REACTORS
330
C
102
}
330
C
100
AcDbDictionary
1001
ACAD
1000
TREAT_AS_HARD
1070
     0
  0
DICTIONARY
  5
1A
102
{ACAD_REACTORS
330
C
102
}
330
C
100
AcDbDictionary
1001
ACAD
1000
TREAT_AS_HARD
1070
     0
  0
DICTIONARY
  5
17
102
{ACAD_REACTORS
330
C
102
}
330
C
100
AcDbDictionary
  3
STANDARD
350
18
1001
ACAD
1000
TREAT_AS_HARD
1070
     0
  0
DICTIONARY
  5
19
102
{ACAD_REACTORS
330
C
102
}
330
C
100
AcDbDictionary
1001
ACAD
1000
TREAT_AS_HARD
1070
     0
  0
DICTIONARY
  5
2A
102
{ACAD_REACTORS
330
C
102
}
330
C
100
AcDbDictionary
  3
STANDARD
350
2B
1001
ACAD
1000
TREAT_AS_HARD
1070
     0
  0
DICTIONARY
  5
2C
102
{ACAD_REACTORS
330
C
102
}
330
C
100
AcDbDictionary
  3
CTABLESTYLE
350
2D
1001
ACAD
1000
TREAT_AS_HARD
1070
     0
  0
XRECORD
  5
E9
102
{ACAD_REACTORS
330
E8
102
}
330
E8
100
AcDbXrecord
102
UCS
 74
     0
 71
     1
 10
0.0
 20
0.0
 30
0.0
 10
1.0
 20
0.0
 30
0.0
 10
0.0
 20
1.0
 30
0.0
146
0.0
 79
     0
102
VIEW
281
     0
  0
MLINESTYLE
  5
18
102
{ACAD_REACTORS
330
17
102
}
330
17
100
AcDbMlineStyle
  2
Standard
 70
     0
  3

 62
   256
 51
90.0
 52
90.0
 71
     2
 49
0.5
 62
   256
  6
BYLAYER
 49
-0.5
 62
   256
  6
BYLAYER
  0
TABLESTYLE
  5
2B
102
{ACAD_REACTORS
330
2A
102
}
330
2A
100
AcDbTableStyle
  3
Standard
 70
     0
 71
     0
 40
0.06
 41
0.06
280
     0
281
     0
  7
STANDARD
140
0.18
170
     2
 62
     0
 63
     7
283
     0
274
    -2
284
     1
 64
     0
275
    -2
285
     1
 65
     0
276
    -2
286
     1
 66
     0
277
    -2
287
     1
 67
     0
278
    -2
288
     1
 68
     0
279
    -2
289
     1
 69
     0
  7
STANDARD
140
0.25
170
     5
 62
     0
 63
     7
283
     0
274
    -2
284
     1
 64
     0
275
    -2
285
     1
 65
     0
276
    -2
286
     1
 66
     0
277
    -2
287
     1
 67
     0
278
    -2
288
     1
 68
     0
279
    -2
289
     1
 69
     0
  7
STANDARD
140
0.18
170
     5
 62
     0
 63
     7
283
     0
274
    -2
284
     1
 64
     0
275
    -2
285
     1
 65
     0
276
    -2
286
     1
 66
     0
277
    -2
287
     1
 67
     0
278
    -2
288
     1
 68
     0
279
    -2
289
     1
 69
     0
  0
DICTIONARYVAR
  5
2D
102
{ACAD_REACTORS
330
2C
102
}
330
2C
100
DictionaryVariables
280
     0
  1
Standard
  0
ENDSEC
  0
EOF
