  0
SECTION
  2
HEADER
  9
$ACADVER
  1
AC1012
  9
$DWGCODEPAGE
  3
ansi_1252
  9
$INSBASE
 10
0.0
 20
0.0
 30
0.0
  9
$EXTMIN
 10
0.0
 20
0.0
 30
0.0
  9
$EXTMAX
 10
210.0
 20
297.0
 30
0.0
  9
$LIMMIN
 10
0.0
 20
0.0
  9
$LIMMAX
 10
210.0
 20
297.0
  9
$ORTHOMODE
 70
     0
  9
$REGENMODE
 70
     1
  9
$FILLMODE
 70
     1
  9
$QTEXTMODE
 70
     0
  9
$MIRRTEXT
 70
     1
  9
$DRAGMODE
 70
     2
  9
$LTSCALE
 40
1.0
  9
$OSMODE
 70
    37
  9
$ATTMODE
 70
     1
  9
$TEXTSIZE
 40
0.2
  9
$TRACEWID
 40
0.05
  9
$TEXTSTYLE
  7
STANDARD
  9
$CLAYER
  8
0
  9
$CELTYPE
  6
BYLAYER
  9
$CECOLOR
 62
   256
  9
$CELTSCALE
 40
25.4
  9
$DELOBJ
 70
     1
  9
$DISPSILH
 70
     0
  9
$DIMSCALE
 40
1.0
  9
$DIMASZ
 40
0.18
  9
$DIMEXO
 40
0.0625
  9
$DIMDLI
 40
0.38
  9
$DIMRND
 40
0.0
  9
$DIMDLE
 40
0.0
  9
$DIMEXE
 40
0.18
  9
$DIMTP
 40
0.0
  9
$DIMTM
 40
0.0
  9
$DIMTXT
 40
0.18
  9
$DIMCEN
 40
0.09
  9
$DIMTSZ
 40
0.0
  9
$DIMTOL
 70
     0
  9
$DIMLIM
 70
     0
  9
$DIMTIH
 70
     1
  9
$DIMTOH
 70
     1
  9
$DIMSE1
 70
     0
  9
$DIMSE2
 70
     0
  9
$DIMTAD
 70
     0
  9
$DIMZIN
 70
     0
  9
$DIMBLK
  1

  9
$DIMASO
 70
     1
  9
$DIMSHO
 70
     1
  9
$DIMPOST
  1

  9
$DIMAPOST
  1

  9
$DIMALT
 70
     0
  9
$DIMALTD
 70
     2
  9
$DIMALTF
 40
25.4
  9
$DIMLFAC
 40
1.0
  9
$DIMTOFL
 70
     0
  9
$DIMTVP
 40
0.0
  9
$DIMTIX
 70
     0
  9
$DIMSOXD
 70
     0
  9
$DIMSAH
 70
     0
  9
$DIMBLK1
  1

  9
$DIMBLK2
  1

  9
$DIMSTYLE
  2
STANDARD
  9
$DIMCLRD
 70
     0
  9
$DIMCLRE
 70
     0
  9
$DIMCLRT
 70
     0
  9
$DIMTFAC
 40
1.0
  9
$DIMGAP
 40
0.09
  9
$DIMJUST
 70
     0
  9
$DIMSD1
 70
     0
  9
$DIMSD2
 70
     0
  9
$DIMTOLJ
 70
     1
  9
$DIMTZIN
 70
     0
  9
$DIMALTZ
 70
     0
  9
$DIMALTTZ
 70
     0
  9
$DIMFIT
 70
     3
  9
$DIMUPT
 70
     0
  9
$DIMUNIT
 70
     2
  9
$DIMDEC
 70
     4
  9
$DIMTDEC
 70
     4
  9
$DIMALTU
 70
     2
  9
$DIMALTTD
 70
     2
  9
$DIMTXSTY
  7
STANDARD
  9
$DIMAUNIT
 70
     0
  9
$LUNITS
 70
     2
  9
$LUPREC
 70
     4
  9
$SKETCHINC
 40
0.1
  9
$FILLETRAD
 40
0.5
  9
$AUNITS
 70
     0
  9
$AUPREC
 70
     0
  9
$MENU
  1
.
  9
$ELEVATION
 40
0.0
  9
$PELEVATION
 40
0.0
  9
$THICKNESS
 40
0.0
  9
$LIMCHECK
 70
     0
  9
$CHAMFERA
 40
0.5
  9
$CHAMFERB
 40
0.5
  9
$CHAMFERC
 40
1.0
  9
$CHAMFERD
 40
0.0
  9
$SKPOLY
 70
     0
  9
$TDCREATE
 40
2453762.543813947
  9
$TDUPDATE
 40
2453762.543813958
  9
$TDINDWG
 40
0.0000000116
  9
$TDUSRTIMER
 40
0.0000000116
  9
$USRTIMER
 70
     1
  9
$ANGBASE
 50
0.0
  9
$ANGDIR
 70
     0
  9
$PDMODE
 70
     0
  9
$PDSIZE
 40
0.0
  9
$PLINEWID
 40
0.0
  9
$COORDS
 70
     1
  9
$SPLFRAME
 70
     0
  9
$SPLINETYPE
 70
     6
  9
$SPLINESEGS
 70
     8
  9
$ATTDIA
 70
     0
  9
$ATTREQ
 70
     1
  9
$HANDLING
 70
     1
  9
$HANDSEED
  5
148
  9
$SURFTAB1
 70
     6
  9
$SURFTAB2
 70
     6
  9
$SURFTYPE
 70
     6
  9
$SURFU
 70
     6
  9
$SURFV
 70
     6
  9
$UCSNAME
  2

  9
$UCSORG
 10
0.0
 20
0.0
 30
0.0
  9
$UCSXDIR
 10
1.0
 20
0.0
 30
0.0
  9
$UCSYDIR
 10
0.0
 20
1.0
 30
0.0
  9
$PUCSNAME
  2

  9
$PUCSORG
 10
0.0
 20
0.0
 30
0.0
  9
$PUCSXDIR
 10
1.0
 20
0.0
 30
0.0
  9
$PUCSYDIR
 10
0.0
 20
1.0
 30
0.0
  9
$USERI1
 70
     0
  9
$USERI2
 70
     0
  9
$USERI3
 70
     0
  9
$USERI4
 70
     0
  9
$USERI5
 70
     0
  9
$USERR1
 40
0.0
  9
$USERR2
 40
0.0
  9
$USERR3
 40
0.0
  9
$USERR4
 40
0.0
  9
$USERR5
 40
0.0
  9
$WORLDVIEW
 70
     1
  9
$SHADEDGE
 70
     3
  9
$SHADEDIF
 70
    70
  9
$TILEMODE
 70
     1
  9
$MAXACTVP
 70
    64
  9
$PINSBASE
 10
0.0
 20
0.0
 30
0.0
  9
$PLIMCHECK
 70
     0
  9
$PEXTMIN
 10
0.0
 20
0.0
 30
0.0
  9
$PEXTMAX
 10
210.0
 20
297.0
 30
0.0
  9
$PLIMMIN
 10
0.0
 20
0.0
  9
$PLIMMAX
 10
12.0
 20
9.0
  9
$UNITMODE
 70
     0
  9
$VISRETAIN
 70
     1
  9
$PLINEGEN
 70
     0
  9
$PSLTSCALE
 70
     1
  9
$TREEDEPTH
 70
  3020
  9
$PICKSTYLE
 70
     1
  9
$CMLSTYLE
  2
STANDARD
  9
$CMLJUST
 70
     0
  9
$CMLSCALE
 40
1.0
  9
$SAVEIMAGES
 70
     1
  0
ENDSEC
  0
SECTION
  2
CLASSES
  0
CLASS
  1
ACDBDICTIONARYWDFLT
  2
AcDbDictionaryWithDefault
  3
ObjectDBX Classes
 90
        0
280
     0
281
     0
  0
CLASS
  1
TABLESTYLE
  2
AcDbTableStyle
  3
ObjectDBX Classes
 90
     2047
280
     0
281
     0
  0
CLASS
  1
DICTIONARYVAR
  2
AcDbDictionaryVar
  3
ObjectDBX Classes
 90
        0
280
     0
281
     0
  0
CLASS
  1
XRECORD
  2
AcDbXrecord
  3
AutoCAD 2000
 90
    32768
280
     0
281
     0
  0
CLASS
  1
LWPOLYLINE
  2
AcDbPolyline
  3
AutoCAD 2000
 90
    32768
280
     0
281
     1
  0
CLASS
  1
HATCH
  2
AcDbHatch
  3
AutoCAD 2000
 90
    32768
280
     0
281
     1
  0
CLASS
  1
ACDBPLACEHOLDER
  2
AcDbPlaceHolder
  3
ObjectDBX Classes
 90
        0
280
     0
281
     0
  0
CLASS
  1
LAYOUT
  2
AcDbLayout
  3
ObjectDBX Classes
 90
        0
280
     0
281
     0
  0
ENDSEC
  0
SECTION
  2
TABLES
  0
TABLE
  2
VPORT
  5
8
330
0
100
AcDbSymbolTable
 70
     2
  0
VPORT
  5
29
102
{ACAD_XDICTIONARY
360
146
102
}
330
8
100
AcDbSymbolTableRecord
100
AcDbViewportTableRecord
  2
*ACTIVE
 70
     0
 10
0.0
 20
0.0
 11
1.0
 21
1.0
 12
10.4299065421
 22
4.5
 13
0.0
 23
0.0
 14
0.5
 24
0.5
 15
0.5
 25
0.5
 16
0.0
 26
0.0
 36
1.0
 17
0.0
 27
0.0
 37
0.0
 40
9.0
 41
1.9729729729
 42
50.0
 43
0.0
 44
0.0
 50
0.0
 51
0.0
 71
     0
 72
   100
 73
     1
 74
     3
 75
     0
 76
     0
 77
     0
 78
     0
  0
ENDTAB
  0
TABLE
  2
LTYPE
  5
5
330
0
100
AcDbSymbolTable
 70
     2
  0
LTYPE
  5
14
330
5
100
AcDbSymbolTableRecord
100
AcDbLinetypeTableRecord
  2
BYBLOCK
 70
     0
  3

 72
    65
 73
     0
 40
0.0
  0
LTYPE
  5
15
330
5
100
AcDbSymbolTableRecord
100
AcDbLinetypeTableRecord
  2
BYLAYER
 70
     0
  3

 72
    65
 73
     0
 40
0.0
  0
LTYPE
  5
16
330
5
100
AcDbSymbolTableRecord
100
AcDbLinetypeTableRecord
  2
CONTINUOUS
 70
     0
  3
Solid line
 72
    65
 73
     0
 40
0.0
  0
LTYPE
  5
31
330
5
100
AcDbSymbolTableRecord
100
AcDbLinetypeTableRecord
  2
CENTER2
 70
     0
  3
___ _ ___ _ ___ _ ___ _ ___ _ ___ _ ___ _ ___ _
 72
    65
 73
     4
 40
1.125
 49
0.75
 74
     4
 75
     0
340
0
 46
0.0
 50
0.0
 44
0.0
 45
0.0
 49
-0.125
 74
     4
 75
     0
340
0
 46
0.0
 50
0.0
 44
0.0
 45
0.0
 49
0.125
 74
     4
 75
     0
340
0
 46
0.0
 50
0.0
 44
0.0
 45
0.0
 49
-0.125
 74
     4
 75
     0
340
0
 46
0.0
 50
0.0
 44
0.0
 45
0.0
  0
ENDTAB
  0
TABLE
  2
LAYER
  5
2
330
0
100
AcDbSymbolTable
 70
     4
  0
LAYER
  5
10
330
2
100
AcDbSymbolTableRecord
100
AcDbLayerTableRecord
  2
0
 70
     0
 62
     7
  6
CONTINUOUS
  0
LAYER
  5
30
330
2
100
AcDbSymbolTableRecord
100
AcDbLayerTableRecord
  2
DEFAULT
 70
     0
 62
     7
  6
CONTINUOUS
  0
LAYER
  5
50
330
2
100
AcDbSymbolTableRecord
100
AcDbLayerTableRecord
  2
MEGA_001871
 70
     0
 62
     7
  6
CONTINUOUS
  0
LAYER
  5
6B
330
2
100
AcDbSymbolTableRecord
100
AcDbLayerTableRecord
  2
STANDARD
 70
     0
 62
     7
  6
CONTINUOUS
  0
ENDTAB
  0
TABLE
  2
STYLE
  5
3
330
0
100
AcDbSymbolTable
 70
     2
  0
STYLE
  5
11
330
3
100
AcDbSymbolTableRecord
100
AcDbTextStyleTableRecord
  2
STANDARD
 70
     0
 40
0.0
 41
1.0
 50
0.0
 71
     0
 42
0.2
  3
txt
  4

  0
STYLE
  5
89
330
3
100
AcDbSymbolTableRecord
100
AcDbTextStyleTableRecord
  2
SEACAD_SEISO_TTF
 70
     0
 40
0.2
 41
1.0
 50
0.0
 71
     0
 42
0.2
  3
seiso.ttf
  4

  0
ENDTAB
  0
TABLE
  2
VIEW
  5
6
330
0
100
AcDbSymbolTable
 70
     0
  0
ENDTAB
  0
TABLE
  2
UCS
  5
7
330
0
100
AcDbSymbolTable
 70
     0
  0
ENDTAB
  0
TABLE
  2
APPID
  5
9
330
0
100
AcDbSymbolTable
 70
     1
  0
APPID
  5
12
330
9
100
AcDbSymbolTableRecord
100
AcDbRegAppTableRecord
  2
ACAD
 70
     0
  0
ENDTAB
  0
TABLE
  2
DIMSTYLE
  5
A
330
0
100
AcDbSymbolTable
 70
     1
  0
DIMSTYLE
105
27
330
A
100
AcDbSymbolTableRecord
100
AcDbDimStyleTableRecord
  2
STANDARD
 70
     0
  3

  4

  5

  6

  7

 40
1.0
 41
0.18
 42
0.0625
 43
0.38
 44
0.18
 45
0.0
 46
0.0
 47
0.0
 48
0.0
140
0.18
141
0.09
142
0.0
143
25.4
144
1.0
145
0.0
146
1.0
147
0.09
 71
     0
 72
     0
 73
     1
 74
     1
 75
     0
 76
     0
 77
     0
 78
     0
170
     0
171
     2
172
     0
173
     0
174
     0
175
     0
176
     0
177
     0
178
     0
270
     2
271
     4
272
     4
273
     2
274
     2
340
11
275
     0
280
     0
281
     0
282
     0
283
     1
284
     0
285
     0
286
     0
287
     3
288
     0
  0
ENDTAB
  0
TABLE
  2
BLOCK_RECORD
  5
1
330
0
100
AcDbSymbolTable
 70
    18
  0
BLOCK_RECORD
  5
1F
330
1
100
AcDbSymbolTableRecord
100
AcDbBlockTableRecord
  2
*MODEL_SPACE
  0
BLOCK_RECORD
  5
1B
330
1
100
AcDbSymbolTableRecord
100
AcDbBlockTableRecord
  2
*PAPER_SPACE
  0
BLOCK_RECORD
  5
2E
330
1
100
AcDbSymbolTableRecord
100
AcDbBlockTableRecord
  2
SE
  0
BLOCK_RECORD
  5
36
330
1
100
AcDbSymbolTableRecord
100
AcDbBlockTableRecord
  2
SE1
  0
BLOCK_RECORD
  5
3C
330
1
100
AcDbSymbolTableRecord
100
AcDbBlockTableRecord
  2
SE2
  0
BLOCK_RECORD
  5
42
330
1
100
AcDbSymbolTableRecord
100
AcDbBlockTableRecord
  2
SE3
  0
BLOCK_RECORD
  5
48
330
1
100
AcDbSymbolTableRecord
100
AcDbBlockTableRecord
  2
SE4
  0
BLOCK_RECORD
  5
4E
330
1
100
AcDbSymbolTableRecord
100
AcDbBlockTableRecord
  2
SE5
  0
BLOCK_RECORD
  5
71
330
1
100
AcDbSymbolTableRecord
100
AcDbBlockTableRecord
  2
SE6
  0
BLOCK_RECORD
  5
83
330
1
100
AcDbSymbolTableRecord
100
AcDbBlockTableRecord
  2
SE7
  0
BLOCK_RECORD
  5
8D
330
1
100
AcDbSymbolTableRecord
100
AcDbBlockTableRecord
  2
SE8
  0
BLOCK_RECORD
  5
97
330
1
100
AcDbSymbolTableRecord
100
AcDbBlockTableRecord
  2
SE9
  0
BLOCK_RECORD
  5
A1
330
1
100
AcDbSymbolTableRecord
100
AcDbBlockTableRecord
  2
SE10
  0
BLOCK_RECORD
  5
AB
330
1
100
AcDbSymbolTableRecord
100
AcDbBlockTableRecord
  2
SE11
  0
BLOCK_RECORD
  5
B5
330
1
100
AcDbSymbolTableRecord
100
AcDbBlockTableRecord
  2
SE12
  0
BLOCK_RECORD
  5
BF
330
1
100
AcDbSymbolTableRecord
100
AcDbBlockTableRecord
  2
SE13
  0
BLOCK_RECORD
  5
C9
330
1
100
AcDbSymbolTableRecord
100
AcDbBlockTableRecord
  2
SE14
  0
BLOCK_RECORD
  5
D3
330
1
100
AcDbSymbolTableRecord
100
AcDbBlockTableRecord
  2
SE15
  0
BLOCK_RECORD
  5
DD
330
1
100
AcDbSymbolTableRecord
100
AcDbBlockTableRecord
  2
SE16
  0
ENDTAB
  0
ENDSEC
  0
SECTION
  2
BLOCKS
  0
BLOCK
  5
20
330
1F
100
AcDbEntity
  8
0
100
AcDbBlockBegin
  2
*MODEL_SPACE
 70
     0
 71
     0
 10
0.0
 20
0.0
 30
0.0
  3
*MODEL_SPACE
  1

  0
ENDBLK
  5
21
330
1F
100
AcDbEntity
  8
0
100
AcDbBlockEnd
  0
BLOCK
  5
1C
330
1B
100
AcDbEntity
 67
     1
  8
0
100
AcDbBlockBegin
  2
*PAPER_SPACE
 70
     0
 71
     0
 10
0.0
 20
0.0
 30
0.0
  3
*PAPER_SPACE
  1

  0
ENDBLK
  5
1D
330
1B
100
AcDbEntity
 67
     1
  8
0
100
AcDbBlockEnd
  0
BLOCK
  5
34
330
2E
100
AcDbEntity
  8
0
100
AcDbBlockBegin
  2
SE
 70
     0
 71
     0
 10
0.0
 20
0.0
 30
0.0
  3
SE
  1

  0
LINE
  5
32
330
2E
100
AcDbEntity
  8
DEFAULT
  6
CENTER2
 62
     7
 48
25.4
100
AcDbLine
 10
71.5800746467
 20
256.5365980156
 30
0.0
 11
59.5800745424
 21
256.5365980156
 31
0.0
  0
LINE
  5
33
330
2E
100
AcDbEntity
  8
DEFAULT
  6
CENTER2
 62
     7
 48
25.4
100
AcDbLine
 10
65.5800745946
 20
262.5365980677
 30
0.0
 11
65.5800745946
 21
250.5365979634
 31
0.0
  0
ENDBLK
  5
35
330
2E
100
AcDbEntity
  8
0
100
AcDbBlockEnd
  0
BLOCK
  5
3A
330
36
100
AcDbEntity
  8
0
100
AcDbBlockBegin
  2
SE1
 70
     0
 71
     0
 10
0.0
 20
0.0
 30
0.0
  3
SE1
  1

  0
LINE
  5
38
330
36
100
AcDbEntity
  8
DEFAULT
  6
CENTER2
 62
     7
 48
25.4
100
AcDbLine
 10
115.5800746467
 20
256.5365980156
 30
0.0
 11
103.5800745424
 21
256.5365980156
 31
0.0
  0
LINE
  5
39
330
36
100
AcDbEntity
  8
DEFAULT
  6
CENTER2
 62
     7
 48
25.4
100
AcDbLine
 10
109.5800745946
 20
262.5365980677
 30
0.0
 11
109.5800745946
 21
250.5365979634
 31
0.0
  0
ENDBLK
  5
3B
330
36
100
AcDbEntity
  8
0
100
AcDbBlockEnd
  0
BLOCK
  5
40
330
3C
100
AcDbEntity
  8
0
100
AcDbBlockBegin
  2
SE2
 70
     0
 71
     0
 10
0.0
 20
0.0
 30
0.0
  3
SE2
  1

  0
LINE
  5
3E
330
3C
100
AcDbEntity
  8
DEFAULT
  6
CENTER2
 62
     7
 48
25.4
100
AcDbLine
 10
93.5800746467
 20
169.5365980156
 30
0.0
 11
81.5800745424
 21
169.5365980156
 31
0.0
  0
LINE
  5
3F
330
3C
100
AcDbEntity
  8
DEFAULT
  6
CENTER2
 62
     7
 48
25.4
100
AcDbLine
 10
87.5800745946
 20
175.5365980677
 30
0.0
 11
87.5800745946
 21
163.5365979634
 31
0.0
  0
ENDBLK
  5
41
330
3C
100
AcDbEntity
  8
0
100
AcDbBlockEnd
  0
BLOCK
  5
46
330
42
100
AcDbEntity
  8
0
100
AcDbBlockBegin
  2
SE3
 70
     0
 71
     0
 10
0.0
 20
0.0
 30
0.0
  3
SE3
  1

  0
LINE
  5
44
330
42
100
AcDbEntity
  8
DEFAULT
  6
CENTER2
 62
     7
 48
25.4
100
AcDbLine
 10
115.5800746467
 20
12.5365980156
 30
0.0
 11
103.5800745424
 21
12.5365980156
 31
0.0
  0
LINE
  5
45
330
42
100
AcDbEntity
  8
DEFAULT
  6
CENTER2
 62
     7
 48
25.4
100
AcDbLine
 10
109.5800745946
 20
18.5365980677
 30
0.0
 11
109.5800745946
 21
6.5365979634
 31
0.0
  0
ENDBLK
  5
47
330
42
100
AcDbEntity
  8
0
100
AcDbBlockEnd
  0
BLOCK
  5
4C
330
48
100
AcDbEntity
  8
0
100
AcDbBlockBegin
  2
SE4
 70
     0
 71
     0
 10
0.0
 20
0.0
 30
0.0
  3
SE4
  1

  0
LINE
  5
4A
330
48
100
AcDbEntity
  8
DEFAULT
  6
CENTER2
 62
     7
 48
25.4
100
AcDbLine
 10
71.5800746467
 20
12.5365980156
 30
0.0
 11
59.5800745424
 21
12.5365980156
 31
0.0
  0
LINE
  5
4B
330
48
100
AcDbEntity
  8
DEFAULT
  6
CENTER2
 62
     7
 48
25.4
100
AcDbLine
 10
65.5800745946
 20
18.5365980677
 30
0.0
 11
65.5800745946
 21
6.5365979634
 31
0.0
  0
ENDBLK
  5
4D
330
48
100
AcDbEntity
  8
0
100
AcDbBlockEnd
  0
BLOCK
  5
6F
330
4E
100
AcDbEntity
  8
0
100
AcDbBlockBegin
  2
SE5
 70
     0
 71
     0
 10
0.0
 20
0.0
 30
0.0
  3
SE5
  1

  0
LINE
  5
51
330
4E
100
AcDbEntity
  8
MEGA_001871
  6
CONTINUOUS
 62
     7
 48
25.4
100
AcDbLine
 10
117.5800745946
 20
7.4343754944
 30
0.0
 11
117.5800745946
 21
261.6388205367
 31
0.0
  0
LINE
  5
52
330
4E
100
AcDbEntity
  8
MEGA_001871
  6
CONTINUOUS
 62
     7
 48
25.4
100
AcDbLine
 10
57.5800745946
 20
261.6388205367
 30
0.0
 11
57.5800745946
 21
7.4343754944
 31
0.0
  0
LINE
  5
53
330
4E
100
AcDbEntity
  8
MEGA_001871
  6
CONTINUOUS
 62
     7
 48
25.4
100
AcDbLine
 10
114.6822971157
 20
264.5365980156
 30
0.0
 11
60.4778520734
 21
264.5365980156
 31
0.0
  0
LINE
  5
54
330
4E
100
AcDbEntity
  8
MEGA_001871
  6
CONTINUOUS
 62
     7
 48
25.4
100
AcDbLine
 10
116.1867387939
 20
8.8277112951
 30
0.0
 11
116.1867387939
 21
260.2454847361
 31
0.0
  0
LINE
  5
55
330
4E
100
AcDbEntity
  8
MEGA_001871
  6
CONTINUOUS
 62
     7
 48
25.4
100
AcDbLine
 10
61.8711878741
 20
5.9299338162
 30
0.0
 11
113.2889613151
 21
5.9299338162
 31
0.0
  0
LINE
  5
56
330
4E
100
AcDbEntity
  8
MEGA_001871
  6
CONTINUOUS
 62
     7
 48
25.4
100
AcDbLine
 10
60.4778520734
 20
4.5365980156
 30
0.0
 11
114.6822971157
 21
4.5365980156
 31
0.0
  0
LINE
  5
57
330
4E
100
AcDbEntity
  8
MEGA_001871
  6
CONTINUOUS
 62
     7
 48
25.4
100
AcDbLine
 10
58.9734103952
 20
260.2454847361
 30
0.0
 11
58.9734103952
 21
8.8277112951
 31
0.0
  0
LINE
  5
58
330
4E
100
AcDbEntity
  8
MEGA_001871
  6
CONTINUOUS
 62
     7
 48
25.4
100
AcDbLine
 10
113.2889613151
 20
263.1432622149
 30
0.0
 11
61.8711878741
 21
263.1432622149
 31
0.0
  0
ELLIPSE
  5
59
330
4E
100
AcDbEntity
  8
MEGA_001871
  6
CONTINUOUS
 62
     7
 48
25.4
100
AcDbEllipse
 10
114.4742460534
 20
7.6424265568
 30
0.0
 11
-2.268517341243047
 21
2.268517341243046
 31
0.0
210
0.0
220
0.0
230
1.0
 40
0.9351131265
 41
2.38971323929481
 42
3.893472067884773
  0
ELLIPSE
  5
5A
330
4E
100
AcDbEntity
  8
MEGA_001871
  6
CONTINUOUS
 62
     7
 48
25.4
100
AcDbEllipse
 10
60.6859031358
 20
261.4307694743
 30
0.0
 11
2.268517341243046
 21
-2.268517341243046
 31
0.0
210
0.0
220
0.0
230
1.0
 40
0.9351131265
 41
2.389713239294844
 42
3.893472067884829
  0
ELLIPSE
  5
5B
330
4E
100
AcDbEntity
  8
MEGA_001871
  6
CONTINUOUS
 62
     7
 48
25.4
100
AcDbEllipse
 10
114.4742460534
 20
261.4307694743
 30
0.0
 11
-2.268517341243047
 21
-2.268517341243047
 31
0.0
210
0.0
220
0.0
230
1.0
 40
0.9351131265
 41
2.389713239294757
 42
3.893472067884774
  0
ELLIPSE
  5
5C
330
4E
100
AcDbEntity
  8
MEGA_001871
  6
CONTINUOUS
 62
     7
 48
25.4
100
AcDbEllipse
 10
113.0809102527
 20
260.0374336737
 30
0.0
 11
-2.268517341243047
 21
-2.268517341243047
 31
0.0
210
0.0
220
0.0
230
1.0
 40
0.9351131265
 41
2.389713239294757
 42
3.893472067884774
  0
ELLIPSE
  5
5D
330
4E
100
AcDbEntity
  8
MEGA_001871
  6
CONTINUOUS
 62
     7
 48
25.4
100
AcDbEllipse
 10
113.0809102527
 20
9.0357623574
 30
0.0
 11
-2.268517341243047
 21
2.268517341243046
 31
0.0
210
0.0
220
0.0
230
1.0
 40
0.9351131265
 41
2.389713239294792
 42
3.893472067884784
  0
ELLIPSE
  5
5E
330
4E
100
AcDbEntity
  8
MEGA_001871
  6
CONTINUOUS
 62
     7
 48
25.4
100
AcDbEllipse
 10
60.6859031358
 20
7.6424265568
 30
0.0
 11
2.268517341243046
 21
2.268517341243047
 31
0.0
210
0.0
220
0.0
230
1.0
 40
0.9351131265
 41
2.3897132392948
 42
3.893472067884773
  0
ELLIPSE
  5
5F
330
4E
100
AcDbEntity
  8
MEGA_001871
  6
CONTINUOUS
 62
     7
 48
25.4
100
AcDbEllipse
 10
62.0792389365
 20
9.0357623574
 30
0.0
 11
2.268517341243046
 21
2.268517341243047
 31
0.0
210
0.0
220
0.0
230
1.0
 40
0.9351131265
 41
2.38971323929481
 42
3.893472067884771
  0
ELLIPSE
  5
60
330
4E
100
AcDbEntity
  8
MEGA_001871
  6
CONTINUOUS
 62
     7
 48
25.4
100
AcDbEllipse
 10
62.0792389365
 20
260.0374336737
 30
0.0
 11
2.268517341243046
 21
-2.268517341243046
 31
0.0
210
0.0
220
0.0
230
1.0
 40
0.9351131265
 41
2.389713239294803
 42
3.893472067884829
  0
CIRCLE
  5
61
330
4E
100
AcDbEntity
  8
MEGA_001871
  6
CONTINUOUS
 62
     7
 48
25.4
100
AcDbCircle
 10
109.5800745946
 20
12.5365980156
 30
0.0
 40
3.599999999999981
  0
CIRCLE
  5
62
330
4E
100
AcDbEntity
  8
MEGA_001871
  6
CONTINUOUS
 62
     7
 48
25.4
100
AcDbCircle
 10
109.5800745946
 20
256.5365980156
 30
0.0
 40
2.0
  0
CIRCLE
  5
63
330
4E
100
AcDbEntity
  8
MEGA_001871
  6
CONTINUOUS
 62
     7
 48
25.4
100
AcDbCircle
 10
65.5800745946
 20
12.5365980156
 30
0.0
 40
2.0
  0
CIRCLE
  5
64
330
4E
100
AcDbEntity
  8
MEGA_001871
  6
CONTINUOUS
 62
     7
 48
25.4
100
AcDbCircle
 10
109.5800745946
 20
12.5365980156
 30
0.0
 40
2.0
  0
CIRCLE
  5
65
330
4E
100
AcDbEntity
  8
MEGA_001871
  6
CONTINUOUS
 62
     7
 48
25.4
100
AcDbCircle
 10
65.5800745946
 20
256.5365980156
 30
0.0
 40
3.599999999999966
  0
CIRCLE
  5
66
330
4E
100
AcDbEntity
  8
MEGA_001871
  6
CONTINUOUS
 62
     7
 48
25.4
100
AcDbCircle
 10
109.5800745946
 20
256.5365980156
 30
0.0
 40
3.599999999999966
  0
CIRCLE
  5
67
330
4E
100
AcDbEntity
  8
MEGA_001871
  6
CONTINUOUS
 62
     7
 48
25.4
100
AcDbCircle
 10
65.5800745946
 20
12.5365980156
 30
0.0
 40
3.599999999999981
  0
CIRCLE
  5
68
330
4E
100
AcDbEntity
  8
MEGA_001871
  6
CONTINUOUS
 62
     7
 48
25.4
100
AcDbCircle
 10
65.5800745946
 20
256.5365980156
 30
0.0
 40
2.0
  0
CIRCLE
  5
69
330
4E
100
AcDbEntity
  8
MEGA_001871
  6
CONTINUOUS
 62
     7
 48
25.4
100
AcDbCircle
 10
87.5800745946
 20
169.5365980156
 30
0.0
 40
9.049999999999997
  0
CIRCLE
  5
6A
330
4E
100
AcDbEntity
  8
MEGA_001871
  6
CONTINUOUS
 62
     7
 48
25.4
100
AcDbCircle
 10
87.5800745946
 20
169.5365980156
 30
0.0
 40
9.549999999999985
  0
LINE
  5
6C
330
4E
100
AcDbEntity
  8
STANDARD
  6
CENTER2
 62
     7
 48
25.4
100
AcDbLine
 10
87.5800745946
 20
264.5365980156
 30
0.0
 11
87.5800745946
 21
4.5365980156
 31
0.0
  0
LINE
  5
6D
330
4E
100
AcDbEntity
  8
STANDARD
  6
CENTER2
 62
     7
 48
25.4
100
AcDbLine
 10
87.5800745946
 20
264.5365980156
 30
0.0
 11
87.5800745946
 21
268.3627286056
 31
0.0
  0
LINE
  5
6E
330
4E
100
AcDbEntity
  8
STANDARD
  6
CENTER2
 62
     7
 48
25.4
100
AcDbLine
 10
87.5800745946
 20
4.5365980156
 30
0.0
 11
87.5800745946
 21
0.5954320226
 31
0.0
  0
ENDBLK
  5
70
330
4E
100
AcDbEntity
  8
0
100
AcDbBlockEnd
  0
BLOCK
  5
81
330
71
100
AcDbEntity
  8
0
100
AcDbBlockBegin
  2
SE6
 70
     0
 71
     0
 10
0.0
 20
0.0
 30
0.0
  3
SE6
  1

  0
LINE
  5
73
330
71
100
AcDbEntity
  8
MEGA_001871
  6
CONTINUOUS
 62
     7
 48
25.4
100
AcDbLine
 10
156.4228359984
 20
159.0110802989
 30
0.0
 11
156.4228359984
 21
180.0621157322
 31
0.0
  0
LINE
  5
74
330
71
100
AcDbEntity
  8
MEGA_001871
  6
CONTINUOUS
 62
     7
 48
25.4
100
AcDbLine
 10
160.7228359984
 20
261.6388205367
 30
0.0
 11
160.7228359984
 21
7.4343754944
 31
0.0
  0
LINE
  5
75
330
71
100
AcDbEntity
  8
MEGA_001871
  6
CONTINUOUS
 62
     7
 48
25.4
100
AcDbLine
 10
165.9228359984
 20
260.2454847361
 30
0.0
 11
165.9228359984
 21
8.8277112951
 31
0.0
  0
LINE
  5
76
330
71
100
AcDbEntity
  8
MEGA_001871
  6
CONTINUOUS
 62
     7
 48
25.4
100
AcDbLine
 10
160.7228359984
 20
261.6388205367
 30
0.0
 11
160.7228359984
 21
264.5365980156
 31
0.0
  0
LINE
  5
77
330
71
100
AcDbEntity
  8
MEGA_001871
  6
CONTINUOUS
 62
     7
 48
25.4
100
AcDbLine
 10
160.7228359984
 20
4.5365980156
 30
0.0
 11
160.7228359984
 21
7.4343754944
 31
0.0
  0
LINE
  5
78
330
71
100
AcDbEntity
  8
MEGA_001871
  6
CONTINUOUS
 62
     7
 48
25.4
100
AcDbLine
 10
165.9228359984
 20
8.8277112951
 30
0.0
 11
165.9228359984
 21
5.9299338162
 31
0.0
  0
LINE
  5
79
330
71
100
AcDbEntity
  8
MEGA_001871
  6
CONTINUOUS
 62
     7
 48
25.4
100
AcDbLine
 10
165.9228359984
 20
5.9299338162
 30
0.0
 11
160.7228359984
 21
4.5365980156
 31
0.0
  0
LINE
  5
7A
330
71
100
AcDbEntity
  8
MEGA_001871
  6
CONTINUOUS
 62
     7
 48
25.4
100
AcDbLine
 10
165.9228359984
 20
263.1432622149
 30
0.0
 11
165.9228359984
 21
260.2454847361
 31
0.0
  0
LINE
  5
7B
330
71
100
AcDbEntity
  8
MEGA_001871
  6
CONTINUOUS
 62
     7
 48
25.4
100
AcDbLine
 10
160.7228359984
 20
264.5365980156
 30
0.0
 11
165.9228359984
 21
263.1432622149
 31
0.0
  0
ARC
  5
7C
330
71
100
AcDbEntity
  8
MEGA_001871
  6
CONTINUOUS
 62
     7
 48
25.4
100
AcDbCircle
 10
156.9228359984
 20
180.0621157322
 30
0.0
 40
0.5
100
AcDbArc
 50
93.0
 51
180.0
  0
LINE
  5
7D
330
71
100
AcDbEntity
  8
MEGA_001871
  6
CONTINUOUS
 62
     7
 48
25.4
100
AcDbLine
 10
160.7228359984
 20
180.7619514665
 30
0.0
 11
156.8966680203
 21
180.5614304996
 31
0.0
  0
ARC
  5
7E
330
71
100
AcDbEntity
  8
MEGA_001871
  6
CONTINUOUS
 62
     7
 48
25.4
100
AcDbCircle
 10
156.9228359984
 20
159.0110802989
 30
0.0
 40
0.5
100
AcDbArc
 50
180.0
 51
267.0
  0
LINE
  5
7F
330
71
100
AcDbEntity
  8
MEGA_001871
  6
CONTINUOUS
 62
     7
 48
25.4
100
AcDbLine
 10
156.8966680203
 20
158.5117655316
 30
0.0
 11
160.7228359984
 21
158.3112445647
 31
0.0
  0
LINE
  5
80
330
71
100
AcDbEntity
  8
STANDARD
  6
CENTER2
 62
     7
 48
25.4
100
AcDbLine
 10
156.4228359984
 20
169.5365980156
 30
0.0
 11
165.9228359984
 21
169.5365980156
 31
0.0
  0
ENDBLK
  5
82
330
71
100
AcDbEntity
  8
0
100
AcDbBlockEnd
  0
BLOCK
  5
8B
330
83
100
AcDbEntity
  8
0
100
AcDbBlockBegin
  2
SE7
 70
     0
 71
     0
 10
0.0
 20
0.0
 30
0.0
  3
SE7
  1

  0
POLYLINE
  5
85
330
83
100
AcDbEntity
  8
DEFAULT
  6
CONTINUOUS
 62
     7
 48
25.4
100
AcDb2dPolyline
 66
     1
 10
0.0
 20
0.0
 30
0.0
 70
     1
  0
VERTEX
  5
E8
330
85
100
AcDbEntity
  8
DEFAULT
  6
CONTINUOUS
 62
     7
100
AcDbVertex
100
AcDb2dVertex
 10
21.5739647674
 20
7.5365980416
 30
0.0
  0
VERTEX
  5
E9
330
85
100
AcDbEntity
  8
DEFAULT
  6
CONTINUOUS
 62
     7
100
AcDbVertex
100
AcDb2dVertex
 10
22.0739647718
 20
4.5365980156
 30
0.0
  0
VERTEX
  5
EA
330
85
100
AcDbEntity
  8
DEFAULT
  6
CONTINUOUS
 62
     7
100
AcDbVertex
100
AcDb2dVertex
 10
22.5739647761
 20
7.5365980416
 30
0.0
  0
VERTEX
  5
EB
330
85
100
AcDbEntity
  8
DEFAULT
  6
CONTINUOUS
 62
     7
100
AcDbVertex
100
AcDb2dVertex
 10
21.5739647674
 20
7.5365980416
 30
0.0
  0
SEQEND
  5
E7
330
85
100
AcDbEntity
  8
DEFAULT
  6
CONTINUOUS
 62
     7
 48
25.4
  0
LINE
  5
86
330
83
100
AcDbEntity
  8
DEFAULT
  6
CONTINUOUS
 62
     7
 48
25.4
100
AcDbLine
 10
60.4778520734
 20
264.5365980156
 30
0.0
 11
20.5739647587
 21
264.5365980156
 31
0.0
  0
LINE
  5
87
330
83
100
AcDbEntity
  8
DEFAULT
  6
CONTINUOUS
 62
     7
 48
25.4
100
AcDbLine
 10
60.4778520734
 20
4.5365980156
 30
0.0
 11
20.5739647587
 21
4.5365980156
 31
0.0
  0
LINE
  5
88
330
83
100
AcDbEntity
  8
DEFAULT
  6
CONTINUOUS
 62
     7
 48
25.4
100
AcDbLine
 10
22.0739647718
 20
264.5365980156
 30
0.0
 11
22.0739647718
 21
4.5366075523
 31
0.0
  0
TEXT
  5
8A
330
83
100
AcDbEntity
  8
DEFAULT
  6
CONTINUOUS
 62
     7
 48
25.4
100
AcDbText
 10
21.3239647718
 20
131.8093300567
 30
0.0
 40
3.0
  1
260
 50
90.0
  7
SEACAD_SEISO_TTF
 11
18.3239647718
 21
131.8093300567
 31
0.0
100
AcDbText
 73
     3
  0
ENDBLK
  5
8C
330
83
100
AcDbEntity
  8
0
100
AcDbBlockEnd
  0
BLOCK
  5
95
330
8D
100
AcDbEntity
  8
0
100
AcDbBlockBegin
  2
SE8
 70
     0
 71
     0
 10
0.0
 20
0.0
 30
0.0
  3
SE8
  1

  0
POLYLINE
  5
8F
330
8D
100
AcDbEntity
  8
DEFAULT
  6
CONTINUOUS
 62
     7
 48
25.4
100
AcDb2dPolyline
 66
     1
 10
0.0
 20
0.0
 30
0.0
 70
     1
  0
VERTEX
  5
ED
330
8F
100
AcDbEntity
  8
DEFAULT
  6
CONTINUOUS
 62
     7
100
AcDbVertex
100
AcDb2dVertex
 10
31.80929643
 20
261.5365979895
 30
0.0
  0
VERTEX
  5
EE
330
8F
100
AcDbEntity
  8
DEFAULT
  6
CONTINUOUS
 62
     7
100
AcDbVertex
100
AcDb2dVertex
 10
32.3092964343
 20
264.5365980156
 30
0.0
  0
VERTEX
  5
EF
330
8F
100
AcDbEntity
  8
DEFAULT
  6
CONTINUOUS
 62
     7
100
AcDbVertex
100
AcDb2dVertex
 10
32.8092964387
 20
261.5365979895
 30
0.0
  0
VERTEX
  5
F0
330
8F
100
AcDbEntity
  8
DEFAULT
  6
CONTINUOUS
 62
     7
100
AcDbVertex
100
AcDb2dVertex
 10
31.80929643
 20
261.5365979895
 30
0.0
  0
SEQEND
  5
EC
330
8F
100
AcDbEntity
  8
DEFAULT
  6
CONTINUOUS
 62
     7
 48
25.4
  0
POLYLINE
  5
90
330
8D
100
AcDbEntity
  8
DEFAULT
  6
CONTINUOUS
 62
     7
 48
25.4
100
AcDb2dPolyline
 66
     1
 10
0.0
 20
0.0
 30
0.0
 70
     1
  0
VERTEX
  5
F2
330
90
100
AcDbEntity
  8
DEFAULT
  6
CONTINUOUS
 62
     7
100
AcDbVertex
100
AcDb2dVertex
 10
31.80929643
 20
172.5365980416
 30
0.0
  0
VERTEX
  5
F3
330
90
100
AcDbEntity
  8
DEFAULT
  6
CONTINUOUS
 62
     7
100
AcDbVertex
100
AcDb2dVertex
 10
32.3092964343
 20
169.5365980156
 30
0.0
  0
VERTEX
  5
F4
330
90
100
AcDbEntity
  8
DEFAULT
  6
CONTINUOUS
 62
     7
100
AcDbVertex
100
AcDb2dVertex
 10
32.8092964387
 20
172.5365980416
 30
0.0
  0
VERTEX
  5
F5
330
90
100
AcDbEntity
  8
DEFAULT
  6
CONTINUOUS
 62
     7
100
AcDbVertex
100
AcDb2dVertex
 10
31.80929643
 20
172.5365980416
 30
0.0
  0
SEQEND
  5
F1
330
90
100
AcDbEntity
  8
DEFAULT
  6
CONTINUOUS
 62
     7
 48
25.4
  0
LINE
  5
91
330
8D
100
AcDbEntity
  8
DEFAULT
  6
CONTINUOUS
 62
     7
 48
25.4
100
AcDbLine
 10
60.4778517834
 20
264.5365980156
 30
0.0
 11
30.8092964213
 21
264.5365980156
 31
0.0
  0
LINE
  5
92
330
8D
100
AcDbEntity
  8
DEFAULT
  6
CONTINUOUS
 62
     7
 48
25.4
100
AcDbLine
 10
87.5800745946
 20
169.5365980156
 30
0.0
 11
30.8092964213
 21
169.5365980156
 31
0.0
  0
LINE
  5
93
330
8D
100
AcDbEntity
  8
DEFAULT
  6
CONTINUOUS
 62
     7
 48
25.4
100
AcDbLine
 10
32.3092964343
 20
264.5365980156
 30
0.0
 11
32.3092964343
 21
169.5365992077
 31
0.0
  0
TEXT
  5
94
330
8D
100
AcDbEntity
  8
DEFAULT
  6
CONTINUOUS
 62
     7
 48
25.4
100
AcDbText
 10
31.5592964343
 20
215.2638713389
 30
0.0
 40
3.0
  1
95
 50
90.0
  7
SEACAD_SEISO_TTF
 11
28.5592964343
 21
215.2638713389
 31
0.0
100
AcDbText
 73
     3
  0
ENDBLK
  5
96
330
8D
100
AcDbEntity
  8
0
100
AcDbBlockEnd
  0
BLOCK
  5
9F
330
97
100
AcDbEntity
  8
0
100
AcDbBlockBegin
  2
SE9
 70
     0
 71
     0
 10
0.0
 20
0.0
 30
0.0
  3
SE9
  1

  0
POLYLINE
  5
99
330
97
100
AcDbEntity
  8
DEFAULT
  6
CONTINUOUS
 62
     7
 48
25.4
100
AcDb2dPolyline
 66
     1
 10
0.0
 20
0.0
 30
0.0
 70
     1
  0
VERTEX
  5
F7
330
99
100
AcDbEntity
  8
DEFAULT
  6
CONTINUOUS
 62
     7
100
AcDbVertex
100
AcDb2dVertex
 10
42.0446229396
 20
172.5365980416
 30
0.0
  0
VERTEX
  5
F8
330
99
100
AcDbEntity
  8
DEFAULT
  6
CONTINUOUS
 62
     7
100
AcDbVertex
100
AcDb2dVertex
 10
42.544622944
 20
169.5365980156
 30
0.0
  0
VERTEX
  5
F9
330
99
100
AcDbEntity
  8
DEFAULT
  6
CONTINUOUS
 62
     7
100
AcDbVertex
100
AcDb2dVertex
 10
43.0446229483
 20
172.5365980416
 30
0.0
  0
VERTEX
  5
FA
330
99
100
AcDbEntity
  8
DEFAULT
  6
CONTINUOUS
 62
     7
100
AcDbVertex
100
AcDb2dVertex
 10
42.0446229396
 20
172.5365980416
 30
0.0
  0
SEQEND
  5
F6
330
99
100
AcDbEntity
  8
DEFAULT
  6
CONTINUOUS
 62
     7
 48
25.4
  0
POLYLINE
  5
9A
330
97
100
AcDbEntity
  8
DEFAULT
  6
CONTINUOUS
 62
     7
 48
25.4
100
AcDb2dPolyline
 66
     1
 10
0.0
 20
0.0
 30
0.0
 70
     1
  0
VERTEX
  5
FC
330
9A
100
AcDbEntity
  8
DEFAULT
  6
CONTINUOUS
 62
     7
100
AcDbVertex
100
AcDb2dVertex
 10
42.0446229396
 20
253.5365979895
 30
0.0
  0
VERTEX
  5
FD
330
9A
100
AcDbEntity
  8
DEFAULT
  6
CONTINUOUS
 62
     7
100
AcDbVertex
100
AcDb2dVertex
 10
42.544622944
 20
256.5365980156
 30
0.0
  0
VERTEX
  5
FE
330
9A
100
AcDbEntity
  8
DEFAULT
  6
CONTINUOUS
 62
     7
100
AcDbVertex
100
AcDb2dVertex
 10
43.0446229483
 20
253.5365979895
 30
0.0
  0
VERTEX
  5
FF
330
9A
100
AcDbEntity
  8
DEFAULT
  6
CONTINUOUS
 62
     7
100
AcDbVertex
100
AcDb2dVertex
 10
42.0446229396
 20
253.5365979895
 30
0.0
  0
SEQEND
  5
FB
330
9A
100
AcDbEntity
  8
DEFAULT
  6
CONTINUOUS
 62
     7
 48
25.4
  0
LINE
  5
9B
330
97
100
AcDbEntity
  8
DEFAULT
  6
CONTINUOUS
 62
     7
 48
25.4
100
AcDbLine
 10
87.5800745946
 20
169.5365980156
 30
0.0
 11
41.0446229309
 21
169.5365980156
 31
0.0
  0
LINE
  5
9C
330
97
100
AcDbEntity
  8
DEFAULT
  6
CONTINUOUS
 62
     7
 48
25.4
100
AcDbLine
 10
65.5800745946
 20
256.5365980156
 30
0.0
 11
41.0446229309
 21
256.5365980156
 31
0.0
  0
LINE
  5
9D
330
97
100
AcDbEntity
  8
DEFAULT
  6
CONTINUOUS
 62
     7
 48
25.4
100
AcDbLine
 10
42.544622944
 20
169.5365980156
 30
0.0
 11
42.544622944
 21
256.5365955122
 31
0.0
  0
TEXT
  5
9E
330
97
100
AcDbEntity
  8
DEFAULT
  6
CONTINUOUS
 62
     7
 48
25.4
100
AcDbText
 10
41.794622944
 20
211.1275058548
 30
0.0
 40
3.0
  1
87
 50
90.0
  7
SEACAD_SEISO_TTF
 11
38.794622944
 21
211.1275058548
 31
0.0
100
AcDbText
 73
     3
  0
ENDBLK
  5
A0
330
97
100
AcDbEntity
  8
0
100
AcDbBlockEnd
  0
BLOCK
  5
A9
330
A1
100
AcDbEntity
  8
0
100
AcDbBlockBegin
  2
SE10
 70
     0
 71
     0
 10
0.0
 20
0.0
 30
0.0
  3
SE10
  1

  0
POLYLINE
  5
A3
330
A1
100
AcDbEntity
  8
DEFAULT
  6
CONTINUOUS
 62
     7
 48
25.4
100
AcDb2dPolyline
 66
     1
 10
0.0
 20
0.0
 30
0.0
 70
     1
  0
VERTEX
  5
101
330
A3
100
AcDbEntity
  8
DEFAULT
  6
CONTINUOUS
 62
     7
100
AcDbVertex
100
AcDb2dVertex
 10
42.0446229396
 20
166.5365979895
 30
0.0
  0
VERTEX
  5
102
330
A3
100
AcDbEntity
  8
DEFAULT
  6
CONTINUOUS
 62
     7
100
AcDbVertex
100
AcDb2dVertex
 10
42.544622944
 20
169.5365980156
 30
0.0
  0
VERTEX
  5
103
330
A3
100
AcDbEntity
  8
DEFAULT
  6
CONTINUOUS
 62
     7
100
AcDbVertex
100
AcDb2dVertex
 10
43.0446229483
 20
166.5365979895
 30
0.0
  0
VERTEX
  5
104
330
A3
100
AcDbEntity
  8
DEFAULT
  6
CONTINUOUS
 62
     7
100
AcDbVertex
100
AcDb2dVertex
 10
42.0446229396
 20
166.5365979895
 30
0.0
  0
SEQEND
  5
100
330
A3
100
AcDbEntity
  8
DEFAULT
  6
CONTINUOUS
 62
     7
 48
25.4
  0
POLYLINE
  5
A4
330
A1
100
AcDbEntity
  8
DEFAULT
  6
CONTINUOUS
 62
     7
 48
25.4
100
AcDb2dPolyline
 66
     1
 10
0.0
 20
0.0
 30
0.0
 70
     1
  0
VERTEX
  5
106
330
A4
100
AcDbEntity
  8
DEFAULT
  6
CONTINUOUS
 62
     7
100
AcDbVertex
100
AcDb2dVertex
 10
42.0446229396
 20
15.5365980416
 30
0.0
  0
VERTEX
  5
107
330
A4
100
AcDbEntity
  8
DEFAULT
  6
CONTINUOUS
 62
     7
100
AcDbVertex
100
AcDb2dVertex
 10
42.544622944
 20
12.5365980156
 30
0.0
  0
VERTEX
  5
108
330
A4
100
AcDbEntity
  8
DEFAULT
  6
CONTINUOUS
 62
     7
100
AcDbVertex
100
AcDb2dVertex
 10
43.0446229483
 20
15.5365980416
 30
0.0
  0
VERTEX
  5
109
330
A4
100
AcDbEntity
  8
DEFAULT
  6
CONTINUOUS
 62
     7
100
AcDbVertex
100
AcDb2dVertex
 10
42.0446229396
 20
15.5365980416
 30
0.0
  0
SEQEND
  5
105
330
A4
100
AcDbEntity
  8
DEFAULT
  6
CONTINUOUS
 62
     7
 48
25.4
  0
LINE
  5
A5
330
A1
100
AcDbEntity
  8
DEFAULT
  6
CONTINUOUS
 62
     7
 48
25.4
100
AcDbLine
 10
87.5800745946
 20
169.5365980156
 30
0.0
 11
41.0446229309
 21
169.5365980156
 31
0.0
  0
LINE
  5
A6
330
A1
100
AcDbEntity
  8
DEFAULT
  6
CONTINUOUS
 62
     7
 48
25.4
100
AcDbLine
 10
65.5800745946
 20
12.5365980156
 30
0.0
 11
41.0446229309
 21
12.5365980156
 31
0.0
  0
LINE
  5
A7
330
A1
100
AcDbEntity
  8
DEFAULT
  6
CONTINUOUS
 62
     7
 48
25.4
100
AcDbLine
 10
42.544622944
 20
169.5365980156
 30
0.0
 11
42.544622944
 21
12.5365927704
 31
0.0
  0
TEXT
  5
A8
330
A1
100
AcDbEntity
  8
DEFAULT
  6
CONTINUOUS
 62
     7
 48
25.4
100
AcDbText
 10
41.794622944
 20
88.6161408475
 30
0.0
 40
3.0
  1
157
 50
90.0
  7
SEACAD_SEISO_TTF
 11
38.794622944
 21
88.6161408475
 31
0.0
100
AcDbText
 73
     3
  0
ENDBLK
  5
AA
330
A1
100
AcDbEntity
  8
0
100
AcDbBlockEnd
  0
BLOCK
  5
B3
330
AB
100
AcDbEntity
  8
0
100
AcDbBlockBegin
  2
SE11
 70
     0
 71
     0
 10
0.0
 20
0.0
 30
0.0
  3
SE11
  1

  0
POLYLINE
  5
AD
330
AB
100
AcDbEntity
  8
DEFAULT
  6
CONTINUOUS
 62
     7
 48
25.4
100
AcDb2dPolyline
 66
     1
 10
0.0
 20
0.0
 30
0.0
 70
     1
  0
VERTEX
  5
10B
330
AD
100
AcDbEntity
  8
DEFAULT
  6
CONTINUOUS
 62
     7
100
AcDbVertex
100
AcDb2dVertex
 10
60.5800746207
 20
287.0576244862
 30
0.0
  0
VERTEX
  5
10C
330
AD
100
AcDbEntity
  8
DEFAULT
  6
CONTINUOUS
 62
     7
100
AcDbVertex
100
AcDb2dVertex
 10
57.5800745946
 20
286.5576244819
 30
0.0
  0
VERTEX
  5
10D
330
AD
100
AcDbEntity
  8
DEFAULT
  6
CONTINUOUS
 62
     7
100
AcDbVertex
100
AcDb2dVertex
 10
60.5800746207
 20
286.0576244775
 30
0.0
  0
VERTEX
  5
10E
330
AD
100
AcDbEntity
  8
DEFAULT
  6
CONTINUOUS
 62
     7
100
AcDbVertex
100
AcDb2dVertex
 10
60.5800746207
 20
287.0576244862
 30
0.0
  0
SEQEND
  5
10A
330
AD
100
AcDbEntity
  8
DEFAULT
  6
CONTINUOUS
 62
     7
 48
25.4
  0
POLYLINE
  5
AE
330
AB
100
AcDbEntity
  8
DEFAULT
  6
CONTINUOUS
 62
     7
 48
25.4
100
AcDb2dPolyline
 66
     1
 10
0.0
 20
0.0
 30
0.0
 70
     1
  0
VERTEX
  5
110
330
AE
100
AcDbEntity
  8
DEFAULT
  6
CONTINUOUS
 62
     7
100
AcDbVertex
100
AcDb2dVertex
 10
114.5800745685
 20
287.0576244862
 30
0.0
  0
VERTEX
  5
111
330
AE
100
AcDbEntity
  8
DEFAULT
  6
CONTINUOUS
 62
     7
100
AcDbVertex
100
AcDb2dVertex
 10
117.5800745946
 20
286.5576244819
 30
0.0
  0
VERTEX
  5
112
330
AE
100
AcDbEntity
  8
DEFAULT
  6
CONTINUOUS
 62
     7
100
AcDbVertex
100
AcDb2dVertex
 10
114.5800745685
 20
286.0576244775
 30
0.0
  0
VERTEX
  5
113
330
AE
100
AcDbEntity
  8
DEFAULT
  6
CONTINUOUS
 62
     7
100
AcDbVertex
100
AcDb2dVertex
 10
114.5800745685
 20
287.0576244862
 30
0.0
  0
SEQEND
  5
10F
330
AE
100
AcDbEntity
  8
DEFAULT
  6
CONTINUOUS
 62
     7
 48
25.4
  0
LINE
  5
AF
330
AB
100
AcDbEntity
  8
DEFAULT
  6
CONTINUOUS
 62
     7
 48
25.4
100
AcDbLine
 10
57.5800745946
 20
261.6388205367
 30
0.0
 11
57.5800745946
 21
288.0576244949
 31
0.0
  0
LINE
  5
B0
330
AB
100
AcDbEntity
  8
DEFAULT
  6
CONTINUOUS
 62
     7
 48
25.4
100
AcDbLine
 10
117.5800745946
 20
261.6388205367
 30
0.0
 11
117.5800745946
 21
288.0576244949
 31
0.0
  0
LINE
  5
B1
330
AB
100
AcDbEntity
  8
DEFAULT
  6
CONTINUOUS
 62
     7
 48
25.4
100
AcDbLine
 10
57.5800745946
 20
286.5576244819
 30
0.0
 11
117.5800732535
 21
286.5576244819
 31
0.0
  0
TEXT
  5
B2
330
AB
100
AcDbEntity
  8
DEFAULT
  6
CONTINUOUS
 62
     7
 48
25.4
100
AcDbText
 10
85.7732557422
 20
287.3076244819
 30
0.0
 40
3.0
  1
60
  7
SEACAD_SEISO_TTF
 11
85.7732557422
 21
290.3076244819
 31
0.0
100
AcDbText
 73
     3
  0
ENDBLK
  5
B4
330
AB
100
AcDbEntity
  8
0
100
AcDbBlockEnd
  0
BLOCK
  5
BD
330
B5
100
AcDbEntity
  8
0
100
AcDbBlockBegin
  2
SE12
 70
     0
 71
     0
 10
0.0
 20
0.0
 30
0.0
  3
SE12
  1

  0
POLYLINE
  5
B7
330
B5
100
AcDbEntity
  8
DEFAULT
  6
CONTINUOUS
 62
     7
 48
25.4
100
AcDb2dPolyline
 66
     1
 10
0.0
 20
0.0
 30
0.0
 70
     1
  0
VERTEX
  5
115
330
B7
100
AcDbEntity
  8
DEFAULT
  6
CONTINUOUS
 62
     7
100
AcDbVertex
100
AcDb2dVertex
 10
68.5800746207
 20
278.4901723197
 30
0.0
  0
VERTEX
  5
116
330
B7
100
AcDbEntity
  8
DEFAULT
  6
CONTINUOUS
 62
     7
100
AcDbVertex
100
AcDb2dVertex
 10
65.5800745946
 20
277.9901723154
 30
0.0
  0
VERTEX
  5
117
330
B7
100
AcDbEntity
  8
DEFAULT
  6
CONTINUOUS
 62
     7
100
AcDbVertex
100
AcDb2dVertex
 10
68.5800746207
 20
277.490172311
 30
0.0
  0
VERTEX
  5
118
330
B7
100
AcDbEntity
  8
DEFAULT
  6
CONTINUOUS
 62
     7
100
AcDbVertex
100
AcDb2dVertex
 10
68.5800746207
 20
278.4901723197
 30
0.0
  0
SEQEND
  5
114
330
B7
100
AcDbEntity
  8
DEFAULT
  6
CONTINUOUS
 62
     7
 48
25.4
  0
POLYLINE
  5
B8
330
B5
100
AcDbEntity
  8
DEFAULT
  6
CONTINUOUS
 62
     7
 48
25.4
100
AcDb2dPolyline
 66
     1
 10
0.0
 20
0.0
 30
0.0
 70
     1
  0
VERTEX
  5
11A
330
B8
100
AcDbEntity
  8
DEFAULT
  6
CONTINUOUS
 62
     7
100
AcDbVertex
100
AcDb2dVertex
 10
106.5800745685
 20
278.4901723197
 30
0.0
  0
VERTEX
  5
11B
330
B8
100
AcDbEntity
  8
DEFAULT
  6
CONTINUOUS
 62
     7
100
AcDbVertex
100
AcDb2dVertex
 10
109.5800745946
 20
277.9901723154
 30
0.0
  0
VERTEX
  5
11C
330
B8
100
AcDbEntity
  8
DEFAULT
  6
CONTINUOUS
 62
     7
100
AcDbVertex
100
AcDb2dVertex
 10
106.5800745685
 20
277.490172311
 30
0.0
  0
VERTEX
  5
11D
330
B8
100
AcDbEntity
  8
DEFAULT
  6
CONTINUOUS
 62
     7
100
AcDbVertex
100
AcDb2dVertex
 10
106.5800745685
 20
278.4901723197
 30
0.0
  0
SEQEND
  5
119
330
B8
100
AcDbEntity
  8
DEFAULT
  6
CONTINUOUS
 62
     7
 48
25.4
  0
LINE
  5
B9
330
B5
100
AcDbEntity
  8
DEFAULT
  6
CONTINUOUS
 62
     7
 48
25.4
100
AcDbLine
 10
65.5800745946
 20
256.5365980156
 30
0.0
 11
65.5800745946
 21
279.4901723284
 31
0.0
  0
LINE
  5
BA
330
B5
100
AcDbEntity
  8
DEFAULT
  6
CONTINUOUS
 62
     7
 48
25.4
100
AcDbLine
 10
109.5800745946
 20
256.5365980156
 30
0.0
 11
109.5800745946
 21
279.4901723284
 31
0.0
  0
LINE
  5
BB
330
B5
100
AcDbEntity
  8
DEFAULT
  6
CONTINUOUS
 62
     7
 48
25.4
100
AcDbLine
 10
65.5800745946
 20
277.9901723154
 30
0.0
 11
109.5800743562
 21
277.9901723154
 31
0.0
  0
TEXT
  5
BC
330
B5
100
AcDbEntity
  8
DEFAULT
  6
CONTINUOUS
 62
     7
 48
25.4
100
AcDbText
 10
85.8073472026
 20
278.7401723154
 30
0.0
 40
3.0
  1
44
  7
SEACAD_SEISO_TTF
 11
85.8073472026
 21
281.7401723154
 31
0.0
100
AcDbText
 73
     3
  0
ENDBLK
  5
BE
330
B5
100
AcDbEntity
  8
0
100
AcDbBlockEnd
  0
BLOCK
  5
C7
330
BF
100
AcDbEntity
  8
0
100
AcDbBlockBegin
  2
SE13
 70
     0
 71
     0
 10
0.0
 20
0.0
 30
0.0
  3
SE13
  1

  0
POLYLINE
  5
C1
330
BF
100
AcDbEntity
  8
DEFAULT
  6
CONTINUOUS
 62
     7
 48
25.4
100
AcDb2dPolyline
 66
     1
 10
0.0
 20
0.0
 30
0.0
 70
     1
  0
VERTEX
  5
11F
330
C1
100
AcDbEntity
  8
DEFAULT
  6
CONTINUOUS
 62
     7
100
AcDbVertex
100
AcDb2dVertex
 10
159.4228360245
 20
287.4008481434
 30
0.0
  0
VERTEX
  5
120
330
C1
100
AcDbEntity
  8
DEFAULT
  6
CONTINUOUS
 62
     7
100
AcDbVertex
100
AcDb2dVertex
 10
156.4228359984
 20
286.9008481391
 30
0.0
  0
VERTEX
  5
121
330
C1
100
AcDbEntity
  8
DEFAULT
  6
CONTINUOUS
 62
     7
100
AcDbVertex
100
AcDb2dVertex
 10
159.4228360245
 20
286.4008481347
 30
0.0
  0
VERTEX
  5
122
330
C1
100
AcDbEntity
  8
DEFAULT
  6
CONTINUOUS
 62
     7
100
AcDbVertex
100
AcDb2dVertex
 10
159.4228360245
 20
287.4008481434
 30
0.0
  0
SEQEND
  5
11E
330
C1
100
AcDbEntity
  8
DEFAULT
  6
CONTINUOUS
 62
     7
 48
25.4
  0
POLYLINE
  5
C2
330
BF
100
AcDbEntity
  8
DEFAULT
  6
CONTINUOUS
 62
     7
 48
25.4
100
AcDb2dPolyline
 66
     1
 10
0.0
 20
0.0
 30
0.0
 70
     1
  0
VERTEX
  5
124
330
C2
100
AcDbEntity
  8
DEFAULT
  6
CONTINUOUS
 62
     7
100
AcDbVertex
100
AcDb2dVertex
 10
162.9228359723
 20
287.4008481434
 30
0.0
  0
VERTEX
  5
125
330
C2
100
AcDbEntity
  8
DEFAULT
  6
CONTINUOUS
 62
     7
100
AcDbVertex
100
AcDb2dVertex
 10
165.9228359984
 20
286.9008481391
 30
0.0
  0
VERTEX
  5
126
330
C2
100
AcDbEntity
  8
DEFAULT
  6
CONTINUOUS
 62
     7
100
AcDbVertex
100
AcDb2dVertex
 10
162.9228359723
 20
286.4008481347
 30
0.0
  0
VERTEX
  5
127
330
C2
100
AcDbEntity
  8
DEFAULT
  6
CONTINUOUS
 62
     7
100
AcDbVertex
100
AcDb2dVertex
 10
162.9228359723
 20
287.4008481434
 30
0.0
  0
SEQEND
  5
123
330
C2
100
AcDbEntity
  8
DEFAULT
  6
CONTINUOUS
 62
     7
 48
25.4
  0
LINE
  5
C3
330
BF
100
AcDbEntity
  8
DEFAULT
  6
CONTINUOUS
 62
     7
 48
25.4
100
AcDbLine
 10
156.4228359984
 20
169.5365980156
 30
0.0
 11
156.4228359984
 21
288.4008481521
 31
0.0
  0
LINE
  5
C4
330
BF
100
AcDbEntity
  8
DEFAULT
  6
CONTINUOUS
 62
     7
 48
25.4
100
AcDbLine
 10
165.9228359984
 20
260.2454847361
 30
0.0
 11
165.9228359984
 21
288.4008481521
 31
0.0
  0
LINE
  5
C5
330
BF
100
AcDbEntity
  8
DEFAULT
  6
CONTINUOUS
 62
     7
 48
25.4
100
AcDbLine
 10
156.4228359984
 20
286.9008481391
 30
0.0
 11
165.9228356929
 21
286.9008481391
 31
0.0
  0
TEXT
  5
C6
330
BF
100
AcDbEntity
  8
DEFAULT
  6
CONTINUOUS
 62
     7
 48
25.4
100
AcDbText
 10
159.1273813002
 20
287.6508481391
 30
0.0
 40
3.0
  1
9,5
  7
SEACAD_SEISO_TTF
 11
159.1273813002
 21
290.6508481391
 31
0.0
100
AcDbText
 73
     3
  0
ENDBLK
  5
C8
330
BF
100
AcDbEntity
  8
0
100
AcDbBlockEnd
  0
BLOCK
  5
D1
330
C9
100
AcDbEntity
  8
0
100
AcDbBlockBegin
  2
SE14
 70
     0
 71
     0
 10
0.0
 20
0.0
 30
0.0
  3
SE14
  1

  0
POLYLINE
  5
CB
330
C9
100
AcDbEntity
  8
DEFAULT
  6
CONTINUOUS
 62
     7
 48
25.4
100
AcDb2dPolyline
 66
     1
 10
0.0
 20
0.0
 30
0.0
 70
     1
  0
VERTEX
  5
129
330
CB
100
AcDbEntity
  8
DEFAULT
  6
CONTINUOUS
 62
     7
100
AcDbVertex
100
AcDb2dVertex
 10
157.7228359723
 20
276.9324530931
 30
0.0
  0
VERTEX
  5
12A
330
CB
100
AcDbEntity
  8
DEFAULT
  6
CONTINUOUS
 62
     7
100
AcDbVertex
100
AcDb2dVertex
 10
160.7228359984
 20
276.4324530887
 30
0.0
  0
VERTEX
  5
12B
330
CB
100
AcDbEntity
  8
DEFAULT
  6
CONTINUOUS
 62
     7
100
AcDbVertex
100
AcDb2dVertex
 10
157.7228359723
 20
275.9324530844
 30
0.0
  0
VERTEX
  5
12C
330
CB
100
AcDbEntity
  8
DEFAULT
  6
CONTINUOUS
 62
     7
100
AcDbVertex
100
AcDb2dVertex
 10
157.7228359723
 20
276.9324530931
 30
0.0
  0
SEQEND
  5
128
330
CB
100
AcDbEntity
  8
DEFAULT
  6
CONTINUOUS
 62
     7
 48
25.4
  0
POLYLINE
  5
CC
330
C9
100
AcDbEntity
  8
DEFAULT
  6
CONTINUOUS
 62
     7
 48
25.4
100
AcDb2dPolyline
 66
     1
 10
0.0
 20
0.0
 30
0.0
 70
     1
  0
VERTEX
  5
12E
330
CC
100
AcDbEntity
  8
DEFAULT
  6
CONTINUOUS
 62
     7
100
AcDbVertex
100
AcDb2dVertex
 10
168.9228360245
 20
276.9324530931
 30
0.0
  0
VERTEX
  5
12F
330
CC
100
AcDbEntity
  8
DEFAULT
  6
CONTINUOUS
 62
     7
100
AcDbVertex
100
AcDb2dVertex
 10
165.9228359984
 20
276.4324530887
 30
0.0
  0
VERTEX
  5
130
330
CC
100
AcDbEntity
  8
DEFAULT
  6
CONTINUOUS
 62
     7
100
AcDbVertex
100
AcDb2dVertex
 10
168.9228360245
 20
275.9324530844
 30
0.0
  0
VERTEX
  5
131
330
CC
100
AcDbEntity
  8
DEFAULT
  6
CONTINUOUS
 62
     7
100
AcDbVertex
100
AcDb2dVertex
 10
168.9228360245
 20
276.9324530931
 30
0.0
  0
SEQEND
  5
12D
330
CC
100
AcDbEntity
  8
DEFAULT
  6
CONTINUOUS
 62
     7
 48
25.4
  0
LINE
  5
CD
330
C9
100
AcDbEntity
  8
DEFAULT
  6
CONTINUOUS
 62
     7
 48
25.4
100
AcDbLine
 10
160.7228359984
 20
261.6388205367
 30
0.0
 11
160.7228359984
 21
277.9324531018
 31
0.0
  0
LINE
  5
CE
330
C9
100
AcDbEntity
  8
DEFAULT
  6
CONTINUOUS
 62
     7
 48
25.4
100
AcDbLine
 10
165.9228359984
 20
260.2454847361
 30
0.0
 11
165.9228359984
 21
277.9324531018
 31
0.0
  0
LINE
  5
CF
330
C9
100
AcDbEntity
  8
DEFAULT
  6
CONTINUOUS
 62
     7
 48
25.4
100
AcDbLine
 10
154.7228359462
 20
276.4324530887
 30
0.0
 11
171.9228355991
 21
276.4324530887
 31
0.0
  0
TEXT
  5
D0
330
C9
100
AcDbEntity
  8
DEFAULT
  6
CONTINUOUS
 62
     7
 48
25.4
100
AcDbText
 10
161.27738146
 20
277.1824530887
 30
0.0
 40
3.0
  1
5,2
  7
SEACAD_SEISO_TTF
 11
161.27738146
 21
280.1824530887
 31
0.0
100
AcDbText
 73
     3
  0
ENDBLK
  5
D2
330
C9
100
AcDbEntity
  8
0
100
AcDbBlockEnd
  0
BLOCK
  5
DB
330
D3
100
AcDbEntity
  8
0
100
AcDbBlockBegin
  2
SE15
 70
     0
 71
     0
 10
0.0
 20
0.0
 30
0.0
  3
SE15
  1

  0
POLYLINE
  5
D5
330
D3
100
AcDbEntity
  8
DEFAULT
  6
CONTINUOUS
 62
     7
 48
25.4
100
AcDb2dPolyline
 66
     1
 10
0.0
 20
0.0
 30
0.0
 70
     1
  0
VERTEX
  5
133
330
D5
100
AcDbEntity
  8
DEFAULT
  6
CONTINUOUS
 62
     7
100
AcDbVertex
100
AcDb2dVertex
 10
135.1625921595
 20
163.4866001215
 30
0.0
  0
VERTEX
  5
134
330
D5
100
AcDbEntity
  8
DEFAULT
  6
CONTINUOUS
 62
     7
100
AcDbVertex
100
AcDb2dVertex
 10
134.6625922862
 20
160.4866000736
 30
0.0
  0
VERTEX
  5
135
330
D5
100
AcDbEntity
  8
DEFAULT
  6
CONTINUOUS
 62
     7
100
AcDbVertex
100
AcDb2dVertex
 10
134.1625921508
 20
163.4866000778
 30
0.0
  0
VERTEX
  5
136
330
D5
100
AcDbEntity
  8
DEFAULT
  6
CONTINUOUS
 62
     7
100
AcDbVertex
100
AcDb2dVertex
 10
135.1625921595
 20
163.4866001215
 30
0.0
  0
SEQEND
  5
132
330
D5
100
AcDbEntity
  8
DEFAULT
  6
CONTINUOUS
 62
     7
 48
25.4
  0
POLYLINE
  5
D6
330
D3
100
AcDbEntity
  8
DEFAULT
  6
CONTINUOUS
 62
     7
 48
25.4
100
AcDb2dPolyline
 66
     1
 10
0.0
 20
0.0
 30
0.0
 70
     1
  0
VERTEX
  5
138
330
D6
100
AcDbEntity
  8
DEFAULT
  6
CONTINUOUS
 62
     7
100
AcDbVertex
100
AcDb2dVertex
 10
135.1625916305
 20
175.5866000694
 30
0.0
  0
VERTEX
  5
139
330
D6
100
AcDbEntity
  8
DEFAULT
  6
CONTINUOUS
 62
     7
100
AcDbVertex
100
AcDb2dVertex
 10
134.6625914951
 20
178.5866000736
 30
0.0
  0
VERTEX
  5
13A
330
D6
100
AcDbEntity
  8
DEFAULT
  6
CONTINUOUS
 62
     7
100
AcDbVertex
100
AcDb2dVertex
 10
134.1625916219
 20
175.5866000257
 30
0.0
  0
VERTEX
  5
13B
330
D6
100
AcDbEntity
  8
DEFAULT
  6
CONTINUOUS
 62
     7
100
AcDbVertex
100
AcDb2dVertex
 10
135.1625916305
 20
175.5866000694
 30
0.0
  0
SEQEND
  5
137
330
D6
100
AcDbEntity
  8
DEFAULT
  6
CONTINUOUS
 62
     7
 48
25.4
  0
LINE
  5
D7
330
D3
100
AcDbEntity
  8
DEFAULT
  6
CONTINUOUS
 62
     7
 48
25.4
100
AcDbLine
 10
87.5800749902
 20
160.4865980156
 30
0.0
 11
136.1625922993
 21
160.4866001392
 31
0.0
  0
LINE
  5
D8
330
D3
100
AcDbEntity
  8
DEFAULT
  6
CONTINUOUS
 62
     7
 48
25.4
100
AcDbLine
 10
87.580074199
 20
178.5865980156
 30
0.0
 11
136.1625915081
 21
178.5866001392
 31
0.0
  0
LINE
  5
D9
330
D3
100
AcDbEntity
  8
DEFAULT
  6
CONTINUOUS
 62
     7
 48
25.4
100
AcDbLine
 10
134.6625922862
 20
160.4866000736
 30
0.0
 11
134.6625914951
 21
178.5866009915
 31
0.0
  0
TEXT
  5
DA
330
D3
100
AcDbEntity
  8
DEFAULT
  6
CONTINUOUS
 62
     7
 48
25.4
100
AcDbText
 10
133.9125918907
 20
167.8525096235
 30
0.0
 40
3.0
  1
16
 50
90.0
  7
SEACAD_SEISO_TTF
 11
130.9125918907
 21
167.8525096235
 31
0.0
100
AcDbText
 73
     3
  0
ENDBLK
  5
DC
330
D3
100
AcDbEntity
  8
0
100
AcDbBlockEnd
  0
BLOCK
  5
E5
330
DD
100
AcDbEntity
  8
0
100
AcDbBlockBegin
  2
SE16
 70
     0
 71
     0
 10
0.0
 20
0.0
 30
0.0
  3
SE16
  1

  0
POLYLINE
  5
DF
330
DD
100
AcDbEntity
  8
DEFAULT
  6
CONTINUOUS
 62
     7
 48
25.4
100
AcDb2dPolyline
 66
     1
 10
0.0
 20
0.0
 30
0.0
 70
     1
  0
VERTEX
  5
13D
330
DF
100
AcDbEntity
  8
DEFAULT
  6
CONTINUOUS
 62
     7
100
AcDbVertex
100
AcDb2dVertex
 10
131.5802264219
 20
7.5365989512
 30
0.0
  0
VERTEX
  5
13E
330
DF
100
AcDbEntity
  8
DEFAULT
  6
CONTINUOUS
 62
     7
100
AcDbVertex
100
AcDb2dVertex
 10
131.0802262864
 20
10.5365989554
 30
0.0
  0
VERTEX
  5
13F
330
DF
100
AcDbEntity
  8
DEFAULT
  6
CONTINUOUS
 62
     7
100
AcDbVertex
100
AcDb2dVertex
 10
130.5802264132
 20
7.5365989074
 30
0.0
  0
VERTEX
  5
140
330
DF
100
AcDbEntity
  8
DEFAULT
  6
CONTINUOUS
 62
     7
100
AcDbVertex
100
AcDb2dVertex
 10
131.5802264219
 20
7.5365989512
 30
0.0
  0
SEQEND
  5
13C
330
DF
100
AcDbEntity
  8
DEFAULT
  6
CONTINUOUS
 62
     7
 48
25.4
  0
POLYLINE
  5
E0
330
DD
100
AcDbEntity
  8
DEFAULT
  6
CONTINUOUS
 62
     7
 48
25.4
100
AcDb2dPolyline
 66
     1
 10
0.0
 20
0.0
 30
0.0
 70
     1
  0
VERTEX
  5
142
330
E0
100
AcDbEntity
  8
DEFAULT
  6
CONTINUOUS
 62
     7
100
AcDbVertex
100
AcDb2dVertex
 10
131.5802259848
 20
17.5365990033
 30
0.0
  0
VERTEX
  5
143
330
E0
100
AcDbEntity
  8
DEFAULT
  6
CONTINUOUS
 62
     7
100
AcDbVertex
100
AcDb2dVertex
 10
131.0802261116
 20
14.5365989554
 30
0.0
  0
VERTEX
  5
144
330
E0
100
AcDbEntity
  8
DEFAULT
  6
CONTINUOUS
 62
     7
100
AcDbVertex
100
AcDb2dVertex
 10
130.5802259761
 20
17.5365989596
 30
0.0
  0
VERTEX
  5
145
330
E0
100
AcDbEntity
  8
DEFAULT
  6
CONTINUOUS
 62
     7
100
AcDbVertex
100
AcDb2dVertex
 10
131.5802259848
 20
17.5365990033
 30
0.0
  0
SEQEND
  5
141
330
E0
100
AcDbEntity
  8
DEFAULT
  6
CONTINUOUS
 62
     7
 48
25.4
  0
LINE
  5
E1
330
DD
100
AcDbEntity
  8
DEFAULT
  6
CONTINUOUS
 62
     7
 48
25.4
100
AcDbLine
 10
109.580074682
 20
10.5365980156
 30
0.0
 11
132.5802262995
 21
10.5365990209
 31
0.0
  0
LINE
  5
E2
330
DD
100
AcDbEntity
  8
DEFAULT
  6
CONTINUOUS
 62
     7
 48
25.4
100
AcDbLine
 10
109.5800745072
 20
14.5365980156
 30
0.0
 11
132.5802261246
 21
14.5365990209
 31
0.0
  0
LINE
  5
E3
330
DD
100
AcDbEntity
  8
DEFAULT
  6
CONTINUOUS
 62
     7
 48
25.4
100
AcDbLine
 10
131.0802265487
 20
4.5365989032
 30
0.0
 11
131.0802258493
 21
20.5365987319
 31
0.0
  0
TEXT
  5
E4
330
DD
100
AcDbEntity
  8
DEFAULT
  6
CONTINUOUS
 62
     7
 48
25.4
100
AcDbText
 10
130.330226199
 20
11.650235414
 30
0.0
 40
3.0
  1
4
 50
90.0
  7
SEACAD_SEISO_TTF
 11
127.330226199
 21
11.650235414
 31
0.0
100
AcDbText
 73
     3
  0
ENDBLK
  5
E6
330
DD
100
AcDbEntity
  8
0
100
AcDbBlockEnd
  0
ENDSEC
  0
SECTION
  2
ENTITIES
  0
INSERT
  5
2F
330
1F
100
AcDbEntity
  8
0
100
AcDbBlockReference
  2
SE
 10
0.0
 20
0.0
 30
0.0
  0
INSERT
  5
37
330
1F
100
AcDbEntity
  8
0
100
AcDbBlockReference
  2
SE1
 10
0.0
 20
0.0
 30
0.0
  0
INSERT
  5
3D
330
1F
100
AcDbEntity
  8
0
100
AcDbBlockReference
  2
SE2
 10
0.0
 20
0.0
 30
0.0
  0
INSERT
  5
43
330
1F
100
AcDbEntity
  8
0
100
AcDbBlockReference
  2
SE3
 10
0.0
 20
0.0
 30
0.0
  0
INSERT
  5
49
330
1F
100
AcDbEntity
  8
0
100
AcDbBlockReference
  2
SE4
 10
0.0
 20
0.0
 30
0.0
  0
INSERT
  5
4F
330
1F
100
AcDbEntity
  8
0
100
AcDbBlockReference
  2
SE5
 10
0.0
 20
0.0
 30
0.0
  0
INSERT
  5
72
330
1F
100
AcDbEntity
  8
0
100
AcDbBlockReference
  2
SE6
 10
0.0
 20
0.0
 30
0.0
  0
INSERT
  5
84
330
1F
100
AcDbEntity
  8
0
100
AcDbBlockReference
  2
SE7
 10
0.0
 20
0.0
 30
0.0
  0
INSERT
  5
8E
330
1F
100
AcDbEntity
  8
0
100
AcDbBlockReference
  2
SE8
 10
0.0
 20
0.0
 30
0.0
  0
INSERT
  5
98
330
1F
100
AcDbEntity
  8
0
100
AcDbBlockReference
  2
SE9
 10
0.0
 20
0.0
 30
0.0
  0
INSERT
  5
A2
330
1F
100
AcDbEntity
  8
0
100
AcDbBlockReference
  2
SE10
 10
0.0
 20
0.0
 30
0.0
  0
INSERT
  5
AC
330
1F
100
AcDbEntity
  8
0
100
AcDbBlockReference
  2
SE11
 10
0.0
 20
0.0
 30
0.0
  0
INSERT
  5
B6
330
1F
100
AcDbEntity
  8
0
100
AcDbBlockReference
  2
SE12
 10
0.0
 20
0.0
 30
0.0
  0
INSERT
  5
C0
330
1F
100
AcDbEntity
  8
0
100
AcDbBlockReference
  2
SE13
 10
0.0
 20
0.0
 30
0.0
  0
INSERT
  5
CA
330
1F
100
AcDbEntity
  8
0
100
AcDbBlockReference
  2
SE14
 10
0.0
 20
0.0
 30
0.0
  0
INSERT
  5
D4
330
1F
100
AcDbEntity
  8
0
100
AcDbBlockReference
  2
SE15
 10
0.0
 20
0.0
 30
0.0
  0
INSERT
  5
DE
330
1F
100
AcDbEntity
  8
0
100
AcDbBlockReference
  2
SE16
 10
0.0
 20
0.0
 30
0.0
  0
ENDSEC
  0
SECTION
  2
OBJECTS
  0
DICTIONARY
  5
C
330
0
100
AcDbDictionary
  3
ACAD_GROUP
350
D
  3
ACAD_LAYOUT
350
1A
  3
ACAD_MLINESTYLE
350
17
  3
ACAD_PLOTSETTINGS
350
19
  3
ACAD_TABLESTYLE
350
2A
  3
ACDBVARIABLEDICTIONARY
350
2C
1001
ACAD
1000
TREAT_AS_HARD
1070
     0
  0
DICTIONARY
  5
146
330
29
100
AcDbDictionary
  3
ACAD_XREC_ROUNDTRIP
360
147
  0
DICTIONARY
  5
D
102
{ACAD_REACTORS
330
C
102
}
330
C
100
AcDbDictionary
1001
ACAD
1000
TREAT_AS_HARD
1070
     0
  0
DICTIONARY
  5
1A
102
{ACAD_REACTORS
330
C
102
}
330
C
100
AcDbDictionary
1001
ACAD
1000
TREAT_AS_HARD
1070
     0
  0
DICTIONARY
  5
17
102
{ACAD_REACTORS
330
C
102
}
330
C
100
AcDbDictionary
  3
STANDARD
350
18
1001
ACAD
1000
TREAT_AS_HARD
1070
     0
  0
DICTIONARY
  5
19
102
{ACAD_REACTORS
330
C
102
}
330
C
100
AcDbDictionary
1001
ACAD
1000
TREAT_AS_HARD
1070
     0
  0
DICTIONARY
  5
2A
102
{ACAD_REACTORS
330
C
102
}
330
C
100
AcDbDictionary
  3
STANDARD
350
2B
1001
ACAD
1000
TREAT_AS_HARD
1070
     0
  0
DICTIONARY
  5
2C
102
{ACAD_REACTORS
330
C
102
}
330
C
100
AcDbDictionary
  3
CTABLESTYLE
350
2D
1001
ACAD
1000
TREAT_AS_HARD
1070
     0
  0
XRECORD
  5
147
102
{ACAD_REACTORS
330
146
102
}
330
146
100
AcDbXrecord
102
UCS
 74
     0
 71
     1
 10
0.0
 20
0.0
 30
0.0
 10
1.0
 20
0.0
 30
0.0
 10
0.0
 20
1.0
 30
0.0
146
0.0
 79
     0
102
VIEW
281
     0
  0
MLINESTYLE
  5
18
102
{ACAD_REACTORS
330
17
102
}
330
17
100
AcDbMlineStyle
  2
Standard
 70
     0
  3

 62
   256
 51
90.0
 52
90.0
 71
     2
 49
0.5
 62
   256
  6
BYLAYER
 49
-0.5
 62
   256
  6
BYLAYER
  0
TABLESTYLE
  5
2B
102
{ACAD_REACTORS
330
2A
102
}
330
2A
100
AcDbTableStyle
  3
Standard
 70
     0
 71
     0
 40
0.06
 41
0.06
280
     0
281
     0
  7
STANDARD
140
0.18
170
     2
 62
     0
 63
     7
283
     0
274
    -2
284
     1
 64
     0
275
    -2
285
     1
 65
     0
276
    -2
286
     1
 66
     0
277
    -2
287
     1
 67
     0
278
    -2
288
     1
 68
     0
279
    -2
289
     1
 69
     0
  7
STANDARD
140
0.25
170
     5
 62
     0
 63
     7
283
     0
274
    -2
284
     1
 64
     0
275
    -2
285
     1
 65
     0
276
    -2
286
     1
 66
     0
277
    -2
287
     1
 67
     0
278
    -2
288
     1
 68
     0
279
    -2
289
     1
 69
     0
  7
STANDARD
140
0.18
170
     5
 62
     0
 63
     7
283
     0
274
    -2
284
     1
 64
     0
275
    -2
285
     1
 65
     0
276
    -2
286
     1
 66
     0
277
    -2
287
     1
 67
     0
278
    -2
288
     1
 68
     0
279
    -2
289
     1
 69
     0
  0
DICTIONARYVAR
  5
2D
102
{ACAD_REACTORS
330
2C
102
}
330
2C
100
DictionaryVariables
280
     0
  1
Standard
  0
ENDSEC
  0
EOF
