  0
SECTION
  2
HEADER
  9
$ACADVER
  1
AC1012
  9
$DWGCODEPAGE
  3
ansi_1252
  9
$INSBASE
 10
0.0
 20
0.0
 30
0.0
  9
$EXTMIN
 10
0.0
 20
0.0
 30
0.0
  9
$EXTMAX
 10
210.0
 20
297.0
 30
0.0
  9
$LIMMIN
 10
0.0
 20
0.0
  9
$LIMMAX
 10
210.0
 20
297.0
  9
$ORTHOMODE
 70
     0
  9
$REGENMODE
 70
     1
  9
$FILLMODE
 70
     1
  9
$QTEXTMODE
 70
     0
  9
$MIRRTEXT
 70
     1
  9
$DRAGMODE
 70
     2
  9
$LTSCALE
 40
1.0
  9
$OSMODE
 70
    37
  9
$ATTMODE
 70
     1
  9
$TEXTSIZE
 40
0.2
  9
$TRACEWID
 40
0.05
  9
$TEXTSTYLE
  7
STANDARD
  9
$CLAYER
  8
0
  9
$CELTYPE
  6
BYLAYER
  9
$CECOLOR
 62
   256
  9
$CELTSCALE
 40
25.4
  9
$DELOBJ
 70
     1
  9
$DISPSILH
 70
     0
  9
$DIMSCALE
 40
1.0
  9
$DIMASZ
 40
0.18
  9
$DIMEXO
 40
0.0625
  9
$DIMDLI
 40
0.38
  9
$DIMRND
 40
0.0
  9
$DIMDLE
 40
0.0
  9
$DIMEXE
 40
0.18
  9
$DIMTP
 40
0.0
  9
$DIMTM
 40
0.0
  9
$DIMTXT
 40
0.18
  9
$DIMCEN
 40
0.09
  9
$DIMTSZ
 40
0.0
  9
$DIMTOL
 70
     0
  9
$DIMLIM
 70
     0
  9
$DIMTIH
 70
     1
  9
$DIMTOH
 70
     1
  9
$DIMSE1
 70
     0
  9
$DIMSE2
 70
     0
  9
$DIMTAD
 70
     0
  9
$DIMZIN
 70
     0
  9
$DIMBLK
  1

  9
$DIMASO
 70
     1
  9
$DIMSHO
 70
     1
  9
$DIMPOST
  1

  9
$DIMAPOST
  1

  9
$DIMALT
 70
     0
  9
$DIMALTD
 70
     2
  9
$DIMALTF
 40
25.4
  9
$DIMLFAC
 40
1.0
  9
$DIMTOFL
 70
     0
  9
$DIMTVP
 40
0.0
  9
$DIMTIX
 70
     0
  9
$DIMSOXD
 70
     0
  9
$DIMSAH
 70
     0
  9
$DIMBLK1
  1

  9
$DIMBLK2
  1

  9
$DIMSTYLE
  2
STANDARD
  9
$DIMCLRD
 70
     0
  9
$DIMCLRE
 70
     0
  9
$DIMCLRT
 70
     0
  9
$DIMTFAC
 40
1.0
  9
$DIMGAP
 40
0.09
  9
$DIMJUST
 70
     0
  9
$DIMSD1
 70
     0
  9
$DIMSD2
 70
     0
  9
$DIMTOLJ
 70
     1
  9
$DIMTZIN
 70
     0
  9
$DIMALTZ
 70
     0
  9
$DIMALTTZ
 70
     0
  9
$DIMFIT
 70
     3
  9
$DIMUPT
 70
     0
  9
$DIMUNIT
 70
     2
  9
$DIMDEC
 70
     4
  9
$DIMTDEC
 70
     4
  9
$DIMALTU
 70
     2
  9
$DIMALTTD
 70
     2
  9
$DIMTXSTY
  7
STANDARD
  9
$DIMAUNIT
 70
     0
  9
$LUNITS
 70
     2
  9
$LUPREC
 70
     4
  9
$SKETCHINC
 40
0.1
  9
$FILLETRAD
 40
0.5
  9
$AUNITS
 70
     0
  9
$AUPREC
 70
     0
  9
$MENU
  1
.
  9
$ELEVATION
 40
0.0
  9
$PELEVATION
 40
0.0
  9
$THICKNESS
 40
0.0
  9
$LIMCHECK
 70
     0
  9
$CHAMFERA
 40
0.5
  9
$CHAMFERB
 40
0.5
  9
$CHAMFERC
 40
1.0
  9
$CHAMFERD
 40
0.0
  9
$SKPOLY
 70
     0
  9
$TDCREATE
 40
2453762.543673426
  9
$TDUPDATE
 40
2453762.543673438
  9
$TDINDWG
 40
0.0000000116
  9
$TDUSRTIMER
 40
0.0000000116
  9
$USRTIMER
 70
     1
  9
$ANGBASE
 50
0.0
  9
$ANGDIR
 70
     0
  9
$PDMODE
 70
     0
  9
$PDSIZE
 40
0.0
  9
$PLINEWID
 40
0.0
  9
$COORDS
 70
     1
  9
$SPLFRAME
 70
     0
  9
$SPLINETYPE
 70
     6
  9
$SPLINESEGS
 70
     8
  9
$ATTDIA
 70
     0
  9
$ATTREQ
 70
     1
  9
$HANDLING
 70
     1
  9
$HANDSEED
  5
14D
  9
$SURFTAB1
 70
     6
  9
$SURFTAB2
 70
     6
  9
$SURFTYPE
 70
     6
  9
$SURFU
 70
     6
  9
$SURFV
 70
     6
  9
$UCSNAME
  2

  9
$UCSORG
 10
0.0
 20
0.0
 30
0.0
  9
$UCSXDIR
 10
1.0
 20
0.0
 30
0.0
  9
$UCSYDIR
 10
0.0
 20
1.0
 30
0.0
  9
$PUCSNAME
  2

  9
$PUCSORG
 10
0.0
 20
0.0
 30
0.0
  9
$PUCSXDIR
 10
1.0
 20
0.0
 30
0.0
  9
$PUCSYDIR
 10
0.0
 20
1.0
 30
0.0
  9
$USERI1
 70
     0
  9
$USERI2
 70
     0
  9
$USERI3
 70
     0
  9
$USERI4
 70
     0
  9
$USERI5
 70
     0
  9
$USERR1
 40
0.0
  9
$USERR2
 40
0.0
  9
$USERR3
 40
0.0
  9
$USERR4
 40
0.0
  9
$USERR5
 40
0.0
  9
$WORLDVIEW
 70
     1
  9
$SHADEDGE
 70
     3
  9
$SHADEDIF
 70
    70
  9
$TILEMODE
 70
     1
  9
$MAXACTVP
 70
    64
  9
$PINSBASE
 10
0.0
 20
0.0
 30
0.0
  9
$PLIMCHECK
 70
     0
  9
$PEXTMIN
 10
0.0
 20
0.0
 30
0.0
  9
$PEXTMAX
 10
210.0
 20
297.0
 30
0.0
  9
$PLIMMIN
 10
0.0
 20
0.0
  9
$PLIMMAX
 10
12.0
 20
9.0
  9
$UNITMODE
 70
     0
  9
$VISRETAIN
 70
     1
  9
$PLINEGEN
 70
     0
  9
$PSLTSCALE
 70
     1
  9
$TREEDEPTH
 70
  3020
  9
$PICKSTYLE
 70
     1
  9
$CMLSTYLE
  2
STANDARD
  9
$CMLJUST
 70
     0
  9
$CMLSCALE
 40
1.0
  9
$SAVEIMAGES
 70
     1
  0
ENDSEC
  0
SECTION
  2
CLASSES
  0
CLASS
  1
ACDBDICTIONARYWDFLT
  2
AcDbDictionaryWithDefault
  3
ObjectDBX Classes
 90
        0
280
     0
281
     0
  0
CLASS
  1
TABLESTYLE
  2
AcDbTableStyle
  3
ObjectDBX Classes
 90
     2047
280
     0
281
     0
  0
CLASS
  1
DICTIONARYVAR
  2
AcDbDictionaryVar
  3
ObjectDBX Classes
 90
        0
280
     0
281
     0
  0
CLASS
  1
XRECORD
  2
AcDbXrecord
  3
AutoCAD 2000
 90
    32768
280
     0
281
     0
  0
CLASS
  1
LWPOLYLINE
  2
AcDbPolyline
  3
AutoCAD 2000
 90
    32768
280
     0
281
     1
  0
CLASS
  1
HATCH
  2
AcDbHatch
  3
AutoCAD 2000
 90
    32768
280
     0
281
     1
  0
CLASS
  1
ACDBPLACEHOLDER
  2
AcDbPlaceHolder
  3
ObjectDBX Classes
 90
        0
280
     0
281
     0
  0
CLASS
  1
LAYOUT
  2
AcDbLayout
  3
ObjectDBX Classes
 90
        0
280
     0
281
     0
  0
ENDSEC
  0
SECTION
  2
TABLES
  0
TABLE
  2
VPORT
  5
8
330
0
100
AcDbSymbolTable
 70
     2
  0
VPORT
  5
29
102
{ACAD_XDICTIONARY
360
14B
102
}
330
8
100
AcDbSymbolTableRecord
100
AcDbViewportTableRecord
  2
*ACTIVE
 70
     0
 10
0.0
 20
0.0
 11
1.0
 21
1.0
 12
10.4299065421
 22
4.5
 13
0.0
 23
0.0
 14
0.5
 24
0.5
 15
0.5
 25
0.5
 16
0.0
 26
0.0
 36
1.0
 17
0.0
 27
0.0
 37
0.0
 40
9.0
 41
1.9729729729
 42
50.0
 43
0.0
 44
0.0
 50
0.0
 51
0.0
 71
     0
 72
   100
 73
     1
 74
     3
 75
     0
 76
     0
 77
     0
 78
     0
  0
ENDTAB
  0
TABLE
  2
LTYPE
  5
5
330
0
100
AcDbSymbolTable
 70
     2
  0
LTYPE
  5
14
330
5
100
AcDbSymbolTableRecord
100
AcDbLinetypeTableRecord
  2
BYBLOCK
 70
     0
  3

 72
    65
 73
     0
 40
0.0
  0
LTYPE
  5
15
330
5
100
AcDbSymbolTableRecord
100
AcDbLinetypeTableRecord
  2
BYLAYER
 70
     0
  3

 72
    65
 73
     0
 40
0.0
  0
LTYPE
  5
16
330
5
100
AcDbSymbolTableRecord
100
AcDbLinetypeTableRecord
  2
CONTINUOUS
 70
     0
  3
Solid line
 72
    65
 73
     0
 40
0.0
  0
LTYPE
  5
31
330
5
100
AcDbSymbolTableRecord
100
AcDbLinetypeTableRecord
  2
CENTER2
 70
     0
  3
___ _ ___ _ ___ _ ___ _ ___ _ ___ _ ___ _ ___ _
 72
    65
 73
     4
 40
1.125
 49
0.75
 74
     4
 75
     0
340
0
 46
0.0
 50
0.0
 44
0.0
 45
0.0
 49
-0.125
 74
     4
 75
     0
340
0
 46
0.0
 50
0.0
 44
0.0
 45
0.0
 49
0.125
 74
     4
 75
     0
340
0
 46
0.0
 50
0.0
 44
0.0
 45
0.0
 49
-0.125
 74
     4
 75
     0
340
0
 46
0.0
 50
0.0
 44
0.0
 45
0.0
  0
ENDTAB
  0
TABLE
  2
LAYER
  5
2
330
0
100
AcDbSymbolTable
 70
     5
  0
LAYER
  5
10
330
2
100
AcDbSymbolTableRecord
100
AcDbLayerTableRecord
  2
0
 70
     0
 62
     7
  6
CONTINUOUS
  0
LAYER
  5
30
330
2
100
AcDbSymbolTableRecord
100
AcDbLayerTableRecord
  2
STANDARD
 70
     0
 62
     7
  6
CONTINUOUS
  0
LAYER
  5
50
330
2
100
AcDbSymbolTableRecord
100
AcDbLayerTableRecord
  2
MEGA_001877
 70
     0
 62
     7
  6
CONTINUOUS
  0
LAYER
  5
59
330
2
100
AcDbSymbolTableRecord
100
AcDbLayerTableRecord
  2
MEGA_002298
 70
     0
 62
     7
  6
CONTINUOUS
  0
LAYER
  5
5C
330
2
100
AcDbSymbolTableRecord
100
AcDbLayerTableRecord
  2
MEGA_001062
 70
     0
 62
     7
  6
CONTINUOUS
  0
ENDTAB
  0
TABLE
  2
STYLE
  5
3
330
0
100
AcDbSymbolTable
 70
     2
  0
STYLE
  5
11
330
3
100
AcDbSymbolTableRecord
100
AcDbTextStyleTableRecord
  2
STANDARD
 70
     0
 40
0.0
 41
1.0
 50
0.0
 71
     0
 42
0.2
  3
txt
  4

  0
STYLE
  5
B5
330
3
100
AcDbSymbolTableRecord
100
AcDbTextStyleTableRecord
  2
SEACAD_SEISO_TTF
 70
     0
 40
0.2
 41
1.0
 50
0.0
 71
     0
 42
0.2
  3
seiso.ttf
  4

  0
ENDTAB
  0
TABLE
  2
VIEW
  5
6
330
0
100
AcDbSymbolTable
 70
     0
  0
ENDTAB
  0
TABLE
  2
UCS
  5
7
330
0
100
AcDbSymbolTable
 70
     0
  0
ENDTAB
  0
TABLE
  2
APPID
  5
9
330
0
100
AcDbSymbolTable
 70
     1
  0
APPID
  5
12
330
9
100
AcDbSymbolTableRecord
100
AcDbRegAppTableRecord
  2
ACAD
 70
     0
  0
ENDTAB
  0
TABLE
  2
DIMSTYLE
  5
A
330
0
100
AcDbSymbolTable
 70
     1
  0
DIMSTYLE
105
27
330
A
100
AcDbSymbolTableRecord
100
AcDbDimStyleTableRecord
  2
STANDARD
 70
     0
  3

  4

  5

  6

  7

 40
1.0
 41
0.18
 42
0.0625
 43
0.38
 44
0.18
 45
0.0
 46
0.0
 47
0.0
 48
0.0
140
0.18
141
0.09
142
0.0
143
25.4
144
1.0
145
0.0
146
1.0
147
0.09
 71
     0
 72
     0
 73
     1
 74
     1
 75
     0
 76
     0
 77
     0
 78
     0
170
     0
171
     2
172
     0
173
     0
174
     0
175
     0
176
     0
177
     0
178
     0
270
     2
271
     4
272
     4
273
     2
274
     2
340
11
275
     0
280
     0
281
     0
282
     0
283
     1
284
     0
285
     0
286
     0
287
     3
288
     0
  0
ENDTAB
  0
TABLE
  2
BLOCK_RECORD
  5
1
330
0
100
AcDbSymbolTable
 70
    16
  0
BLOCK_RECORD
  5
1F
330
1
100
AcDbSymbolTableRecord
100
AcDbBlockTableRecord
  2
*MODEL_SPACE
  0
BLOCK_RECORD
  5
1B
330
1
100
AcDbSymbolTableRecord
100
AcDbBlockTableRecord
  2
*PAPER_SPACE
  0
BLOCK_RECORD
  5
2E
330
1
100
AcDbSymbolTableRecord
100
AcDbBlockTableRecord
  2
SE
  0
BLOCK_RECORD
  5
35
330
1
100
AcDbSymbolTableRecord
100
AcDbBlockTableRecord
  2
SE1
  0
BLOCK_RECORD
  5
3A
330
1
100
AcDbSymbolTableRecord
100
AcDbBlockTableRecord
  2
SE2
  0
BLOCK_RECORD
  5
3F
330
1
100
AcDbSymbolTableRecord
100
AcDbBlockTableRecord
  2
SE3
  0
BLOCK_RECORD
  5
49
330
1
100
AcDbSymbolTableRecord
100
AcDbBlockTableRecord
  2
SE4
  0
BLOCK_RECORD
  5
4E
330
1
100
AcDbSymbolTableRecord
100
AcDbBlockTableRecord
  2
SE5
  0
BLOCK_RECORD
  5
84
330
1
100
AcDbSymbolTableRecord
100
AcDbBlockTableRecord
  2
SE6
  0
BLOCK_RECORD
  5
AF
330
1
100
AcDbSymbolTableRecord
100
AcDbBlockTableRecord
  2
SE7
  0
BLOCK_RECORD
  5
B9
330
1
100
AcDbSymbolTableRecord
100
AcDbBlockTableRecord
  2
SE8
  0
BLOCK_RECORD
  5
C3
330
1
100
AcDbSymbolTableRecord
100
AcDbBlockTableRecord
  2
SE9
  0
BLOCK_RECORD
  5
CD
330
1
100
AcDbSymbolTableRecord
100
AcDbBlockTableRecord
  2
SE10
  0
BLOCK_RECORD
  5
D7
330
1
100
AcDbSymbolTableRecord
100
AcDbBlockTableRecord
  2
SE11
  0
BLOCK_RECORD
  5
E1
330
1
100
AcDbSymbolTableRecord
100
AcDbBlockTableRecord
  2
SE12
  0
BLOCK_RECORD
  5
EC
330
1
100
AcDbSymbolTableRecord
100
AcDbBlockTableRecord
  2
SE13
  0
BLOCK_RECORD
  5
F6
330
1
100
AcDbSymbolTableRecord
100
AcDbBlockTableRecord
  2
SE14
  0
ENDTAB
  0
ENDSEC
  0
SECTION
  2
BLOCKS
  0
BLOCK
  5
20
330
1F
100
AcDbEntity
  8
0
100
AcDbBlockBegin
  2
*MODEL_SPACE
 70
     0
 71
     0
 10
0.0
 20
0.0
 30
0.0
  3
*MODEL_SPACE
  1

  0
ENDBLK
  5
21
330
1F
100
AcDbEntity
  8
0
100
AcDbBlockEnd
  0
BLOCK
  5
1C
330
1B
100
AcDbEntity
 67
     1
  8
0
100
AcDbBlockBegin
  2
*PAPER_SPACE
 70
     0
 71
     0
 10
0.0
 20
0.0
 30
0.0
  3
*PAPER_SPACE
  1

  0
ENDBLK
  5
1D
330
1B
100
AcDbEntity
 67
     1
  8
0
100
AcDbBlockEnd
  0
BLOCK
  5
33
330
2E
100
AcDbEntity
  8
0
100
AcDbBlockBegin
  2
SE
 70
     0
 71
     0
 10
0.0
 20
0.0
 30
0.0
  3
SE
  1

  0
LINE
  5
32
330
2E
100
AcDbEntity
  8
STANDARD
  6
CENTER2
 62
     7
 48
25.4
100
AcDbLine
 10
58.3595653637
 20
263.0409561613
 30
0.0
 11
58.3595653637
 21
30.6878506676
 31
0.0
  0
ENDBLK
  5
34
330
2E
100
AcDbEntity
  8
0
100
AcDbBlockEnd
  0
BLOCK
  5
38
330
35
100
AcDbEntity
  8
0
100
AcDbBlockBegin
  2
SE1
 70
     0
 71
     0
 10
0.0
 20
0.0
 30
0.0
  3
SE1
  1

  0
LINE
  5
37
330
35
100
AcDbEntity
  8
STANDARD
  6
CENTER2
 62
     7
 48
25.4
100
AcDbLine
 10
171.4294753823
 20
87.1675402523
 30
0.0
 11
127.2264548178
 21
87.1675402523
 31
0.0
  0
ENDBLK
  5
39
330
35
100
AcDbEntity
  8
0
100
AcDbBlockEnd
  0
BLOCK
  5
3D
330
3A
100
AcDbEntity
  8
0
100
AcDbBlockBegin
  2
SE2
 70
     0
 71
     0
 10
0.0
 20
0.0
 30
0.0
  3
SE2
  1

  0
LINE
  5
3C
330
3A
100
AcDbEntity
  8
STANDARD
  6
CENTER2
 62
     7
 48
25.4
100
AcDbLine
 10
69.9622333546
 20
87.1675402523
 30
0.0
 11
46.48384303
 21
87.1675402523
 31
0.0
  0
ENDBLK
  5
3E
330
3A
100
AcDbEntity
  8
0
100
AcDbBlockEnd
  0
BLOCK
  5
47
330
3F
100
AcDbEntity
  8
0
100
AcDbBlockBegin
  2
SE3
 70
     0
 71
     0
 10
0.0
 20
0.0
 30
0.0
  3
SE3
  1

  0
LINE
  5
41
330
3F
100
AcDbEntity
  8
STANDARD
  6
CENTER2
 62
     7
 48
25.4
100
AcDbLine
 10
64.3595654159
 20
169.5350241037
 30
0.0
 11
52.3595653116
 21
169.5350241037
 31
0.0
  0
LINE
  5
42
330
3F
100
AcDbEntity
  8
STANDARD
  6
CENTER2
 62
     7
 48
25.4
100
AcDbLine
 10
58.3595653637
 20
175.5350241558
 30
0.0
 11
58.3595653637
 21
163.5350240515
 31
0.0
  0
LINE
  5
43
330
3F
100
AcDbEntity
  8
STANDARD
  6
CENTER2
 62
     7
 48
25.4
100
AcDbLine
 10
65.8595653637
 20
169.5350241037
 30
0.0
 11
72.1095653637
 21
169.5350241037
 31
0.0
  0
LINE
  5
44
330
3F
100
AcDbEntity
  8
STANDARD
  6
CENTER2
 62
     7
 48
25.4
100
AcDbLine
 10
58.3595653637
 20
177.0350241037
 30
0.0
 11
58.3595653637
 21
183.2850241037
 31
0.0
  0
LINE
  5
45
330
3F
100
AcDbEntity
  8
STANDARD
  6
CENTER2
 62
     7
 48
25.4
100
AcDbLine
 10
50.8595653637
 20
169.5350241037
 30
0.0
 11
44.6095653637
 21
169.5350241037
 31
0.0
  0
LINE
  5
46
330
3F
100
AcDbEntity
  8
STANDARD
  6
CENTER2
 62
     7
 48
25.4
100
AcDbLine
 10
58.3595653637
 20
162.0350241037
 30
0.0
 11
58.3595653637
 21
155.7850241037
 31
0.0
  0
ENDBLK
  5
48
330
3F
100
AcDbEntity
  8
0
100
AcDbBlockEnd
  0
BLOCK
  5
4C
330
49
100
AcDbEntity
  8
0
100
AcDbBlockBegin
  2
SE4
 70
     0
 71
     0
 10
0.0
 20
0.0
 30
0.0
  3
SE4
  1

  0
LINE
  5
4B
330
49
100
AcDbEntity
  8
STANDARD
  6
CENTER2
 62
     7
 48
25.4
100
AcDbLine
 10
144.304001714
 20
169.5350241037
 30
0.0
 11
128.2485973621
 21
169.5350241037
 31
0.0
  0
ENDBLK
  5
4D
330
49
100
AcDbEntity
  8
0
100
AcDbBlockEnd
  0
BLOCK
  5
82
330
4E
100
AcDbEntity
  8
0
100
AcDbBlockBegin
  2
SE5
 70
     0
 71
     0
 10
0.0
 20
0.0
 30
0.0
  3
SE5
  1

  0
ARC
  5
51
330
4E
100
AcDbEntity
  8
MEGA_001877
  6
CONTINUOUS
 62
     7
 48
25.4
100
AcDbCircle
 10
58.3595653637
 20
54.5350241037
 30
0.0
 40
19.82502267290001
100
AcDbArc
 50
262.9589538737
 51
277.0410461263
  0
LINE
  5
52
330
4E
100
AcDbEntity
  8
MEGA_001877
  6
CONTINUOUS
 62
     7
 48
25.4
100
AcDbLine
 10
60.7897238248
 20
34.8595100357
 30
0.0
 11
60.8595653637
 21
34.6918892707
 31
0.0
  0
LINE
  5
53
330
4E
100
AcDbEntity
  8
MEGA_001877
  6
CONTINUOUS
 62
     7
 48
25.4
100
AcDbLine
 10
55.8595653637
 20
34.6918892707
 30
0.0
 11
55.9294069027
 21
34.8595100357
 31
0.0
  0
LINE
  5
54
330
4E
100
AcDbEntity
  8
MEGA_001877
  6
CONTINUOUS
 62
     7
 48
25.4
100
AcDbLine
 10
78.3595653637
 20
54.5350241037
 30
0.0
 11
78.3595653637
 21
238.5350241037
 31
0.0
  0
ARC
  5
55
330
4E
100
AcDbEntity
  8
MEGA_001877
  6
CONTINUOUS
 62
     7
 48
25.4
100
AcDbCircle
 10
58.3595653637
 20
238.5350241037
 30
0.0
 40
20.0
100
AcDbArc
 50
0.0
 51
180.0
  0
ARC
  5
56
330
4E
100
AcDbEntity
  8
MEGA_001877
  6
CONTINUOUS
 62
     7
 48
25.4
100
AcDbCircle
 10
58.3595653637
 20
54.5350241037
 30
0.0
 40
20.0
100
AcDbArc
 50
180.0
 51
262.8192442185
  0
LINE
  5
57
330
4E
100
AcDbEntity
  8
MEGA_001877
  6
CONTINUOUS
 62
     7
 48
25.4
100
AcDbLine
 10
38.3595653637
 20
238.5350241037
 30
0.0
 11
38.3595653637
 21
54.5350241037
 31
0.0
  0
ARC
  5
58
330
4E
100
AcDbEntity
  8
MEGA_001877
  6
CONTINUOUS
 62
     7
 48
25.4
100
AcDbCircle
 10
58.3595653637
 20
54.5350241037
 30
0.0
 40
20.0
100
AcDbArc
 50
277.1807557815
 51
360.0
  0
CIRCLE
  5
5A
330
4E
100
AcDbEntity
  8
MEGA_002298
  6
CONTINUOUS
 62
     7
 48
25.4
100
AcDbCircle
 10
58.3595653637
 20
169.5350241037
 30
0.0
 40
12.00000000000001
  0
CIRCLE
  5
5B
330
4E
100
AcDbEntity
  8
MEGA_002298
  6
CONTINUOUS
 62
     7
 48
25.4
100
AcDbCircle
 10
58.3595653637
 20
169.5350241037
 30
0.0
 40
7.999999999999993
  0
LINE
  5
5D
330
4E
100
AcDbEntity
  8
MEGA_001062
  6
CONTINUOUS
 62
     7
 48
25.4
100
AcDbLine
 10
50.3156309375
 20
83.1308189408
 30
0.0
 11
50.6822175297
 21
81.5830088849
 31
0.0
  0
LINE
  5
5E
330
4E
100
AcDbEntity
  8
MEGA_001062
  6
CONTINUOUS
 62
     7
 48
25.4
100
AcDbLine
 10
66.3646952128
 20
91.368103112
 30
0.0
 11
66.0359426856
 21
92.7561693376
 31
0.0
  0
SPLINE
  5
5F
330
4E
100
AcDbEntity
  8
MEGA_001062
  6
CONTINUOUS
 62
     7
 48
25.4
100
AcDbSpline
210
0.0
220
0.0
230
1.0
 70
     8
 71
     3
 72
    33
 73
    29
 74
     0
 42
0.0000000001
 43
0.0000000001
 40
0.0
 40
0.0
 40
0.0
 40
0.0
 40
0.0189807978947633
 40
0.0490006063972533
 40
0.0780820921967755
 40
0.1062620590048974
 40
0.1335381714836062
 40
0.1598560585834727
 40
0.1851053364733211
 40
0.2091947033730681
 40
0.2322974272819966
 40
0.2551256958770855
 40
0.2787826884310091
 40
0.3047112543080989
 40
0.3354084089726038
 40
0.3754232100674473
 40
0.4376099652996475
 40
0.4949158586462726
 40
0.5478136787138662
 40
0.6035466849722795
 40
0.6573037207380659
 40
0.710038268386004
 40
0.762004404538926
 40
0.8131886308352876
 40
0.8634887653620138
 40
0.9131831475371952
 40
0.9629436559897929
 40
1.0
 40
1.0
 40
1.0
 40
1.0
 10
61.27947902844726
 20
67.17331394054273
 30
0.0
 10
61.32462030706272
 20
67.17285747479244
 30
0.0
 10
61.42356545270185
 20
67.17246573127068
 30
0.0
 10
61.59468752843725
 20
67.19970651415905
 30
0.0
 10
61.77494980414728
 20
67.2495612672256
 30
0.0
 10
61.94293533815032
 20
67.3194234993879
 30
0.0
 10
62.09495868839647
 20
67.40453177220503
 30
0.0
 10
62.22988912176074
 20
67.50117310854274
 30
0.0
 10
62.34642911696633
 20
67.60461338213375
 30
0.0
 10
62.44437300986988
 20
67.70995022441373
 30
0.0
 10
62.52505324543625
 20
67.8131545675988
 30
0.0
 10
62.59128485592625
 20
67.91228893945478
 30
0.0
 10
62.64675824100563
 20
68.00808255926445
 30
0.0
 10
62.6957815429101
 20
68.1046089504613
 30
0.0
 10
62.74340407946625
 20
68.21071611171027
 30
0.0
 10
62.79814069557038
 20
68.34846700436023
 30
0.0
 10
62.85674311230822
 20
68.51648074620441
 30
0.0
 10
62.9196186449708
 20
68.71677179792437
 30
0.0
 10
62.98211693945936
 20
68.92989511521775
 30
0.0
 10
63.0463573362964
 20
69.16005180268084
 30
0.0
 10
63.11379430460508
 20
69.41099667099741
 30
0.0
 10
63.18271414788275
 20
69.6749638785132
 30
0.0
 10
63.25328805941598
 20
69.95150398262889
 30
0.0
 10
63.32515129591656
 20
70.23827177435814
 30
0.0
 10
63.3981519560837
 20
70.53405746832846
 30
0.0
 10
63.47158471456926
 20
70.83489249557623
 30
0.0
 10
63.54150201064616
 20
71.12374471610681
 30
0.0
 10
63.58225491653133
 20
71.2941374905832
 30
0.0
 10
63.60280441955896
 20
71.38009950217915
 30
0.0
  0
LINE
  5
60
330
4E
100
AcDbEntity
  8
MEGA_001062
  6
CONTINUOUS
 62
     7
 48
25.4
100
AcDbLine
 10
50.6832822992
 20
92.7565673131
 30
0.0
 11
50.3156309375
 21
91.2042615638
 31
0.0
  0
ARC
  5
61
330
4E
100
AcDbEntity
  8
MEGA_001062
  6
CONTINUOUS
 62
     7
 48
25.4
100
AcDbCircle
 10
67.3248808833
 20
91.5445477898
 30
0.0
 40
0.9742105523999953
100
AcDbArc
 50
190.3825609952
 51
204.3905623608
  0
LINE
  5
62
330
4E
100
AcDbEntity
  8
MEGA_001062
  6
CONTINUOUS
 62
     7
 48
25.4
100
AcDbLine
 10
66.0348829326
 20
81.5744366543
 30
0.0
 11
66.3646952128
 21
82.9669773926
 31
0.0
  0
ARC
  5
63
330
4E
100
AcDbEntity
  8
MEGA_001062
  6
CONTINUOUS
 62
     7
 48
25.4
100
AcDbCircle
 10
335.0847519884
 20
160.950712727
 30
0.0
 40
277.5485940872
100
AcDbArc
 50
193.2700181629
 51
193.9985649888
  0
ARC
  5
64
330
4E
100
AcDbEntity
  8
MEGA_001062
  6
CONTINUOUS
 62
     7
 48
25.4
100
AcDbCircle
 10
330.5551908786
 20
14.469678562
 30
0.0
 40
272.8908256666
100
AcDbArc
 50
166.008456654
 51
166.7334727289
  0
ARC
  5
65
330
4E
100
AcDbEntity
  8
MEGA_001062
  6
CONTINUOUS
 62
     7
 48
25.4
100
AcDbCircle
 10
-1227.9393607087
 20
-203.9900702153
 30
0.0
 40
1327.5141357897
100
AcDbArc
 50
13.1154731114
 51
13.3491116635
  0
SPLINE
  5
66
330
4E
100
AcDbEntity
  8
MEGA_001062
  6
CONTINUOUS
 62
     7
 48
25.4
100
AcDbSpline
210
0.0
220
0.0
230
1.0
 70
     8
 71
     3
 72
    34
 73
    30
 74
     0
 42
0.0000000001
 43
0.0000000001
 40
0.0
 40
0.0
 40
0.0
 40
0.0
 40
0.0232730501748701
 40
0.0702745317255958
 40
0.117084711265469
 40
0.1637036191189234
 40
0.2103913335804966
 40
0.2576506205206016
 40
0.3053690202527279
 40
0.3534413358624256
 40
0.4018021324077657
 40
0.4504806710818055
 40
0.4997530223761653
 40
0.5509337100994357
 40
0.6035985084753307
 40
0.6640242823978986
 40
0.7087076724620092
 40
0.7342357055301694
 40
0.7581009183733799
 40
0.7810652003648942
 40
0.8041193059110333
 40
0.8283006758921609
 40
0.8539492955681451
 40
0.8807069535618546
 40
0.9081599520598175
 40
0.9360436536350136
 40
0.9641927419971182
 40
0.9925009755122337
 40
1.0
 40
1.0
 40
1.0
 40
1.0
 10
63.70789072076025
 20
102.5116550362146
 30
0.0
 10
63.69414457940614
 20
102.569952505119
 30
0.0
 10
63.65882905455614
 20
102.7196898453796
 30
0.0
 10
63.59376071736985
 20
102.9923454017034
 30
0.0
 10
63.51867838601688
 20
103.3052505274871
 30
0.0
 10
63.44394324160452
 20
103.613864681004
 30
0.0
 10
63.37043054804737
 20
103.9141238285977
 30
0.0
 10
63.29798705261298
 20
104.206129978548
 30
0.0
 10
63.2269454985445
 20
104.4879017301019
 30
0.0
 10
63.15783170417702
 20
104.756657620053
 30
0.0
 10
63.09106523282884
 20
105.0099961902696
 30
0.0
 10
63.0268761838342
 20
105.2461477759277
 30
0.0
 10
62.96457291613044
 20
105.4664530195265
 30
0.0
 10
62.90347592682981
 20
105.6705313706761
 30
0.0
 10
62.83996699976238
 20
105.8672986223159
 30
0.0
 10
62.77786176066755
 20
106.0399986151586
 30
0.0
 10
62.7168192825063
 20
106.1859903617205
 30
0.0
 10
62.65933139232076
 20
106.3036629830978
 30
0.0
 10
62.60312939040288
 20
106.4043158909667
 30
0.0
 10
62.53405334475777
 20
106.5106686448767
 30
0.0
 10
62.44828385965705
 20
106.6222330123194
 30
0.0
 10
62.34234919319919
 20
106.7365119481497
 30
0.0
 10
62.21438643560318
 20
106.8484591398005
 30
0.0
 10
62.06536907652921
 20
106.9513322983085
 30
0.0
 10
61.8987413420735
 20
107.0386599712966
 30
0.0
 10
61.71780563865664
 20
107.1065047642755
 30
0.0
 10
61.52908057481751
 20
107.1495103674971
 30
0.0
 10
61.37687250838618
 20
107.1685857754942
 30
0.0
 10
61.29878813621866
 20
107.165370104751
 30
0.0
 10
61.27968293888693
 20
107.1645323927306
 30
0.0
  0
ARC
  5
67
330
4E
100
AcDbEntity
  8
MEGA_001062
  6
CONTINUOUS
 62
     7
 48
25.4
100
AcDbCircle
 10
-1503.5404003235
 20
442.4559772623
 30
0.0
 40
1610.4764631382
100
AcDbArc
 50
346.6947804772
 51
346.8873683522
  0
ARC
  5
68
330
4E
100
AcDbEntity
  8
MEGA_001062
  6
CONTINUOUS
 62
     7
 48
25.4
100
AcDbCircle
 10
-22.6778894424
 20
92.0964169741
 30
0.0
 40
88.73287971720001
100
AcDbArc
 50
346.498646591
 51
346.7997300684
  0
LINE
  5
69
330
4E
100
AcDbEntity
  8
MEGA_001062
  6
CONTINUOUS
 62
     7
 48
25.4
100
AcDbLine
 10
61.2803052684
 20
107.1675402523
 30
0.0
 11
55.4391963595
 21
107.1675402523
 31
0.0
  0
LINE
  5
6A
330
4E
100
AcDbEntity
  8
MEGA_001062
  6
CONTINUOUS
 62
     7
 48
25.4
100
AcDbLine
 10
55.4388254591
 20
67.1675402523
 30
0.0
 11
61.279934368
 21
67.1675402523
 31
0.0
  0
ARC
  5
6B
330
4E
100
AcDbEntity
  8
MEGA_001062
  6
CONTINUOUS
 62
     7
 48
25.4
100
AcDbCircle
 10
1620.2595310434
 20
-268.120896756
 30
0.0
 40
1610.4764631304
100
AcDbArc
 50
166.6947804772
 51
166.8873683522
  0
ARC
  5
6C
330
4E
100
AcDbEntity
  8
MEGA_001062
  6
CONTINUOUS
 62
     7
 48
25.4
100
AcDbCircle
 10
1344.658491439
 20
378.3251507206
 30
0.0
 40
1327.5141357926
100
AcDbArc
 50
193.1154731115
 51
193.3491116635
  0
SPLINE
  5
6D
330
4E
100
AcDbEntity
  8
MEGA_001062
  6
CONTINUOUS
 62
     7
 48
25.4
100
AcDbSpline
210
0.0
220
0.0
230
1.0
 70
     8
 71
     3
 72
    35
 73
    31
 74
     0
 42
0.0000000001
 43
0.0000000001
 40
0.0
 40
0.0
 40
0.0
 40
0.0
 40
0.0131092046493558
 40
0.0412238452719611
 40
0.0684496529117313
 40
0.0948267779656914
 40
0.1203572592987793
 40
0.1449967016340604
 40
0.1686430062068
 40
0.1911798194603663
 40
0.2126769091705994
 40
0.2336770625078079
 40
0.2552212886561466
 40
0.2784606127397807
 40
0.30550935082035
 40
0.3399355229220068
 40
0.390550937734411
 40
0.4439148738669052
 40
0.494642501392881
 40
0.5424138023277675
 40
0.5926211282130899
 40
0.6417560203373189
 40
0.6903043228557887
 40
0.7384008097557526
 40
0.7860272401281691
 40
0.8330896933384675
 40
0.8797398398993169
 40
0.9265407371426138
 40
0.9734950787376882
 40
1.0
 40
1.0
 40
1.0
 40
1.0
 10
55.43948964448544
 20
107.1640124772103
 30
0.0
 10
55.40606974938402
 20
107.1649144210607
 30
0.0
 10
55.31654818739436
 20
107.166916492561
 30
0.0
 10
55.15478290400505
 20
107.1437104125029
 30
0.0
 10
54.97282906340141
 20
107.0975339924742
 30
0.0
 10
54.80263651288245
 20
107.0305106714796
 30
0.0
 10
54.64812975672254
 20
106.9477436193765
 30
0.0
 10
54.51042549670292
 20
106.8527241503815
 30
0.0
 10
54.39094603285539
 20
106.7501101657847
 30
0.0
 10
54.29015289804295
 20
106.644858121664
 30
0.0
 10
54.20707383278381
 20
106.5413669217847
 30
0.0
 10
54.1390704509334
 20
106.4420156488691
 30
0.0
 10
54.08264576665411
 20
106.3467462778122
 30
0.0
 10
54.03358100514417
 20
106.2522241042244
 30
0.0
 10
53.98714887911875
 20
106.1510935392232
 30
0.0
 10
53.93631438311084
 20
106.0264091749565
 30
0.0
 10
53.88132500724953
 20
105.8739181349264
 30
0.0
 10
53.82154322074763
 20
105.6900242447226
 30
0.0
 10
53.7610487685626
 20
105.488733803625
 30
0.0
 10
53.69938056393398
 20
105.2717879239603
 30
0.0
 10
53.6352016466742
 20
105.03660702133
 30
0.0
 10
53.56755566142248
 20
104.7805297727247
 30
0.0
 10
53.49798745356312
 20
104.5104475660193
 30
0.0
 10
53.42658268145136
 20
104.2275843554683
 30
0.0
 10
53.35369370558092
 20
103.9341261115913
 30
0.0
 10
53.27979175973066
 20
103.6325541691974
 30
0.0
 10
53.20473456646985
 20
103.3233430184519
 30
0.0
 10
53.12956843789393
 20
103.0106798707124
 30
0.0
 10
53.06290262016371
 20
102.7310342200186
 30
0.0
 10
53.02610026478577
 20
102.5746938460808
 30
0.0
 10
53.01047350355501
 20
102.5082818007554
 30
0.0
  0
SPLINE
  5
6E
330
4E
100
AcDbEntity
  8
MEGA_001062
  6
CONTINUOUS
 62
     7
 48
25.4
100
AcDbSpline
210
0.0
220
0.0
230
1.0
 70
     8
 71
     3
 72
    34
 73
    30
 74
     0
 42
0.0000000001
 43
0.0000000001
 40
0.0
 40
0.0
 40
0.0
 40
0.0
 40
0.0232730501749716
 40
0.0702745317256979
 40
0.1170847112655642
 40
0.163703619119023
 40
0.210391333580586
 40
0.2576506205207027
 40
0.3053690202528518
 40
0.3534413358625482
 40
0.4018021324078908
 40
0.4504806710819083
 40
0.4997530223762278
 40
0.5509337100995294
 40
0.6035985084754858
 40
0.6640242823980928
 40
0.7087076724623133
 40
0.7342357055304616
 40
0.7581009183736424
 40
0.7810652003651788
 40
0.8041193059114107
 40
0.8283006758924032
 40
0.8539492955684725
 40
0.8807069535622011
 40
0.9081599520602141
 40
0.9360436536355091
 40
0.9641927419975961
 40
0.9925009755127998
 40
1.0
 40
1.0
 40
1.0
 40
1.0
 10
53.01124000671617
 20
71.82342546836514
 30
0.0
 10
53.02498614807033
 20
71.76512799946049
 30
0.0
 10
53.06030167292037
 20
71.61539065919965
 30
0.0
 10
53.12537001010674
 20
71.34273510287575
 30
0.0
 10
53.20045234145968
 20
71.02982997709177
 30
0.0
 10
53.27518748587204
 20
70.72121582357522
 30
0.0
 10
53.34870017942921
 20
70.4209566759812
 30
0.0
 10
53.42114367486359
 20
70.12895052603125
 30
0.0
 10
53.49218522893209
 20
69.84717877447696
 30
0.0
 10
53.56129902329955
 20
69.57842288452622
 30
0.0
 10
53.62806549464773
 20
69.32508431430965
 30
0.0
 10
53.69225454364234
 20
69.08893272865164
 30
0.0
 10
53.75455781134607
 20
68.86862748505281
 30
0.0
 10
53.81565480064673
 20
68.66454913390321
 30
0.0
 10
53.87916372771422
 20
68.46778188226318
 30
0.0
 10
53.94126896680915
 20
68.2950818894203
 30
0.0
 10
54.0023114449705
 20
68.14909014285847
 30
0.0
 10
54.05979933515626
 20
68.03141752148065
 30
0.0
 10
54.11600133707426
 20
67.93076461361173
 30
0.0
 10
54.18507738271971
 20
67.8244118597015
 30
0.0
 10
54.27084686782056
 20
67.71284749225899
 30
0.0
 10
54.37678153427876
 20
67.59856855642856
 30
0.0
 10
54.50474429187486
 20
67.48662136477795
 30
0.0
 10
54.65376165094931
 20
67.38374820626997
 30
0.0
 10
54.82038938540551
 20
67.29642053328195
 30
0.0
 10
55.00132508882286
 20
67.22857574030346
 30
0.0
 10
55.19005015266243
 20
67.18557013708183
 30
0.0
 10
55.34225821909271
 20
67.1664947290853
 30
0.0
 10
55.42034259125923
 20
67.16971039982866
 30
0.0
 10
55.43944778858953
 20
67.17054811184903
 30
0.0
  0
ARC
  5
6F
330
4E
100
AcDbEntity
  8
MEGA_001062
  6
CONTINUOUS
 62
     7
 48
25.4
100
AcDbCircle
 10
58.3595653637
 20
87.1675402523
 30
0.0
 40
9.000000000000002
100
AcDbArc
 50
153.3509374762
 51
206.6490625238
  0
ARC
  5
70
330
4E
100
AcDbEntity
  8
MEGA_001062
  6
CONTINUOUS
 62
     7
 48
25.4
100
AcDbCircle
 10
-326.1276128459
 20
187.0144806608
 30
0.0
 40
388.4158632185
100
AcDbArc
 50
346.0781208803
 51
346.6367405367
  0
ARC
  5
71
330
4E
100
AcDbEntity
  8
MEGA_001062
  6
CONTINUOUS
 62
     7
 48
25.4
100
AcDbCircle
 10
-309.6436437346
 20
-8.7318967724
 30
0.0
 40
371.4658343383
100
AcDbArc
 50
13.3585118476
 51
13.9141233569
  0
LINE
  5
72
330
4E
100
AcDbEntity
  8
MEGA_001062
  6
CONTINUOUS
 62
     7
 48
25.4
100
AcDbLine
 10
50.3156309375
 20
91.2042615638
 30
0.0
 11
49.360105689
 21
87.1698216258
 31
0.0
  0
ARC
  5
73
330
4E
100
AcDbEntity
  8
MEGA_001062
  6
CONTINUOUS
 62
     7
 48
25.4
100
AcDbCircle
 10
58.3595653637
 20
87.1675402523
 30
0.0
 40
9.000000000000002
100
AcDbArc
 50
334.343339235
 51
25.656660765
  0
LINE
  5
74
330
4E
100
AcDbEntity
  8
MEGA_001062
  6
CONTINUOUS
 62
     7
 48
25.4
100
AcDbLine
 10
49.360105689
 20
87.1652588788
 30
0.0
 11
50.3156309375
 21
83.1308189408
 31
0.0
  0
LINE
  5
75
330
4E
100
AcDbEntity
  8
MEGA_001062
  6
CONTINUOUS
 62
     7
 48
25.4
100
AcDbLine
 10
67.3590253276
 20
87.1652600997
 30
0.0
 11
66.3646952128
 21
82.9669773926
 31
0.0
  0
LINE
  5
76
330
4E
100
AcDbEntity
  8
MEGA_001062
  6
CONTINUOUS
 62
     7
 48
25.4
100
AcDbLine
 10
67.3590250384
 20
87.1698216258
 30
0.0
 11
66.3646952128
 21
91.368103112
 31
0.0
  0
ARC
  5
77
330
4E
100
AcDbEntity
  8
MEGA_001062
  6
CONTINUOUS
 62
     7
 48
25.4
100
AcDbCircle
 10
67.5661450173
 20
82.7056630162
 30
0.0
 40
1.228592453399998
100
AcDbArc
 50
157.9148477956
 51
167.7310438435
  0
LINE
  5
78
330
4E
100
AcDbEntity
  8
MEGA_001062
  6
CONTINUOUS
 62
     7
 48
25.4
100
AcDbLine
 10
49.360105689
 20
87.1698216258
 30
0.0
 11
49.360105689
 21
87.1652588788
 31
0.0
  0
LINE
  5
79
330
4E
100
AcDbEntity
  8
MEGA_001062
  6
CONTINUOUS
 62
     7
 48
25.4
100
AcDbLine
 10
67.3590250384
 20
87.1698216258
 30
0.0
 11
67.3590253276
 21
87.1652600997
 31
0.0
  0
ARC
  5
7A
330
4E
100
AcDbEntity
  8
MEGA_001062
  6
CONTINUOUS
 62
     7
 48
25.4
100
AcDbCircle
 10
67.824315644
 20
82.6212778168
 30
0.0
 40
1.5
100
AcDbArc
 50
154.343339235
 51
166.6754687381
  0
ARC
  5
7B
330
4E
100
AcDbEntity
  8
MEGA_001062
  6
CONTINUOUS
 62
     7
 48
25.4
100
AcDbCircle
 10
67.824315644
 20
91.7138026878
 30
0.0
 40
1.5
100
AcDbArc
 50
193.3245312619
 51
205.6566607651
  0
LINE
  5
7C
330
4E
100
AcDbEntity
  8
MEGA_001062
  6
CONTINUOUS
 62
     7
 48
25.4
100
AcDbLine
 10
63.7073385988
 20
102.5115241869
 30
0.0
 11
63.7077225492
 21
102.5116146712
 31
0.0
  0
LINE
  5
7D
330
4E
100
AcDbEntity
  8
MEGA_001062
  6
CONTINUOUS
 62
     7
 48
25.4
100
AcDbLine
 10
63.7073385988
 20
71.8235563177
 30
0.0
 11
63.7077225492
 21
71.8234658334
 31
0.0
  0
LINE
  5
7E
330
4E
100
AcDbEntity
  8
MEGA_001062
  6
CONTINUOUS
 62
     7
 48
25.4
100
AcDbLine
 10
53.0117921287
 20
71.8235563177
 30
0.0
 11
53.0114081783
 21
71.8234658334
 31
0.0
  0
LINE
  5
7F
330
4E
100
AcDbEntity
  8
MEGA_001062
  6
CONTINUOUS
 62
     7
 48
25.4
100
AcDbLine
 10
53.0117921287
 20
102.5115241869
 30
0.0
 11
53.0114081783
 21
102.5116146712
 31
0.0
  0
LINE
  5
80
330
4E
100
AcDbEntity
  8
STANDARD
  6
CONTINUOUS
 62
     7
 48
25.4
100
AcDbLine
 10
58.3595653637
 20
258.5350241037
 30
0.0
 11
49.2800854216
 21
258.5350241037
 31
0.0
  0
LINE
  5
81
330
4E
100
AcDbEntity
  8
STANDARD
  6
CONTINUOUS
 62
     7
 48
25.4
100
AcDbLine
 10
58.3595653637
 20
34.5350241037
 30
0.0
 11
51.9612799838
 21
34.5350241037
 31
0.0
  0
ENDBLK
  5
83
330
4E
100
AcDbEntity
  8
0
100
AcDbBlockEnd
  0
BLOCK
  5
AD
330
84
100
AcDbEntity
  8
0
100
AcDbBlockBegin
  2
SE6
 70
     0
 71
     0
 10
0.0
 20
0.0
 30
0.0
  3
SE6
  1

  0
LINE
  5
86
330
84
100
AcDbEntity
  8
MEGA_001877
  6
CONTINUOUS
 62
     7
 48
25.4
100
AcDbLine
 10
136.0127657262
 20
34.7100014307
 30
0.0
 11
136.8613886972
 21
34.7842463203
 31
0.0
  0
LINE
  5
87
330
84
100
AcDbEntity
  8
MEGA_001877
  6
CONTINUOUS
 62
     7
 48
25.4
100
AcDbLine
 10
136.8613886972
 20
258.285801887
 30
0.0
 11
134.0127657262
 21
258.5350241037
 31
0.0
  0
ARC
  5
88
330
84
100
AcDbEntity
  8
MEGA_001877
  6
CONTINUOUS
 62
     7
 48
25.4
100
AcDbCircle
 10
136.5127657262
 20
38.7690251126
 30
0.0
 40
4.0
100
AcDbArc
 50
275.0
 51
360.0
  0
ARC
  5
89
330
84
100
AcDbEntity
  8
MEGA_001877
  6
CONTINUOUS
 62
     7
 48
25.4
100
AcDbCircle
 10
136.5127657262
 20
254.3010230947
 30
0.0
 40
4.0
100
AcDbArc
 50
0.0
 51
85.0
  0
LINE
  5
8A
330
84
100
AcDbEntity
  8
MEGA_001877
  6
CONTINUOUS
 62
     7
 48
25.4
100
AcDbLine
 10
136.0127657262
 20
34.8595100357
 30
0.0
 11
136.0127657262
 21
34.7100014307
 31
0.0
  0
LINE
  5
8B
330
84
100
AcDbEntity
  8
MEGA_001877
  6
CONTINUOUS
 62
     7
 48
25.4
100
AcDbLine
 10
134.0127657262
 20
34.6918892707
 30
0.0
 11
136.0127657262
 21
34.8595100357
 31
0.0
  0
LINE
  5
8C
330
84
100
AcDbEntity
  8
MEGA_001877
  6
CONTINUOUS
 62
     7
 48
25.4
100
AcDbLine
 10
140.5127657262
 20
38.7690251126
 30
0.0
 11
140.5127657262
 21
54.5350241037
 31
0.0
  0
LINE
  5
8D
330
84
100
AcDbEntity
  8
MEGA_001877
  6
CONTINUOUS
 62
     7
 48
25.4
100
AcDbLine
 10
140.5127657262
 20
254.3010230947
 30
0.0
 11
140.5127657262
 21
238.5350241037
 31
0.0
  0
LINE
  5
8E
330
84
100
AcDbEntity
  8
MEGA_001877
  6
CONTINUOUS
 62
     7
 48
25.4
100
AcDbLine
 10
140.5127657262
 20
238.5350241037
 30
0.0
 11
140.5127657262
 21
54.5350241037
 31
0.0
  0
LINE
  5
8F
330
84
100
AcDbEntity
  8
MEGA_001877
  6
CONTINUOUS
 62
     7
 48
25.4
100
AcDbLine
 10
134.0127657262
 20
258.5350241037
 30
0.0
 11
134.0127657262
 21
238.5350241037
 31
0.0
  0
LINE
  5
90
330
84
100
AcDbEntity
  8
MEGA_001877
  6
CONTINUOUS
 62
     7
 48
25.4
100
AcDbLine
 10
134.0127657262
 20
54.5350241037
 30
0.0
 11
134.0127657262
 21
34.6918892707
 31
0.0
  0
LINE
  5
91
330
84
100
AcDbEntity
  8
MEGA_001877
  6
CONTINUOUS
 62
     7
 48
25.4
100
AcDbLine
 10
134.0127657262
 20
238.5350241037
 30
0.0
 11
134.0127657262
 21
54.5350241037
 31
0.0
  0
LINE
  5
92
330
84
100
AcDbEntity
  8
MEGA_002298
  6
CONTINUOUS
 62
     7
 48
25.4
100
AcDbLine
 10
131.5127657262
 20
178.5350241037
 30
0.0
 11
131.5127657262
 21
160.5350241037
 31
0.0
  0
ARC
  5
93
330
84
100
AcDbEntity
  8
MEGA_002298
  6
CONTINUOUS
 62
     7
 48
25.4
100
AcDbCircle
 10
138.6613922865
 20
179.1827571605
 30
0.0
 40
3.3513734398
100
AcDbArc
 50
0.0
 51
44.5781508306
  0
LINE
  5
94
330
84
100
AcDbEntity
  8
MEGA_002298
  6
CONTINUOUS
 62
     7
 48
25.4
100
AcDbLine
 10
134.0127657262
 20
178.5350241037
 30
0.0
 11
133.3728738951
 21
178.5350241037
 31
0.0
  0
ARC
  5
95
330
84
100
AcDbEntity
  8
MEGA_002298
  6
CONTINUOUS
 62
     7
 48
25.4
100
AcDbCircle
 10
138.6613922865
 20
159.8872910468
 30
0.0
 40
3.3513734398
100
AcDbArc
 50
315.4218491694
 51
360.0
  0
LINE
  5
96
330
84
100
AcDbEntity
  8
MEGA_002298
  6
CONTINUOUS
 62
     7
 48
25.4
100
AcDbLine
 10
141.0485546523
 20
181.5350241037
 30
0.0
 11
140.5127657262
 21
181.5350241037
 31
0.0
  0
LINE
  5
97
330
84
100
AcDbEntity
  8
MEGA_002298
  6
CONTINUOUS
 62
     7
 48
25.4
100
AcDbLine
 10
133.2819771046
 20
178.5350241037
 30
0.0
 11
131.5127657262
 21
178.5350241037
 31
0.0
  0
LINE
  5
98
330
84
100
AcDbEntity
  8
MEGA_002298
  6
CONTINUOUS
 62
     7
 48
25.4
100
AcDbLine
 10
133.3728738951
 20
160.5350241037
 30
0.0
 11
134.0127657262
 21
160.5350241037
 31
0.0
  0
LINE
  5
99
330
84
100
AcDbEntity
  8
MEGA_002298
  6
CONTINUOUS
 62
     7
 48
25.4
100
AcDbLine
 10
133.3273992146
 20
178.6182979721
 30
0.0
 11
133.2819771046
 21
178.5350241037
 31
0.0
  0
LINE
  5
9A
330
84
100
AcDbEntity
  8
MEGA_002298
  6
CONTINUOUS
 62
     7
 48
25.4
100
AcDbLine
 10
133.3273992146
 20
160.4517502352
 30
0.0
 11
133.3728738951
 21
160.5350241037
 31
0.0
  0
LINE
  5
9B
330
84
100
AcDbEntity
  8
MEGA_002298
  6
CONTINUOUS
 62
     7
 48
25.4
100
AcDbLine
 10
140.5127657262
 20
157.5350241037
 30
0.0
 11
141.0485546523
 21
157.5350241037
 31
0.0
  0
LINE
  5
9C
330
84
100
AcDbEntity
  8
MEGA_002298
  6
CONTINUOUS
 62
     7
 48
25.4
100
AcDbLine
 10
131.5127657262
 20
160.5350241037
 30
0.0
 11
133.2819771046
 21
160.5350241037
 31
0.0
  0
LINE
  5
9D
330
84
100
AcDbEntity
  8
MEGA_002298
  6
CONTINUOUS
 62
     7
 48
25.4
100
AcDbLine
 10
133.2819771046
 20
160.5350241037
 30
0.0
 11
133.3273992146
 21
160.4517502352
 31
0.0
  0
LINE
  5
9E
330
84
100
AcDbEntity
  8
MEGA_002298
  6
CONTINUOUS
 62
     7
 48
25.4
100
AcDbLine
 10
133.3728738951
 20
178.5350241037
 30
0.0
 11
133.3273992146
 21
178.6182979721
 31
0.0
  0
LINE
  5
9F
330
84
100
AcDbEntity
  8
MEGA_002298
  6
CONTINUOUS
 62
     7
 48
25.4
100
AcDbLine
 10
142.0127657262
 20
179.1827571605
 30
0.0
 11
142.0127657262
 21
159.8872910468
 31
0.0
  0
LINE
  5
A0
330
84
100
AcDbEntity
  8
MEGA_002298
  6
CONTINUOUS
 62
     7
 48
25.4
100
AcDbLine
 10
141.0485546523
 20
181.5350241037
 30
0.0
 11
141.0485546523
 21
157.5350241037
 31
0.0
  0
LINE
  5
A1
330
84
100
AcDbEntity
  8
MEGA_002298
  6
CONTINUOUS
 62
     7
 48
25.4
100
AcDbLine
 10
133.2819771046
 20
178.5350241037
 30
0.0
 11
133.2819771046
 21
160.5350241037
 31
0.0
  0
LINE
  5
A2
330
84
100
AcDbEntity
  8
MEGA_002298
  6
CONTINUOUS
 62
     7
 48
25.4
100
AcDbLine
 10
133.3273992146
 20
178.6182979721
 30
0.0
 11
133.3273992146
 21
160.4517502352
 31
0.0
  0
LINE
  5
A3
330
84
100
AcDbEntity
  8
MEGA_002298
  6
CONTINUOUS
 62
     7
 48
25.4
100
AcDbLine
 10
133.3728738951
 20
178.5350241037
 30
0.0
 11
133.3728738951
 21
160.5350241037
 31
0.0
  0
LINE
  5
A4
330
84
100
AcDbEntity
  8
MEGA_001062
  6
CONTINUOUS
 62
     7
 48
25.4
100
AcDbLine
 10
140.5127657262
 20
78.1675402523
 30
0.0
 11
147.5127657262
 21
78.1675402523
 31
0.0
  0
LINE
  5
A5
330
84
100
AcDbEntity
  8
MEGA_001062
  6
CONTINUOUS
 62
     7
 48
25.4
100
AcDbLine
 10
147.5127657262
 20
96.1675402523
 30
0.0
 11
140.5127657262
 21
96.1675402523
 31
0.0
  0
ARC
  5
A6
330
84
100
AcDbEntity
  8
MEGA_001062
  6
CONTINUOUS
 62
     7
 48
25.4
100
AcDbCircle
 10
147.5127657262
 20
76.1675402523
 30
0.0
 40
2.0
100
AcDbArc
 50
0.0
 51
90.0
  0
ARC
  5
A7
330
84
100
AcDbEntity
  8
MEGA_001062
  6
CONTINUOUS
 62
     7
 48
25.4
100
AcDbCircle
 10
147.5127657262
 20
98.1675402523
 30
0.0
 40
2.0
100
AcDbArc
 50
270.0
 51
360.0
  0
ARC
  5
A8
330
84
100
AcDbEntity
  8
MEGA_001062
  6
CONTINUOUS
 62
     7
 48
25.4
100
AcDbCircle
 10
154.5127657262
 20
102.1675402523
 30
0.0
 40
5.0
100
AcDbArc
 50
61.9275130641
 51
180.0
  0
LINE
  5
A9
330
84
100
AcDbEntity
  8
MEGA_001062
  6
CONTINUOUS
 62
     7
 48
25.4
100
AcDbLine
 10
149.5127657262
 20
96.9000578504
 30
0.0
 11
149.5127657262
 21
102.1675402523
 31
0.0
  0
ARC
  5
AA
330
84
100
AcDbEntity
  8
MEGA_001062
  6
CONTINUOUS
 62
     7
 48
25.4
100
AcDbCircle
 10
146.5127657262
 20
87.1675402523
 30
0.0
 40
22.0
100
AcDbArc
 50
298.0724869359
 51
61.9275130641
  0
ARC
  5
AB
330
84
100
AcDbEntity
  8
MEGA_001062
  6
CONTINUOUS
 62
     7
 48
25.4
100
AcDbCircle
 10
154.5127657262
 20
72.1675402523
 30
0.0
 40
5.0
100
AcDbArc
 50
180.0
 51
298.0724869359
  0
LINE
  5
AC
330
84
100
AcDbEntity
  8
MEGA_001062
  6
CONTINUOUS
 62
     7
 48
25.4
100
AcDbLine
 10
149.5127657262
 20
72.1675402523
 30
0.0
 11
149.5127657262
 21
77.4350226542
 31
0.0
  0
ENDBLK
  5
AE
330
84
100
AcDbEntity
  8
0
100
AcDbBlockEnd
  0
BLOCK
  5
B7
330
AF
100
AcDbEntity
  8
0
100
AcDbBlockBegin
  2
SE7
 70
     0
 71
     0
 10
0.0
 20
0.0
 30
0.0
  3
SE7
  1

  0
POLYLINE
  5
B1
330
AF
100
AcDbEntity
  8
STANDARD
  6
CONTINUOUS
 62
     7
 48
25.4
100
AcDb2dPolyline
 66
     1
 10
0.0
 20
0.0
 30
0.0
 70
     1
  0
VERTEX
  5
101
330
B1
100
AcDbEntity
  8
STANDARD
  6
CONTINUOUS
 62
     7
100
AcDbVertex
100
AcDb2dVertex
 10
143.5127657523
 20
273.1751341239
 30
0.0
  0
VERTEX
  5
102
330
B1
100
AcDbEntity
  8
STANDARD
  6
CONTINUOUS
 62
     7
100
AcDbVertex
100
AcDb2dVertex
 10
140.5127657262
 20
272.6751341195
 30
0.0
  0
VERTEX
  5
103
330
B1
100
AcDbEntity
  8
STANDARD
  6
CONTINUOUS
 62
     7
100
AcDbVertex
100
AcDb2dVertex
 10
143.5127657523
 20
272.1751341152
 30
0.0
  0
VERTEX
  5
104
330
B1
100
AcDbEntity
  8
STANDARD
  6
CONTINUOUS
 62
     7
100
AcDbVertex
100
AcDb2dVertex
 10
143.5127657523
 20
273.1751341239
 30
0.0
  0
SEQEND
  5
100
330
B1
100
AcDbEntity
  8
STANDARD
  6
CONTINUOUS
 62
     7
 48
25.4
  0
LINE
  5
B2
330
AF
100
AcDbEntity
  8
STANDARD
  6
CONTINUOUS
 62
     7
 48
25.4
100
AcDbLine
 10
134.0127657262
 20
258.5350236566
 30
0.0
 11
134.0127657262
 21
274.1751341326
 31
0.0
  0
LINE
  5
B3
330
AF
100
AcDbEntity
  8
STANDARD
  6
CONTINUOUS
 62
     7
 48
25.4
100
AcDbLine
 10
140.5127657262
 20
254.3010226162
 30
0.0
 11
140.5127657262
 21
274.1751341326
 31
0.0
  0
LINE
  5
B4
330
AF
100
AcDbEntity
  8
STANDARD
  6
CONTINUOUS
 62
     7
 48
25.4
100
AcDbLine
 10
128.0127656741
 20
272.6751341195
 30
0.0
 11
146.5127659125
 21
272.6751341195
 31
0.0
  0
TEXT
  5
B6
330
AF
100
AcDbEntity
  8
STANDARD
  6
CONTINUOUS
 62
     7
 48
25.4
100
AcDbText
 10
135.2173112478
 20
273.4251341195
 30
0.0
 40
3.0
  1
6,5
  7
SEACAD_SEISO_TTF
 11
135.2173112478
 21
276.4251341195
 31
0.0
100
AcDbText
 73
     3
  0
ENDBLK
  5
B8
330
AF
100
AcDbEntity
  8
0
100
AcDbBlockEnd
  0
BLOCK
  5
C1
330
B9
100
AcDbEntity
  8
0
100
AcDbBlockBegin
  2
SE8
 70
     0
 71
     0
 10
0.0
 20
0.0
 30
0.0
  3
SE8
  1

  0
POLYLINE
  5
BB
330
B9
100
AcDbEntity
  8
STANDARD
  6
CONTINUOUS
 62
     7
 48
25.4
100
AcDb2dPolyline
 66
     1
 10
0.0
 20
0.0
 30
0.0
 70
     1
  0
VERTEX
  5
106
330
BB
100
AcDbEntity
  8
STANDARD
  6
CONTINUOUS
 62
     7
100
AcDbVertex
100
AcDb2dVertex
 10
41.3595653898
 20
272.6793017104
 30
0.0
  0
VERTEX
  5
107
330
BB
100
AcDbEntity
  8
STANDARD
  6
CONTINUOUS
 62
     7
100
AcDbVertex
100
AcDb2dVertex
 10
38.3595653637
 20
272.1793017061
 30
0.0
  0
VERTEX
  5
108
330
BB
100
AcDbEntity
  8
STANDARD
  6
CONTINUOUS
 62
     7
100
AcDbVertex
100
AcDb2dVertex
 10
41.3595653898
 20
271.6793017017
 30
0.0
  0
VERTEX
  5
109
330
BB
100
AcDbEntity
  8
STANDARD
  6
CONTINUOUS
 62
     7
100
AcDbVertex
100
AcDb2dVertex
 10
41.3595653898
 20
272.6793017104
 30
0.0
  0
SEQEND
  5
105
330
BB
100
AcDbEntity
  8
STANDARD
  6
CONTINUOUS
 62
     7
 48
25.4
  0
POLYLINE
  5
BC
330
B9
100
AcDbEntity
  8
STANDARD
  6
CONTINUOUS
 62
     7
 48
25.4
100
AcDb2dPolyline
 66
     1
 10
0.0
 20
0.0
 30
0.0
 70
     1
  0
VERTEX
  5
10B
330
BC
100
AcDbEntity
  8
STANDARD
  6
CONTINUOUS
 62
     7
100
AcDbVertex
100
AcDb2dVertex
 10
75.3595653377
 20
272.6793017104
 30
0.0
  0
VERTEX
  5
10C
330
BC
100
AcDbEntity
  8
STANDARD
  6
CONTINUOUS
 62
     7
100
AcDbVertex
100
AcDb2dVertex
 10
78.3595653637
 20
272.1793017061
 30
0.0
  0
VERTEX
  5
10D
330
BC
100
AcDbEntity
  8
STANDARD
  6
CONTINUOUS
 62
     7
100
AcDbVertex
100
AcDb2dVertex
 10
75.3595653377
 20
271.6793017017
 30
0.0
  0
VERTEX
  5
10E
330
BC
100
AcDbEntity
  8
STANDARD
  6
CONTINUOUS
 62
     7
100
AcDbVertex
100
AcDb2dVertex
 10
75.3595653377
 20
272.6793017104
 30
0.0
  0
SEQEND
  5
10A
330
BC
100
AcDbEntity
  8
STANDARD
  6
CONTINUOUS
 62
     7
 48
25.4
  0
LINE
  5
BD
330
B9
100
AcDbEntity
  8
STANDARD
  6
CONTINUOUS
 62
     7
 48
25.4
100
AcDbLine
 10
38.3595653637
 20
238.5350241037
 30
0.0
 11
38.3595653637
 21
273.6793017191
 31
0.0
  0
LINE
  5
BE
330
B9
100
AcDbEntity
  8
STANDARD
  6
CONTINUOUS
 62
     7
 48
25.4
100
AcDbLine
 10
78.3595653637
 20
238.5350241037
 30
0.0
 11
78.3595653637
 21
273.6793017191
 31
0.0
  0
LINE
  5
BF
330
B9
100
AcDbEntity
  8
STANDARD
  6
CONTINUOUS
 62
     7
 48
25.4
100
AcDbLine
 10
38.3595653637
 20
272.1793017061
 30
0.0
 11
78.3595644697
 21
272.1793017061
 31
0.0
  0
TEXT
  5
C0
330
B9
100
AcDbEntity
  8
STANDARD
  6
CONTINUOUS
 62
     7
 48
25.4
100
AcDbText
 10
56.586837644
 20
272.9293017061
 30
0.0
 40
3.0
  1
40
  7
SEACAD_SEISO_TTF
 11
56.586837644
 21
275.9293017061
 31
0.0
100
AcDbText
 73
     3
  0
ENDBLK
  5
C2
330
B9
100
AcDbEntity
  8
0
100
AcDbBlockEnd
  0
BLOCK
  5
CB
330
C3
100
AcDbEntity
  8
0
100
AcDbBlockBegin
  2
SE9
 70
     0
 71
     0
 10
0.0
 20
0.0
 30
0.0
  3
SE9
  1

  0
POLYLINE
  5
C5
330
C3
100
AcDbEntity
  8
STANDARD
  6
CONTINUOUS
 62
     7
 48
25.4
100
AcDb2dPolyline
 66
     1
 10
0.0
 20
0.0
 30
0.0
 70
     1
  0
VERTEX
  5
110
330
C5
100
AcDbEntity
  8
STANDARD
  6
CONTINUOUS
 62
     7
100
AcDbVertex
100
AcDb2dVertex
 10
17.2622370884
 20
37.5350241297
 30
0.0
  0
VERTEX
  5
111
330
C5
100
AcDbEntity
  8
STANDARD
  6
CONTINUOUS
 62
     7
100
AcDbVertex
100
AcDb2dVertex
 10
17.7622370928
 20
34.5350241037
 30
0.0
  0
VERTEX
  5
112
330
C5
100
AcDbEntity
  8
STANDARD
  6
CONTINUOUS
 62
     7
100
AcDbVertex
100
AcDb2dVertex
 10
18.2622370971
 20
37.5350241297
 30
0.0
  0
VERTEX
  5
113
330
C5
100
AcDbEntity
  8
STANDARD
  6
CONTINUOUS
 62
     7
100
AcDbVertex
100
AcDb2dVertex
 10
17.2622370884
 20
37.5350241297
 30
0.0
  0
SEQEND
  5
10F
330
C5
100
AcDbEntity
  8
STANDARD
  6
CONTINUOUS
 62
     7
 48
25.4
  0
POLYLINE
  5
C6
330
C3
100
AcDbEntity
  8
STANDARD
  6
CONTINUOUS
 62
     7
 48
25.4
100
AcDb2dPolyline
 66
     1
 10
0.0
 20
0.0
 30
0.0
 70
     1
  0
VERTEX
  5
115
330
C6
100
AcDbEntity
  8
STANDARD
  6
CONTINUOUS
 62
     7
100
AcDbVertex
100
AcDb2dVertex
 10
17.2622370884
 20
255.5350240776
 30
0.0
  0
VERTEX
  5
116
330
C6
100
AcDbEntity
  8
STANDARD
  6
CONTINUOUS
 62
     7
100
AcDbVertex
100
AcDb2dVertex
 10
17.7622370928
 20
258.5350241037
 30
0.0
  0
VERTEX
  5
117
330
C6
100
AcDbEntity
  8
STANDARD
  6
CONTINUOUS
 62
     7
100
AcDbVertex
100
AcDb2dVertex
 10
18.2622370971
 20
255.5350240776
 30
0.0
  0
VERTEX
  5
118
330
C6
100
AcDbEntity
  8
STANDARD
  6
CONTINUOUS
 62
     7
100
AcDbVertex
100
AcDb2dVertex
 10
17.2622370884
 20
255.5350240776
 30
0.0
  0
SEQEND
  5
114
330
C6
100
AcDbEntity
  8
STANDARD
  6
CONTINUOUS
 62
     7
 48
25.4
  0
LINE
  5
C7
330
C3
100
AcDbEntity
  8
STANDARD
  6
CONTINUOUS
 62
     7
 48
25.4
100
AcDbLine
 10
55.1604226738
 20
34.5350241037
 30
0.0
 11
16.2622370798
 21
34.5350241037
 31
0.0
  0
LINE
  5
C8
330
C3
100
AcDbEntity
  8
STANDARD
  6
CONTINUOUS
 62
     7
 48
25.4
100
AcDbLine
 10
49.2800854216
 20
258.5350241037
 30
0.0
 11
16.2622370798
 21
258.5350241037
 31
0.0
  0
LINE
  5
C9
330
C3
100
AcDbEntity
  8
STANDARD
  6
CONTINUOUS
 62
     7
 48
25.4
100
AcDbLine
 10
17.7622370928
 20
34.5350241037
 30
0.0
 11
17.7622370928
 21
258.5350310178
 31
0.0
  0
TEXT
  5
CA
330
C3
100
AcDbEntity
  8
STANDARD
  6
CONTINUOUS
 62
     7
 48
25.4
100
AcDbText
 10
17.0122370928
 20
143.8077548335
 30
0.0
 40
3.0
  1
224
 50
90.0
  7
SEACAD_SEISO_TTF
 11
14.0122370928
 21
143.8077548335
 31
0.0
100
AcDbText
 73
     3
  0
ENDBLK
  5
CC
330
C3
100
AcDbEntity
  8
0
100
AcDbBlockEnd
  0
BLOCK
  5
D5
330
CD
100
AcDbEntity
  8
0
100
AcDbBlockBegin
  2
SE10
 70
     0
 71
     0
 10
0.0
 20
0.0
 30
0.0
  3
SE10
  1

  0
POLYLINE
  5
CF
330
CD
100
AcDbEntity
  8
STANDARD
  6
CONTINUOUS
 62
     7
 48
25.4
100
AcDb2dPolyline
 66
     1
 10
0.0
 20
0.0
 30
0.0
 70
     1
  0
VERTEX
  5
11A
330
CF
100
AcDbEntity
  8
STANDARD
  6
CONTINUOUS
 62
     7
100
AcDbVertex
100
AcDb2dVertex
 10
27.844931227
 20
172.5350241297
 30
0.0
  0
VERTEX
  5
11B
330
CF
100
AcDbEntity
  8
STANDARD
  6
CONTINUOUS
 62
     7
100
AcDbVertex
100
AcDb2dVertex
 10
28.3449312314
 20
169.5350241037
 30
0.0
  0
VERTEX
  5
11C
330
CF
100
AcDbEntity
  8
STANDARD
  6
CONTINUOUS
 62
     7
100
AcDbVertex
100
AcDb2dVertex
 10
28.8449312357
 20
172.5350241297
 30
0.0
  0
VERTEX
  5
11D
330
CF
100
AcDbEntity
  8
STANDARD
  6
CONTINUOUS
 62
     7
100
AcDbVertex
100
AcDb2dVertex
 10
27.844931227
 20
172.5350241297
 30
0.0
  0
SEQEND
  5
119
330
CF
100
AcDbEntity
  8
STANDARD
  6
CONTINUOUS
 62
     7
 48
25.4
  0
POLYLINE
  5
D0
330
CD
100
AcDbEntity
  8
STANDARD
  6
CONTINUOUS
 62
     7
 48
25.4
100
AcDb2dPolyline
 66
     1
 10
0.0
 20
0.0
 30
0.0
 70
     1
  0
VERTEX
  5
11F
330
D0
100
AcDbEntity
  8
STANDARD
  6
CONTINUOUS
 62
     7
100
AcDbVertex
100
AcDb2dVertex
 10
27.844931227
 20
255.5350240776
 30
0.0
  0
VERTEX
  5
120
330
D0
100
AcDbEntity
  8
STANDARD
  6
CONTINUOUS
 62
     7
100
AcDbVertex
100
AcDb2dVertex
 10
28.3449312314
 20
258.5350241037
 30
0.0
  0
VERTEX
  5
121
330
D0
100
AcDbEntity
  8
STANDARD
  6
CONTINUOUS
 62
     7
100
AcDbVertex
100
AcDb2dVertex
 10
28.8449312357
 20
255.5350240776
 30
0.0
  0
VERTEX
  5
122
330
D0
100
AcDbEntity
  8
STANDARD
  6
CONTINUOUS
 62
     7
100
AcDbVertex
100
AcDb2dVertex
 10
27.844931227
 20
255.5350240776
 30
0.0
  0
SEQEND
  5
11E
330
D0
100
AcDbEntity
  8
STANDARD
  6
CONTINUOUS
 62
     7
 48
25.4
  0
LINE
  5
D1
330
CD
100
AcDbEntity
  8
STANDARD
  6
CONTINUOUS
 62
     7
 48
25.4
100
AcDbLine
 10
58.3595653637
 20
169.5350241037
 30
0.0
 11
26.8449312183
 21
169.5350241037
 31
0.0
  0
LINE
  5
D2
330
CD
100
AcDbEntity
  8
STANDARD
  6
CONTINUOUS
 62
     7
 48
25.4
100
AcDbLine
 10
53.8198253927
 20
258.5350241037
 30
0.0
 11
26.8449312183
 21
258.5350241037
 31
0.0
  0
LINE
  5
D3
330
CD
100
AcDbEntity
  8
STANDARD
  6
CONTINUOUS
 62
     7
 48
25.4
100
AcDbLine
 10
28.3449312314
 20
169.5350241037
 30
0.0
 11
28.3449312314
 21
258.5350256534
 31
0.0
  0
TEXT
  5
D4
330
CD
100
AcDbEntity
  8
STANDARD
  6
CONTINUOUS
 62
     7
 48
25.4
100
AcDbText
 10
27.5949312314
 20
212.1600248785
 30
0.0
 40
3.0
  1
89
 50
90.0
  7
SEACAD_SEISO_TTF
 11
24.5949312314
 21
212.1600248785
 31
0.0
100
AcDbText
 73
     3
  0
ENDBLK
  5
D6
330
CD
100
AcDbEntity
  8
0
100
AcDbBlockEnd
  0
BLOCK
  5
DF
330
D7
100
AcDbEntity
  8
0
100
AcDbBlockBegin
  2
SE11
 70
     0
 71
     0
 10
0.0
 20
0.0
 30
0.0
  3
SE11
  1

  0
POLYLINE
  5
D9
330
D7
100
AcDbEntity
  8
STANDARD
  6
CONTINUOUS
 62
     7
 48
25.4
100
AcDb2dPolyline
 66
     1
 10
0.0
 20
0.0
 30
0.0
 70
     1
  0
VERTEX
  5
124
330
D9
100
AcDbEntity
  8
STANDARD
  6
CONTINUOUS
 62
     7
100
AcDbVertex
100
AcDb2dVertex
 10
183.6168137388
 20
90.1675402784
 30
0.0
  0
VERTEX
  5
125
330
D9
100
AcDbEntity
  8
STANDARD
  6
CONTINUOUS
 62
     7
100
AcDbVertex
100
AcDb2dVertex
 10
183.1168137345
 20
87.1675402523
 30
0.0
  0
VERTEX
  5
126
330
D9
100
AcDbEntity
  8
STANDARD
  6
CONTINUOUS
 62
     7
100
AcDbVertex
100
AcDb2dVertex
 10
182.6168137301
 20
90.1675402784
 30
0.0
  0
VERTEX
  5
127
330
D9
100
AcDbEntity
  8
STANDARD
  6
CONTINUOUS
 62
     7
100
AcDbVertex
100
AcDb2dVertex
 10
183.6168137388
 20
90.1675402784
 30
0.0
  0
SEQEND
  5
123
330
D9
100
AcDbEntity
  8
STANDARD
  6
CONTINUOUS
 62
     7
 48
25.4
  0
POLYLINE
  5
DA
330
D7
100
AcDbEntity
  8
STANDARD
  6
CONTINUOUS
 62
     7
 48
25.4
100
AcDb2dPolyline
 66
     1
 10
0.0
 20
0.0
 30
0.0
 70
     1
  0
VERTEX
  5
129
330
DA
100
AcDbEntity
  8
STANDARD
  6
CONTINUOUS
 62
     7
100
AcDbVertex
100
AcDb2dVertex
 10
183.6168137388
 20
255.5350240776
 30
0.0
  0
VERTEX
  5
12A
330
DA
100
AcDbEntity
  8
STANDARD
  6
CONTINUOUS
 62
     7
100
AcDbVertex
100
AcDb2dVertex
 10
183.1168137345
 20
258.5350241037
 30
0.0
  0
VERTEX
  5
12B
330
DA
100
AcDbEntity
  8
STANDARD
  6
CONTINUOUS
 62
     7
100
AcDbVertex
100
AcDb2dVertex
 10
182.6168137301
 20
255.5350240776
 30
0.0
  0
VERTEX
  5
12C
330
DA
100
AcDbEntity
  8
STANDARD
  6
CONTINUOUS
 62
     7
100
AcDbVertex
100
AcDb2dVertex
 10
183.6168137388
 20
255.5350240776
 30
0.0
  0
SEQEND
  5
128
330
DA
100
AcDbEntity
  8
STANDARD
  6
CONTINUOUS
 62
     7
 48
25.4
  0
LINE
  5
DB
330
D7
100
AcDbEntity
  8
STANDARD
  6
CONTINUOUS
 62
     7
 48
25.4
100
AcDbLine
 10
171.4294753823
 20
87.1675402523
 30
0.0
 11
184.6168137475
 21
87.1675402523
 31
0.0
  0
LINE
  5
DC
330
D7
100
AcDbEntity
  8
STANDARD
  6
CONTINUOUS
 62
     7
 48
25.4
100
AcDbLine
 10
134.0127657262
 20
258.5350241037
 30
0.0
 11
184.6168137475
 21
258.5350241037
 31
0.0
  0
LINE
  5
DD
330
D7
100
AcDbEntity
  8
STANDARD
  6
CONTINUOUS
 62
     7
 48
25.4
100
AcDbLine
 10
183.1168137345
 20
87.1675402523
 30
0.0
 11
183.1168137345
 21
258.5350216032
 31
0.0
  0
TEXT
  5
DE
330
D7
100
AcDbEntity
  8
STANDARD
  6
CONTINUOUS
 62
     7
 48
25.4
100
AcDbText
 10
182.3668137345
 20
170.6694627459
 30
0.0
 40
3.0
  1
171
 50
90.0
  7
SEACAD_SEISO_TTF
 11
179.3668137345
 21
170.6694627459
 31
0.0
100
AcDbText
 73
     3
  0
ENDBLK
  5
E0
330
D7
100
AcDbEntity
  8
0
100
AcDbBlockEnd
  0
BLOCK
  5
EA
330
E1
100
AcDbEntity
  8
0
100
AcDbBlockBegin
  2
SE12
 70
     0
 71
     0
 10
0.0
 20
0.0
 30
0.0
  3
SE12
  1

  0
POLYLINE
  5
E3
330
E1
100
AcDbEntity
  8
STANDARD
  6
CONTINUOUS
 62
     7
 48
25.4
100
AcDb2dPolyline
 66
     1
 10
0.0
 20
0.0
 30
0.0
 70
     1
  0
VERTEX
  5
12E
330
E3
100
AcDbEntity
  8
STANDARD
  6
CONTINUOUS
 62
     7
100
AcDbVertex
100
AcDb2dVertex
 10
95.1584589787
 20
164.5350257383
 30
0.0
  0
VERTEX
  5
12F
330
E3
100
AcDbEntity
  8
STANDARD
  6
CONTINUOUS
 62
     7
100
AcDbVertex
100
AcDb2dVertex
 10
94.6584591055
 20
161.5350256903
 30
0.0
  0
VERTEX
  5
130
330
E3
100
AcDbEntity
  8
STANDARD
  6
CONTINUOUS
 62
     7
100
AcDbVertex
100
AcDb2dVertex
 10
94.15845897
 20
164.5350256946
 30
0.0
  0
VERTEX
  5
131
330
E3
100
AcDbEntity
  8
STANDARD
  6
CONTINUOUS
 62
     7
100
AcDbVertex
100
AcDb2dVertex
 10
95.1584589787
 20
164.5350257383
 30
0.0
  0
SEQEND
  5
12D
330
E3
100
AcDbEntity
  8
STANDARD
  6
CONTINUOUS
 62
     7
 48
25.4
  0
POLYLINE
  5
E4
330
E1
100
AcDbEntity
  8
STANDARD
  6
CONTINUOUS
 62
     7
 48
25.4
100
AcDb2dPolyline
 66
     1
 10
0.0
 20
0.0
 30
0.0
 70
     1
  0
VERTEX
  5
133
330
E4
100
AcDbEntity
  8
STANDARD
  6
CONTINUOUS
 62
     7
100
AcDbVertex
100
AcDb2dVertex
 10
95.1584585416
 20
174.5350256861
 30
0.0
  0
VERTEX
  5
134
330
E4
100
AcDbEntity
  8
STANDARD
  6
CONTINUOUS
 62
     7
100
AcDbVertex
100
AcDb2dVertex
 10
94.6584584061
 20
177.5350256903
 30
0.0
  0
VERTEX
  5
135
330
E4
100
AcDbEntity
  8
STANDARD
  6
CONTINUOUS
 62
     7
100
AcDbVertex
100
AcDb2dVertex
 10
94.1584585329
 20
174.5350256424
 30
0.0
  0
VERTEX
  5
136
330
E4
100
AcDbEntity
  8
STANDARD
  6
CONTINUOUS
 62
     7
100
AcDbVertex
100
AcDb2dVertex
 10
95.1584585416
 20
174.5350256861
 30
0.0
  0
SEQEND
  5
132
330
E4
100
AcDbEntity
  8
STANDARD
  6
CONTINUOUS
 62
     7
 48
25.4
  0
LINE
  5
E5
330
E1
100
AcDbEntity
  8
STANDARD
  6
CONTINUOUS
 62
     7
 48
25.4
100
AcDbLine
 10
58.3595657134
 20
161.5350241037
 30
0.0
 11
96.1584591186
 21
161.5350257559
 31
0.0
  0
LINE
  5
E6
330
E1
100
AcDbEntity
  8
STANDARD
  6
CONTINUOUS
 62
     7
 48
25.4
100
AcDbLine
 10
58.359565014
 20
177.5350241037
 30
0.0
 11
96.1584584192
 21
177.5350257559
 31
0.0
  0
LINE
  5
E7
330
E1
100
AcDbEntity
  8
STANDARD
  6
CONTINUOUS
 62
     7
 48
25.4
100
AcDbLine
 10
94.6584591055
 20
161.5350256903
 30
0.0
 11
94.6584584061
 21
177.5350264503
 31
0.0
  0
TEXT
  5
E8
330
E1
100
AcDbEntity
  8
STANDARD
  6
CONTINUOUS
 62
     7
 48
25.4
100
AcDbText
 10
93.9084587558
 20
165.7372987976
 30
0.0
 40
3.0
  1
16
 50
90.0
  7
SEACAD_SEISO_TTF
 11
90.9084587558
 21
165.7372987976
 31
0.0
100
AcDbText
 73
     3
  0
TEXT
  5
E9
330
E1
100
AcDbEntity
  8
STANDARD
  6
CONTINUOUS
 62
     7
 48
25.4
100
AcDbText
 10
93.9084587558
 20
169.1054806158
 30
0.0
 40
3.0
  1
/18
 50
90.0
  7
SEACAD_SEISO_TTF
 11
90.9084587558
 21
169.1054806158
 31
0.0
100
AcDbText
 73
     3
  0
ENDBLK
  5
EB
330
E1
100
AcDbEntity
  8
0
100
AcDbBlockEnd
  0
BLOCK
  5
F4
330
EC
100
AcDbEntity
  8
0
100
AcDbBlockBegin
  2
SE13
 70
     0
 71
     0
 10
0.0
 20
0.0
 30
0.0
  3
SE13
  1

  0
POLYLINE
  5
EE
330
EC
100
AcDbEntity
  8
STANDARD
  6
CONTINUOUS
 62
     7
 48
25.4
100
AcDb2dPolyline
 66
     1
 10
0.0
 20
0.0
 30
0.0
 70
     1
  0
VERTEX
  5
138
330
EE
100
AcDbEntity
  8
STANDARD
  6
CONTINUOUS
 62
     7
100
AcDbVertex
100
AcDb2dVertex
 10
96.680303729
 20
104.1675402262
 30
0.0
  0
VERTEX
  5
139
330
EE
100
AcDbEntity
  8
STANDARD
  6
CONTINUOUS
 62
     7
100
AcDbVertex
100
AcDb2dVertex
 10
96.1803037247
 20
107.1675402523
 30
0.0
  0
VERTEX
  5
13A
330
EE
100
AcDbEntity
  8
STANDARD
  6
CONTINUOUS
 62
     7
100
AcDbVertex
100
AcDb2dVertex
 10
95.6803037203
 20
104.1675402262
 30
0.0
  0
VERTEX
  5
13B
330
EE
100
AcDbEntity
  8
STANDARD
  6
CONTINUOUS
 62
     7
100
AcDbVertex
100
AcDb2dVertex
 10
96.680303729
 20
104.1675402262
 30
0.0
  0
SEQEND
  5
137
330
EE
100
AcDbEntity
  8
STANDARD
  6
CONTINUOUS
 62
     7
 48
25.4
  0
POLYLINE
  5
EF
330
EC
100
AcDbEntity
  8
STANDARD
  6
CONTINUOUS
 62
     7
 48
25.4
100
AcDb2dPolyline
 66
     1
 10
0.0
 20
0.0
 30
0.0
 70
     1
  0
VERTEX
  5
13D
330
EF
100
AcDbEntity
  8
STANDARD
  6
CONTINUOUS
 62
     7
100
AcDbVertex
100
AcDb2dVertex
 10
96.680303729
 20
70.1675402784
 30
0.0
  0
VERTEX
  5
13E
330
EF
100
AcDbEntity
  8
STANDARD
  6
CONTINUOUS
 62
     7
100
AcDbVertex
100
AcDb2dVertex
 10
96.1803037247
 20
67.1675402523
 30
0.0
  0
VERTEX
  5
13F
330
EF
100
AcDbEntity
  8
STANDARD
  6
CONTINUOUS
 62
     7
100
AcDbVertex
100
AcDb2dVertex
 10
95.6803037203
 20
70.1675402784
 30
0.0
  0
VERTEX
  5
140
330
EF
100
AcDbEntity
  8
STANDARD
  6
CONTINUOUS
 62
     7
100
AcDbVertex
100
AcDb2dVertex
 10
96.680303729
 20
70.1675402784
 30
0.0
  0
SEQEND
  5
13C
330
EF
100
AcDbEntity
  8
STANDARD
  6
CONTINUOUS
 62
     7
 48
25.4
  0
LINE
  5
F0
330
EC
100
AcDbEntity
  8
STANDARD
  6
CONTINUOUS
 62
     7
 48
25.4
100
AcDbLine
 10
61.2803052684
 20
107.1675402523
 30
0.0
 11
97.6803037377
 21
107.1675402523
 31
0.0
  0
LINE
  5
F1
330
EC
100
AcDbEntity
  8
STANDARD
  6
CONTINUOUS
 62
     7
 48
25.4
100
AcDbLine
 10
61.279934368
 20
67.1675402523
 30
0.0
 11
97.6803037377
 21
67.1675402523
 31
0.0
  0
LINE
  5
F2
330
EC
100
AcDbEntity
  8
STANDARD
  6
CONTINUOUS
 62
     7
 48
25.4
100
AcDbLine
 10
96.1803037247
 20
107.1675402523
 30
0.0
 11
96.1803037247
 21
67.1675411464
 31
0.0
  0
TEXT
  5
F3
330
EC
100
AcDbEntity
  8
STANDARD
  6
CONTINUOUS
 62
     7
 48
25.4
100
AcDbText
 10
95.4303037247
 20
85.3948134266
 30
0.0
 40
3.0
  1
40
 50
90.0
  7
SEACAD_SEISO_TTF
 11
92.4303037247
 21
85.3948134266
 31
0.0
100
AcDbText
 73
     3
  0
ENDBLK
  5
F5
330
EC
100
AcDbEntity
  8
0
100
AcDbBlockEnd
  0
BLOCK
  5
FE
330
F6
100
AcDbEntity
  8
0
100
AcDbBlockBegin
  2
SE14
 70
     0
 71
     0
 10
0.0
 20
0.0
 30
0.0
  3
SE14
  1

  0
POLYLINE
  5
F8
330
F6
100
AcDbEntity
  8
STANDARD
  6
CONTINUOUS
 62
     7
 48
25.4
100
AcDb2dPolyline
 66
     1
 10
0.0
 20
0.0
 30
0.0
 70
     1
  0
VERTEX
  5
142
330
F8
100
AcDbEntity
  8
STANDARD
  6
CONTINUOUS
 62
     7
100
AcDbVertex
100
AcDb2dVertex
 10
143.5127657523
 20
19.6692173707
 30
0.0
  0
VERTEX
  5
143
330
F8
100
AcDbEntity
  8
STANDARD
  6
CONTINUOUS
 62
     7
100
AcDbVertex
100
AcDb2dVertex
 10
140.5127657262
 20
20.1692173751
 30
0.0
  0
VERTEX
  5
144
330
F8
100
AcDbEntity
  8
STANDARD
  6
CONTINUOUS
 62
     7
100
AcDbVertex
100
AcDb2dVertex
 10
143.5127657523
 20
20.6692173794
 30
0.0
  0
VERTEX
  5
145
330
F8
100
AcDbEntity
  8
STANDARD
  6
CONTINUOUS
 62
     7
100
AcDbVertex
100
AcDb2dVertex
 10
143.5127657523
 20
19.6692173707
 30
0.0
  0
SEQEND
  5
141
330
F8
100
AcDbEntity
  8
STANDARD
  6
CONTINUOUS
 62
     7
 48
25.4
  0
POLYLINE
  5
F9
330
F6
100
AcDbEntity
  8
STANDARD
  6
CONTINUOUS
 62
     7
 48
25.4
100
AcDb2dPolyline
 66
     1
 10
0.0
 20
0.0
 30
0.0
 70
     1
  0
VERTEX
  5
147
330
F9
100
AcDbEntity
  8
STANDARD
  6
CONTINUOUS
 62
     7
100
AcDbVertex
100
AcDb2dVertex
 10
165.5127657002
 20
19.6692173707
 30
0.0
  0
VERTEX
  5
148
330
F9
100
AcDbEntity
  8
STANDARD
  6
CONTINUOUS
 62
     7
100
AcDbVertex
100
AcDb2dVertex
 10
168.5127657262
 20
20.1692173751
 30
0.0
  0
VERTEX
  5
149
330
F9
100
AcDbEntity
  8
STANDARD
  6
CONTINUOUS
 62
     7
100
AcDbVertex
100
AcDb2dVertex
 10
165.5127657002
 20
20.6692173794
 30
0.0
  0
VERTEX
  5
14A
330
F9
100
AcDbEntity
  8
STANDARD
  6
CONTINUOUS
 62
     7
100
AcDbVertex
100
AcDb2dVertex
 10
165.5127657002
 20
19.6692173707
 30
0.0
  0
SEQEND
  5
146
330
F9
100
AcDbEntity
  8
STANDARD
  6
CONTINUOUS
 62
     7
 48
25.4
  0
LINE
  5
FA
330
F6
100
AcDbEntity
  8
STANDARD
  6
CONTINUOUS
 62
     7
 48
25.4
100
AcDbLine
 10
140.5127657262
 20
54.5350241037
 30
0.0
 11
140.5127657262
 21
18.669217362
 31
0.0
  0
LINE
  5
FB
330
F6
100
AcDbEntity
  8
STANDARD
  6
CONTINUOUS
 62
     7
 48
25.4
100
AcDbLine
 10
168.5127657262
 20
87.1675402523
 30
0.0
 11
168.5127657262
 21
18.669217362
 31
0.0
  0
LINE
  5
FC
330
F6
100
AcDbEntity
  8
STANDARD
  6
CONTINUOUS
 62
     7
 48
25.4
100
AcDbLine
 10
140.5127657262
 20
20.1692173751
 30
0.0
 11
168.5127665905
 21
20.1692173751
 31
0.0
  0
TEXT
  5
FD
330
F6
100
AcDbEntity
  8
STANDARD
  6
CONTINUOUS
 62
     7
 48
25.4
100
AcDbText
 10
152.6377661584
 20
20.9192173751
 30
0.0
 40
3.0
  1
28
  7
SEACAD_SEISO_TTF
 11
152.6377661584
 21
23.9192173751
 31
0.0
100
AcDbText
 73
     3
  0
ENDBLK
  5
FF
330
F6
100
AcDbEntity
  8
0
100
AcDbBlockEnd
  0
ENDSEC
  0
SECTION
  2
ENTITIES
  0
INSERT
  5
2F
330
1F
100
AcDbEntity
  8
0
100
AcDbBlockReference
  2
SE
 10
0.0
 20
0.0
 30
0.0
  0
INSERT
  5
36
330
1F
100
AcDbEntity
  8
0
100
AcDbBlockReference
  2
SE1
 10
0.0
 20
0.0
 30
0.0
  0
INSERT
  5
3B
330
1F
100
AcDbEntity
  8
0
100
AcDbBlockReference
  2
SE2
 10
0.0
 20
0.0
 30
0.0
  0
INSERT
  5
40
330
1F
100
AcDbEntity
  8
0
100
AcDbBlockReference
  2
SE3
 10
0.0
 20
0.0
 30
0.0
  0
INSERT
  5
4A
330
1F
100
AcDbEntity
  8
0
100
AcDbBlockReference
  2
SE4
 10
0.0
 20
0.0
 30
0.0
  0
INSERT
  5
4F
330
1F
100
AcDbEntity
  8
0
100
AcDbBlockReference
  2
SE5
 10
0.0
 20
0.0
 30
0.0
  0
INSERT
  5
85
330
1F
100
AcDbEntity
  8
0
100
AcDbBlockReference
  2
SE6
 10
0.0
 20
0.0
 30
0.0
  0
INSERT
  5
B0
330
1F
100
AcDbEntity
  8
0
100
AcDbBlockReference
  2
SE7
 10
0.0
 20
0.0
 30
0.0
  0
INSERT
  5
BA
330
1F
100
AcDbEntity
  8
0
100
AcDbBlockReference
  2
SE8
 10
0.0
 20
0.0
 30
0.0
  0
INSERT
  5
C4
330
1F
100
AcDbEntity
  8
0
100
AcDbBlockReference
  2
SE9
 10
0.0
 20
0.0
 30
0.0
  0
INSERT
  5
CE
330
1F
100
AcDbEntity
  8
0
100
AcDbBlockReference
  2
SE10
 10
0.0
 20
0.0
 30
0.0
  0
INSERT
  5
D8
330
1F
100
AcDbEntity
  8
0
100
AcDbBlockReference
  2
SE11
 10
0.0
 20
0.0
 30
0.0
  0
INSERT
  5
E2
330
1F
100
AcDbEntity
  8
0
100
AcDbBlockReference
  2
SE12
 10
0.0
 20
0.0
 30
0.0
  0
INSERT
  5
ED
330
1F
100
AcDbEntity
  8
0
100
AcDbBlockReference
  2
SE13
 10
0.0
 20
0.0
 30
0.0
  0
INSERT
  5
F7
330
1F
100
AcDbEntity
  8
0
100
AcDbBlockReference
  2
SE14
 10
0.0
 20
0.0
 30
0.0
  0
ENDSEC
  0
SECTION
  2
OBJECTS
  0
DICTIONARY
  5
C
330
0
100
AcDbDictionary
  3
ACAD_GROUP
350
D
  3
ACAD_LAYOUT
350
1A
  3
ACAD_MLINESTYLE
350
17
  3
ACAD_PLOTSETTINGS
350
19
  3
ACAD_TABLESTYLE
350
2A
  3
ACDBVARIABLEDICTIONARY
350
2C
1001
ACAD
1000
TREAT_AS_HARD
1070
     0
  0
DICTIONARY
  5
14B
330
29
100
AcDbDictionary
  3
ACAD_XREC_ROUNDTRIP
360
14C
  0
DICTIONARY
  5
D
102
{ACAD_REACTORS
330
C
102
}
330
C
100
AcDbDictionary
1001
ACAD
1000
TREAT_AS_HARD
1070
     0
  0
DICTIONARY
  5
1A
102
{ACAD_REACTORS
330
C
102
}
330
C
100
AcDbDictionary
1001
ACAD
1000
TREAT_AS_HARD
1070
     0
  0
DICTIONARY
  5
17
102
{ACAD_REACTORS
330
C
102
}
330
C
100
AcDbDictionary
  3
STANDARD
350
18
1001
ACAD
1000
TREAT_AS_HARD
1070
     0
  0
DICTIONARY
  5
19
102
{ACAD_REACTORS
330
C
102
}
330
C
100
AcDbDictionary
1001
ACAD
1000
TREAT_AS_HARD
1070
     0
  0
DICTIONARY
  5
2A
102
{ACAD_REACTORS
330
C
102
}
330
C
100
AcDbDictionary
  3
STANDARD
350
2B
1001
ACAD
1000
TREAT_AS_HARD
1070
     0
  0
DICTIONARY
  5
2C
102
{ACAD_REACTORS
330
C
102
}
330
C
100
AcDbDictionary
  3
CTABLESTYLE
350
2D
1001
ACAD
1000
TREAT_AS_HARD
1070
     0
  0
XRECORD
  5
14C
102
{ACAD_REACTORS
330
14B
102
}
330
14B
100
AcDbXrecord
102
UCS
 74
     0
 71
     1
 10
0.0
 20
0.0
 30
0.0
 10
1.0
 20
0.0
 30
0.0
 10
0.0
 20
1.0
 30
0.0
146
0.0
 79
     0
102
VIEW
281
     0
  0
MLINESTYLE
  5
18
102
{ACAD_REACTORS
330
17
102
}
330
17
100
AcDbMlineStyle
  2
Standard
 70
     0
  3

 62
   256
 51
90.0
 52
90.0
 71
     2
 49
0.5
 62
   256
  6
BYLAYER
 49
-0.5
 62
   256
  6
BYLAYER
  0
TABLESTYLE
  5
2B
102
{ACAD_REACTORS
330
2A
102
}
330
2A
100
AcDbTableStyle
  3
Standard
 70
     0
 71
     0
 40
0.06
 41
0.06
280
     0
281
     0
  7
STANDARD
140
0.18
170
     2
 62
     0
 63
     7
283
     0
274
    -2
284
     1
 64
     0
275
    -2
285
     1
 65
     0
276
    -2
286
     1
 66
     0
277
    -2
287
     1
 67
     0
278
    -2
288
     1
 68
     0
279
    -2
289
     1
 69
     0
  7
STANDARD
140
0.25
170
     5
 62
     0
 63
     7
283
     0
274
    -2
284
     1
 64
     0
275
    -2
285
     1
 65
     0
276
    -2
286
     1
 66
     0
277
    -2
287
     1
 67
     0
278
    -2
288
     1
 68
     0
279
    -2
289
     1
 69
     0
  7
STANDARD
140
0.18
170
     5
 62
     0
 63
     7
283
     0
274
    -2
284
     1
 64
     0
275
    -2
285
     1
 65
     0
276
    -2
286
     1
 66
     0
277
    -2
287
     1
 67
     0
278
    -2
288
     1
 68
     0
279
    -2
289
     1
 69
     0
  0
DICTIONARYVAR
  5
2D
102
{ACAD_REACTORS
330
2C
102
}
330
2C
100
DictionaryVariables
280
     0
  1
Standard
  0
ENDSEC
  0
EOF
